  0
SECTION
  2
HEADER
  9
$ACADVER
  1
AC1014
  9
$ACADMAINTVER
 70
               0
  9
$DWGCODEPAGE
  3
ANSI_932
  9
$INSBASE
 10
0.0
 20
0.0
 30
0.0
  9
$EXTMIN
 10
-152.27815533980583
 20
-136.11258038152886
 30
0.0
  9
$EXTMAX
 10
150.23689320388348
 20
309.10250171361082
 30
0.0
  9
$LIMMIN
 10
-161.73175060679614
 20
-150.02555169700196
  9
$LIMMAX
 10
159.69048847087379
 20
323.01547302908392
  9
$ORTHOMODE
 70
               0
  9
$REGENMODE
 70
               1
  9
$FILLMODE
 70
               1
  9
$QTEXTMODE
 70
               0
  9
$MIRRTEXT
 70
               1
  9
$DRAGMODE
 70
               2
  9
$LTSCALE
 40
1.0
  9
$OSMODE
 70
               0
  9
$ATTMODE
 70
               1
  9
$TEXTSIZE
 40
0.2
  9
$TRACEWID
 40
0.05
  9
$TEXTSTYLE
  7
STANDARD
  9
$CLAYER
  8
0
  9
$CELTYPE
  6
CONTINUOUS
  9
$CECOLOR
 62
             256
  9
$CELTSCALE
 40
1.0
  9
$DELOBJ
 70
               1
  9
$DISPSILH
 70
               0
  9
$DIMSCALE
 40
1.0
  9
$DIMASZ
 40
0.18
  9
$DIMEXO
 40
0.0625
  9
$DIMDLI
 40
0.38
  9
$DIMRND
 40
0.0
  9
$DIMDLE
 40
0.0
  9
$DIMEXE
 40
0.18
  9
$DIMTP
 40
0.0
  9
$DIMTM
 40
0.0
  9
$DIMTXT
 40
0.18
  9
$DIMCEN
 40
0.09
  9
$DIMTSZ
 40
0.0
  9
$DIMTOL
 70
               0
  9
$DIMLIM
 70
               0
  9
$DIMTIH
 70
               1
  9
$DIMTOH
 70
               1
  9
$DIMSE1
 70
               0
  9
$DIMSE2
 70
               0
  9
$DIMTAD
 70
               0
  9
$DIMZIN
 70
               0
  9
$DIMBLK
  1

  9
$DIMASO
 70
               1
  9
$DIMSHO
 70
               1
  9
$DIMPOST
  1

  9
$DIMAPOST
  1

  9
$DIMALT
 70
               0
  9
$DIMALTD
 70
               2
  9
$DIMALTF
 40
25.399999999999999
  9
$DIMLFAC
 40
1.0
  9
$DIMTOFL
 70
               0
  9
$DIMTVP
 40
0.0
  9
$DIMTIX
 70
               0
  9
$DIMSOXD
 70
               0
  9
$DIMSAH
 70
               0
  9
$DIMBLK1
  1

  9
$DIMBLK2
  1

  9
$DIMSTYLE
  2
STANDARD
  9
$DIMCLRD
 70
               0
  9
$DIMCLRE
 70
               0
  9
$DIMCLRT
 70
               0
  9
$DIMTFAC
 40
1.0
  9
$DIMGAP
 40
0.09
  9
$DIMJUST
 70
               0
  9
$DIMSD1
 70
               0
  9
$DIMSD2
 70
               0
  9
$DIMTOLJ
 70
               1
  9
$DIMTZIN
 70
               0
  9
$DIMALTZ
 70
               0
  9
$DIMALTTZ
 70
               0
  9
$DIMFIT
 70
               3
  9
$DIMUPT
 70
               0
  9
$DIMUNIT
 70
               2
  9
$DIMDEC
 70
               4
  9
$DIMTDEC
 70
               4
  9
$DIMALTU
 70
               2
  9
$DIMALTTD
 70
               2
  9
$DIMTXSTY
  7
STANDARD
  9
$DIMAUNIT
 70
               0
  9
$LUNITS
 70
               2
  9
$LUPREC
 70
               4
  9
$SKETCHINC
 40
0.1
  9
$FILLETRAD
 40
0.0
  9
$AUNITS
 70
               0
  9
$AUPREC
 70
               0
  9
$MENU
  1
acad
  9
$ELEVATION
 40
0.0
  9
$PELEVATION
 40
0.0
  9
$THICKNESS
 40
0.0
  9
$LIMCHECK
 70
               0
  9
$BLIPMODE
 70
               1
  9
$CHAMFERA
 40
0.0
  9
$CHAMFERB
 40
0.0
  9
$CHAMFERC
 40
0.0
  9
$CHAMFERD
 40
0.0
  9
$SKPOLY
 70
               0
  9
$TDCREATE
 40
0.000000000
  9
$TDUPDATE
 40
0.000000000
  9
$TDINDWG
 40
0.0000000000
  9
$TDUSRTIMER
 40
0.0000000000
  9
$USRTIMER
 70
               1
  9
$ANGBASE
 50
0.0
  9
$ANGDIR
 70
               0
  9
$PDMODE
 70
               0
  9
$PDSIZE
 40
1.0
  9
$PLINEWID
 40
0.0
  9
$COORDS
 70
               1
  9
$SPLFRAME
 70
               0
  9
$SPLINETYPE
 70
               6
  9
$SPLINESEGS
 70
               8
  9
$ATTDIA
 70
               0
  9
$ATTREQ
 70
               1
  9
$HANDLING
 70
               1
  9
$HANDSEED
  5
262
  9
$SURFTAB1
 70
               6
  9
$SURFTAB2
 70
               6
  9
$SURFTYPE
 70
               6
  9
$SURFU
 70
               6
  9
$SURFV
 70
               6
  9
$UCSNAME
  2

  9
$UCSORG
 10
0.0
 20
0.0
 30
0.0
  9
$UCSXDIR
 10
1.0
 20
0.0
 30
0.0
  9
$UCSYDIR
 10
0.0
 20
1.0
 30
0.0
  9
$PUCSNAME
  2

  9
$PUCSORG
 10
0.0
 20
0.0
 30
0.0
  9
$PUCSXDIR
 10
1.0
 20
0.0
 30
0.0
  9
$PUCSYDIR
 10
0.0
 20
1.0
 30
0.0
  9
$USERI1
 70
               0
  9
$USERI2
 70
               0
  9
$USERI3
 70
               0
  9
$USERI4
 70
               0
  9
$USERI5
 70
               0
  9
$USERR1
 40
0.0
  9
$USERR2
 40
0.0
  9
$USERR3
 40
0.0
  9
$USERR4
 40
0.0
  9
$USERR5
 40
0.0
  9
$WORLDVIEW
 70
               1
  9
$SHADEDGE
 70
               3
  9
$SHADEDIF
 70
              70
  9
$TILEMODE
 70
               1
  9
$MAXACTVP
 70
              16
  9
$PINSBASE
 10
0.0
 20
0.0
 30
0.0
  9
$PLIMCHECK
 70
               0
  9
$PEXTMIN
 10
1.0000000000000000E+20
 20
1.0000000000000000E+20
 30
1.0000000000000000E+20
  9
$PEXTMAX
 10
-1.0000000000000000E+20
 20
-1.0000000000000000E+20
 30
-1.0000000000000000E+20
  9
$PLIMMIN
 10
0.0
 20
0.0
  9
$PLIMMAX
 10
12.0
 20
9.0
  9
$UNITMODE
 70
               0
  9
$VISRETAIN
 70
               0
  9
$PLINEGEN
 70
               1
  9
$PSLTSCALE
 70
               0
  9
$TREEDEPTH
 70
            3020
  9
$PICKSTYLE
 70
               1
  9
$CMLSTYLE
  2
STANDARD
  9
$CMLJUST
 70
               0
  9
$CMLSCALE
 40
1.0
  9
$PROXYGRAPHICS
 70
               0
  9
$MEASUREMENT
 70
               0
  0
ENDSEC
  0
SECTION
  2
CLASSES
  0
CLASS
  1
LWPOLYLINE
  2
AcDbPolyline
  3
"AutoCAD"
 90
        0
280
               0
281
               1
  0
CLASS
  1
IMAGE
  2
AcDbRasterImage
  3
ISM
 90
      127
280
               0
281
               1
  0
CLASS
  1
OLE2FRAME
  2
AcDbOle2Frame
  3
""
 90
        0
280
               0
281
               1
  0
CLASS
  1
HATCH
  2
AcDbHatch
  3
"ACAD_SEDONA"
 90
        0
280
               0
281
               1
  0
CLASS
  1
DICTIONARYVAR
  2
AcDbDictionaryVar
  3
"AutoCAD"
 90
        0
280
               0
281
               0
  0
CLASS
  1
RASTERVARIABLES
  2
AcDbRasterVariables
  3
ISM
 90
        0
280
               0
281
               0
  0
CLASS
  1
IMAGEDEF
  2
AcDbRasterImageDef
  3
ISM
 90
        0
280
               0
281
               0
  0
CLASS
  1
IMAGEDEF_REACTOR
  2
AcDbRasterImageDefReactor
  3
ISM
 90
        1
280
               0
281
               0
  0
CLASS
  1
IDBUFFER
  2
AcDbIdBuffer
  3
"Acad"
 90
        0
280
               0
281
               0
  0
CLASS
  1
SPATIAL_FILTER
  2
AcDbSpatialFilter
  3
"Acad"
 90
        0
280
               0
281
               0
  0
CLASS
  1
XRECORD
  2
AcDbXrecord
  3
"<Built In>"
 90
        0
280
               0
281
               0
  0
CLASS
  1
SORTENTSTABLE
  2
AcDbSortentsTable
  3
"AutoCAD"
 90
        0
280
               0
281
               0
  0
CLASS
  1
LAYER_INDEX
  2
AcDbLayerIndex
  3
"Acad"
 90
        0
280
               0
281
               0
  0
CLASS
  1
SPATIAL_INDEX
  2
AcDbSpatialIndex
  3
"Acad"
 90
        0
280
               0
281
               0
  0
CLASS
  1
OBJECT_PTR
  2
CAseDLPNTableRecord
  3
"ASE-LPNTableRecord"
 90
        1
280
               0
281
               0
  0
ENDSEC
  0
SECTION
  2
TABLES
  0
TABLE
  2
VPORT
  5
7
100
AcDbSymbolTable
 70
               1
  0
VPORT
  5
15
100
AcDbSymbolTableRecord
100
AcDbViewportTableRecord
  2
*ACTIVE
 70
               0
 10
0.0
 20
0.0
 11
1.0
 21
1.0
 12
-1.0206310679611761
 22
86.494960666040981
 13
0.0
 23
0.0
 14
1.0
 24
1.0
 15
0.0
 25
0.0
 16
0.0
 26
0.0
 36
1.0
 17
0.0
 27
0.0
 37
0.0
 40
473.04102472608588
 41
0.6794806840776427
 42
50.0
 43
0.0
 44
0.0
 50
0.0
 51
0.0
 71
               0
 72
             100
 73
               1
 74
               1
 75
               0
 76
               0
 77
               0
 78
               0
  0
ENDTAB
  0
TABLE
  2
LTYPE
  5
4
100
AcDbSymbolTable
 70
              28
  0
LTYPE
  5
11
100
AcDbSymbolTableRecord
100
AcDbLinetypeTableRecord
  2
BYBLOCK
 70
               0
  3

 72
              65
 73
               0
 40
0.0
  0
LTYPE
  5
12
100
AcDbSymbolTableRecord
100
AcDbLinetypeTableRecord
  2
BYLAYER
 70
               0
  3

 72
              65
 73
               0
 40
0.0
  0
LTYPE
  5
13
100
AcDbSymbolTableRecord
100
AcDbLinetypeTableRecord
  2
CONTINUOUS
 70
               0
  3
Solid line
 72
              65
 73
               0
 40
0.0
  0
LTYPE
  5
1D
100
AcDbSymbolTableRecord
100
AcDbLinetypeTableRecord
  2
HIDDENX2
 70
               0
  3
CADPAC FUSION LINETYPE
 72
              65
 73
               2
 40
35.640000000000001
 49
26.73
 74
               0
 49
-8.9100000000000001
 74
               0
  0
LTYPE
  5
1E
100
AcDbSymbolTableRecord
100
AcDbLinetypeTableRecord
  2
HIDDEN
 70
               0
  3
CADPAC FUSION LINETYPE
 72
              65
 73
               2
 40
26.73
 49
17.82
 74
               0
 49
-8.9100000000000001
 74
               0
  0
LTYPE
  5
1F
100
AcDbSymbolTableRecord
100
AcDbLinetypeTableRecord
  2
HIDDEN2
 70
               0
  3
CADPAC FUSION LINETYPE
 72
              65
 73
               2
 40
22.274999999999999
 49
13.365
 74
               0
 49
-8.9100000000000001
 74
               0
  0
LTYPE
  5
20
100
AcDbSymbolTableRecord
100
AcDbLinetypeTableRecord
  2
DASHED
 70
               0
  3
CADPAC FUSION LINETYPE
 72
              65
 73
               2
 40
26.73
 49
17.82
 74
               0
 49
-8.9100000000000001
 74
               0
  0
LTYPE
  5
21
100
AcDbSymbolTableRecord
100
AcDbLinetypeTableRecord
  2
DASHED2
 70
               0
  3
CADPAC FUSION LINETYPE
 72
              65
 73
               2
 40
20.047499999999999
 49
13.365
 74
               0
 49
-6.6825000000000001
 74
               0
  0
LTYPE
  5
22
100
AcDbSymbolTableRecord
100
AcDbLinetypeTableRecord
  2
DASHEDX2
 70
               0
  3
CADPAC FUSION LINETYPE
 72
              65
 73
               2
 40
40.094999999999999
 49
26.73
 74
               0
 49
-13.365
 74
               0
  0
LTYPE
  5
23
100
AcDbSymbolTableRecord
100
AcDbLinetypeTableRecord
  2
DOTX2
 70
               0
  3
CADPAC FUSION LINETYPE
 72
              65
 73
               2
 40
11.137499999999999
 49
0.0
 74
               0
 49
-11.137499999999999
 74
               0
  0
LTYPE
  5
24
100
AcDbSymbolTableRecord
100
AcDbLinetypeTableRecord
  2
DOT
 70
               0
  3
CADPAC FUSION LINETYPE
 72
              65
 73
               2
 40
8.9100000000000001
 49
0.0
 74
               0
 49
-8.9100000000000001
 74
               0
  0
LTYPE
  5
25
100
AcDbSymbolTableRecord
100
AcDbLinetypeTableRecord
  2
DOTS
 70
               0
  3
CADPAC FUSION LINETYPE
 72
              65
 73
               2
 40
8.9100000000000001
 49
0.0
 74
               0
 49
-8.9100000000000001
 74
               0
  0
LTYPE
  5
26
100
AcDbSymbolTableRecord
100
AcDbLinetypeTableRecord
  2
DOT2
 70
               0
  3
CADPAC FUSION LINETYPE
 72
              65
 73
               2
 40
6.6825000000000001
 49
0.0
 74
               0
 49
-6.6825000000000001
 74
               0
  0
LTYPE
  5
27
100
AcDbSymbolTableRecord
100
AcDbLinetypeTableRecord
  2
CENTERX2
 70
               0
  3
CADPAC FUSION LINETYPE
 72
              65
 73
               4
 40
53.459999999999994
 49
22.274999999999999
 74
               0
 49
-11.137499999999999
 74
               0
 49
8.9100000000000001
 74
               0
 49
-11.137499999999999
 74
               0
  0
LTYPE
  5
28
100
AcDbSymbolTableRecord
100
AcDbLinetypeTableRecord
  2
CENTER
 70
               0
  3
CADPAC FUSION LINETYPE
 72
              65
 73
               4
 40
40.986000000000004
 49
17.82
 74
               0
 49
-8.9100000000000001
 74
               0
 49
5.3460000000000001
 74
               0
 49
-8.9100000000000001
 74
               0
  0
LTYPE
  5
29
100
AcDbSymbolTableRecord
100
AcDbLinetypeTableRecord
  2
CENTER2
 70
               0
  3
CADPAC FUSION LINETYPE
 72
              65
 73
               4
 40
28.512
 49
13.365
 74
               0
 49
-6.6825000000000001
 74
               0
 49
1.782
 74
               0
 49
-6.6825000000000001
 74
               0
  0
LTYPE
  5
2A
100
AcDbSymbolTableRecord
100
AcDbLinetypeTableRecord
  2
DASHDOTX2
 70
               0
  3
CADPAC FUSION LINETYPE
 72
              65
 73
               4
 40
44.549999999999997
 49
22.274999999999999
 74
               0
 49
-11.137499999999999
 74
               0
 49
0.0
 74
               0
 49
-11.137499999999999
 74
               0
  0
LTYPE
  5
2B
100
AcDbSymbolTableRecord
100
AcDbLinetypeTableRecord
  2
DASHDOT
 70
               0
  3
CADPAC FUSION LINETYPE
 72
              65
 73
               4
 40
35.640000000000001
 49
17.82
 74
               0
 49
-8.9100000000000001
 74
               0
 49
0.0
 74
               0
 49
-8.9100000000000001
 74
               0
  0
LTYPE
  5
2C
100
AcDbSymbolTableRecord
100
AcDbLinetypeTableRecord
  2
DASHDOT2
 70
               0
  3
CADPAC FUSION LINETYPE
 72
              65
 73
               4
 40
26.73
 49
13.365
 74
               0
 49
-6.6825000000000001
 74
               0
 49
0.0
 74
               0
 49
-6.6825000000000001
 74
               0
  0
LTYPE
  5
2D
100
AcDbSymbolTableRecord
100
AcDbLinetypeTableRecord
  2
DIVIDEX2
 70
               0
  3
CADPAC FUSION LINETYPE
 72
              65
 73
               6
 40
55.6875
 49
22.274999999999999
 74
               0
 49
-11.137499999999999
 74
               0
 49
0.0
 74
               0
 49
-11.137499999999999
 74
               0
 49
0.0
 74
               0
 49
-11.137499999999999
 74
               0
  0
LTYPE
  5
2E
100
AcDbSymbolTableRecord
100
AcDbLinetypeTableRecord
  2
DIVIDE
 70
               0
  3
CADPAC FUSION LINETYPE
 72
              65
 73
               6
 40
44.549999999999997
 49
17.82
 74
               0
 49
-8.9100000000000001
 74
               0
 49
0.0
 74
               0
 49
-8.9100000000000001
 74
               0
 49
0.0
 74
               0
 49
-8.9100000000000001
 74
               0
  0
LTYPE
  5
2F
100
AcDbSymbolTableRecord
100
AcDbLinetypeTableRecord
  2
DIVIDE2
 70
               0
  3
CADPAC FUSION LINETYPE
 72
              65
 73
               6
 40
33.412500000000001
 49
13.365
 74
               0
 49
-6.6825000000000001
 74
               0
 49
0.0
 74
               0
 49
-6.6825000000000001
 74
               0
 49
0.0
 74
               0
 49
-6.6825000000000001
 74
               0
  0
LTYPE
  5
30
100
AcDbSymbolTableRecord
100
AcDbLinetypeTableRecord
  2
BORDERX2
 70
               0
  3
CADPAC FUSION LINETYPE
 72
              65
 73
               6
 40
77.962499999999991
 49
22.274999999999999
 74
               0
 49
-11.137499999999999
 74
               0
 49
22.274999999999999
 74
               0
 49
-11.137499999999999
 74
               0
 49
0.0
 74
               0
 49
-11.137499999999999
 74
               0
  0
LTYPE
  5
31
100
AcDbSymbolTableRecord
100
AcDbLinetypeTableRecord
  2
BORDER
 70
               0
  3
CADPAC FUSION LINETYPE
 72
              65
 73
               6
 40
62.370000000000005
 49
17.82
 74
               0
 49
-8.9100000000000001
 74
               0
 49
17.82
 74
               0
 49
-8.9100000000000001
 74
               0
 49
0.0
 74
               0
 49
-8.9100000000000001
 74
               0
  0
LTYPE
  5
32
100
AcDbSymbolTableRecord
100
AcDbLinetypeTableRecord
  2
BORDER2
 70
               0
  3
CADPAC FUSION LINETYPE
 72
              65
 73
               6
 40
46.777499999999996
 49
13.365
 74
               0
 49
-6.6825000000000001
 74
               0
 49
13.365
 74
               0
 49
-6.6825000000000001
 74
               0
 49
0.0
 74
               0
 49
-6.6825000000000001
 74
               0
  0
LTYPE
  5
33
100
AcDbSymbolTableRecord
100
AcDbLinetypeTableRecord
  2
PHANTOMX2
 70
               0
  3
CADPAC FUSION LINETYPE
 72
              65
 73
               6
 40
66.824999999999989
 49
22.274999999999999
 74
               0
 49
-8.9100000000000001
 74
               0
 49
8.9100000000000001
 74
               0
 49
-8.9100000000000001
 74
               0
 49
8.9100000000000001
 74
               0
 49
-8.9100000000000001
 74
               0
  0
LTYPE
  5
34
100
AcDbSymbolTableRecord
100
AcDbLinetypeTableRecord
  2
PHANTOM
 70
               0
  3
CADPAC FUSION LINETYPE
 72
              65
 73
               6
 40
55.242000000000004
 49
17.82
 74
               0
 49
-8.9100000000000001
 74
               0
 49
5.3460000000000001
 74
               0
 49
-8.9100000000000001
 74
               0
 49
5.3460000000000001
 74
               0
 49
-8.9100000000000001
 74
               0
  0
LTYPE
  5
35
100
AcDbSymbolTableRecord
100
AcDbLinetypeTableRecord
  2
PHANTOM2
 70
               0
  3
CADPAC FUSION LINETYPE
 72
              65
 73
               6
 40
47.222999999999999
 49
13.365
 74
               0
 49
-8.9100000000000001
 74
               0
 49
3.5640000000000001
 74
               0
 49
-8.9100000000000001
 74
               0
 49
3.5640000000000001
 74
               0
 49
-8.9100000000000001
 74
               0
  0
ENDTAB
  0
TABLE
  2
LAYER
  5
2
100
AcDbSymbolTable
 70
             256
  0
LAYER
  5
14
100
AcDbSymbolTableRecord
100
AcDbLayerTableRecord
  2
0
 70
               0
 62
               7
  6
CONTINUOUS
  0
LAYER
  5
36
100
AcDbSymbolTableRecord
100
AcDbLayerTableRecord
  2
LAYER001
 70
               0
 62
               7
  6
CONTINUOUS
  0
LAYER
  5
37
100
AcDbSymbolTableRecord
100
AcDbLayerTableRecord
  2
LAYER002
 70
               0
 62
               7
  6
CONTINUOUS
  0
LAYER
  5
38
100
AcDbSymbolTableRecord
100
AcDbLayerTableRecord
  2
LAYER003
 70
               0
 62
               7
  6
CONTINUOUS
  0
LAYER
  5
39
100
AcDbSymbolTableRecord
100
AcDbLayerTableRecord
  2
LAYER004
 70
               0
 62
               7
  6
CONTINUOUS
  0
LAYER
  5
3A
100
AcDbSymbolTableRecord
100
AcDbLayerTableRecord
  2
LAYER005
 70
               0
 62
               7
  6
CONTINUOUS
  0
LAYER
  5
3B
100
AcDbSymbolTableRecord
100
AcDbLayerTableRecord
  2
LAYER006
 70
               0
 62
               7
  6
CONTINUOUS
  0
LAYER
  5
3C
100
AcDbSymbolTableRecord
100
AcDbLayerTableRecord
  2
LAYER007
 70
               0
 62
               7
  6
CONTINUOUS
  0
LAYER
  5
3D
100
AcDbSymbolTableRecord
100
AcDbLayerTableRecord
  2
LAYER008
 70
               0
 62
               7
  6
CONTINUOUS
  0
LAYER
  5
3E
100
AcDbSymbolTableRecord
100
AcDbLayerTableRecord
  2
LAYER009
 70
               0
 62
               7
  6
CONTINUOUS
  0
LAYER
  5
3F
100
AcDbSymbolTableRecord
100
AcDbLayerTableRecord
  2
LAYER010
 70
               0
 62
               7
  6
CONTINUOUS
  0
LAYER
  5
40
100
AcDbSymbolTableRecord
100
AcDbLayerTableRecord
  2
LAYER011
 70
               0
 62
               7
  6
CONTINUOUS
  0
LAYER
  5
41
100
AcDbSymbolTableRecord
100
AcDbLayerTableRecord
  2
LAYER012
 70
               0
 62
               7
  6
CONTINUOUS
  0
LAYER
  5
42
100
AcDbSymbolTableRecord
100
AcDbLayerTableRecord
  2
LAYER013
 70
               0
 62
               7
  6
CONTINUOUS
  0
LAYER
  5
43
100
AcDbSymbolTableRecord
100
AcDbLayerTableRecord
  2
LAYER014
 70
               0
 62
               7
  6
CONTINUOUS
  0
LAYER
  5
44
100
AcDbSymbolTableRecord
100
AcDbLayerTableRecord
  2
LAYER015
 70
               0
 62
               7
  6
CONTINUOUS
  0
LAYER
  5
45
100
AcDbSymbolTableRecord
100
AcDbLayerTableRecord
  2
LAYER016
 70
               0
 62
               7
  6
CONTINUOUS
  0
LAYER
  5
46
100
AcDbSymbolTableRecord
100
AcDbLayerTableRecord
  2
LAYER017
 70
               0
 62
               7
  6
CONTINUOUS
  0
LAYER
  5
47
100
AcDbSymbolTableRecord
100
AcDbLayerTableRecord
  2
LAYER018
 70
               0
 62
               7
  6
CONTINUOUS
  0
LAYER
  5
48
100
AcDbSymbolTableRecord
100
AcDbLayerTableRecord
  2
LAYER019
 70
               0
 62
               7
  6
CONTINUOUS
  0
LAYER
  5
49
100
AcDbSymbolTableRecord
100
AcDbLayerTableRecord
  2
LAYER020
 70
               0
 62
               7
  6
CONTINUOUS
  0
LAYER
  5
4A
100
AcDbSymbolTableRecord
100
AcDbLayerTableRecord
  2
LAYER021
 70
               0
 62
               7
  6
CONTINUOUS
  0
LAYER
  5
4B
100
AcDbSymbolTableRecord
100
AcDbLayerTableRecord
  2
LAYER022
 70
               0
 62
               7
  6
CONTINUOUS
  0
LAYER
  5
4C
100
AcDbSymbolTableRecord
100
AcDbLayerTableRecord
  2
LAYER023
 70
               0
 62
               7
  6
CONTINUOUS
  0
LAYER
  5
4D
100
AcDbSymbolTableRecord
100
AcDbLayerTableRecord
  2
LAYER024
 70
               0
 62
               7
  6
CONTINUOUS
  0
LAYER
  5
4E
100
AcDbSymbolTableRecord
100
AcDbLayerTableRecord
  2
LAYER025
 70
               0
 62
               7
  6
CONTINUOUS
  0
LAYER
  5
4F
100
AcDbSymbolTableRecord
100
AcDbLayerTableRecord
  2
LAYER026
 70
               0
 62
               7
  6
CONTINUOUS
  0
LAYER
  5
50
100
AcDbSymbolTableRecord
100
AcDbLayerTableRecord
  2
LAYER027
 70
               0
 62
               7
  6
CONTINUOUS
  0
LAYER
  5
51
100
AcDbSymbolTableRecord
100
AcDbLayerTableRecord
  2
LAYER028
 70
               0
 62
               7
  6
CONTINUOUS
  0
LAYER
  5
52
100
AcDbSymbolTableRecord
100
AcDbLayerTableRecord
  2
LAYER029
 70
               0
 62
               7
  6
CONTINUOUS
  0
LAYER
  5
53
100
AcDbSymbolTableRecord
100
AcDbLayerTableRecord
  2
LAYER030
 70
               0
 62
               7
  6
CONTINUOUS
  0
LAYER
  5
54
100
AcDbSymbolTableRecord
100
AcDbLayerTableRecord
  2
LAYER031
 70
               0
 62
               7
  6
CONTINUOUS
  0
LAYER
  5
55
100
AcDbSymbolTableRecord
100
AcDbLayerTableRecord
  2
LAYER032
 70
               0
 62
               7
  6
CONTINUOUS
  0
LAYER
  5
56
100
AcDbSymbolTableRecord
100
AcDbLayerTableRecord
  2
LAYER033
 70
               0
 62
               7
  6
CONTINUOUS
  0
LAYER
  5
57
100
AcDbSymbolTableRecord
100
AcDbLayerTableRecord
  2
LAYER034
 70
               0
 62
               7
  6
CONTINUOUS
  0
LAYER
  5
58
100
AcDbSymbolTableRecord
100
AcDbLayerTableRecord
  2
LAYER035
 70
               0
 62
               7
  6
CONTINUOUS
  0
LAYER
  5
59
100
AcDbSymbolTableRecord
100
AcDbLayerTableRecord
  2
LAYER036
 70
               0
 62
               7
  6
CONTINUOUS
  0
LAYER
  5
5A
100
AcDbSymbolTableRecord
100
AcDbLayerTableRecord
  2
LAYER037
 70
               0
 62
               7
  6
CONTINUOUS
  0
LAYER
  5
5B
100
AcDbSymbolTableRecord
100
AcDbLayerTableRecord
  2
LAYER038
 70
               0
 62
               7
  6
CONTINUOUS
  0
LAYER
  5
5C
100
AcDbSymbolTableRecord
100
AcDbLayerTableRecord
  2
LAYER039
 70
               0
 62
               7
  6
CONTINUOUS
  0
LAYER
  5
5D
100
AcDbSymbolTableRecord
100
AcDbLayerTableRecord
  2
LAYER040
 70
               0
 62
               7
  6
CONTINUOUS
  0
LAYER
  5
5E
100
AcDbSymbolTableRecord
100
AcDbLayerTableRecord
  2
LAYER041
 70
               0
 62
               7
  6
CONTINUOUS
  0
LAYER
  5
5F
100
AcDbSymbolTableRecord
100
AcDbLayerTableRecord
  2
LAYER042
 70
               0
 62
               7
  6
CONTINUOUS
  0
LAYER
  5
60
100
AcDbSymbolTableRecord
100
AcDbLayerTableRecord
  2
LAYER043
 70
               0
 62
               7
  6
CONTINUOUS
  0
LAYER
  5
61
100
AcDbSymbolTableRecord
100
AcDbLayerTableRecord
  2
LAYER044
 70
               0
 62
               7
  6
CONTINUOUS
  0
LAYER
  5
62
100
AcDbSymbolTableRecord
100
AcDbLayerTableRecord
  2
LAYER045
 70
               0
 62
               7
  6
CONTINUOUS
  0
LAYER
  5
63
100
AcDbSymbolTableRecord
100
AcDbLayerTableRecord
  2
LAYER046
 70
               0
 62
               7
  6
CONTINUOUS
  0
LAYER
  5
64
100
AcDbSymbolTableRecord
100
AcDbLayerTableRecord
  2
LAYER047
 70
               0
 62
               7
  6
CONTINUOUS
  0
LAYER
  5
65
100
AcDbSymbolTableRecord
100
AcDbLayerTableRecord
  2
LAYER048
 70
               0
 62
               7
  6
CONTINUOUS
  0
LAYER
  5
66
100
AcDbSymbolTableRecord
100
AcDbLayerTableRecord
  2
LAYER049
 70
               0
 62
               7
  6
CONTINUOUS
  0
LAYER
  5
67
100
AcDbSymbolTableRecord
100
AcDbLayerTableRecord
  2
LAYER050
 70
               0
 62
               7
  6
CONTINUOUS
  0
LAYER
  5
68
100
AcDbSymbolTableRecord
100
AcDbLayerTableRecord
  2
LAYER051
 70
               0
 62
               7
  6
CONTINUOUS
  0
LAYER
  5
69
100
AcDbSymbolTableRecord
100
AcDbLayerTableRecord
  2
LAYER052
 70
               0
 62
               7
  6
CONTINUOUS
  0
LAYER
  5
6A
100
AcDbSymbolTableRecord
100
AcDbLayerTableRecord
  2
LAYER053
 70
               0
 62
               7
  6
CONTINUOUS
  0
LAYER
  5
6B
100
AcDbSymbolTableRecord
100
AcDbLayerTableRecord
  2
LAYER054
 70
               0
 62
               7
  6
CONTINUOUS
  0
LAYER
  5
6C
100
AcDbSymbolTableRecord
100
AcDbLayerTableRecord
  2
LAYER055
 70
               0
 62
               7
  6
CONTINUOUS
  0
LAYER
  5
6D
100
AcDbSymbolTableRecord
100
AcDbLayerTableRecord
  2
LAYER056
 70
               0
 62
               7
  6
CONTINUOUS
  0
LAYER
  5
6E
100
AcDbSymbolTableRecord
100
AcDbLayerTableRecord
  2
LAYER057
 70
               0
 62
               7
  6
CONTINUOUS
  0
LAYER
  5
6F
100
AcDbSymbolTableRecord
100
AcDbLayerTableRecord
  2
LAYER058
 70
               0
 62
               7
  6
CONTINUOUS
  0
LAYER
  5
70
100
AcDbSymbolTableRecord
100
AcDbLayerTableRecord
  2
LAYER059
 70
               0
 62
               7
  6
CONTINUOUS
  0
LAYER
  5
71
100
AcDbSymbolTableRecord
100
AcDbLayerTableRecord
  2
LAYER060
 70
               0
 62
               7
  6
CONTINUOUS
  0
LAYER
  5
72
100
AcDbSymbolTableRecord
100
AcDbLayerTableRecord
  2
LAYER061
 70
               0
 62
               7
  6
CONTINUOUS
  0
LAYER
  5
73
100
AcDbSymbolTableRecord
100
AcDbLayerTableRecord
  2
LAYER062
 70
               0
 62
               7
  6
CONTINUOUS
  0
LAYER
  5
74
100
AcDbSymbolTableRecord
100
AcDbLayerTableRecord
  2
LAYER063
 70
               0
 62
               7
  6
CONTINUOUS
  0
LAYER
  5
75
100
AcDbSymbolTableRecord
100
AcDbLayerTableRecord
  2
LAYER064
 70
               0
 62
               7
  6
CONTINUOUS
  0
LAYER
  5
76
100
AcDbSymbolTableRecord
100
AcDbLayerTableRecord
  2
LAYER065
 70
               0
 62
               7
  6
CONTINUOUS
  0
LAYER
  5
77
100
AcDbSymbolTableRecord
100
AcDbLayerTableRecord
  2
LAYER066
 70
               0
 62
               7
  6
CONTINUOUS
  0
LAYER
  5
78
100
AcDbSymbolTableRecord
100
AcDbLayerTableRecord
  2
LAYER067
 70
               0
 62
               7
  6
CONTINUOUS
  0
LAYER
  5
79
100
AcDbSymbolTableRecord
100
AcDbLayerTableRecord
  2
LAYER068
 70
               0
 62
               7
  6
CONTINUOUS
  0
LAYER
  5
7A
100
AcDbSymbolTableRecord
100
AcDbLayerTableRecord
  2
LAYER069
 70
               0
 62
               7
  6
CONTINUOUS
  0
LAYER
  5
7B
100
AcDbSymbolTableRecord
100
AcDbLayerTableRecord
  2
LAYER070
 70
               0
 62
               7
  6
CONTINUOUS
  0
LAYER
  5
7C
100
AcDbSymbolTableRecord
100
AcDbLayerTableRecord
  2
LAYER071
 70
               0
 62
               7
  6
CONTINUOUS
  0
LAYER
  5
7D
100
AcDbSymbolTableRecord
100
AcDbLayerTableRecord
  2
LAYER072
 70
               0
 62
               7
  6
CONTINUOUS
  0
LAYER
  5
7E
100
AcDbSymbolTableRecord
100
AcDbLayerTableRecord
  2
LAYER073
 70
               0
 62
               7
  6
CONTINUOUS
  0
LAYER
  5
7F
100
AcDbSymbolTableRecord
100
AcDbLayerTableRecord
  2
LAYER074
 70
               0
 62
               7
  6
CONTINUOUS
  0
LAYER
  5
80
100
AcDbSymbolTableRecord
100
AcDbLayerTableRecord
  2
LAYER075
 70
               0
 62
               7
  6
CONTINUOUS
  0
LAYER
  5
81
100
AcDbSymbolTableRecord
100
AcDbLayerTableRecord
  2
LAYER076
 70
               0
 62
               7
  6
CONTINUOUS
  0
LAYER
  5
82
100
AcDbSymbolTableRecord
100
AcDbLayerTableRecord
  2
LAYER077
 70
               0
 62
               7
  6
CONTINUOUS
  0
LAYER
  5
83
100
AcDbSymbolTableRecord
100
AcDbLayerTableRecord
  2
LAYER078
 70
               0
 62
               7
  6
CONTINUOUS
  0
LAYER
  5
84
100
AcDbSymbolTableRecord
100
AcDbLayerTableRecord
  2
LAYER079
 70
               0
 62
               7
  6
CONTINUOUS
  0
LAYER
  5
85
100
AcDbSymbolTableRecord
100
AcDbLayerTableRecord
  2
LAYER080
 70
               0
 62
               7
  6
CONTINUOUS
  0
LAYER
  5
86
100
AcDbSymbolTableRecord
100
AcDbLayerTableRecord
  2
LAYER081
 70
               0
 62
               7
  6
CONTINUOUS
  0
LAYER
  5
87
100
AcDbSymbolTableRecord
100
AcDbLayerTableRecord
  2
LAYER082
 70
               0
 62
               7
  6
CONTINUOUS
  0
LAYER
  5
88
100
AcDbSymbolTableRecord
100
AcDbLayerTableRecord
  2
LAYER083
 70
               0
 62
               7
  6
CONTINUOUS
  0
LAYER
  5
89
100
AcDbSymbolTableRecord
100
AcDbLayerTableRecord
  2
LAYER084
 70
               0
 62
               7
  6
CONTINUOUS
  0
LAYER
  5
8A
100
AcDbSymbolTableRecord
100
AcDbLayerTableRecord
  2
LAYER085
 70
               0
 62
               7
  6
CONTINUOUS
  0
LAYER
  5
8B
100
AcDbSymbolTableRecord
100
AcDbLayerTableRecord
  2
LAYER086
 70
               0
 62
               7
  6
CONTINUOUS
  0
LAYER
  5
8C
100
AcDbSymbolTableRecord
100
AcDbLayerTableRecord
  2
LAYER087
 70
               0
 62
               7
  6
CONTINUOUS
  0
LAYER
  5
8D
100
AcDbSymbolTableRecord
100
AcDbLayerTableRecord
  2
LAYER088
 70
               0
 62
               7
  6
CONTINUOUS
  0
LAYER
  5
8E
100
AcDbSymbolTableRecord
100
AcDbLayerTableRecord
  2
LAYER089
 70
               0
 62
               7
  6
CONTINUOUS
  0
LAYER
  5
8F
100
AcDbSymbolTableRecord
100
AcDbLayerTableRecord
  2
LAYER090
 70
               0
 62
               7
  6
CONTINUOUS
  0
LAYER
  5
90
100
AcDbSymbolTableRecord
100
AcDbLayerTableRecord
  2
LAYER091
 70
               0
 62
               7
  6
CONTINUOUS
  0
LAYER
  5
91
100
AcDbSymbolTableRecord
100
AcDbLayerTableRecord
  2
LAYER092
 70
               0
 62
               7
  6
CONTINUOUS
  0
LAYER
  5
92
100
AcDbSymbolTableRecord
100
AcDbLayerTableRecord
  2
LAYER093
 70
               0
 62
               7
  6
CONTINUOUS
  0
LAYER
  5
93
100
AcDbSymbolTableRecord
100
AcDbLayerTableRecord
  2
LAYER094
 70
               0
 62
               7
  6
CONTINUOUS
  0
LAYER
  5
94
100
AcDbSymbolTableRecord
100
AcDbLayerTableRecord
  2
LAYER095
 70
               0
 62
               7
  6
CONTINUOUS
  0
LAYER
  5
95
100
AcDbSymbolTableRecord
100
AcDbLayerTableRecord
  2
LAYER096
 70
               0
 62
               7
  6
CONTINUOUS
  0
LAYER
  5
96
100
AcDbSymbolTableRecord
100
AcDbLayerTableRecord
  2
LAYER097
 70
               0
 62
               7
  6
CONTINUOUS
  0
LAYER
  5
97
100
AcDbSymbolTableRecord
100
AcDbLayerTableRecord
  2
LAYER098
 70
               0
 62
               7
  6
CONTINUOUS
  0
LAYER
  5
98
100
AcDbSymbolTableRecord
100
AcDbLayerTableRecord
  2
LAYER099
 70
               0
 62
               7
  6
CONTINUOUS
  0
LAYER
  5
99
100
AcDbSymbolTableRecord
100
AcDbLayerTableRecord
  2
LAYER100
 70
               0
 62
               7
  6
CONTINUOUS
  0
LAYER
  5
9A
100
AcDbSymbolTableRecord
100
AcDbLayerTableRecord
  2
LAYER101
 70
               0
 62
               7
  6
CONTINUOUS
  0
LAYER
  5
9B
100
AcDbSymbolTableRecord
100
AcDbLayerTableRecord
  2
LAYER102
 70
               0
 62
               7
  6
CONTINUOUS
  0
LAYER
  5
9C
100
AcDbSymbolTableRecord
100
AcDbLayerTableRecord
  2
LAYER103
 70
               0
 62
               7
  6
CONTINUOUS
  0
LAYER
  5
9D
100
AcDbSymbolTableRecord
100
AcDbLayerTableRecord
  2
LAYER104
 70
               0
 62
               7
  6
CONTINUOUS
  0
LAYER
  5
9E
100
AcDbSymbolTableRecord
100
AcDbLayerTableRecord
  2
LAYER105
 70
               0
 62
               7
  6
CONTINUOUS
  0
LAYER
  5
9F
100
AcDbSymbolTableRecord
100
AcDbLayerTableRecord
  2
LAYER106
 70
               0
 62
               7
  6
CONTINUOUS
  0
LAYER
  5
A0
100
AcDbSymbolTableRecord
100
AcDbLayerTableRecord
  2
LAYER107
 70
               0
 62
               7
  6
CONTINUOUS
  0
LAYER
  5
A1
100
AcDbSymbolTableRecord
100
AcDbLayerTableRecord
  2
LAYER108
 70
               0
 62
               7
  6
CONTINUOUS
  0
LAYER
  5
A2
100
AcDbSymbolTableRecord
100
AcDbLayerTableRecord
  2
LAYER109
 70
               0
 62
               7
  6
CONTINUOUS
  0
LAYER
  5
A3
100
AcDbSymbolTableRecord
100
AcDbLayerTableRecord
  2
LAYER110
 70
               0
 62
               7
  6
CONTINUOUS
  0
LAYER
  5
A4
100
AcDbSymbolTableRecord
100
AcDbLayerTableRecord
  2
LAYER111
 70
               0
 62
               7
  6
CONTINUOUS
  0
LAYER
  5
A5
100
AcDbSymbolTableRecord
100
AcDbLayerTableRecord
  2
LAYER112
 70
               0
 62
               7
  6
CONTINUOUS
  0
LAYER
  5
A6
100
AcDbSymbolTableRecord
100
AcDbLayerTableRecord
  2
LAYER113
 70
               0
 62
               7
  6
CONTINUOUS
  0
LAYER
  5
A7
100
AcDbSymbolTableRecord
100
AcDbLayerTableRecord
  2
LAYER114
 70
               0
 62
               7
  6
CONTINUOUS
  0
LAYER
  5
A8
100
AcDbSymbolTableRecord
100
AcDbLayerTableRecord
  2
LAYER115
 70
               0
 62
               7
  6
CONTINUOUS
  0
LAYER
  5
A9
100
AcDbSymbolTableRecord
100
AcDbLayerTableRecord
  2
LAYER116
 70
               0
 62
               7
  6
CONTINUOUS
  0
LAYER
  5
AA
100
AcDbSymbolTableRecord
100
AcDbLayerTableRecord
  2
LAYER117
 70
               0
 62
               7
  6
CONTINUOUS
  0
LAYER
  5
AB
100
AcDbSymbolTableRecord
100
AcDbLayerTableRecord
  2
LAYER118
 70
               0
 62
               7
  6
CONTINUOUS
  0
LAYER
  5
AC
100
AcDbSymbolTableRecord
100
AcDbLayerTableRecord
  2
LAYER119
 70
               0
 62
               7
  6
CONTINUOUS
  0
LAYER
  5
AD
100
AcDbSymbolTableRecord
100
AcDbLayerTableRecord
  2
LAYER120
 70
               0
 62
               7
  6
CONTINUOUS
  0
LAYER
  5
AE
100
AcDbSymbolTableRecord
100
AcDbLayerTableRecord
  2
LAYER121
 70
               0
 62
               7
  6
CONTINUOUS
  0
LAYER
  5
AF
100
AcDbSymbolTableRecord
100
AcDbLayerTableRecord
  2
LAYER122
 70
               0
 62
               7
  6
CONTINUOUS
  0
LAYER
  5
B0
100
AcDbSymbolTableRecord
100
AcDbLayerTableRecord
  2
LAYER123
 70
               0
 62
               7
  6
CONTINUOUS
  0
LAYER
  5
B1
100
AcDbSymbolTableRecord
100
AcDbLayerTableRecord
  2
LAYER124
 70
               0
 62
               7
  6
CONTINUOUS
  0
LAYER
  5
B2
100
AcDbSymbolTableRecord
100
AcDbLayerTableRecord
  2
LAYER125
 70
               0
 62
               7
  6
CONTINUOUS
  0
LAYER
  5
B3
100
AcDbSymbolTableRecord
100
AcDbLayerTableRecord
  2
LAYER126
 70
               0
 62
               7
  6
CONTINUOUS
  0
LAYER
  5
B4
100
AcDbSymbolTableRecord
100
AcDbLayerTableRecord
  2
LAYER127
 70
               0
 62
               7
  6
CONTINUOUS
  0
LAYER
  5
B5
100
AcDbSymbolTableRecord
100
AcDbLayerTableRecord
  2
LAYER128
 70
               0
 62
               7
  6
CONTINUOUS
  0
LAYER
  5
B6
100
AcDbSymbolTableRecord
100
AcDbLayerTableRecord
  2
LAYER129
 70
               0
 62
               7
  6
CONTINUOUS
  0
LAYER
  5
B7
100
AcDbSymbolTableRecord
100
AcDbLayerTableRecord
  2
LAYER130
 70
               0
 62
               7
  6
CONTINUOUS
  0
LAYER
  5
B8
100
AcDbSymbolTableRecord
100
AcDbLayerTableRecord
  2
LAYER131
 70
               0
 62
               7
  6
CONTINUOUS
  0
LAYER
  5
B9
100
AcDbSymbolTableRecord
100
AcDbLayerTableRecord
  2
LAYER132
 70
               0
 62
               7
  6
CONTINUOUS
  0
LAYER
  5
BA
100
AcDbSymbolTableRecord
100
AcDbLayerTableRecord
  2
LAYER133
 70
               0
 62
               7
  6
CONTINUOUS
  0
LAYER
  5
BB
100
AcDbSymbolTableRecord
100
AcDbLayerTableRecord
  2
LAYER134
 70
               0
 62
               7
  6
CONTINUOUS
  0
LAYER
  5
BC
100
AcDbSymbolTableRecord
100
AcDbLayerTableRecord
  2
LAYER135
 70
               0
 62
               7
  6
CONTINUOUS
  0
LAYER
  5
BD
100
AcDbSymbolTableRecord
100
AcDbLayerTableRecord
  2
LAYER136
 70
               0
 62
               7
  6
CONTINUOUS
  0
LAYER
  5
BE
100
AcDbSymbolTableRecord
100
AcDbLayerTableRecord
  2
LAYER137
 70
               0
 62
               7
  6
CONTINUOUS
  0
LAYER
  5
BF
100
AcDbSymbolTableRecord
100
AcDbLayerTableRecord
  2
LAYER138
 70
               0
 62
               7
  6
CONTINUOUS
  0
LAYER
  5
C0
100
AcDbSymbolTableRecord
100
AcDbLayerTableRecord
  2
LAYER139
 70
               0
 62
               7
  6
CONTINUOUS
  0
LAYER
  5
C1
100
AcDbSymbolTableRecord
100
AcDbLayerTableRecord
  2
LAYER140
 70
               0
 62
               7
  6
CONTINUOUS
  0
LAYER
  5
C2
100
AcDbSymbolTableRecord
100
AcDbLayerTableRecord
  2
LAYER141
 70
               0
 62
               7
  6
CONTINUOUS
  0
LAYER
  5
C3
100
AcDbSymbolTableRecord
100
AcDbLayerTableRecord
  2
LAYER142
 70
               0
 62
               7
  6
CONTINUOUS
  0
LAYER
  5
C4
100
AcDbSymbolTableRecord
100
AcDbLayerTableRecord
  2
LAYER143
 70
               0
 62
               7
  6
CONTINUOUS
  0
LAYER
  5
C5
100
AcDbSymbolTableRecord
100
AcDbLayerTableRecord
  2
LAYER144
 70
               0
 62
               7
  6
CONTINUOUS
  0
LAYER
  5
C6
100
AcDbSymbolTableRecord
100
AcDbLayerTableRecord
  2
LAYER145
 70
               0
 62
               7
  6
CONTINUOUS
  0
LAYER
  5
C7
100
AcDbSymbolTableRecord
100
AcDbLayerTableRecord
  2
LAYER146
 70
               0
 62
               7
  6
CONTINUOUS
  0
LAYER
  5
C8
100
AcDbSymbolTableRecord
100
AcDbLayerTableRecord
  2
LAYER147
 70
               0
 62
               7
  6
CONTINUOUS
  0
LAYER
  5
C9
100
AcDbSymbolTableRecord
100
AcDbLayerTableRecord
  2
LAYER148
 70
               0
 62
               7
  6
CONTINUOUS
  0
LAYER
  5
CA
100
AcDbSymbolTableRecord
100
AcDbLayerTableRecord
  2
LAYER149
 70
               0
 62
               7
  6
CONTINUOUS
  0
LAYER
  5
CB
100
AcDbSymbolTableRecord
100
AcDbLayerTableRecord
  2
LAYER150
 70
               0
 62
               7
  6
CONTINUOUS
  0
LAYER
  5
CC
100
AcDbSymbolTableRecord
100
AcDbLayerTableRecord
  2
LAYER151
 70
               0
 62
               7
  6
CONTINUOUS
  0
LAYER
  5
CD
100
AcDbSymbolTableRecord
100
AcDbLayerTableRecord
  2
LAYER152
 70
               0
 62
               7
  6
CONTINUOUS
  0
LAYER
  5
CE
100
AcDbSymbolTableRecord
100
AcDbLayerTableRecord
  2
LAYER153
 70
               0
 62
               7
  6
CONTINUOUS
  0
LAYER
  5
CF
100
AcDbSymbolTableRecord
100
AcDbLayerTableRecord
  2
LAYER154
 70
               0
 62
               7
  6
CONTINUOUS
  0
LAYER
  5
D0
100
AcDbSymbolTableRecord
100
AcDbLayerTableRecord
  2
LAYER155
 70
               0
 62
               7
  6
CONTINUOUS
  0
LAYER
  5
D1
100
AcDbSymbolTableRecord
100
AcDbLayerTableRecord
  2
LAYER156
 70
               0
 62
               7
  6
CONTINUOUS
  0
LAYER
  5
D2
100
AcDbSymbolTableRecord
100
AcDbLayerTableRecord
  2
LAYER157
 70
               0
 62
               7
  6
CONTINUOUS
  0
LAYER
  5
D3
100
AcDbSymbolTableRecord
100
AcDbLayerTableRecord
  2
LAYER158
 70
               0
 62
               7
  6
CONTINUOUS
  0
LAYER
  5
D4
100
AcDbSymbolTableRecord
100
AcDbLayerTableRecord
  2
LAYER159
 70
               0
 62
               7
  6
CONTINUOUS
  0
LAYER
  5
D5
100
AcDbSymbolTableRecord
100
AcDbLayerTableRecord
  2
LAYER160
 70
               0
 62
               7
  6
CONTINUOUS
  0
LAYER
  5
D6
100
AcDbSymbolTableRecord
100
AcDbLayerTableRecord
  2
LAYER161
 70
               0
 62
               7
  6
CONTINUOUS
  0
LAYER
  5
D7
100
AcDbSymbolTableRecord
100
AcDbLayerTableRecord
  2
LAYER162
 70
               0
 62
               7
  6
CONTINUOUS
  0
LAYER
  5
D8
100
AcDbSymbolTableRecord
100
AcDbLayerTableRecord
  2
LAYER163
 70
               0
 62
               7
  6
CONTINUOUS
  0
LAYER
  5
D9
100
AcDbSymbolTableRecord
100
AcDbLayerTableRecord
  2
LAYER164
 70
               0
 62
               7
  6
CONTINUOUS
  0
LAYER
  5
DA
100
AcDbSymbolTableRecord
100
AcDbLayerTableRecord
  2
LAYER165
 70
               0
 62
               7
  6
CONTINUOUS
  0
LAYER
  5
DB
100
AcDbSymbolTableRecord
100
AcDbLayerTableRecord
  2
LAYER166
 70
               0
 62
               7
  6
CONTINUOUS
  0
LAYER
  5
DC
100
AcDbSymbolTableRecord
100
AcDbLayerTableRecord
  2
LAYER167
 70
               0
 62
               7
  6
CONTINUOUS
  0
LAYER
  5
DD
100
AcDbSymbolTableRecord
100
AcDbLayerTableRecord
  2
LAYER168
 70
               0
 62
               7
  6
CONTINUOUS
  0
LAYER
  5
DE
100
AcDbSymbolTableRecord
100
AcDbLayerTableRecord
  2
LAYER169
 70
               0
 62
               7
  6
CONTINUOUS
  0
LAYER
  5
DF
100
AcDbSymbolTableRecord
100
AcDbLayerTableRecord
  2
LAYER170
 70
               0
 62
               7
  6
CONTINUOUS
  0
LAYER
  5
E0
100
AcDbSymbolTableRecord
100
AcDbLayerTableRecord
  2
LAYER171
 70
               0
 62
               7
  6
CONTINUOUS
  0
LAYER
  5
E1
100
AcDbSymbolTableRecord
100
AcDbLayerTableRecord
  2
LAYER172
 70
               0
 62
               7
  6
CONTINUOUS
  0
LAYER
  5
E2
100
AcDbSymbolTableRecord
100
AcDbLayerTableRecord
  2
LAYER173
 70
               0
 62
               7
  6
CONTINUOUS
  0
LAYER
  5
E3
100
AcDbSymbolTableRecord
100
AcDbLayerTableRecord
  2
LAYER174
 70
               0
 62
               7
  6
CONTINUOUS
  0
LAYER
  5
E4
100
AcDbSymbolTableRecord
100
AcDbLayerTableRecord
  2
LAYER175
 70
               0
 62
               7
  6
CONTINUOUS
  0
LAYER
  5
E5
100
AcDbSymbolTableRecord
100
AcDbLayerTableRecord
  2
LAYER176
 70
               0
 62
               7
  6
CONTINUOUS
  0
LAYER
  5
E6
100
AcDbSymbolTableRecord
100
AcDbLayerTableRecord
  2
LAYER177
 70
               0
 62
               7
  6
CONTINUOUS
  0
LAYER
  5
E7
100
AcDbSymbolTableRecord
100
AcDbLayerTableRecord
  2
LAYER178
 70
               0
 62
               7
  6
CONTINUOUS
  0
LAYER
  5
E8
100
AcDbSymbolTableRecord
100
AcDbLayerTableRecord
  2
LAYER179
 70
               0
 62
               7
  6
CONTINUOUS
  0
LAYER
  5
E9
100
AcDbSymbolTableRecord
100
AcDbLayerTableRecord
  2
LAYER180
 70
               0
 62
               7
  6
CONTINUOUS
  0
LAYER
  5
EA
100
AcDbSymbolTableRecord
100
AcDbLayerTableRecord
  2
LAYER181
 70
               0
 62
               7
  6
CONTINUOUS
  0
LAYER
  5
EB
100
AcDbSymbolTableRecord
100
AcDbLayerTableRecord
  2
LAYER182
 70
               0
 62
               7
  6
CONTINUOUS
  0
LAYER
  5
EC
100
AcDbSymbolTableRecord
100
AcDbLayerTableRecord
  2
LAYER183
 70
               0
 62
               7
  6
CONTINUOUS
  0
LAYER
  5
ED
100
AcDbSymbolTableRecord
100
AcDbLayerTableRecord
  2
LAYER184
 70
               0
 62
               7
  6
CONTINUOUS
  0
LAYER
  5
EE
100
AcDbSymbolTableRecord
100
AcDbLayerTableRecord
  2
LAYER185
 70
               0
 62
               7
  6
CONTINUOUS
  0
LAYER
  5
EF
100
AcDbSymbolTableRecord
100
AcDbLayerTableRecord
  2
LAYER186
 70
               0
 62
               7
  6
CONTINUOUS
  0
LAYER
  5
F0
100
AcDbSymbolTableRecord
100
AcDbLayerTableRecord
  2
LAYER187
 70
               0
 62
               7
  6
CONTINUOUS
  0
LAYER
  5
F1
100
AcDbSymbolTableRecord
100
AcDbLayerTableRecord
  2
LAYER188
 70
               0
 62
               7
  6
CONTINUOUS
  0
LAYER
  5
F2
100
AcDbSymbolTableRecord
100
AcDbLayerTableRecord
  2
LAYER189
 70
               0
 62
               7
  6
CONTINUOUS
  0
LAYER
  5
F3
100
AcDbSymbolTableRecord
100
AcDbLayerTableRecord
  2
LAYER190
 70
               0
 62
               7
  6
CONTINUOUS
  0
LAYER
  5
F4
100
AcDbSymbolTableRecord
100
AcDbLayerTableRecord
  2
LAYER191
 70
               0
 62
               7
  6
CONTINUOUS
  0
LAYER
  5
F5
100
AcDbSymbolTableRecord
100
AcDbLayerTableRecord
  2
LAYER192
 70
               0
 62
               7
  6
CONTINUOUS
  0
LAYER
  5
F6
100
AcDbSymbolTableRecord
100
AcDbLayerTableRecord
  2
LAYER193
 70
               0
 62
               7
  6
CONTINUOUS
  0
LAYER
  5
F7
100
AcDbSymbolTableRecord
100
AcDbLayerTableRecord
  2
LAYER194
 70
               0
 62
               7
  6
CONTINUOUS
  0
LAYER
  5
F8
100
AcDbSymbolTableRecord
100
AcDbLayerTableRecord
  2
LAYER195
 70
               0
 62
               7
  6
CONTINUOUS
  0
LAYER
  5
F9
100
AcDbSymbolTableRecord
100
AcDbLayerTableRecord
  2
LAYER196
 70
               0
 62
               7
  6
CONTINUOUS
  0
LAYER
  5
FA
100
AcDbSymbolTableRecord
100
AcDbLayerTableRecord
  2
LAYER197
 70
               0
 62
               7
  6
CONTINUOUS
  0
LAYER
  5
FB
100
AcDbSymbolTableRecord
100
AcDbLayerTableRecord
  2
LAYER198
 70
               0
 62
               7
  6
CONTINUOUS
  0
LAYER
  5
FC
100
AcDbSymbolTableRecord
100
AcDbLayerTableRecord
  2
LAYER199
 70
               0
 62
               7
  6
CONTINUOUS
  0
LAYER
  5
FD
100
AcDbSymbolTableRecord
100
AcDbLayerTableRecord
  2
LAYER200
 70
               0
 62
               7
  6
CONTINUOUS
  0
LAYER
  5
FE
100
AcDbSymbolTableRecord
100
AcDbLayerTableRecord
  2
LAYER201
 70
               0
 62
               7
  6
CONTINUOUS
  0
LAYER
  5
FF
100
AcDbSymbolTableRecord
100
AcDbLayerTableRecord
  2
LAYER202
 70
               0
 62
               7
  6
CONTINUOUS
  0
LAYER
  5
100
100
AcDbSymbolTableRecord
100
AcDbLayerTableRecord
  2
LAYER203
 70
               0
 62
               7
  6
CONTINUOUS
  0
LAYER
  5
101
100
AcDbSymbolTableRecord
100
AcDbLayerTableRecord
  2
LAYER204
 70
               0
 62
               7
  6
CONTINUOUS
  0
LAYER
  5
102
100
AcDbSymbolTableRecord
100
AcDbLayerTableRecord
  2
LAYER205
 70
               0
 62
               7
  6
CONTINUOUS
  0
LAYER
  5
103
100
AcDbSymbolTableRecord
100
AcDbLayerTableRecord
  2
LAYER206
 70
               0
 62
               7
  6
CONTINUOUS
  0
LAYER
  5
104
100
AcDbSymbolTableRecord
100
AcDbLayerTableRecord
  2
LAYER207
 70
               0
 62
               7
  6
CONTINUOUS
  0
LAYER
  5
105
100
AcDbSymbolTableRecord
100
AcDbLayerTableRecord
  2
LAYER208
 70
               0
 62
               7
  6
CONTINUOUS
  0
LAYER
  5
106
100
AcDbSymbolTableRecord
100
AcDbLayerTableRecord
  2
LAYER209
 70
               0
 62
               7
  6
CONTINUOUS
  0
LAYER
  5
107
100
AcDbSymbolTableRecord
100
AcDbLayerTableRecord
  2
LAYER210
 70
               0
 62
               7
  6
CONTINUOUS
  0
LAYER
  5
108
100
AcDbSymbolTableRecord
100
AcDbLayerTableRecord
  2
LAYER211
 70
               0
 62
               7
  6
CONTINUOUS
  0
LAYER
  5
109
100
AcDbSymbolTableRecord
100
AcDbLayerTableRecord
  2
LAYER212
 70
               0
 62
               7
  6
CONTINUOUS
  0
LAYER
  5
10A
100
AcDbSymbolTableRecord
100
AcDbLayerTableRecord
  2
LAYER213
 70
               0
 62
               7
  6
CONTINUOUS
  0
LAYER
  5
10B
100
AcDbSymbolTableRecord
100
AcDbLayerTableRecord
  2
LAYER214
 70
               0
 62
               7
  6
CONTINUOUS
  0
LAYER
  5
10C
100
AcDbSymbolTableRecord
100
AcDbLayerTableRecord
  2
LAYER215
 70
               0
 62
               7
  6
CONTINUOUS
  0
LAYER
  5
10D
100
AcDbSymbolTableRecord
100
AcDbLayerTableRecord
  2
LAYER216
 70
               0
 62
               7
  6
CONTINUOUS
  0
LAYER
  5
10E
100
AcDbSymbolTableRecord
100
AcDbLayerTableRecord
  2
LAYER217
 70
               0
 62
               7
  6
CONTINUOUS
  0
LAYER
  5
10F
100
AcDbSymbolTableRecord
100
AcDbLayerTableRecord
  2
LAYER218
 70
               0
 62
               7
  6
CONTINUOUS
  0
LAYER
  5
110
100
AcDbSymbolTableRecord
100
AcDbLayerTableRecord
  2
LAYER219
 70
               0
 62
               7
  6
CONTINUOUS
  0
LAYER
  5
111
100
AcDbSymbolTableRecord
100
AcDbLayerTableRecord
  2
LAYER220
 70
               0
 62
               7
  6
CONTINUOUS
  0
LAYER
  5
112
100
AcDbSymbolTableRecord
100
AcDbLayerTableRecord
  2
LAYER221
 70
               0
 62
               7
  6
CONTINUOUS
  0
LAYER
  5
113
100
AcDbSymbolTableRecord
100
AcDbLayerTableRecord
  2
LAYER222
 70
               0
 62
               7
  6
CONTINUOUS
  0
LAYER
  5
114
100
AcDbSymbolTableRecord
100
AcDbLayerTableRecord
  2
LAYER223
 70
               0
 62
               7
  6
CONTINUOUS
  0
LAYER
  5
115
100
AcDbSymbolTableRecord
100
AcDbLayerTableRecord
  2
LAYER224
 70
               0
 62
               7
  6
CONTINUOUS
  0
LAYER
  5
116
100
AcDbSymbolTableRecord
100
AcDbLayerTableRecord
  2
LAYER225
 70
               0
 62
               7
  6
CONTINUOUS
  0
LAYER
  5
117
100
AcDbSymbolTableRecord
100
AcDbLayerTableRecord
  2
LAYER226
 70
               0
 62
               7
  6
CONTINUOUS
  0
LAYER
  5
118
100
AcDbSymbolTableRecord
100
AcDbLayerTableRecord
  2
LAYER227
 70
               0
 62
               7
  6
CONTINUOUS
  0
LAYER
  5
119
100
AcDbSymbolTableRecord
100
AcDbLayerTableRecord
  2
LAYER228
 70
               0
 62
               7
  6
CONTINUOUS
  0
LAYER
  5
11A
100
AcDbSymbolTableRecord
100
AcDbLayerTableRecord
  2
LAYER229
 70
               0
 62
               7
  6
CONTINUOUS
  0
LAYER
  5
11B
100
AcDbSymbolTableRecord
100
AcDbLayerTableRecord
  2
LAYER230
 70
               0
 62
               7
  6
CONTINUOUS
  0
LAYER
  5
11C
100
AcDbSymbolTableRecord
100
AcDbLayerTableRecord
  2
LAYER231
 70
               0
 62
               7
  6
CONTINUOUS
  0
LAYER
  5
11D
100
AcDbSymbolTableRecord
100
AcDbLayerTableRecord
  2
LAYER232
 70
               0
 62
               7
  6
CONTINUOUS
  0
LAYER
  5
11E
100
AcDbSymbolTableRecord
100
AcDbLayerTableRecord
  2
LAYER233
 70
               0
 62
               7
  6
CONTINUOUS
  0
LAYER
  5
11F
100
AcDbSymbolTableRecord
100
AcDbLayerTableRecord
  2
LAYER234
 70
               0
 62
               7
  6
CONTINUOUS
  0
LAYER
  5
120
100
AcDbSymbolTableRecord
100
AcDbLayerTableRecord
  2
LAYER235
 70
               0
 62
               7
  6
CONTINUOUS
  0
LAYER
  5
121
100
AcDbSymbolTableRecord
100
AcDbLayerTableRecord
  2
LAYER236
 70
               0
 62
               7
  6
CONTINUOUS
  0
LAYER
  5
122
100
AcDbSymbolTableRecord
100
AcDbLayerTableRecord
  2
LAYER237
 70
               0
 62
               7
  6
CONTINUOUS
  0
LAYER
  5
123
100
AcDbSymbolTableRecord
100
AcDbLayerTableRecord
  2
LAYER238
 70
               0
 62
               7
  6
CONTINUOUS
  0
LAYER
  5
124
100
AcDbSymbolTableRecord
100
AcDbLayerTableRecord
  2
LAYER239
 70
               0
 62
               7
  6
CONTINUOUS
  0
LAYER
  5
125
100
AcDbSymbolTableRecord
100
AcDbLayerTableRecord
  2
LAYER240
 70
               0
 62
               7
  6
CONTINUOUS
  0
LAYER
  5
126
100
AcDbSymbolTableRecord
100
AcDbLayerTableRecord
  2
LAYER241
 70
               0
 62
               7
  6
CONTINUOUS
  0
LAYER
  5
127
100
AcDbSymbolTableRecord
100
AcDbLayerTableRecord
  2
LAYER242
 70
               0
 62
               7
  6
CONTINUOUS
  0
LAYER
  5
128
100
AcDbSymbolTableRecord
100
AcDbLayerTableRecord
  2
LAYER243
 70
               0
 62
               7
  6
CONTINUOUS
  0
LAYER
  5
129
100
AcDbSymbolTableRecord
100
AcDbLayerTableRecord
  2
LAYER244
 70
               0
 62
               7
  6
CONTINUOUS
  0
LAYER
  5
12A
100
AcDbSymbolTableRecord
100
AcDbLayerTableRecord
  2
LAYER245
 70
               0
 62
               7
  6
CONTINUOUS
  0
LAYER
  5
12B
100
AcDbSymbolTableRecord
100
AcDbLayerTableRecord
  2
LAYER246
 70
               0
 62
               7
  6
CONTINUOUS
  0
LAYER
  5
12C
100
AcDbSymbolTableRecord
100
AcDbLayerTableRecord
  2
LAYER247
 70
               0
 62
               7
  6
CONTINUOUS
  0
LAYER
  5
12D
100
AcDbSymbolTableRecord
100
AcDbLayerTableRecord
  2
LAYER248
 70
               0
 62
               7
  6
CONTINUOUS
  0
LAYER
  5
12E
100
AcDbSymbolTableRecord
100
AcDbLayerTableRecord
  2
LAYER249
 70
               0
 62
               7
  6
CONTINUOUS
  0
LAYER
  5
12F
100
AcDbSymbolTableRecord
100
AcDbLayerTableRecord
  2
LAYER250
 70
               0
 62
               7
  6
CONTINUOUS
  0
LAYER
  5
130
100
AcDbSymbolTableRecord
100
AcDbLayerTableRecord
  2
LAYER251
 70
               0
 62
               7
  6
CONTINUOUS
  0
LAYER
  5
131
100
AcDbSymbolTableRecord
100
AcDbLayerTableRecord
  2
LAYER252
 70
               0
 62
               7
  6
CONTINUOUS
  0
LAYER
  5
132
100
AcDbSymbolTableRecord
100
AcDbLayerTableRecord
  2
LAYER253
 70
               0
 62
               7
  6
CONTINUOUS
  0
LAYER
  5
133
100
AcDbSymbolTableRecord
100
AcDbLayerTableRecord
  2
LAYER254
 70
               0
 62
               7
  6
CONTINUOUS
  0
LAYER
  5
134
100
AcDbSymbolTableRecord
100
AcDbLayerTableRecord
  2
LAYER255
 70
               0
 62
               7
  6
CONTINUOUS
  0
ENDTAB
  0
TABLE
  2
STYLE
  5
3
100
AcDbSymbolTable
 70
               1
  0
STYLE
  5
17
100
AcDbSymbolTableRecord
100
AcDbTextStyleTableRecord
  2
STANDARD
 70
               0
 40
0.0
 41
1.0
 50
0.0
 71
               0
 42
0.0
  3
txt
  4

  0
ENDTAB
  0
TABLE
  2
VIEW
  5
5
100
AcDbSymbolTable
 70
               1
  0
VIEW
  5
135
100
AcDbSymbolTableRecord
100
AcDbViewTableRecord
  2
QQQQ
 70
               0
 40
473.04102472608588
 10
-1.0206310679611761
 20
86.494960666040981
 41
321.42223907766993
 11
0.0
 21
0.0
 31
1.0
 12
100.0
 22
100.0
 32
0.0
 42
50.0
 43
0.0
 44
0.0
 50
0.0
 71
               0
  0
ENDTAB
  0
TABLE
  2
UCS
  5
6
100
AcDbSymbolTable
 70
               0
  0
ENDTAB
  0
TABLE
  2
APPID
  5
8
100
AcDbSymbolTable
 70
               1
  0
APPID
  5
16
100
AcDbSymbolTableRecord
100
AcDbRegAppTableRecord
  2
ACAD
 70
               0
  0
ENDTAB
  0
TABLE
  2
DIMSTYLE
  5
9
100
AcDbSymbolTable
 70
               1
  0
DIMSTYLE
105
18
100
AcDbSymbolTableRecord
100
AcDbDimStyleTableRecord
  2
STANDARD
 70
               0
  3

  4

  5

  6

  7

 40
1.0
 41
0.18
 42
0.0625
 43
0.38
 44
0.18
 45
0.0
 46
0.0
 47
0.0
 48
0.0
140
0.18
141
0.09
142
0.0
143
25.399999999999999
144
1.0
145
0.0
146
1.0
147
0.09
 71
               0
 72
               0
 73
               1
 74
               1
 75
               0
 76
               0
 77
               0
 78
               0
170
               0
171
               2
172
               0
173
               0
174
               0
175
               0
176
               0
177
               0
178
               0
270
               2
271
               4
272
               4
273
               2
274
               2
340
17
275
               0
280
               0
281
               0
282
               0
283
               1
284
               0
285
               0
286
               0
287
               0
288
               0
  0
ENDTAB
  0
TABLE
  2
BLOCK_RECORD
  5
1
100
AcDbSymbolTable
 70
               0
  0
BLOCK_RECORD
  5
A
100
AcDbSymbolTableRecord
100
AcDbBlockTableRecord
  2
*MODEL_SPACE
  0
BLOCK_RECORD
  5
B
100
AcDbSymbolTableRecord
100
AcDbBlockTableRecord
  2
*PAPER_SPACE
  0
ENDTAB
  0
ENDSEC
  0
SECTION
  2
BLOCKS
  0
BLOCK
  5
D
100
AcDbEntity
  8
0
100
AcDbBlockBegin
  2
*MODEL_SPACE
 70
               0
 10
0.0
 20
0.0
 30
0.0
  3
*MODEL_SPACE
  1

  0
ENDBLK
  5
E
100
AcDbEntity
  8
0
100
AcDbBlockEnd
  0
BLOCK
  5
F
100
AcDbEntity
 67
               1
  8
0
100
AcDbBlockBegin
  2
*PAPER_SPACE
 70
               0
 10
0.0
 20
0.0
 30
0.0
  3
*PAPER_SPACE
  1

  0
ENDBLK
  5
10
100
AcDbEntity
 67
               1
  8
0
100
AcDbBlockEnd
  0
ENDSEC
  0
SECTION
  2
ENTITIES
  0
LINE
  5
136
100
AcDbEntity
  8
0
  6
CONTINUOUS
 62
               7
100
AcDbLine
 10
-75.0
 20
-42.0
 30
0.0
 11
-43.939999999999998
 21
-42.0
 31
0.0
  0
LINE
  5
137
100
AcDbEntity
  8
0
  6
CONTINUOUS
 62
               7
100
AcDbLine
 10
-74.386077195485484
 20
-47.0
 30
0.0
 11
-119.0
 21
-47.0
 31
0.0
  0
LINE
  5
138
100
AcDbEntity
  8
0
  6
CONTINUOUS
 62
               7
100
AcDbLine
 10
-120.0
 20
-48.0
 30
0.0
 11
-120.0
 21
-53.0
 31
0.0
  0
ARC
  5
139
100
AcDbEntity
  8
0
  6
CONTINUOUS
 62
               7
100
AcDbCircle
 10
-119.0
 20
-48.0
 30
0.0
 40
1.0
100
AcDbArc
 50
89.99999989715981
 51
179.99999979431962
  0
LINE
  5
13A
100
AcDbEntity
  8
0
  6
CONTINUOUS
 62
               7
100
AcDbLine
 10
-120.0
 20
-53.0
 30
0.0
 11
-119.0
 21
-54.0
 31
0.0
  0
LINE
  5
13B
100
AcDbEntity
  8
0
  6
CONTINUOUS
 62
               7
100
AcDbLine
 10
-119.0
 20
-54.0
 30
0.0
 11
-111.8756443470179
 21
-54.0
 31
0.0
  0
LINE
  5
13C
100
AcDbEntity
  8
0
  6
CONTINUOUS
 62
               7
100
AcDbLine
 10
-67.902491223083757
 20
-65.594404018825799
 30
0.0
 11
-67.827333326168457
 21
-67.147667221740903
 31
0.0
  0
LINE
  5
13D
100
AcDbEntity
  8
0
  6
CONTINUOUS
 62
               7
100
AcDbLine
 10
-52.5
 20
-42.0
 30
0.0
 11
-67.5
 21
-42.0
 31
0.0
  0
LINE
  5
13E
100
AcDbEntity
  8
0
  6
CONTINUOUS
 62
               7
100
AcDbLine
 10
-52.5
 20
-42.0
 30
0.0
 11
-67.5
 21
-42.0
 31
0.0
  0
LINE
  5
13F
100
AcDbEntity
  8
0
  6
CONTINUOUS
 62
               7
100
AcDbLine
 10
-67.5
 20
-42.0
 30
0.0
 11
-67.5
 21
-37.199999999999989
 31
0.0
  0
LINE
  5
140
100
AcDbEntity
  8
0
  6
CONTINUOUS
 62
               7
100
AcDbLine
 10
-52.5
 20
-42.0
 30
0.0
 11
-52.5
 21
-37.199999999999989
 31
0.0
  0
LINE
  5
141
100
AcDbEntity
  8
0
  6
CONTINUOUS
 62
               7
100
AcDbLine
 10
-67.5
 20
-37.199999999999989
 30
0.0
 11
-66.300000000000011
 21
-36.5
 31
0.0
  0
LINE
  5
142
100
AcDbEntity
  8
0
  6
CONTINUOUS
 62
               7
100
AcDbLine
 10
-52.5
 20
-37.199999999999989
 30
0.0
 11
-53.699999999999989
 21
-36.5
 31
0.0
  0
LINE
  5
143
100
AcDbEntity
  8
0
  6
CONTINUOUS
 62
               7
100
AcDbLine
 10
-53.699999999999989
 20
-36.5
 30
0.0
 11
-66.300000000000011
 21
-36.5
 31
0.0
  0
ARC
  5
144
100
AcDbEntity
  8
0
  6
CONTINUOUS
 62
               7
100
AcDbCircle
 10
-60.0
 20
-49.125
 30
0.0
 40
12.425000000000001
100
AcDbArc
 50
72.411111028369191
 51
107.58888876595043
  0
ARC
  5
145
100
AcDbEntity
  8
0
  6
CONTINUOUS
 62
               7
100
AcDbCircle
 10
-65.625
 20
-40.025000000000006
 30
0.0
 40
3.3250000000000002
100
AcDbArc
 50
55.611111047566034
 51
124.38888874675358
  0
ARC
  5
146
100
AcDbEntity
  8
0
  6
CONTINUOUS
 62
               7
100
AcDbCircle
 10
-54.375
 20
-40.025000000000006
 30
0.0
 40
3.3250000000000002
100
AcDbArc
 50
55.611111047566034
 51
124.38888874675358
  0
LINE
  5
147
100
AcDbEntity
  8
0
  6
CONTINUOUS
 62
               7
100
AcDbLine
 10
-63.75
 20
-42.0
 30
0.0
 11
-63.75
 21
-37.199999999999989
 31
0.0
  0
LINE
  5
148
100
AcDbEntity
  8
0
  6
CONTINUOUS
 62
               7
100
AcDbLine
 10
-56.25
 20
-42.0
 30
0.0
 11
-56.25
 21
-37.199999999999989
 31
0.0
  0
LINE
  5
149
100
AcDbEntity
  8
0
  6
CONTINUOUS
 62
               7
100
AcDbLine
 10
-55.599329936079414
 20
-107.10467191248586
 30
0.0
 11
-57.282329249521524
 21
-74.991131967344018
 31
0.0
  0
LINE
  5
14A
100
AcDbEntity
  8
0
  6
CONTINUOUS
 62
               7
100
AcDbLine
 10
-75.0
 20
-42.0
 30
0.0
 11
-74.386077195485484
 21
-47.0
 31
0.0
  0
LINE
  5
14B
100
AcDbEntity
  8
0
  6
CONTINUOUS
 62
               7
100
AcDbLine
 10
-99.694037346472896
 20
-61.033054080926888
 30
0.0
 11
-111.8756443470179
 21
-54.0
 31
0.0
  0
LINE
  5
14C
100
AcDbEntity
  8
0
  6
CONTINUOUS
 62
               7
100
AcDbLine
 10
-99.694037346472896
 20
-61.033054080926888
 30
0.0
 11
-69.225842529752413
 21
-63.698675725489238
 31
0.0
  0
LINE
  5
14D
100
AcDbEntity
  8
0
  6
CONTINUOUS
 62
               7
100
AcDbLine
 10
-66.003982019499745
 20
-69.043395515077918
 30
0.0
 11
-62.75117200156302
 21
-69.327979516250934
 31
0.0
  0
ARC
  5
14E
100
AcDbEntity
  8
0
  6
CONTINUOUS
 62
               7
100
AcDbCircle
 10
-69.900154015247722
 20
-65.691065121672636
 30
0.0
 40
2.0
100
AcDbArc
 50
2.7702157972057191
 51
84.999999999999787
  0
ARC
  5
14F
100
AcDbEntity
  8
0
  6
CONTINUOUS
 62
               7
100
AcDbCircle
 10
-65.829670534004435
 20
-67.051006118894406
 30
0.0
 40
2.0
100
AcDbArc
 50
182.77021579719573
 51
264.99999999999943
  0
LINE
  5
150
100
AcDbEntity
  8
0
  6
CONTINUOUS
 62
               7
100
AcDbLine
 10
75.0
 20
-42.0
 30
0.0
 11
43.939999999999998
 21
-42.0
 31
0.0
  0
LINE
  5
151
100
AcDbEntity
  8
0
  6
CONTINUOUS
 62
               7
100
AcDbLine
 10
74.386077195485484
 20
-47.0
 30
0.0
 11
119.0
 21
-47.0
 31
0.0
  0
LINE
  5
152
100
AcDbEntity
  8
0
  6
CONTINUOUS
 62
               7
100
AcDbLine
 10
120.0
 20
-48.0
 30
0.0
 11
120.0
 21
-53.0
 31
0.0
  0
ARC
  5
153
100
AcDbEntity
  8
0
  6
CONTINUOUS
 62
               7
100
AcDbCircle
 10
119.0
 20
-48.0
 30
0.0
 40
1.0
100
AcDbArc
 50
0.0000002056799899
 51
90.000000102839806
  0
LINE
  5
154
100
AcDbEntity
  8
0
  6
CONTINUOUS
 62
               7
100
AcDbLine
 10
120.0
 20
-53.0
 30
0.0
 11
119.0
 21
-54.0
 31
0.0
  0
LINE
  5
155
100
AcDbEntity
  8
0
  6
CONTINUOUS
 62
               7
100
AcDbLine
 10
119.0
 20
-54.0
 30
0.0
 11
111.87564434701784
 21
-54.0
 31
0.0
  0
LINE
  5
156
100
AcDbEntity
  8
0
  6
CONTINUOUS
 62
               7
100
AcDbLine
 10
75.0
 20
-42.0
 30
0.0
 11
74.386077195485484
 21
-47.0
 31
0.0
  0
LINE
  5
157
100
AcDbEntity
  8
0
  6
CONTINUOUS
 62
               7
100
AcDbLine
 10
99.694037346472896
 20
-61.033054080926888
 30
0.0
 11
111.87564434701784
 21
-54.0
 31
0.0
  0
LINE
  5
158
100
AcDbEntity
  8
0
  6
CONTINUOUS
 62
               7
100
AcDbLine
 10
99.694037346472896
 20
-61.033054080926888
 30
0.0
 11
63.017726563015799
 21
-64.241815494432956
 31
0.0
  0
ARC
  5
159
100
AcDbEntity
  8
0
  6
CONTINUOUS
 62
               7
100
AcDbCircle
 10
-63.274106458049005
 20
-75.305147704801357
 30
0.0
 40
6.0
100
AcDbArc
 50
2.9999999999969003
 51
84.999999999999858
  0
LINE
  5
15A
100
AcDbEntity
  8
0
  6
CONTINUOUS
 62
               7
100
AcDbLine
 10
55.599329936079414
 20
-107.10467191248563
 30
0.0
 11
57.548883810974303
 21
-69.904967945525641
 31
0.0
  0
ARC
  5
15B
100
AcDbEntity
  8
0
  6
CONTINUOUS
 62
               7
100
AcDbCircle
 10
63.540661019501783
 20
-70.218983682983435
 30
0.0
 40
6.0
100
AcDbArc
 50
94.999999999999787
 51
176.99999999999827
  0
ARC
  5
15C
100
AcDbEntity
  8
0
  6
CONTINUOUS
 62
               7
100
AcDbCircle
 10
-53.602070866570216
 20
-107.0
 30
0.0
 40
2.0
100
AcDbArc
 50
182.99999999999864
 51
269.99999999999937
  0
ARC
  5
15D
100
AcDbEntity
  8
0
  6
CONTINUOUS
 62
               7
100
AcDbCircle
 10
53.602070866570216
 20
-107.0
 30
0.0
 40
2.0
100
AcDbArc
 50
269.99999999999937
 51
357.00000000000665
  0
LINE
  5
15E
100
AcDbEntity
  8
0
  6
CONTINUOUS
 62
               7
100
AcDbLine
 10
-74.386077195485484
 20
-47.0
 30
0.0
 11
74.386077195485484
 21
-47.0
 31
0.0
  0
LINE
  5
15F
100
AcDbEntity
  8
0
  6
CONTINUOUS
 62
               7
100
AcDbLine
 10
111.87564434701784
 20
-54.0
 30
0.0
 11
-111.8756443470179
 21
-54.0
 31
0.0
  0
LINE
  5
160
100
AcDbEntity
  8
0
  6
CONTINUOUS
 62
               7
100
AcDbLine
 10
-99.694037346472896
 20
-61.033054080926888
 30
0.0
 11
99.694037346472896
 21
-61.033054080926888
 31
0.0
  0
LINE
  5
161
100
AcDbEntity
  8
0
  6
CONTINUOUS
 62
               7
100
AcDbLine
 10
-43.939999999999998
 20
-42.0
 30
0.0
 11
43.939999999999998
 21
-42.0
 31
0.0
  0
ARC
  5
162
100
AcDbEntity
  8
0
  6
CONTINUOUS
 62
               7
100
AcDbCircle
 10
0.0000000000000027
 20
162.05677300046236
 30
0.0
 40
75.0
100
AcDbArc
 50
0.0
 51
179.9999999999996
  0
ARC
  5
163
100
AcDbEntity
  8
0
  6
CONTINUOUS
 62
               7
100
AcDbCircle
 10
0.0000000000000027
 20
162.05677300046236
 30
0.0
 40
98.491151797699729
100
AcDbArc
 50
0.0
 51
179.86994318623618
  0
ARC
  5
164
100
AcDbEntity
  8
0
  6
CONTINUOUS
 62
               7
100
AcDbCircle
 10
0.0000000000000027
 20
162.05677300046236
 30
0.0
 40
113.26461746332237
100
AcDbArc
 50
0.0
 51
179.92993149885365
  0
LINE
  5
165
100
AcDbEntity
  8
0
  6
CONTINUOUS
 62
               7
100
AcDbLine
 10
54.026887642133268
 20
-69.790632841608954
 30
0.0
 11
-57.463020294652381
 21
-69.790632841610858
 31
0.0
  0
LINE
  5
166
100
AcDbEntity
  8
0
  6
CONTINUOUS
 62
               7
100
AcDbLine
 10
53.602070866570216
 20
-109.0
 30
0.0
 11
-53.602070866570216
 21
-109.0
 31
0.0
  0
LINE
  5
167
100
AcDbEntity
  8
0
  6
CONTINUOUS
 62
               7
100
AcDbLine
 10
-49.999992999999996
 20
13.99999200000002
 30
0.0
 11
50.000007000000011
 21
14.0
 31
0.0
  0
LINE
  5
168
100
AcDbEntity
  8
0
  6
CONTINUOUS
 62
               7
100
AcDbLine
 10
-47.0
 20
-5.0
 30
0.0
 11
47.005921083183949
 21
-5.0
 31
0.0
  0
LINE
  5
169
100
AcDbEntity
  8
0
  6
CONTINUOUS
 62
               7
100
AcDbLine
 10
-46.499985771419027
 20
4.999988162636555
 30
0.0
 11
46.603373691885096
 21
4.999988162636555
 31
0.0
  0
LINE
  5
16A
100
AcDbEntity
  8
0
  6
CONTINUOUS
 62
               7
100
AcDbLine
 10
4.0
 20
-5.0
 30
0.0
 11
4.0
 21
4.9999921626371133
 31
0.0
  0
LINE
  5
16B
100
AcDbEntity
  8
0
  6
CONTINUOUS
 62
               7
100
AcDbLine
 10
-4.0
 20
4.9999921626371133
 30
0.0
 11
-4.0
 21
-5.0
 31
0.0
  0
LINE
  5
16C
100
AcDbEntity
  8
0
  6
CONTINUOUS
 62
               7
100
AcDbLine
 10
-49.999999999999993
 20
16.99999200000002
 30
0.0
 11
50.000000000000014
 21
17.0
 31
0.0
  0
LINE
  5
16D
100
AcDbEntity
  8
0
  6
CONTINUOUS
 62
               7
100
AcDbLine
 10
-42.439999999999998
 20
-5.0
 30
0.0
 11
-42.439999999999998
 21
-42.0
 31
0.0
  0
LINE
  5
16E
100
AcDbEntity
  8
0
  6
CONTINUOUS
 62
               7
100
AcDbLine
 10
42.439999999999998
 20
-5.0
 30
0.0
 11
42.439999999999998
 21
-42.0
 31
0.0
  0
LINE
  5
16F
100
AcDbEntity
  8
0
  6
CONTINUOUS
 62
               7
100
AcDbLine
 10
-43.939999999999998
 20
-5.0
 30
0.0
 11
-43.939999999999998
 21
-42.0
 31
0.0
  0
LINE
  5
170
100
AcDbEntity
  8
0
  6
CONTINUOUS
 62
               7
100
AcDbLine
 10
43.939999999999998
 20
-5.0
 30
0.0
 11
43.939999999999998
 21
-42.0
 31
0.0
  0
ARC
  5
171
100
AcDbEntity
  8
0
  6
CONTINUOUS
 62
               7
100
AcDbCircle
 10
0.0000000000000027
 20
162.05677300046236
 30
0.0
 40
120.0
100
AcDbArc
 50
0.0
 51
179.9999999999996
  0
LINE
  5
172
100
AcDbEntity
  8
0
  6
CONTINUOUS
 62
               7
100
AcDbLine
 10
-67.5
 20
162.05677300046236
 30
0.0
 11
-63.750000000000007
 21
168.55196352884565
 31
0.0
  0
LINE
  5
173
100
AcDbEntity
  8
0
  6
CONTINUOUS
 62
               7
100
AcDbLine
 10
-52.5
 20
162.05677300046236
 30
0.0
 11
-56.249999999999993
 21
168.55196352884565
 31
0.0
  0
LINE
  5
174
100
AcDbEntity
  8
0
  6
CONTINUOUS
 62
               7
100
AcDbLine
 10
-63.750000000000007
 20
168.55196352884565
 30
0.0
 11
-56.249999999999993
 21
168.55196352884565
 31
0.0
  0
LINE
  5
175
100
AcDbEntity
  8
0
  6
CONTINUOUS
 62
               7
100
AcDbLine
 10
33.750017071796748
 20
220.51351361231843
 30
0.0
 11
37.500017071796776
 21
214.01832308393514
 31
0.0
  0
LINE
  5
176
100
AcDbEntity
  8
0
  6
CONTINUOUS
 62
               7
100
AcDbLine
 10
26.250017071796776
 20
207.52313255555185
 30
0.0
 11
33.750017071796748
 21
207.52313255555185
 31
0.0
  0
LINE
  5
177
100
AcDbEntity
  8
0
  6
CONTINUOUS
 62
               7
100
AcDbLine
 10
37.500017071796776
 20
214.01832308393514
 30
0.0
 11
33.750017071796748
 21
207.52313255555185
 31
0.0
  0
LINE
  5
178
100
AcDbEntity
  8
0
  6
CONTINUOUS
 62
               7
100
AcDbLine
 10
33.750017071796748
 20
220.51351361231843
 30
0.0
 11
26.250017071796776
 21
220.51351361231843
 31
0.0
  0
LINE
  5
179
100
AcDbEntity
  8
0
  6
CONTINUOUS
 62
               7
100
AcDbLine
 10
26.250017071796776
 20
207.52313255555185
 30
0.0
 11
22.500017071796748
 21
214.01832308393512
 31
0.0
  0
LINE
  5
17A
100
AcDbEntity
  8
0
  6
CONTINUOUS
 62
               7
100
AcDbLine
 10
26.250017071796776
 20
220.51351361231843
 30
0.0
 11
22.500017071796748
 21
214.01832308393512
 31
0.0
  0
LINE
  5
17B
100
AcDbEntity
  8
0
  6
DASHDOT
 62
               7
100
AcDbLine
 10
-60.0
 20
-33.293563838300258
 30
0.0
 11
-60.0
 21
-49.125
 31
0.0
  0
LINE
  5
17C
100
AcDbEntity
  8
0
  6
DASHDOT
 62
               7
100
AcDbLine
 10
0.0
 20
57.699999999999989
 30
0.0
 11
0.0
 21
-127.55075187969925
 31
0.0
  0
LINE
  5
17D
100
AcDbEntity
  8
0
  6
DASHDOT
 62
               7
100
AcDbLine
 10
0.0000000000000027
 20
161.53419797722765
 30
0.0
 11
0.0000000000000112
 21
300.54067321178121
 31
0.0
  0
LINE
  5
17E
100
AcDbEntity
  8
0
  6
DASHDOT
 62
               7
100
AcDbLine
 10
-146.46055825242721
 20
162.05677300046236
 30
0.0
 11
144.41929611650485
 21
162.05677300046236
 31
0.0
  0
LINE
  5
17F
100
AcDbEntity
  8
0
  6
DASHED2
 62
               7
100
AcDbLine
 10
-42.439999999999998
 20
5.0
 30
0.0
 11
-43.942000000000007
 21
3.4980000000000189
 31
0.0
  0
LINE
  5
180
100
AcDbEntity
  8
0
  6
DASHED2
 62
               7
100
AcDbLine
 10
42.439999999999998
 20
5.0
 30
0.0
 11
43.942000000000007
 21
3.4980000000000189
 31
0.0
  0
LINE
  5
181
100
AcDbEntity
  8
0
  6
DASHED2
 62
               7
100
AcDbLine
 10
-43.939999999999998
 20
-42.0
 30
0.0
 11
-43.939999999999998
 21
-63.5
 31
0.0
  0
LINE
  5
182
100
AcDbEntity
  8
0
  6
DASHED2
 62
               7
100
AcDbLine
 10
-42.439999999999998
 20
-65.0
 30
0.0
 11
-43.939999999999998
 21
-63.5
 31
0.0
  0
LINE
  5
183
100
AcDbEntity
  8
0
  6
DASHED2
 62
               7
100
AcDbLine
 10
-42.439999999999998
 20
-65.0
 30
0.0
 11
42.439999999999998
 21
-65.0
 31
0.0
  0
LINE
  5
184
100
AcDbEntity
  8
0
  6
DASHED2
 62
               7
100
AcDbLine
 10
42.439999999999998
 20
-65.0
 30
0.0
 11
43.939999999999998
 21
-63.5
 31
0.0
  0
LINE
  5
185
100
AcDbEntity
  8
0
  6
DASHED2
 62
               7
100
AcDbLine
 10
43.939999999999998
 20
-63.5
 30
0.0
 11
43.939999999999998
 21
-42.0
 31
0.0
  0
LINE
  5
186
100
AcDbEntity
  8
0
  6
DASHED2
 62
               7
100
AcDbLine
 10
45.0
 20
-81.0
 30
0.0
 11
0.0
 21
-81.0
 31
0.0
  0
LINE
  5
187
100
AcDbEntity
  8
0
  6
DASHED2
 62
               7
100
AcDbLine
 10
-45.0
 20
-81.0
 30
0.0
 11
0.0
 21
-81.0
 31
0.0
  0
LINE
  5
188
100
AcDbEntity
  8
0
  6
DASHED2
 62
               7
100
AcDbLine
 10
45.0
 20
-74.0
 30
0.0
 11
0.0
 21
-74.0
 31
0.0
  0
LINE
  5
189
100
AcDbEntity
  8
0
  6
DASHED2
 62
               7
100
AcDbLine
 10
-45.0
 20
-74.0
 30
0.0
 11
0.0
 21
-74.0
 31
0.0
  0
LINE
  5
18A
100
AcDbEntity
  8
0
  6
DASHED2
 62
               7
100
AcDbLine
 10
-42.439999999999998
 20
-5.0
 30
0.0
 11
-42.439999999999998
 21
5.0
 31
0.0
  0
LINE
  5
18B
100
AcDbEntity
  8
0
  6
DASHED2
 62
               7
100
AcDbLine
 10
42.439999999999998
 20
-5.0
 30
0.0
 11
42.439999999999998
 21
5.0
 31
0.0
  0
LINE
  5
18C
100
AcDbEntity
  8
0
  6
DASHED2
 62
               7
100
AcDbLine
 10
-43.939999999999998
 20
-5.0
 30
0.0
 11
-43.939999999999998
 21
3.4980000000000189
 31
0.0
  0
LINE
  5
18D
100
AcDbEntity
  8
0
  6
DASHED2
 62
               7
100
AcDbLine
 10
43.939999999999998
 20
-5.0
 30
0.0
 11
43.939999999999998
 21
3.4980000000000189
 31
0.0
  0
LINE
  5
18E
100
AcDbEntity
  8
LAYER001
  6
CONTINUOUS
 62
               7
100
AcDbLine
 10
-42.439999999999998
 20
5.0
 30
0.0
 11
42.439999999999998
 21
5.0
 31
0.0
  0
LINE
  5
18F
100
AcDbEntity
  8
LAYER001
  6
CONTINUOUS
 62
               7
100
AcDbLine
 10
-49.999999999999993
 20
13.99999200000002
 30
0.0
 11
-49.999999999999993
 21
16.99999200000002
 31
0.0
  0
LINE
  5
190
100
AcDbEntity
  8
LAYER001
  6
CONTINUOUS
 62
               7
100
AcDbLine
 10
50.000007000000011
 20
14.0
 30
0.0
 11
50.000007000000011
 21
17.0
 31
0.0
  0
LINE
  5
191
100
AcDbEntity
  8
LAYER001
  6
CONTINUOUS
 62
               7
100
AcDbLine
 10
50.00592108318483
 20
14.000007000000011
 30
0.0
 11
50.000007000000011
 21
14.000007000000011
 31
0.0
  0
ARC
  5
192
100
AcDbEntity
  8
LAYER001
  6
CONTINUOUS
 62
               7
100
AcDbCircle
 10
50.00592108318483
 20
12.000007000000011
 30
0.0
 40
2.0
100
AcDbArc
 50
89.999999999982705
 51
179.99999999996541
  0
LINE
  5
193
100
AcDbEntity
  8
LAYER001
  6
CONTINUOUS
 62
               7
100
AcDbLine
 10
-49.999992999999996
 20
13.99999200000002
 30
0.0
 11
-39.999992999999996
 21
13.99999200000002
 31
0.0
  0
ARC
  5
194
100
AcDbEntity
  8
LAYER001
  6
CONTINUOUS
 62
               7
100
AcDbCircle
 10
-49.999999999999112
 20
11.99999200000002
 30
0.0
 40
2.0
100
AcDbArc
 50
0.0
 51
89.999999999982705
  0
LINE
  5
195
100
AcDbEntity
  8
LAYER001
  6
CONTINUOUS
 62
               7
100
AcDbLine
 10
-47.999999999999112
 20
-4.0
 30
0.0
 11
-47.999999999999112
 21
11.99999200000002
 31
0.0
  0
ARC
  5
196
100
AcDbEntity
  8
LAYER001
  6
CONTINUOUS
 62
               7
100
AcDbCircle
 10
-46.999999999999112
 20
-4.0
 30
0.0
 40
1.0
100
AcDbArc
 50
179.99999999996541
 51
269.9999999999485
  0
LINE
  5
197
100
AcDbEntity
  8
LAYER001
  6
CONTINUOUS
 62
               7
100
AcDbLine
 10
48.00592108318483
 20
-4.0
 30
0.0
 11
48.00592108318483
 21
12.000007000000011
 31
0.0
  0
ARC
  5
198
100
AcDbEntity
  8
LAYER001
  6
CONTINUOUS
 62
               7
100
AcDbCircle
 10
47.00592108318483
 20
-4.0
 30
0.0
 40
1.0
100
AcDbArc
 50
269.9999999999489
 51
359.9999999999992
  0
ARC
  5
199
100
AcDbEntity
  8
LAYER001
  6
CONTINUOUS
 62
               7
100
AcDbCircle
 10
-47.0
 20
5.9682380000000137
 30
0.0
 40
1.0
100
AcDbArc
 50
179.99999999996541
 51
255.52248799995087
  0
ARC
  5
19A
100
AcDbEntity
  8
LAYER001
  6
CONTINUOUS
 62
               7
100
AcDbCircle
 10
-47.5
 20
4.0317459999999983
 30
0.0
 40
1.0
100
AcDbArc
 50
0.0
 51
75.522487999985856
  0
LINE
  5
19B
100
AcDbEntity
  8
LAYER001
  6
CONTINUOUS
 62
               7
100
AcDbLine
 10
-46.5
 20
-4.0
 30
0.0
 11
-46.5
 21
4.0317459999999983
 31
0.0
  0
ARC
  5
19C
100
AcDbEntity
  8
LAYER001
  6
CONTINUOUS
 62
               7
100
AcDbCircle
 10
-45.5
 20
-4.0
 30
0.0
 40
1.0
100
AcDbArc
 50
179.99999999996541
 51
269.9999999999481
  0
ARC
  5
19D
100
AcDbEntity
  8
LAYER001
  6
CONTINUOUS
 62
               7
100
AcDbCircle
 10
45.5
 20
-4.0327675906673903
 30
0.0
 40
1.0
100
AcDbArc
 50
269.9999999999489
 51
359.9999999999992
  0
LINE
  5
19E
100
AcDbEntity
  8
LAYER001
  6
CONTINUOUS
 62
               7
100
AcDbLine
 10
46.5
 20
-4.0327675906673903
 30
0.0
 11
46.5
 21
3.998978409332608
 31
0.0
  0
ARC
  5
19F
100
AcDbEntity
  8
LAYER001
  6
CONTINUOUS
 62
               7
100
AcDbCircle
 10
47.0
 20
5.935470409332595
 30
0.0
 40
1.0
100
AcDbArc
 50
284.47751199994536
 51
359.9999999999992
  0
ARC
  5
1A0
100
AcDbEntity
  8
LAYER001
  6
CONTINUOUS
 62
               7
100
AcDbCircle
 10
47.5
 20
3.998978409332608
 30
0.0
 40
1.0
100
AcDbArc
 50
104.47751199997938
 51
179.99999999996541
  0
ARC
  5
1A1
100
AcDbEntity
  8
LAYER001
  6
CONTINUOUS
 62
               7
100
AcDbCircle
 10
0.0000079999999967
 20
162.05677300046236
 30
0.0
 40
44.0
100
AcDbArc
 50
0.0
 51
179.9999999999996
  0
LINE
  5
1A2
100
AcDbEntity
  8
LAYER001
  6
CONTINUOUS
 62
               7
100
AcDbLine
 10
1.5000159999999907
 20
180.05678100046237
 30
0.0
 11
-1.5099840000000002
 21
180.05678100046237
 31
0.0
  0
LINE
  5
1A3
100
AcDbEntity
  8
LAYER001
  6
CONTINUOUS
 62
               7
100
AcDbLine
 10
-1.5099840000000002
 20
183.05678100046237
 30
0.0
 11
1.5000159999999907
 21
183.05678100046237
 31
0.0
  0
LINE
  5
1A4
100
AcDbEntity
  8
LAYER001
  6
CONTINUOUS
 62
               7
100
AcDbLine
 10
9.8000160000000029
 20
192.80678100046237
 30
0.0
 11
12.800016000000003
 21
192.80678100046237
 31
0.0
  0
LINE
  5
1A5
100
AcDbEntity
  8
LAYER001
  6
CONTINUOUS
 62
               7
100
AcDbLine
 10
21.100016
 20
181.55678100046237
 30
0.0
 11
24.110016000000005
 21
181.55678100046237
 31
0.0
  0
LINE
  5
1A6
100
AcDbEntity
  8
LAYER001
  6
CONTINUOUS
 62
               7
100
AcDbLine
 10
26.110016000000005
 20
188.11360100046238
 30
0.0
 11
26.110016000000005
 21
186.55678100046237
 31
0.0
  0
LINE
  5
1A7
100
AcDbEntity
  8
LAYER001
  6
CONTINUOUS
 62
               7
100
AcDbLine
 10
24.110016000000005
 20
184.55678100046237
 30
0.0
 11
21.100016
 21
184.55678100046237
 31
0.0
  0
ARC
  5
1A8
100
AcDbEntity
  8
LAYER001
  6
CONTINUOUS
 62
               7
100
AcDbCircle
 10
0.0000159999999907
 20
162.05678100046237
 30
0.0
 40
37.5
100
AcDbArc
 50
68.318640999986926
 51
73.975024999985862
  0
ARC
  5
1A9
100
AcDbEntity
  8
LAYER001
  6
CONTINUOUS
 62
               7
100
AcDbCircle
 10
0.0000159999999907
 20
162.05678100046237
 30
0.0
 40
37.5
100
AcDbArc
 50
47.222357999990976
 51
53.532536999989766
  0
LINE
  5
1AA
100
AcDbEntity
  8
LAYER001
  6
CONTINUOUS
 62
               7
100
AcDbLine
 10
12.800016000000003
 20
170.30678100046237
 30
0.0
 11
9.8000160000000029
 21
170.30678100046237
 31
0.0
  0
LINE
  5
1AB
100
AcDbEntity
  8
LAYER001
  6
CONTINUOUS
 62
               7
100
AcDbLine
 10
9.8000160000000029
 20
173.30678100046237
 30
0.0
 11
12.800016000000003
 21
173.30678100046237
 31
0.0
  0
LINE
  5
1AC
100
AcDbEntity
  8
LAYER001
  6
CONTINUOUS
 62
               7
100
AcDbLine
 10
12.800016000000003
 20
189.80678100046237
 30
0.0
 11
9.8000160000000029
 21
189.80678100046237
 31
0.0
  0
ARC
  5
1AD
100
AcDbEntity
  8
LAYER001
  6
CONTINUOUS
 62
               7
100
AcDbCircle
 10
37.500015999999988
 20
162.05678100046237
 30
0.0
 40
15.5
100
AcDbArc
 50
139.91970299997323
 51
167.1595169999681
  0
LINE
  5
1AE
100
AcDbEntity
  8
LAYER001
  6
CONTINUOUS
 62
               7
100
AcDbLine
 10
3.5000159999999907
 20
197.55678100046237
 30
0.0
 11
3.5000159999999907
 21
185.05678100046237
 31
0.0
  0
LINE
  5
1AF
100
AcDbEntity
  8
LAYER001
  6
CONTINUOUS
 62
               7
100
AcDbLine
 10
7.8000160000000021
 20
196.17730200046236
 30
0.0
 11
7.8000160000000021
 21
194.80678100046237
 31
0.0
  0
LINE
  5
1B0
100
AcDbEntity
  8
LAYER001
  6
CONTINUOUS
 62
               7
100
AcDbLine
 10
14.800016000000003
 20
195.50988200046237
 30
0.0
 11
14.800016000000003
 21
194.80678100046237
 31
0.0
  0
LINE
  5
1B1
100
AcDbEntity
  8
LAYER001
  6
CONTINUOUS
 62
               7
100
AcDbLine
 10
19.100016
 20
190.60568600046238
 30
0.0
 11
19.100016
 21
186.55678100046237
 31
0.0
  0
LINE
  5
1B2
100
AcDbEntity
  8
LAYER001
  6
CONTINUOUS
 62
               7
100
AcDbLine
 10
26.110016000000005
 20
179.55678100046237
 30
0.0
 11
26.110016000000005
 21
173.32434000046237
 31
0.0
  0
LINE
  5
1B3
100
AcDbEntity
  8
LAYER001
  6
CONTINUOUS
 62
               7
100
AcDbLine
 10
3.5000159999999907
 20
178.05678100046237
 30
0.0
 11
3.5000159999999907
 21
174.05678100046237
 31
0.0
  0
LINE
  5
1B4
100
AcDbEntity
  8
LAYER001
  6
CONTINUOUS
 62
               7
100
AcDbLine
 10
7.8000160000000021
 20
187.80678100046237
 30
0.0
 11
7.8000160000000021
 21
175.30678100046237
 31
0.0
  0
LINE
  5
1B5
100
AcDbEntity
  8
LAYER001
  6
CONTINUOUS
 62
               7
100
AcDbLine
 10
14.800016000000003
 20
187.80678100046237
 30
0.0
 11
14.800016000000003
 21
175.30678100046237
 31
0.0
  0
LINE
  5
1B6
100
AcDbEntity
  8
LAYER001
  6
CONTINUOUS
 62
               7
100
AcDbLine
 10
14.800016000000003
 20
168.30678100046237
 30
0.0
 11
14.800016000000003
 21
162.05677300046236
 31
0.0
  0
LINE
  5
1B7
100
AcDbEntity
  8
LAYER001
  6
CONTINUOUS
 62
               7
100
AcDbLine
 10
7.8000160000000021
 20
168.30678100046237
 30
0.0
 11
7.8000160000000021
 21
162.05677957116538
 31
0.0
  0
LINE
  5
1B8
100
AcDbEntity
  8
LAYER001
  6
CONTINUOUS
 62
               7
100
AcDbLine
 10
19.100016
 20
179.55678100046237
 30
0.0
 11
19.100016
 21
165.87140200046238
 31
0.0
  0
ARC
  5
1B9
100
AcDbEntity
  8
LAYER001
  6
CONTINUOUS
 62
               7
100
AcDbCircle
 10
1.5000159999999907
 20
185.05678100046237
 30
0.0
 40
2.0
100
AcDbArc
 50
269.9999999999485
 51
359.9999999999992
  0
ARC
  5
1BA
100
AcDbEntity
  8
LAYER001
  6
CONTINUOUS
 62
               7
100
AcDbCircle
 10
1.5000159999999907
 20
178.05678100046237
 30
0.0
 40
2.0
100
AcDbArc
 50
0.0
 51
89.999999999982705
  0
ARC
  5
1BB
100
AcDbEntity
  8
LAYER001
  6
CONTINUOUS
 62
               7
100
AcDbCircle
 10
9.8000160000000029
 20
196.17730200046236
 30
0.0
 40
2.0
100
AcDbArc
 50
73.975024999985749
 51
179.99999999996541
  0
ARC
  5
1BC
100
AcDbEntity
  8
LAYER001
  6
CONTINUOUS
 62
               7
100
AcDbCircle
 10
9.8000160000000029
 20
194.80678100046237
 30
0.0
 40
2.0
100
AcDbArc
 50
179.99999999996541
 51
269.9999999999485
  0
ARC
  5
1BD
100
AcDbEntity
  8
LAYER001
  6
CONTINUOUS
 62
               7
100
AcDbCircle
 10
12.800016000000003
 20
194.80678100046237
 30
0.0
 40
2.0
100
AcDbArc
 50
269.9999999999485
 51
359.9999999999992
  0
ARC
  5
1BE
100
AcDbEntity
  8
LAYER001
  6
CONTINUOUS
 62
               7
100
AcDbCircle
 10
13.300016000000003
 20
195.50988200046237
 30
0.0
 40
1.5
100
AcDbArc
 50
0.0
 51
68.318640999986968
  0
ARC
  5
1BF
100
AcDbEntity
  8
LAYER001
  6
CONTINUOUS
 62
               7
100
AcDbCircle
 10
9.8000160000000029
 20
187.80678100046237
 30
0.0
 40
2.0
100
AcDbArc
 50
89.999999999982705
 51
179.99999999996541
  0
ARC
  5
1C0
100
AcDbEntity
  8
LAYER001
  6
CONTINUOUS
 62
               7
100
AcDbCircle
 10
12.800016000000003
 20
187.80678100046237
 30
0.0
 40
2.0
100
AcDbArc
 50
0.0
 51
89.999999999982705
  0
ARC
  5
1C1
100
AcDbEntity
  8
LAYER001
  6
CONTINUOUS
 62
               7
100
AcDbCircle
 10
9.8000160000000029
 20
175.30678100046237
 30
0.0
 40
2.0
100
AcDbArc
 50
179.99999999996541
 51
269.9999999999485
  0
ARC
  5
1C2
100
AcDbEntity
  8
LAYER001
  6
CONTINUOUS
 62
               7
100
AcDbCircle
 10
12.800016000000003
 20
175.30678100046237
 30
0.0
 40
2.0
100
AcDbArc
 50
269.9999999999485
 51
359.9999999999992
  0
ARC
  5
1C3
100
AcDbEntity
  8
LAYER001
  6
CONTINUOUS
 62
               7
100
AcDbCircle
 10
9.8000160000000029
 20
168.30678100046237
 30
0.0
 40
2.0
100
AcDbArc
 50
89.999999999982705
 51
179.99999999996541
  0
ARC
  5
1C4
100
AcDbEntity
  8
LAYER001
  6
CONTINUOUS
 62
               7
100
AcDbCircle
 10
12.800016000000003
 20
168.30678100046237
 30
0.0
 40
2.0
100
AcDbArc
 50
0.0
 51
89.999999999982705
  0
ARC
  5
1C5
100
AcDbEntity
  8
LAYER001
  6
CONTINUOUS
 62
               7
100
AcDbCircle
 10
21.100016
 20
179.55678100046237
 30
0.0
 40
2.0
100
AcDbArc
 50
89.999999999982705
 51
179.99999999996541
  0
ARC
  5
1C6
100
AcDbEntity
  8
LAYER001
  6
CONTINUOUS
 62
               7
100
AcDbCircle
 10
24.110016000000005
 20
179.55678100046237
 30
0.0
 40
2.0
100
AcDbArc
 50
0.0
 51
89.999999999982705
  0
ARC
  5
1C7
100
AcDbEntity
  8
LAYER001
  6
CONTINUOUS
 62
               7
100
AcDbCircle
 10
24.110016000000005
 20
173.32434000046237
 30
0.0
 40
2.0
100
AcDbArc
 50
319.91970299993875
 51
359.9999999999992
  0
ARC
  5
1C8
100
AcDbEntity
  8
LAYER001
  6
CONTINUOUS
 62
               7
100
AcDbCircle
 10
21.100016
 20
186.55678100046237
 30
0.0
 40
2.0
100
AcDbArc
 50
179.99999999996541
 51
269.9999999999485
  0
ARC
  5
1C9
100
AcDbEntity
  8
LAYER001
  6
CONTINUOUS
 62
               7
100
AcDbCircle
 10
24.110016000000005
 20
186.55678100046237
 30
0.0
 40
2.0
100
AcDbArc
 50
269.9999999999481
 51
359.9999999999992
  0
ARC
  5
1CA
100
AcDbEntity
  8
LAYER001
  6
CONTINUOUS
 62
               7
100
AcDbCircle
 10
24.110016000000005
 20
188.11360100046238
 30
0.0
 40
2.0
100
AcDbArc
 50
0.0
 51
47.222357999991374
  0
ARC
  5
1CB
100
AcDbEntity
  8
LAYER001
  6
CONTINUOUS
 62
               7
100
AcDbCircle
 10
21.100016
 20
190.60568600046238
 30
0.0
 40
2.0
100
AcDbArc
 50
53.532536999989567
 51
179.99999999996541
  0
ARC
  5
1CC
100
AcDbEntity
  8
LAYER001
  6
CONTINUOUS
 62
               7
100
AcDbCircle
 10
20.764636999999997
 20
165.87140200046238
 30
0.0
 40
1.6646209999999999
100
AcDbArc
 50
179.99999999996538
 51
347.15951699993332
  0
LINE
  5
1CD
100
AcDbEntity
  8
LAYER001
  6
CONTINUOUS
 62
               7
100
AcDbLine
 10
-3.4999840000000093
 20
197.55678100046237
 30
0.0
 11
-3.4999840000000093
 21
185.05678100046237
 31
0.0
  0
ARC
  5
1CE
100
AcDbEntity
  8
LAYER001
  6
CONTINUOUS
 62
               7
100
AcDbCircle
 10
-1.4999840000000093
 20
185.05678100046237
 30
0.0
 40
2.0
100
AcDbArc
 50
179.99999999996541
 51
269.9999999999485
  0
ARC
  5
1CF
100
AcDbEntity
  8
LAYER001
  6
CONTINUOUS
 62
               7
100
AcDbCircle
 10
-1.4999840000000093
 20
178.05678100046237
 30
0.0
 40
2.0
100
AcDbArc
 50
89.999999999982705
 51
179.99999999996541
  0
LINE
  5
1D0
100
AcDbEntity
  8
LAYER001
  6
CONTINUOUS
 62
               7
100
AcDbLine
 10
-3.4999840000000093
 20
178.05678100046237
 30
0.0
 11
-3.4999840000000093
 21
174.05678100046237
 31
0.0
  0
ARC
  5
1D1
100
AcDbEntity
  8
LAYER001
  6
CONTINUOUS
 62
               7
100
AcDbCircle
 10
-9.7999840000000056
 20
196.17730200046236
 30
0.0
 40
2.0
100
AcDbArc
 50
0.0
 51
106.02497499997946
  0
LINE
  5
1D2
100
AcDbEntity
  8
LAYER001
  6
CONTINUOUS
 62
               7
100
AcDbLine
 10
-7.7999840000000065
 20
196.17730200046236
 30
0.0
 11
-7.7999840000000065
 21
194.80678100046237
 31
0.0
  0
ARC
  5
1D3
100
AcDbEntity
  8
LAYER001
  6
CONTINUOUS
 62
               7
100
AcDbCircle
 10
-9.7999840000000056
 20
194.80678100046237
 30
0.0
 40
2.0
100
AcDbArc
 50
269.9999999999485
 51
359.9999999999992
  0
LINE
  5
1D4
100
AcDbEntity
  8
LAYER001
  6
CONTINUOUS
 62
               7
100
AcDbLine
 10
-9.7999840000000056
 20
192.80678100046237
 30
0.0
 11
-12.799984000000006
 21
192.80678100046237
 31
0.0
  0
ARC
  5
1D5
100
AcDbEntity
  8
LAYER001
  6
CONTINUOUS
 62
               7
100
AcDbCircle
 10
-12.799984000000006
 20
194.80678100046237
 30
0.0
 40
2.0
100
AcDbArc
 50
179.99999999996541
 51
269.9999999999485
  0
ARC
  5
1D6
100
AcDbEntity
  8
LAYER001
  6
CONTINUOUS
 62
               7
100
AcDbCircle
 10
0.0000159999999907
 20
162.05678100046237
 30
0.0
 40
37.5
100
AcDbArc
 50
106.02497499997973
 51
111.68135899997866
  0
LINE
  5
1D7
100
AcDbEntity
  8
LAYER001
  6
CONTINUOUS
 62
               7
100
AcDbLine
 10
-14.799984000000006
 20
195.50988200046237
 30
0.0
 11
-14.799984000000006
 21
194.80678100046237
 31
0.0
  0
ARC
  5
1D8
100
AcDbEntity
  8
LAYER001
  6
CONTINUOUS
 62
               7
100
AcDbCircle
 10
-13.299984000000006
 20
195.50988200046237
 30
0.0
 40
1.5
100
AcDbArc
 50
111.68135899997857
 51
179.99999999996595
  0
ARC
  5
1D9
100
AcDbEntity
  8
LAYER001
  6
CONTINUOUS
 62
               7
100
AcDbCircle
 10
-9.7999840000000056
 20
187.80678100046237
 30
0.0
 40
2.0
100
AcDbArc
 50
0.0
 51
89.999999999982705
  0
LINE
  5
1DA
100
AcDbEntity
  8
LAYER001
  6
CONTINUOUS
 62
               7
100
AcDbLine
 10
-12.799984000000006
 20
189.80678100046237
 30
0.0
 11
-9.7999840000000056
 21
189.80678100046237
 31
0.0
  0
ARC
  5
1DB
100
AcDbEntity
  8
LAYER001
  6
CONTINUOUS
 62
               7
100
AcDbCircle
 10
-12.799984000000006
 20
187.80678100046237
 30
0.0
 40
2.0
100
AcDbArc
 50
89.999999999982705
 51
179.99999999996541
  0
LINE
  5
1DC
100
AcDbEntity
  8
LAYER001
  6
CONTINUOUS
 62
               7
100
AcDbLine
 10
-7.7999840000000065
 20
187.80678100046237
 30
0.0
 11
-7.7999840000000065
 21
175.30678100046237
 31
0.0
  0
ARC
  5
1DD
100
AcDbEntity
  8
LAYER001
  6
CONTINUOUS
 62
               7
100
AcDbCircle
 10
-9.7999840000000056
 20
175.30678100046237
 30
0.0
 40
2.0
100
AcDbArc
 50
269.9999999999485
 51
359.9999999999992
  0
LINE
  5
1DE
100
AcDbEntity
  8
LAYER001
  6
CONTINUOUS
 62
               7
100
AcDbLine
 10
-14.799984000000006
 20
187.80678100046237
 30
0.0
 11
-14.799984000000006
 21
175.30678100046237
 31
0.0
  0
LINE
  5
1DF
100
AcDbEntity
  8
LAYER001
  6
CONTINUOUS
 62
               7
100
AcDbLine
 10
-9.7999840000000056
 20
173.30678100046237
 30
0.0
 11
-12.799984000000006
 21
173.30678100046237
 31
0.0
  0
ARC
  5
1E0
100
AcDbEntity
  8
LAYER001
  6
CONTINUOUS
 62
               7
100
AcDbCircle
 10
-12.799984000000006
 20
175.30678100046237
 30
0.0
 40
2.0
100
AcDbArc
 50
179.99999999996541
 51
269.9999999999485
  0
ARC
  5
1E1
100
AcDbEntity
  8
LAYER001
  6
CONTINUOUS
 62
               7
100
AcDbCircle
 10
-9.7999840000000056
 20
168.30678100046237
 30
0.0
 40
2.0
100
AcDbArc
 50
0.0
 51
89.999999999982705
  0
LINE
  5
1E2
100
AcDbEntity
  8
LAYER001
  6
CONTINUOUS
 62
               7
100
AcDbLine
 10
-12.799984000000006
 20
170.30678100046237
 30
0.0
 11
-9.7999840000000056
 21
170.30678100046237
 31
0.0
  0
ARC
  5
1E3
100
AcDbEntity
  8
LAYER001
  6
CONTINUOUS
 62
               7
100
AcDbCircle
 10
-12.799984000000006
 20
168.30678100046237
 30
0.0
 40
2.0
100
AcDbArc
 50
89.999999999982705
 51
179.99999999996541
  0
LINE
  5
1E4
100
AcDbEntity
  8
LAYER001
  6
CONTINUOUS
 62
               7
100
AcDbLine
 10
-7.7999840000000065
 20
168.30678100046237
 30
0.0
 11
-7.7999840000000065
 21
162.05677300046236
 31
0.0
  0
LINE
  5
1E5
100
AcDbEntity
  8
LAYER001
  6
CONTINUOUS
 62
               7
100
AcDbLine
 10
-14.799984000000006
 20
168.30678100046237
 30
0.0
 11
-14.799984000000006
 21
162.05677856948037
 31
0.0
  0
ARC
  5
1E6
100
AcDbEntity
  8
LAYER001
  6
CONTINUOUS
 62
               7
100
AcDbCircle
 10
-21.099984000000003
 20
179.55678100046237
 30
0.0
 40
2.0
100
AcDbArc
 50
0.0
 51
89.999999999982705
  0
LINE
  5
1E7
100
AcDbEntity
  8
LAYER001
  6
CONTINUOUS
 62
               7
100
AcDbLine
 10
-21.099984000000003
 20
181.55678100046237
 30
0.0
 11
-24.109984000000008
 21
181.55678100046237
 31
0.0
  0
ARC
  5
1E8
100
AcDbEntity
  8
LAYER001
  6
CONTINUOUS
 62
               7
100
AcDbCircle
 10
-24.109984000000008
 20
179.55678100046237
 30
0.0
 40
2.0
100
AcDbArc
 50
89.999999999982705
 51
179.99999999996541
  0
LINE
  5
1E9
100
AcDbEntity
  8
LAYER001
  6
CONTINUOUS
 62
               7
100
AcDbLine
 10
-26.109984000000008
 20
179.55678100046237
 30
0.0
 11
-26.109984000000008
 21
173.32434000046237
 31
0.0
  0
ARC
  5
1EA
100
AcDbEntity
  8
LAYER001
  6
CONTINUOUS
 62
               7
100
AcDbCircle
 10
-24.109984000000008
 20
173.32434000046237
 30
0.0
 40
2.0
100
AcDbArc
 50
179.99999999996541
 51
220.08029699995802
  0
ARC
  5
1EB
100
AcDbEntity
  8
LAYER001
  6
CONTINUOUS
 62
               7
100
AcDbCircle
 10
-21.099984000000003
 20
186.55678100046237
 30
0.0
 40
2.0
100
AcDbArc
 50
269.9999999999485
 51
359.9999999999992
  0
LINE
  5
1EC
100
AcDbEntity
  8
LAYER001
  6
CONTINUOUS
 62
               7
100
AcDbLine
 10
-24.109984000000008
 20
184.55678100046237
 30
0.0
 11
-21.099984000000003
 21
184.55678100046237
 31
0.0
  0
ARC
  5
1ED
100
AcDbEntity
  8
LAYER001
  6
CONTINUOUS
 62
               7
100
AcDbCircle
 10
-24.109984000000008
 20
186.55678100046237
 30
0.0
 40
2.0
100
AcDbArc
 50
179.99999999996541
 51
269.9999999999485
  0
LINE
  5
1EE
100
AcDbEntity
  8
LAYER001
  6
CONTINUOUS
 62
               7
100
AcDbLine
 10
-26.109984000000008
 20
188.11360100046238
 30
0.0
 11
-26.109984000000008
 21
186.55678100046237
 31
0.0
  0
ARC
  5
1EF
100
AcDbEntity
  8
LAYER001
  6
CONTINUOUS
 62
               7
100
AcDbCircle
 10
-24.109984000000008
 20
188.11360100046238
 30
0.0
 40
2.0
100
AcDbArc
 50
132.77764199997452
 51
179.99999999996541
  0
ARC
  5
1F0
100
AcDbEntity
  8
LAYER001
  6
CONTINUOUS
 62
               7
100
AcDbCircle
 10
0.0000159999999907
 20
162.05678100046237
 30
0.0
 40
37.5
100
AcDbArc
 50
126.46746299997581
 51
132.77764199997461
  0
LINE
  5
1F1
100
AcDbEntity
  8
LAYER001
  6
CONTINUOUS
 62
               7
100
AcDbLine
 10
-19.099984000000003
 20
190.60568600046238
 30
0.0
 11
-19.099984000000003
 21
186.55678100046237
 31
0.0
  0
ARC
  5
1F2
100
AcDbEntity
  8
LAYER001
  6
CONTINUOUS
 62
               7
100
AcDbCircle
 10
-21.099984000000003
 20
190.60568600046238
 30
0.0
 40
2.0
100
AcDbArc
 50
0.0
 51
126.46746299997569
  0
ARC
  5
1F3
100
AcDbEntity
  8
LAYER001
  6
CONTINUOUS
 62
               7
100
AcDbCircle
 10
-37.499984000000012
 20
162.05678100046237
 30
0.0
 40
15.5
100
AcDbArc
 50
10.419339999997987
 51
40.080296999992335
  0
LINE
  5
1F4
100
AcDbEntity
  8
LAYER001
  6
CONTINUOUS
 62
               7
100
AcDbLine
 10
-19.099984000000003
 20
179.55678100046237
 30
0.0
 11
-19.099984000000003
 21
165.14769100046237
 31
0.0
  0
ARC
  5
1F5
100
AcDbEntity
  8
LAYER001
  6
CONTINUOUS
 62
               7
100
AcDbCircle
 10
-20.690893999999997
 20
165.14769100046237
 30
0.0
 40
1.59091
100
AcDbArc
 50
190.41933999996411
 51
359.9999999999992
  0
LINE
  5
1F6
100
AcDbEntity
  8
LAYER001
  6
CONTINUOUS
 62
               7
100
AcDbLine
 10
-1.4999840000000093
 20
199.55678100046237
 30
0.0
 11
1.5000159999999907
 21
199.55678100046237
 31
0.0
  0
ARC
  5
1F7
100
AcDbEntity
  8
LAYER001
  6
CONTINUOUS
 62
               7
100
AcDbCircle
 10
-1.4999840000000093
 20
197.55678100046237
 30
0.0
 40
2.0
100
AcDbArc
 50
89.999999999982705
 51
179.99999999996541
  0
ARC
  5
1F8
100
AcDbEntity
  8
LAYER001
  6
CONTINUOUS
 62
               7
100
AcDbCircle
 10
1.5000159999999907
 20
197.55678100046237
 30
0.0
 40
2.0
100
AcDbArc
 50
0.0
 51
89.999999999982705
  0
LINE
  5
1F9
100
AcDbEntity
  8
LAYER001
  6
CONTINUOUS
 62
               7
100
AcDbLine
 10
-1.4999840000000093
 20
172.05678100046237
 30
0.0
 11
1.5000159999999907
 21
172.05678100046237
 31
0.0
  0
ARC
  5
1FA
100
AcDbEntity
  8
LAYER001
  6
CONTINUOUS
 62
               7
100
AcDbCircle
 10
-1.4999840000000093
 20
174.05678100046237
 30
0.0
 40
2.0
100
AcDbArc
 50
179.99999999996541
 51
269.9999999999485
  0
ARC
  5
1FB
100
AcDbEntity
  8
LAYER001
  6
CONTINUOUS
 62
               7
100
AcDbCircle
 10
1.5000159999999907
 20
174.05678100046237
 30
0.0
 40
2.0
100
AcDbArc
 50
269.9999999999485
 51
359.9999999999992
  0
ARC
  5
1FC
100
AcDbEntity
  8
LAYER001
  6
CONTINUOUS
 62
               7
100
AcDbCircle
 10
31.91
 20
176.55677300046236
 30
0.0
 40
1.5
100
AcDbArc
 50
179.99999999996595
 51
269.99999999994833
  0
LINE
  5
1FD
100
AcDbEntity
  8
LAYER001
  6
CONTINUOUS
 62
               7
100
AcDbLine
 10
31.91
 20
175.05677300046236
 30
0.0
 11
32.950720999999987
 21
175.05677300046236
 31
0.0
  0
ARC
  5
1FE
100
AcDbEntity
  8
LAYER001
  6
CONTINUOUS
 62
               7
100
AcDbCircle
 10
32.950720999999987
 20
176.55677300046236
 30
0.0
 40
1.5
100
AcDbArc
 50
269.99999999994833
 51
383.75194599999526
  0
ARC
  5
1FF
100
AcDbEntity
  8
LAYER001
  6
CONTINUOUS
 62
               7
100
AcDbCircle
 10
0.0000000000000027
 20
162.05677300046236
 30
0.0
 40
37.5
100
AcDbArc
 50
23.751945999995439
 51
30.621837999994142
  0
LINE
  5
200
100
AcDbEntity
  8
LAYER001
  6
CONTINUOUS
 62
               7
100
AcDbLine
 10
30.41
 20
180.64875700046238
 30
0.0
 11
30.41
 21
176.55677300046236
 31
0.0
  0
ARC
  5
201
100
AcDbEntity
  8
LAYER001
  6
CONTINUOUS
 62
               7
100
AcDbCircle
 10
31.41
 20
180.64875700046238
 30
0.0
 40
1.0
100
AcDbArc
 50
30.621837999994181
 51
179.99999999996541
  0
ARC
  5
202
100
AcDbEntity
  8
LAYER001
  6
CONTINUOUS
 62
               7
100
AcDbCircle
 10
-31.909984000000005
 20
176.55677300046236
 30
0.0
 40
1.5
100
AcDbArc
 50
269.99999999994833
 51
359.9999999999992
  0
LINE
  5
203
100
AcDbEntity
  8
LAYER001
  6
CONTINUOUS
 62
               7
100
AcDbLine
 10
-31.909984000000005
 20
175.05677300046236
 30
0.0
 11
-32.950704999999999
 21
175.05677300046236
 31
0.0
  0
ARC
  5
204
100
AcDbEntity
  8
LAYER001
  6
CONTINUOUS
 62
               7
100
AcDbCircle
 10
-32.950704999999999
 20
176.55677300046236
 30
0.0
 40
1.5
100
AcDbArc
 50
156.24805399997044
 51
269.99999999994833
  0
ARC
  5
205
100
AcDbEntity
  8
LAYER001
  6
CONTINUOUS
 62
               7
100
AcDbCircle
 10
0.0000159999999907
 20
162.05677300046236
 30
0.0
 40
37.5
100
AcDbArc
 50
149.37816199997147
 51
156.24805399997015
  0
LINE
  5
206
100
AcDbEntity
  8
LAYER001
  6
CONTINUOUS
 62
               7
100
AcDbLine
 10
-30.409984000000005
 20
180.64875700046238
 30
0.0
 11
-30.409984000000005
 21
176.55677300046236
 31
0.0
  0
ARC
  5
207
100
AcDbEntity
  8
LAYER001
  6
CONTINUOUS
 62
               7
100
AcDbCircle
 10
-31.409984000000005
 20
180.64875700046238
 30
0.0
 40
1.0
100
AcDbArc
 50
0.0
 51
149.37816199997107
  0
LINE
  5
208
100
AcDbEntity
  8
LAYER001
  6
CONTINUOUS
 62
               7
100
AcDbLine
 10
-3.8609190000000071
 20
158.32199700046237
 30
0.0
 11
-3.8609190000000071
 21
159.75387500046236
 31
0.0
  0
LINE
  5
209
100
AcDbEntity
  8
LAYER001
  6
CONTINUOUS
 62
               7
100
AcDbLine
 10
-3.8609190000000071
 20
158.32154400046238
 30
0.0
 11
0.5574479999999964
 21
158.32154400046238
 31
0.0
  0
LINE
  5
20A
100
AcDbEntity
  8
LAYER001
  6
CONTINUOUS
 62
               7
100
AcDbLine
 10
0.4367240000000008
 20
160.45138400046238
 30
0.0
 11
-0.7602540000000007
 21
160.45138400046238
 31
0.0
  0
LINE
  5
20B
100
AcDbEntity
  8
LAYER001
  6
CONTINUOUS
 62
               7
100
AcDbLine
 10
-1.3721849999999991
 20
161.01415100046236
 30
0.0
 11
-1.3721849999999991
 21
165.91666900046238
 31
0.0
  0
LINE
  5
20C
100
AcDbEntity
  8
LAYER001
  6
CONTINUOUS
 62
               7
100
AcDbLine
 10
-1.3721849999999991
 20
165.91666900046238
 30
0.0
 11
0.1073699999999915
 21
165.91666900046238
 31
0.0
  0
LINE
  5
20D
100
AcDbEntity
  8
LAYER001
  6
CONTINUOUS
 62
               7
100
AcDbLine
 10
0.1073699999999915
 20
165.91666900046238
 30
0.0
 11
0.1073699999999915
 21
162.25460600046236
 31
0.0
  0
LINE
  5
20E
100
AcDbEntity
  8
LAYER001
  6
CONTINUOUS
 62
               7
100
AcDbLine
 10
-1.7383210000000107
 20
163.85755100046237
 30
0.0
 11
-1.7383210000000107
 21
164.36544800046238
 31
0.0
  0
LINE
  5
20F
100
AcDbEntity
  8
LAYER001
  6
CONTINUOUS
 62
               7
100
AcDbLine
 10
-1.7383210000000107
 20
164.36544800046238
 30
0.0
 11
-3.2898120000000093
 21
164.36544800046238
 31
0.0
  0
LINE
  5
210
100
AcDbEntity
  8
LAYER001
  6
CONTINUOUS
 62
               7
100
AcDbLine
 10
-3.2898120000000093
 20
164.36544800046238
 30
0.0
 11
-1.7352200000000098
 21
164.75884700046237
 31
0.0
  0
LINE
  5
211
100
AcDbEntity
  8
LAYER001
  6
CONTINUOUS
 62
               7
100
AcDbLine
 10
-1.7352200000000098
 20
164.75884700046237
 30
0.0
 11
-1.7352200000000098
 21
165.02073500046237
 31
0.0
  0
LINE
  5
212
100
AcDbEntity
  8
LAYER001
  6
CONTINUOUS
 62
               7
100
AcDbLine
 10
-1.7352200000000098
 20
165.02073500046237
 30
0.0
 11
-3.2676140000000062
 21
165.40263100046238
 31
0.0
  0
LINE
  5
213
100
AcDbEntity
  8
LAYER001
  6
CONTINUOUS
 62
               7
100
AcDbLine
 10
-3.2676140000000062
 20
165.40263100046238
 30
0.0
 11
-1.7383210000000107
 21
165.40263100046238
 31
0.0
  0
LINE
  5
214
100
AcDbEntity
  8
LAYER001
  6
CONTINUOUS
 62
               7
100
AcDbLine
 10
-1.7383210000000107
 20
165.40263100046238
 30
0.0
 11
-1.7383210000000107
 21
165.91052800046236
 31
0.0
  0
LINE
  5
215
100
AcDbEntity
  8
LAYER001
  6
CONTINUOUS
 62
               7
100
AcDbLine
 10
-1.7383210000000107
 20
165.91052800046236
 30
0.0
 11
-3.8651130000000053
 21
165.91052800046236
 31
0.0
  0
LINE
  5
216
100
AcDbEntity
  8
LAYER001
  6
CONTINUOUS
 62
               7
100
AcDbLine
 10
-3.8651130000000053
 20
165.91052800046236
 30
0.0
 11
-3.8651130000000053
 21
165.10293800046236
 31
0.0
  0
LINE
  5
217
100
AcDbEntity
  8
LAYER001
  6
CONTINUOUS
 62
               7
100
AcDbLine
 10
-3.8651130000000053
 20
165.10293800046236
 30
0.0
 11
-3.0010830000000057
 21
164.89086900046237
 31
0.0
  0
LINE
  5
218
100
AcDbEntity
  8
LAYER001
  6
CONTINUOUS
 62
               7
100
AcDbLine
 10
-3.0010830000000057
 20
164.88871300046236
 30
0.0
 11
-3.8651130000000053
 21
164.67664400046237
 31
0.0
  0
LINE
  5
219
100
AcDbEntity
  8
LAYER001
  6
CONTINUOUS
 62
               7
100
AcDbLine
 10
-3.8651130000000053
 20
164.67664400046237
 30
0.0
 11
-3.8651130000000053
 21
163.85755100046237
 31
0.0
  0
LINE
  5
21A
100
AcDbEntity
  8
LAYER001
  6
CONTINUOUS
 62
               7
100
AcDbLine
 10
-3.8651130000000053
 20
163.85755100046237
 30
0.0
 11
-1.7383210000000107
 21
163.85755100046237
 31
0.0
  0
LINE
  5
21B
100
AcDbEntity
  8
LAYER001
  6
CONTINUOUS
 62
               7
100
AcDbLine
 10
-3.873321999999999
 20
163.29083100046236
 30
0.0
 11
-3.873321999999999
 21
162.45952700046237
 31
0.0
  0
LINE
  5
21C
100
AcDbEntity
  8
LAYER001
  6
CONTINUOUS
 62
               7
100
AcDbLine
 10
-2.3248190000000024
 20
163.05038600046237
 30
0.0
 11
-3.2763409999999995
 21
163.05038600046237
 31
0.0
  0
LINE
  5
21D
100
AcDbEntity
  8
LAYER001
  6
CONTINUOUS
 62
               7
100
AcDbLine
 10
-3.489927000000006
 20
162.98648300046236
 30
0.0
 11
-3.489927000000006
 21
162.77204900046237
 31
0.0
  0
LINE
  5
21E
100
AcDbEntity
  8
LAYER001
  6
CONTINUOUS
 62
               7
100
AcDbLine
 10
-3.1581500000000036
 20
161.90700900046238
 30
0.0
 11
-3.1581500000000036
 21
161.36453700046238
 31
0.0
  0
LINE
  5
21F
100
AcDbEntity
  8
LAYER001
  6
CONTINUOUS
 62
               7
100
AcDbLine
 10
-2.4191200000000039
 20
161.36386400046237
 30
0.0
 11
-2.4191200000000039
 21
161.90970100046238
 31
0.0
  0
LINE
  5
220
100
AcDbEntity
  8
LAYER001
  6
CONTINUOUS
 62
               7
100
AcDbLine
 10
-2.4191200000000039
 20
161.90970100046238
 30
0.0
 11
-2.0372800000000071
 21
161.90970100046238
 31
0.0
  0
LINE
  5
221
100
AcDbEntity
  8
LAYER001
  6
CONTINUOUS
 62
               7
100
AcDbLine
 10
-2.0372800000000071
 20
160.46869300046237
 30
0.0
 11
-3.5613950000000019
 21
160.46869300046237
 31
0.0
  0
LINE
  5
222
100
AcDbEntity
  8
LAYER001
  6
CONTINUOUS
 62
               7
100
AcDbLine
 10
-3.8657420000000089
 20
160.77304000046237
 30
0.0
 11
-3.8657420000000089
 21
161.60535300046237
 31
0.0
  0
ARC
  5
223
100
AcDbEntity
  8
LAYER001
  6
CONTINUOUS
 62
               7
100
AcDbCircle
 10
-3.5613950000000019
 20
160.77304000046237
 30
0.0
 40
0.304348
100
AcDbArc
 50
179.99999999996751
 51
269.99999999994856
  0
LINE
  5
224
100
AcDbEntity
  8
LAYER001
  6
CONTINUOUS
 62
               7
100
AcDbLine
 10
-3.1581500000000036
 20
161.90970100046238
 30
0.0
 11
-3.5613950000000019
 21
161.90970100046238
 31
0.0
  0
ARC
  5
225
100
AcDbEntity
  8
LAYER001
  6
CONTINUOUS
 62
               7
100
AcDbCircle
 10
-3.5613950000000019
 20
161.60535300046237
 30
0.0
 40
0.304348
100
AcDbArc
 50
89.999999999983757
 51
179.99999999996751
  0
LINE
  5
226
100
AcDbEntity
  8
LAYER001
  6
CONTINUOUS
 62
               7
100
AcDbLine
 10
-1.7329320000000026
 20
160.77304000046237
 30
0.0
 11
-1.7329320000000026
 21
161.60535300046237
 31
0.0
  0
ARC
  5
227
100
AcDbEntity
  8
LAYER001
  6
CONTINUOUS
 62
               7
100
AcDbCircle
 10
-2.0372800000000071
 20
160.77304000046237
 30
0.0
 40
0.304348
100
AcDbArc
 50
269.99999999994856
 51
359.9999999999992
  0
ARC
  5
228
100
AcDbEntity
  8
LAYER001
  6
CONTINUOUS
 62
               7
100
AcDbCircle
 10
-2.0372800000000071
 20
161.60535300046237
 30
0.0
 40
0.304348
100
AcDbArc
 50
0.0
 51
89.999999999983757
  0
LINE
  5
229
100
AcDbEntity
  8
LAYER001
  6
CONTINUOUS
 62
               7
100
AcDbLine
 10
-3.5689740000000088
 20
162.15517900046237
 30
0.0
 11
-2.044166999999999
 21
162.15517900046237
 31
0.0
  0
LINE
  5
22A
100
AcDbEntity
  8
LAYER001
  6
CONTINUOUS
 62
               7
100
AcDbLine
 10
-1.7398190000000087
 20
162.45952700046237
 30
0.0
 11
-1.7398190000000087
 21
163.29083100046236
 31
0.0
  0
LINE
  5
22B
100
AcDbEntity
  8
LAYER001
  6
CONTINUOUS
 62
               7
100
AcDbLine
 10
-2.044166999999999
 20
163.59517900046237
 30
0.0
 11
-3.5689740000000088
 21
163.59517900046237
 31
0.0
  0
ARC
  5
22C
100
AcDbEntity
  8
LAYER001
  6
CONTINUOUS
 62
               7
100
AcDbCircle
 10
-3.5689740000000088
 20
162.45952700046237
 30
0.0
 40
0.304348
100
AcDbArc
 50
179.99999999996751
 51
269.99999999994856
  0
ARC
  5
22D
100
AcDbEntity
  8
LAYER001
  6
CONTINUOUS
 62
               7
100
AcDbCircle
 10
-3.5689740000000088
 20
163.29083100046236
 30
0.0
 40
0.304348
100
AcDbArc
 50
89.999999999983757
 51
179.99999999996751
  0
ARC
  5
22E
100
AcDbEntity
  8
LAYER001
  6
CONTINUOUS
 62
               7
100
AcDbCircle
 10
-2.044166999999999
 20
162.45952700046237
 30
0.0
 40
0.304348
100
AcDbArc
 50
269.99999999994856
 51
359.9999999999992
  0
ARC
  5
22F
100
AcDbEntity
  8
LAYER001
  6
CONTINUOUS
 62
               7
100
AcDbCircle
 10
-2.044166999999999
 20
163.29083100046236
 30
0.0
 40
0.304348
100
AcDbArc
 50
0.0
 51
89.999999999983757
  0
ARC
  5
230
100
AcDbEntity
  8
LAYER001
  6
CONTINUOUS
 62
               7
100
AcDbCircle
 10
-3.2799340000000088
 20
162.37524000046238
 30
0.0
 40
0.675155
100
AcDbArc
 50
89.695009999983313
 51
98.731642999981233
  0
ARC
  5
231
100
AcDbEntity
  8
LAYER001
  6
CONTINUOUS
 62
               7
100
AcDbCircle
 10
-3.3508869999999975
 20
162.81109200046237
 30
0.0
 40
0.233617
100
AcDbArc
 50
97.759080999981904
 51
119.98554399997823
  0
ARC
  5
232
100
AcDbEntity
  8
LAYER001
  6
CONTINUOUS
 62
               7
100
AcDbCircle
 10
-3.4283790000000041
 20
162.95829500046236
 30
0.0
 40
0.067696
100
AcDbArc
 50
125.45260699997533
 51
155.39268699997774
  0
ARC
  5
233
100
AcDbEntity
  8
LAYER001
  6
CONTINUOUS
 62
               7
100
AcDbCircle
 10
-3.2799340000000088
 20
163.38329200046238
 30
0.0
 40
0.675155
100
AcDbArc
 50
261.26835699994973
 51
270.46741399994801
  0
ARC
  5
234
100
AcDbEntity
  8
LAYER001
  6
CONTINUOUS
 62
               7
100
AcDbCircle
 10
-3.3508869999999975
 20
162.94744000046236
 30
0.0
 40
0.233617
100
AcDbArc
 50
240.01445599995569
 51
262.24091899995074
  0
ARC
  5
235
100
AcDbEntity
  8
LAYER001
  6
CONTINUOUS
 62
               7
100
AcDbCircle
 10
-3.4283790000000041
 20
162.80023700046237
 30
0.0
 40
0.067696
100
AcDbArc
 50
204.60731299996269
 51
234.5473929999568
  0
LINE
  5
236
100
AcDbEntity
  8
LAYER001
  6
CONTINUOUS
 62
               7
100
AcDbLine
 10
-3.2744270000000002
 20
162.70815900046236
 30
0.0
 11
-2.3248190000000024
 21
162.70815900046236
 31
0.0
  0
LINE
  5
237
100
AcDbEntity
  8
LAYER001
  6
CONTINUOUS
 62
               7
100
AcDbLine
 10
-2.1234600000000059
 20
162.83057000046236
 30
0.0
 11
-2.1234600000000059
 21
162.92797500046237
 31
0.0
  0
ARC
  5
238
100
AcDbEntity
  8
LAYER001
  6
CONTINUOUS
 62
               7
100
AcDbCircle
 10
-2.3357220000000014
 20
163.28763900046238
 30
0.0
 40
0.579583
100
AcDbArc
 50
271.07788699994848
 51
285.1584829999461
  0
ARC
  5
239
100
AcDbEntity
  8
LAYER001
  6
CONTINUOUS
 62
               7
100
AcDbCircle
 10
-2.216545000000008
 20
162.84842200046236
 30
0.0
 40
0.124484
100
AcDbArc
 50
285.07586699994499
 51
309.33215599993719
  0
ARC
  5
23A
100
AcDbEntity
  8
LAYER001
  6
CONTINUOUS
 62
               7
100
AcDbCircle
 10
-2.1676730000000051
 20
162.78014100046238
 30
0.0
 40
0.041061
100
AcDbArc
 50
316.99614599995124
 51
354.8891549999405
  0
ARC
  5
23B
100
AcDbEntity
  8
LAYER001
  6
CONTINUOUS
 62
               7
100
AcDbCircle
 10
-2.5727790000000086
 20
162.83097000046237
 30
0.0
 40
0.449319
100
AcDbArc
 50
353.03486499993375
 51
359.94900399993213
  0
ARC
  5
23C
100
AcDbEntity
  8
LAYER001
  6
CONTINUOUS
 62
               7
100
AcDbCircle
 10
-2.3357220000000014
 20
162.47090500046238
 30
0.0
 40
0.579583
100
AcDbArc
 50
74.841516999986325
 51
88.922112999983256
  0
ARC
  5
23D
100
AcDbEntity
  8
LAYER001
  6
CONTINUOUS
 62
               7
100
AcDbCircle
 10
-2.216545000000008
 20
162.91012300046236
 30
0.0
 40
0.124484
100
AcDbArc
 50
50.667843999988342
 51
74.924132999984224
  0
ARC
  5
23E
100
AcDbEntity
  8
LAYER001
  6
CONTINUOUS
 62
               7
100
AcDbCircle
 10
-2.1676730000000051
 20
162.97840400046238
 30
0.0
 40
0.041061
100
AcDbArc
 50
5.1108450000174228
 51
43.003853999991868
  0
ARC
  5
23F
100
AcDbEntity
  8
LAYER001
  6
CONTINUOUS
 62
               7
100
AcDbCircle
 10
-2.5727790000000086
 20
162.92757500046238
 30
0.0
 40
0.449319
100
AcDbArc
 50
0.0509959999982509
 51
6.9651349999998287
  0
ARC
  5
240
100
AcDbEntity
  8
LAYER001
  6
CONTINUOUS
 62
               7
100
AcDbCircle
 10
-3.2720000000000029
 20
160.68871800046236
 30
0.0
 40
0.675155
100
AcDbArc
 50
89.695009999983313
 51
98.731642999981233
  0
ARC
  5
241
100
AcDbEntity
  8
LAYER001
  6
CONTINUOUS
 62
               7
100
AcDbCircle
 10
-3.3429530000000058
 20
161.12457000046237
 30
0.0
 40
0.233617
100
AcDbArc
 50
97.759080999981904
 51
119.98554399997823
  0
ARC
  5
242
100
AcDbEntity
  8
LAYER001
  6
CONTINUOUS
 62
               7
100
AcDbCircle
 10
-3.4204449999999982
 20
161.27177300046236
 30
0.0
 40
0.067696
100
AcDbArc
 50
125.45260699997533
 51
155.39268699997774
  0
ARC
  5
243
100
AcDbEntity
  8
LAYER001
  6
CONTINUOUS
 62
               7
100
AcDbCircle
 10
-3.3429530000000058
 20
161.26091800046237
 30
0.0
 40
0.233617
100
AcDbArc
 50
240.01445599995569
 51
262.24091899995074
  0
ARC
  5
244
100
AcDbEntity
  8
LAYER001
  6
CONTINUOUS
 62
               7
100
AcDbCircle
 10
-3.4204449999999982
 20
161.11371500046238
 30
0.0
 40
0.067696
100
AcDbArc
 50
204.60731299996269
 51
234.5473929999568
  0
ARC
  5
245
100
AcDbEntity
  8
LAYER001
  6
CONTINUOUS
 62
               7
100
AcDbCircle
 10
-3.2720000000000029
 20
161.69677000046238
 30
0.0
 40
0.675155
100
AcDbArc
 50
261.26835699994973
 51
270.46741399994801
  0
LINE
  5
246
100
AcDbEntity
  8
LAYER001
  6
CONTINUOUS
 62
               7
100
AcDbLine
 10
-3.4819930000000001
 20
161.29996200046236
 30
0.0
 11
-3.4819930000000001
 21
161.08552700046238
 31
0.0
  0
LINE
  5
247
100
AcDbEntity
  8
LAYER001
  6
CONTINUOUS
 62
               7
100
AcDbLine
 10
-3.2684060000000104
 20
161.36386400046237
 30
0.0
 11
-3.1581500000000036
 21
161.36386400046237
 31
0.0
  0
LINE
  5
248
100
AcDbEntity
  8
LAYER001
  6
CONTINUOUS
 62
               7
100
AcDbLine
 10
-3.2664919999999968
 20
161.02163700046236
 30
0.0
 11
-2.3172100000000002
 21
161.02163700046236
 31
0.0
  0
ARC
  5
249
100
AcDbEntity
  8
LAYER001
  6
CONTINUOUS
 62
               7
100
AcDbCircle
 10
-2.3281129999999992
 20
161.60111800046238
 30
0.0
 40
0.579583
100
AcDbArc
 50
271.07788699994848
 51
285.1584829999461
  0
ARC
  5
24A
100
AcDbEntity
  8
LAYER001
  6
CONTINUOUS
 62
               7
100
AcDbCircle
 10
-2.2089360000000058
 20
161.16190000046237
 30
0.0
 40
0.124484
100
AcDbArc
 50
285.07586699994499
 51
309.33215599993719
  0
ARC
  5
24B
100
AcDbEntity
  8
LAYER001
  6
CONTINUOUS
 62
               7
100
AcDbCircle
 10
-2.1600650000000003
 20
161.09361900046238
 30
0.0
 40
0.041061
100
AcDbArc
 50
316.99614599995124
 51
354.8891549999405
  0
ARC
  5
24C
100
AcDbEntity
  8
LAYER001
  6
CONTINUOUS
 62
               7
100
AcDbCircle
 10
-2.5651700000000064
 20
161.14444900046237
 30
0.0
 40
0.449319
100
AcDbArc
 50
353.03486499993375
 51
359.94900399993213
  0
ARC
  5
24D
100
AcDbEntity
  8
LAYER001
  6
CONTINUOUS
 62
               7
100
AcDbCircle
 10
-2.3281129999999992
 20
160.78438400046238
 30
0.0
 40
0.579583
100
AcDbArc
 50
74.841516999986325
 51
88.922112999983256
  0
ARC
  5
24E
100
AcDbEntity
  8
LAYER001
  6
CONTINUOUS
 62
               7
100
AcDbCircle
 10
-2.2089360000000058
 20
161.22360100046237
 30
0.0
 40
0.124484
100
AcDbArc
 50
50.667843999988342
 51
74.924132999984224
  0
ARC
  5
24F
100
AcDbEntity
  8
LAYER001
  6
CONTINUOUS
 62
               7
100
AcDbCircle
 10
-2.1600650000000003
 20
161.29188200046238
 30
0.0
 40
0.041061
100
AcDbArc
 50
5.1108450000174228
 51
43.003853999991868
  0
ARC
  5
250
100
AcDbEntity
  8
LAYER001
  6
CONTINUOUS
 62
               7
100
AcDbCircle
 10
-2.5651700000000064
 20
161.24105300046236
 30
0.0
 40
0.449319
100
AcDbArc
 50
0.0509959999982509
 51
6.9651349999998287
  0
LINE
  5
251
100
AcDbEntity
  8
LAYER001
  6
CONTINUOUS
 62
               7
100
AcDbLine
 10
-2.1158510000000037
 20
161.14404900046236
 30
0.0
 11
-2.1158510000000037
 21
161.24145300046237
 31
0.0
  0
LINE
  5
252
100
AcDbEntity
  8
LAYER001
  6
CONTINUOUS
 62
               7
100
AcDbLine
 10
-2.3172100000000002
 20
161.36386400046237
 30
0.0
 11
-2.4191200000000039
 21
161.36386400046237
 31
0.0
  0
ARC
  5
253
100
AcDbEntity
  8
LAYER001
  6
CONTINUOUS
 62
               7
100
AcDbCircle
 10
-0.7238319999999989
 20
161.10506500046236
 30
0.0
 40
0.654695
100
AcDbArc
 50
187.98212499996419
 51
266.81094599994879
  0
ARC
  5
254
100
AcDbEntity
  8
LAYER001
  6
CONTINUOUS
 62
               7
100
AcDbCircle
 10
0.4136559999999916
 20
160.10295100046238
 30
0.0
 40
0.349195
100
AcDbArc
 50
268.50222199994869
 51
446.21227299998304
  0
LINE
  5
255
100
AcDbEntity
  8
LAYER001
  6
CONTINUOUS
 62
               7
100
AcDbLine
 10
0.4045289999999993
 20
159.75387500046236
 30
0.0
 11
-3.8609190000000071
 21
159.75387500046236
 31
0.0
  0
ARC
  5
256
100
AcDbEntity
  8
LAYER001
  6
CONTINUOUS
 62
               7
100
AcDbCircle
 10
0.5774890000000026
 20
162.25546200046236
 30
0.0
 40
0.47012
100
AcDbArc
 50
180.10421699996394
 51
214.90013699995885
  0
ARC
  5
257
100
AcDbEntity
  8
LAYER001
  6
CONTINUOUS
 62
               7
100
AcDbCircle
 10
0.4642379999999973
 20
162.21880100046238
 30
0.0
 40
0.35795
100
AcDbArc
 50
220.46781599995967
 51
271.5790089999478
  0
ARC
  5
258
100
AcDbEntity
  8
LAYER001
  6
CONTINUOUS
 62
               7
100
AcDbCircle
 10
0.5002289999999929
 20
160.10620000046237
 30
0.0
 40
1.75498
100
AcDbArc
 50
8.3281729999985536
 51
90.85302599998262
  0
ARC
  5
259
100
AcDbEntity
  8
LAYER001
  6
CONTINUOUS
 62
               7
100
AcDbCircle
 10
0.4897579999999975
 20
160.08826200046238
 30
0.0
 40
1.768014
100
AcDbArc
 50
272.19415599994807
 51
368.85422699999782
  0
ELLIPSE
  5
25A
100
AcDbEntity
  8
LAYER001
  6
CONTINUOUS
 62
               7
100
AcDbEllipse
 10
0.0000159999999907
 20
162.05675100046238
 30
0.0
 11
1.695230275614179
 21
-4.6576069030257656
 31
0.0
210
0.0
220
0.0
230
1.0
 40
0.5438599999999996
 41
5.6025769877894209
 42
9.6324738471232418
  0
ELLIPSE
  5
25B
100
AcDbEntity
  8
LAYER001
  6
CONTINUOUS
 62
               7
100
AcDbEllipse
 10
0.0000159999999907
 20
162.05675100046238
 30
0.0
 11
1.7844529216991276
 21
-4.9027441084481893
 31
0.0
210
0.0
220
0.0
230
1.0
 40
0.5666669999999998
 41
5.5845956283909102
 42
9.6447957894924681
  0
ARC
  5
25C
100
AcDbEntity
  8
LAYER001
  6
CONTINUOUS
 62
               7
100
AcDbCircle
 10
-0.3535120000000065
 20
157.75804500046237
 30
0.0
 40
0.125217
100
AcDbArc
 50
52.017939999989316
 51
237.75533399995106
  0
ARC
  5
25D
100
AcDbEntity
  8
LAYER001
  6
CONTINUOUS
 62
               7
100
AcDbCircle
 10
-2.2713420000000015
 20
166.51652600046236
 30
0.0
 40
0.12913
100
AcDbArc
 50
126.28353599997862
 51
314.32277599994143
  0
ARC
  5
25E
100
AcDbEntity
  8
LAYER001
  6
CONTINUOUS
 62
               7
100
AcDbCircle
 10
0.0000000000000027
 20
162.05677300046236
 30
0.0
 40
50.0
100
AcDbArc
 50
0.0
 51
179.9999999999996
  0
ARC
  5
25F
100
AcDbEntity
  8
LAYER001
  6
CONTINUOUS
 62
               7
100
AcDbCircle
 10
0.0000159999999907
 20
162.05678100046237
 30
0.0
 40
43.5
100
AcDbArc
 50
0.0
 51
180.00001053715445
  0
ELLIPSE
  5
260
100
AcDbEntity
  8
LAYER001
  6
CONTINUOUS
 62
               7
100
AcDbEllipse
 10
-31.499984000000008
 20
162.05678100046237
 30
0.0
 11
0.0
 21
10.0
 31
0.0
210
0.0
220
0.0
230
1.0
 40
0.6
 41
4.7123889803852901
 42
7.8539824339744833
  0
ELLIPSE
  5
261
100
AcDbEntity
  8
LAYER001
  6
CONTINUOUS
 62
               7
100
AcDbEllipse
 10
31.500015999999992
 20
162.05678100046237
 30
0.0
 11
0.0
 21
10.0
 31
0.0
210
0.0
220
0.0
230
1.0
 40
0.6
 41
4.7123889803852901
 42
7.8539816339738824
  0
ENDSEC
  0
SECTION
  2
OBJECTS
  0
DICTIONARY
  5
19
100
AcDbDictionary
  3
ACAD_GROUP
350
1A
  3
ACAD_MLINESTYLE
350
1B
  0
DICTIONARY
  5
1A
102
{ACAD_REACTORS
330
19
102
}
100
AcDbDictionary
  0
DICTIONARY
  5
1B
102
{ACAD_REACTORS
330
19
102
}
100
AcDbDictionary
  3
STANDARD
350
1C
  0
MLINESTYLE
  5
1C
102
{ACAD_REACTORS
330
1B
102
}
100
AcDbMlineStyle
  2
STANDARD
 70
               0
  3

 62
               0
 51
90.0
 52
90.0
 71
               2
 49
0.5
 62
             256
  6
BYLAYER
 49
-0.5
 62
             256
  6
BYLAYER
  0
ENDSEC
  0
EOF
