  0
SECTION
  2
HEADER
  9
$ACADVER
  1
AC1014
  9
$ACADMAINTVER
 70
               0
  9
$DWGCODEPAGE
  3
ANSI_932
  9
$INSBASE
 10
0.0
 20
0.0
 30
0.0
  9
$EXTMIN
 10
-119.60000060000003
 20
-168.33048260729697
 30
0.0
  9
$EXTMAX
 10
119.60003060000001
 20
184.99473879622153
 30
0.0
  9
$LIMMIN
 10
-127.07500157500003
 20
-179.37189577615692
  9
$LIMMAX
 10
127.07503157500001
 20
196.03615196508147
  9
$ORTHOMODE
 70
               0
  9
$REGENMODE
 70
               1
  9
$FILLMODE
 70
               1
  9
$QTEXTMODE
 70
               0
  9
$MIRRTEXT
 70
               1
  9
$DRAGMODE
 70
               2
  9
$LTSCALE
 40
1.0
  9
$OSMODE
 70
               0
  9
$ATTMODE
 70
               1
  9
$TEXTSIZE
 40
0.2
  9
$TRACEWID
 40
0.05
  9
$TEXTSTYLE
  7
STANDARD
  9
$CLAYER
  8
0
  9
$CELTYPE
  6
CONTINUOUS
  9
$CECOLOR
 62
             256
  9
$CELTSCALE
 40
1.0
  9
$DELOBJ
 70
               1
  9
$DISPSILH
 70
               0
  9
$DIMSCALE
 40
1.0
  9
$DIMASZ
 40
0.18
  9
$DIMEXO
 40
0.0625
  9
$DIMDLI
 40
0.38
  9
$DIMRND
 40
0.0
  9
$DIMDLE
 40
0.0
  9
$DIMEXE
 40
0.18
  9
$DIMTP
 40
0.0
  9
$DIMTM
 40
0.0
  9
$DIMTXT
 40
0.18
  9
$DIMCEN
 40
0.09
  9
$DIMTSZ
 40
0.0
  9
$DIMTOL
 70
               0
  9
$DIMLIM
 70
               0
  9
$DIMTIH
 70
               1
  9
$DIMTOH
 70
               1
  9
$DIMSE1
 70
               0
  9
$DIMSE2
 70
               0
  9
$DIMTAD
 70
               0
  9
$DIMZIN
 70
               0
  9
$DIMBLK
  1

  9
$DIMASO
 70
               1
  9
$DIMSHO
 70
               1
  9
$DIMPOST
  1

  9
$DIMAPOST
  1

  9
$DIMALT
 70
               0
  9
$DIMALTD
 70
               2
  9
$DIMALTF
 40
25.399999999999999
  9
$DIMLFAC
 40
1.0
  9
$DIMTOFL
 70
               0
  9
$DIMTVP
 40
0.0
  9
$DIMTIX
 70
               0
  9
$DIMSOXD
 70
               0
  9
$DIMSAH
 70
               0
  9
$DIMBLK1
  1

  9
$DIMBLK2
  1

  9
$DIMSTYLE
  2
STANDARD
  9
$DIMCLRD
 70
               0
  9
$DIMCLRE
 70
               0
  9
$DIMCLRT
 70
               0
  9
$DIMTFAC
 40
1.0
  9
$DIMGAP
 40
0.09
  9
$DIMJUST
 70
               0
  9
$DIMSD1
 70
               0
  9
$DIMSD2
 70
               0
  9
$DIMTOLJ
 70
               1
  9
$DIMTZIN
 70
               0
  9
$DIMALTZ
 70
               0
  9
$DIMALTTZ
 70
               0
  9
$DIMFIT
 70
               3
  9
$DIMUPT
 70
               0
  9
$DIMUNIT
 70
               2
  9
$DIMDEC
 70
               4
  9
$DIMTDEC
 70
               4
  9
$DIMALTU
 70
               2
  9
$DIMALTTD
 70
               2
  9
$DIMTXSTY
  7
STANDARD
  9
$DIMAUNIT
 70
               0
  9
$LUNITS
 70
               2
  9
$LUPREC
 70
               4
  9
$SKETCHINC
 40
0.1
  9
$FILLETRAD
 40
0.0
  9
$AUNITS
 70
               0
  9
$AUPREC
 70
               0
  9
$MENU
  1
acad
  9
$ELEVATION
 40
0.0
  9
$PELEVATION
 40
0.0
  9
$THICKNESS
 40
0.0
  9
$LIMCHECK
 70
               0
  9
$BLIPMODE
 70
               1
  9
$CHAMFERA
 40
0.0
  9
$CHAMFERB
 40
0.0
  9
$CHAMFERC
 40
0.0
  9
$CHAMFERD
 40
0.0
  9
$SKPOLY
 70
               0
  9
$TDCREATE
 40
0.000000000
  9
$TDUPDATE
 40
0.000000000
  9
$TDINDWG
 40
0.0000000000
  9
$TDUSRTIMER
 40
0.0000000000
  9
$USRTIMER
 70
               1
  9
$ANGBASE
 50
0.0
  9
$ANGDIR
 70
               0
  9
$PDMODE
 70
               0
  9
$PDSIZE
 40
1.0
  9
$PLINEWID
 40
0.0
  9
$COORDS
 70
               1
  9
$SPLFRAME
 70
               0
  9
$SPLINETYPE
 70
               6
  9
$SPLINESEGS
 70
               8
  9
$ATTDIA
 70
               0
  9
$ATTREQ
 70
               1
  9
$HANDLING
 70
               1
  9
$HANDSEED
  5
1E3
  9
$SURFTAB1
 70
               6
  9
$SURFTAB2
 70
               6
  9
$SURFTYPE
 70
               6
  9
$SURFU
 70
               6
  9
$SURFV
 70
               6
  9
$UCSNAME
  2

  9
$UCSORG
 10
0.0
 20
0.0
 30
0.0
  9
$UCSXDIR
 10
1.0
 20
0.0
 30
0.0
  9
$UCSYDIR
 10
0.0
 20
1.0
 30
0.0
  9
$PUCSNAME
  2

  9
$PUCSORG
 10
0.0
 20
0.0
 30
0.0
  9
$PUCSXDIR
 10
1.0
 20
0.0
 30
0.0
  9
$PUCSYDIR
 10
0.0
 20
1.0
 30
0.0
  9
$USERI1
 70
               0
  9
$USERI2
 70
               0
  9
$USERI3
 70
               0
  9
$USERI4
 70
               0
  9
$USERI5
 70
               0
  9
$USERR1
 40
0.0
  9
$USERR2
 40
0.0
  9
$USERR3
 40
0.0
  9
$USERR4
 40
0.0
  9
$USERR5
 40
0.0
  9
$WORLDVIEW
 70
               1
  9
$SHADEDGE
 70
               3
  9
$SHADEDIF
 70
              70
  9
$TILEMODE
 70
               1
  9
$MAXACTVP
 70
              16
  9
$PINSBASE
 10
0.0
 20
0.0
 30
0.0
  9
$PLIMCHECK
 70
               0
  9
$PEXTMIN
 10
1.0000000000000000E+20
 20
1.0000000000000000E+20
 30
1.0000000000000000E+20
  9
$PEXTMAX
 10
-1.0000000000000000E+20
 20
-1.0000000000000000E+20
 30
-1.0000000000000000E+20
  9
$PLIMMIN
 10
0.0
 20
0.0
  9
$PLIMMAX
 10
12.0
 20
9.0
  9
$UNITMODE
 70
               0
  9
$VISRETAIN
 70
               0
  9
$PLINEGEN
 70
               1
  9
$PSLTSCALE
 70
               0
  9
$TREEDEPTH
 70
            3020
  9
$PICKSTYLE
 70
               1
  9
$CMLSTYLE
  2
STANDARD
  9
$CMLJUST
 70
               0
  9
$CMLSCALE
 40
1.0
  9
$PROXYGRAPHICS
 70
               0
  9
$MEASUREMENT
 70
               0
  0
ENDSEC
  0
SECTION
  2
CLASSES
  0
CLASS
  1
LWPOLYLINE
  2
AcDbPolyline
  3
"AutoCAD"
 90
        0
280
               0
281
               1
  0
CLASS
  1
IMAGE
  2
AcDbRasterImage
  3
ISM
 90
      127
280
               0
281
               1
  0
CLASS
  1
OLE2FRAME
  2
AcDbOle2Frame
  3
""
 90
        0
280
               0
281
               1
  0
CLASS
  1
HATCH
  2
AcDbHatch
  3
"ACAD_SEDONA"
 90
        0
280
               0
281
               1
  0
CLASS
  1
DICTIONARYVAR
  2
AcDbDictionaryVar
  3
"AutoCAD"
 90
        0
280
               0
281
               0
  0
CLASS
  1
RASTERVARIABLES
  2
AcDbRasterVariables
  3
ISM
 90
        0
280
               0
281
               0
  0
CLASS
  1
IMAGEDEF
  2
AcDbRasterImageDef
  3
ISM
 90
        0
280
               0
281
               0
  0
CLASS
  1
IMAGEDEF_REACTOR
  2
AcDbRasterImageDefReactor
  3
ISM
 90
        1
280
               0
281
               0
  0
CLASS
  1
IDBUFFER
  2
AcDbIdBuffer
  3
"Acad"
 90
        0
280
               0
281
               0
  0
CLASS
  1
SPATIAL_FILTER
  2
AcDbSpatialFilter
  3
"Acad"
 90
        0
280
               0
281
               0
  0
CLASS
  1
XRECORD
  2
AcDbXrecord
  3
"<Built In>"
 90
        0
280
               0
281
               0
  0
CLASS
  1
SORTENTSTABLE
  2
AcDbSortentsTable
  3
"AutoCAD"
 90
        0
280
               0
281
               0
  0
CLASS
  1
LAYER_INDEX
  2
AcDbLayerIndex
  3
"Acad"
 90
        0
280
               0
281
               0
  0
CLASS
  1
SPATIAL_INDEX
  2
AcDbSpatialIndex
  3
"Acad"
 90
        0
280
               0
281
               0
  0
CLASS
  1
OBJECT_PTR
  2
CAseDLPNTableRecord
  3
"ASE-LPNTableRecord"
 90
        1
280
               0
281
               0
  0
ENDSEC
  0
SECTION
  2
TABLES
  0
TABLE
  2
VPORT
  5
7
100
AcDbSymbolTable
 70
               1
  0
VPORT
  5
15
100
AcDbSymbolTableRecord
100
AcDbViewportTableRecord
  2
*ACTIVE
 70
               0
 10
0.0
 20
0.0
 11
1.0
 21
1.0
 12
0.0000149999999906
 22
8.3321280944622771
 13
0.0
 23
0.0
 14
1.0
 24
1.0
 15
0.0
 25
0.0
 16
0.0
 26
0.0
 36
1.0
 17
0.0
 27
0.0
 37
0.0
 40
375.40804774123842
 41
0.6769967630666799
 42
50.0
 43
0.0
 44
0.0
 50
0.0
 51
0.0
 71
               0
 72
             100
 73
               1
 74
               1
 75
               0
 76
               0
 77
               0
 78
               0
  0
ENDTAB
  0
TABLE
  2
LTYPE
  5
4
100
AcDbSymbolTable
 70
              28
  0
LTYPE
  5
11
100
AcDbSymbolTableRecord
100
AcDbLinetypeTableRecord
  2
BYBLOCK
 70
               0
  3

 72
              65
 73
               0
 40
0.0
  0
LTYPE
  5
12
100
AcDbSymbolTableRecord
100
AcDbLinetypeTableRecord
  2
BYLAYER
 70
               0
  3

 72
              65
 73
               0
 40
0.0
  0
LTYPE
  5
13
100
AcDbSymbolTableRecord
100
AcDbLinetypeTableRecord
  2
CONTINUOUS
 70
               0
  3
Solid line
 72
              65
 73
               0
 40
0.0
  0
LTYPE
  5
1D
100
AcDbSymbolTableRecord
100
AcDbLinetypeTableRecord
  2
HIDDENX2
 70
               0
  3
CADPAC FUSION LINETYPE
 72
              65
 73
               2
 40
47.560000000000002
 49
35.670000000000002
 74
               0
 49
-11.890000000000001
 74
               0
  0
LTYPE
  5
1E
100
AcDbSymbolTableRecord
100
AcDbLinetypeTableRecord
  2
HIDDEN
 70
               0
  3
CADPAC FUSION LINETYPE
 72
              65
 73
               2
 40
35.670000000000002
 49
23.780000000000001
 74
               0
 49
-11.890000000000001
 74
               0
  0
LTYPE
  5
1F
100
AcDbSymbolTableRecord
100
AcDbLinetypeTableRecord
  2
HIDDEN2
 70
               0
  3
CADPAC FUSION LINETYPE
 72
              65
 73
               2
 40
29.725000000000001
 49
17.835000000000001
 74
               0
 49
-11.890000000000001
 74
               0
  0
LTYPE
  5
20
100
AcDbSymbolTableRecord
100
AcDbLinetypeTableRecord
  2
DASHED
 70
               0
  3
CADPAC FUSION LINETYPE
 72
              65
 73
               2
 40
35.670000000000002
 49
23.780000000000001
 74
               0
 49
-11.890000000000001
 74
               0
  0
LTYPE
  5
21
100
AcDbSymbolTableRecord
100
AcDbLinetypeTableRecord
  2
DASHED2
 70
               0
  3
CADPAC FUSION LINETYPE
 72
              65
 73
               2
 40
26.752500000000001
 49
17.835000000000001
 74
               0
 49
-8.9175000000000004
 74
               0
  0
LTYPE
  5
22
100
AcDbSymbolTableRecord
100
AcDbLinetypeTableRecord
  2
DASHEDX2
 70
               0
  3
CADPAC FUSION LINETYPE
 72
              65
 73
               2
 40
53.505000000000003
 49
35.670000000000002
 74
               0
 49
-17.835000000000001
 74
               0
  0
LTYPE
  5
23
100
AcDbSymbolTableRecord
100
AcDbLinetypeTableRecord
  2
DOTX2
 70
               0
  3
CADPAC FUSION LINETYPE
 72
              65
 73
               2
 40
14.862500000000001
 49
0.0
 74
               0
 49
-14.862500000000001
 74
               0
  0
LTYPE
  5
24
100
AcDbSymbolTableRecord
100
AcDbLinetypeTableRecord
  2
DOT
 70
               0
  3
CADPAC FUSION LINETYPE
 72
              65
 73
               2
 40
11.890000000000001
 49
0.0
 74
               0
 49
-11.890000000000001
 74
               0
  0
LTYPE
  5
25
100
AcDbSymbolTableRecord
100
AcDbLinetypeTableRecord
  2
DOTS
 70
               0
  3
CADPAC FUSION LINETYPE
 72
              65
 73
               2
 40
11.890000000000001
 49
0.0
 74
               0
 49
-11.890000000000001
 74
               0
  0
LTYPE
  5
26
100
AcDbSymbolTableRecord
100
AcDbLinetypeTableRecord
  2
DOT2
 70
               0
  3
CADPAC FUSION LINETYPE
 72
              65
 73
               2
 40
8.9175000000000004
 49
0.0
 74
               0
 49
-8.9175000000000004
 74
               0
  0
LTYPE
  5
27
100
AcDbSymbolTableRecord
100
AcDbLinetypeTableRecord
  2
CENTERX2
 70
               0
  3
CADPAC FUSION LINETYPE
 72
              65
 73
               4
 40
71.340000000000003
 49
29.725000000000001
 74
               0
 49
-14.862500000000001
 74
               0
 49
11.890000000000001
 74
               0
 49
-14.862500000000001
 74
               0
  0
LTYPE
  5
28
100
AcDbSymbolTableRecord
100
AcDbLinetypeTableRecord
  2
CENTER
 70
               0
  3
CADPAC FUSION LINETYPE
 72
              65
 73
               4
 40
54.694000000000003
 49
23.780000000000001
 74
               0
 49
-11.890000000000001
 74
               0
 49
7.1340000000000003
 74
               0
 49
-11.890000000000001
 74
               0
  0
LTYPE
  5
29
100
AcDbSymbolTableRecord
100
AcDbLinetypeTableRecord
  2
CENTER2
 70
               0
  3
CADPAC FUSION LINETYPE
 72
              65
 73
               4
 40
38.048000000000002
 49
17.835000000000001
 74
               0
 49
-8.9175000000000004
 74
               0
 49
2.3780000000000001
 74
               0
 49
-8.9175000000000004
 74
               0
  0
LTYPE
  5
2A
100
AcDbSymbolTableRecord
100
AcDbLinetypeTableRecord
  2
DASHDOTX2
 70
               0
  3
CADPAC FUSION LINETYPE
 72
              65
 73
               4
 40
59.450000000000003
 49
29.725000000000001
 74
               0
 49
-14.862500000000001
 74
               0
 49
0.0
 74
               0
 49
-14.862500000000001
 74
               0
  0
LTYPE
  5
2B
100
AcDbSymbolTableRecord
100
AcDbLinetypeTableRecord
  2
DASHDOT
 70
               0
  3
CADPAC FUSION LINETYPE
 72
              65
 73
               4
 40
47.560000000000002
 49
23.780000000000001
 74
               0
 49
-11.890000000000001
 74
               0
 49
0.0
 74
               0
 49
-11.890000000000001
 74
               0
  0
LTYPE
  5
2C
100
AcDbSymbolTableRecord
100
AcDbLinetypeTableRecord
  2
DASHDOT2
 70
               0
  3
CADPAC FUSION LINETYPE
 72
              65
 73
               4
 40
35.670000000000002
 49
17.835000000000001
 74
               0
 49
-8.9175000000000004
 74
               0
 49
0.0
 74
               0
 49
-8.9175000000000004
 74
               0
  0
LTYPE
  5
2D
100
AcDbSymbolTableRecord
100
AcDbLinetypeTableRecord
  2
DIVIDEX2
 70
               0
  3
CADPAC FUSION LINETYPE
 72
              65
 73
               6
 40
74.3125
 49
29.725000000000001
 74
               0
 49
-14.862500000000001
 74
               0
 49
0.0
 74
               0
 49
-14.862500000000001
 74
               0
 49
0.0
 74
               0
 49
-14.862500000000001
 74
               0
  0
LTYPE
  5
2E
100
AcDbSymbolTableRecord
100
AcDbLinetypeTableRecord
  2
DIVIDE
 70
               0
  3
CADPAC FUSION LINETYPE
 72
              65
 73
               6
 40
59.450000000000003
 49
23.780000000000001
 74
               0
 49
-11.890000000000001
 74
               0
 49
0.0
 74
               0
 49
-11.890000000000001
 74
               0
 49
0.0
 74
               0
 49
-11.890000000000001
 74
               0
  0
LTYPE
  5
2F
100
AcDbSymbolTableRecord
100
AcDbLinetypeTableRecord
  2
DIVIDE2
 70
               0
  3
CADPAC FUSION LINETYPE
 72
              65
 73
               6
 40
44.587500000000006
 49
17.835000000000001
 74
               0
 49
-8.9175000000000004
 74
               0
 49
0.0
 74
               0
 49
-8.9175000000000004
 74
               0
 49
0.0
 74
               0
 49
-8.9175000000000004
 74
               0
  0
LTYPE
  5
30
100
AcDbSymbolTableRecord
100
AcDbLinetypeTableRecord
  2
BORDERX2
 70
               0
  3
CADPAC FUSION LINETYPE
 72
              65
 73
               6
 40
104.03750000000001
 49
29.725000000000001
 74
               0
 49
-14.862500000000001
 74
               0
 49
29.725000000000001
 74
               0
 49
-14.862500000000001
 74
               0
 49
0.0
 74
               0
 49
-14.862500000000001
 74
               0
  0
LTYPE
  5
31
100
AcDbSymbolTableRecord
100
AcDbLinetypeTableRecord
  2
BORDER
 70
               0
  3
CADPAC FUSION LINETYPE
 72
              65
 73
               6
 40
83.230000000000004
 49
23.780000000000001
 74
               0
 49
-11.890000000000001
 74
               0
 49
23.780000000000001
 74
               0
 49
-11.890000000000001
 74
               0
 49
0.0
 74
               0
 49
-11.890000000000001
 74
               0
  0
LTYPE
  5
32
100
AcDbSymbolTableRecord
100
AcDbLinetypeTableRecord
  2
BORDER2
 70
               0
  3
CADPAC FUSION LINETYPE
 72
              65
 73
               6
 40
62.422499999999999
 49
17.835000000000001
 74
               0
 49
-8.9175000000000004
 74
               0
 49
17.835000000000001
 74
               0
 49
-8.9175000000000004
 74
               0
 49
0.0
 74
               0
 49
-8.9175000000000004
 74
               0
  0
LTYPE
  5
33
100
AcDbSymbolTableRecord
100
AcDbLinetypeTableRecord
  2
PHANTOMX2
 70
               0
  3
CADPAC FUSION LINETYPE
 72
              65
 73
               6
 40
89.175000000000011
 49
29.725000000000001
 74
               0
 49
-11.890000000000001
 74
               0
 49
11.890000000000001
 74
               0
 49
-11.890000000000001
 74
               0
 49
11.890000000000001
 74
               0
 49
-11.890000000000001
 74
               0
  0
LTYPE
  5
34
100
AcDbSymbolTableRecord
100
AcDbLinetypeTableRecord
  2
PHANTOM
 70
               0
  3
CADPAC FUSION LINETYPE
 72
              65
 73
               6
 40
73.718000000000004
 49
23.780000000000001
 74
               0
 49
-11.890000000000001
 74
               0
 49
7.1340000000000003
 74
               0
 49
-11.890000000000001
 74
               0
 49
7.1340000000000003
 74
               0
 49
-11.890000000000001
 74
               0
  0
LTYPE
  5
35
100
AcDbSymbolTableRecord
100
AcDbLinetypeTableRecord
  2
PHANTOM2
 70
               0
  3
CADPAC FUSION LINETYPE
 72
              65
 73
               6
 40
63.017000000000003
 49
17.835000000000001
 74
               0
 49
-11.890000000000001
 74
               0
 49
4.7560000000000002
 74
               0
 49
-11.890000000000001
 74
               0
 49
4.7560000000000002
 74
               0
 49
-11.890000000000001
 74
               0
  0
ENDTAB
  0
TABLE
  2
LAYER
  5
2
100
AcDbSymbolTable
 70
             256
  0
LAYER
  5
14
100
AcDbSymbolTableRecord
100
AcDbLayerTableRecord
  2
0
 70
               0
 62
               7
  6
CONTINUOUS
  0
LAYER
  5
36
100
AcDbSymbolTableRecord
100
AcDbLayerTableRecord
  2
LAYER001
 70
               0
 62
               7
  6
CONTINUOUS
  0
LAYER
  5
37
100
AcDbSymbolTableRecord
100
AcDbLayerTableRecord
  2
LAYER002
 70
               0
 62
               7
  6
CONTINUOUS
  0
LAYER
  5
38
100
AcDbSymbolTableRecord
100
AcDbLayerTableRecord
  2
LAYER003
 70
               0
 62
               7
  6
CONTINUOUS
  0
LAYER
  5
39
100
AcDbSymbolTableRecord
100
AcDbLayerTableRecord
  2
LAYER004
 70
               0
 62
               7
  6
CONTINUOUS
  0
LAYER
  5
3A
100
AcDbSymbolTableRecord
100
AcDbLayerTableRecord
  2
LAYER005
 70
               0
 62
               7
  6
CONTINUOUS
  0
LAYER
  5
3B
100
AcDbSymbolTableRecord
100
AcDbLayerTableRecord
  2
LAYER006
 70
               0
 62
               7
  6
CONTINUOUS
  0
LAYER
  5
3C
100
AcDbSymbolTableRecord
100
AcDbLayerTableRecord
  2
LAYER007
 70
               0
 62
               7
  6
CONTINUOUS
  0
LAYER
  5
3D
100
AcDbSymbolTableRecord
100
AcDbLayerTableRecord
  2
LAYER008
 70
               0
 62
               7
  6
CONTINUOUS
  0
LAYER
  5
3E
100
AcDbSymbolTableRecord
100
AcDbLayerTableRecord
  2
LAYER009
 70
               0
 62
               7
  6
CONTINUOUS
  0
LAYER
  5
3F
100
AcDbSymbolTableRecord
100
AcDbLayerTableRecord
  2
LAYER010
 70
               0
 62
               7
  6
CONTINUOUS
  0
LAYER
  5
40
100
AcDbSymbolTableRecord
100
AcDbLayerTableRecord
  2
LAYER011
 70
               0
 62
               7
  6
CONTINUOUS
  0
LAYER
  5
41
100
AcDbSymbolTableRecord
100
AcDbLayerTableRecord
  2
LAYER012
 70
               0
 62
               7
  6
CONTINUOUS
  0
LAYER
  5
42
100
AcDbSymbolTableRecord
100
AcDbLayerTableRecord
  2
LAYER013
 70
               0
 62
               7
  6
CONTINUOUS
  0
LAYER
  5
43
100
AcDbSymbolTableRecord
100
AcDbLayerTableRecord
  2
LAYER014
 70
               0
 62
               7
  6
CONTINUOUS
  0
LAYER
  5
44
100
AcDbSymbolTableRecord
100
AcDbLayerTableRecord
  2
LAYER015
 70
               0
 62
               7
  6
CONTINUOUS
  0
LAYER
  5
45
100
AcDbSymbolTableRecord
100
AcDbLayerTableRecord
  2
LAYER016
 70
               0
 62
               7
  6
CONTINUOUS
  0
LAYER
  5
46
100
AcDbSymbolTableRecord
100
AcDbLayerTableRecord
  2
LAYER017
 70
               0
 62
               7
  6
CONTINUOUS
  0
LAYER
  5
47
100
AcDbSymbolTableRecord
100
AcDbLayerTableRecord
  2
LAYER018
 70
               0
 62
               7
  6
CONTINUOUS
  0
LAYER
  5
48
100
AcDbSymbolTableRecord
100
AcDbLayerTableRecord
  2
LAYER019
 70
               0
 62
               7
  6
CONTINUOUS
  0
LAYER
  5
49
100
AcDbSymbolTableRecord
100
AcDbLayerTableRecord
  2
LAYER020
 70
               0
 62
               7
  6
CONTINUOUS
  0
LAYER
  5
4A
100
AcDbSymbolTableRecord
100
AcDbLayerTableRecord
  2
LAYER021
 70
               0
 62
               7
  6
CONTINUOUS
  0
LAYER
  5
4B
100
AcDbSymbolTableRecord
100
AcDbLayerTableRecord
  2
LAYER022
 70
               0
 62
               7
  6
CONTINUOUS
  0
LAYER
  5
4C
100
AcDbSymbolTableRecord
100
AcDbLayerTableRecord
  2
LAYER023
 70
               0
 62
               7
  6
CONTINUOUS
  0
LAYER
  5
4D
100
AcDbSymbolTableRecord
100
AcDbLayerTableRecord
  2
LAYER024
 70
               0
 62
               7
  6
CONTINUOUS
  0
LAYER
  5
4E
100
AcDbSymbolTableRecord
100
AcDbLayerTableRecord
  2
LAYER025
 70
               0
 62
               7
  6
CONTINUOUS
  0
LAYER
  5
4F
100
AcDbSymbolTableRecord
100
AcDbLayerTableRecord
  2
LAYER026
 70
               0
 62
               7
  6
CONTINUOUS
  0
LAYER
  5
50
100
AcDbSymbolTableRecord
100
AcDbLayerTableRecord
  2
LAYER027
 70
               0
 62
               7
  6
CONTINUOUS
  0
LAYER
  5
51
100
AcDbSymbolTableRecord
100
AcDbLayerTableRecord
  2
LAYER028
 70
               0
 62
               7
  6
CONTINUOUS
  0
LAYER
  5
52
100
AcDbSymbolTableRecord
100
AcDbLayerTableRecord
  2
LAYER029
 70
               0
 62
               7
  6
CONTINUOUS
  0
LAYER
  5
53
100
AcDbSymbolTableRecord
100
AcDbLayerTableRecord
  2
LAYER030
 70
               0
 62
               7
  6
CONTINUOUS
  0
LAYER
  5
54
100
AcDbSymbolTableRecord
100
AcDbLayerTableRecord
  2
LAYER031
 70
               0
 62
               7
  6
CONTINUOUS
  0
LAYER
  5
55
100
AcDbSymbolTableRecord
100
AcDbLayerTableRecord
  2
LAYER032
 70
               0
 62
               7
  6
CONTINUOUS
  0
LAYER
  5
56
100
AcDbSymbolTableRecord
100
AcDbLayerTableRecord
  2
LAYER033
 70
               0
 62
               7
  6
CONTINUOUS
  0
LAYER
  5
57
100
AcDbSymbolTableRecord
100
AcDbLayerTableRecord
  2
LAYER034
 70
               0
 62
               7
  6
CONTINUOUS
  0
LAYER
  5
58
100
AcDbSymbolTableRecord
100
AcDbLayerTableRecord
  2
LAYER035
 70
               0
 62
               7
  6
CONTINUOUS
  0
LAYER
  5
59
100
AcDbSymbolTableRecord
100
AcDbLayerTableRecord
  2
LAYER036
 70
               0
 62
               7
  6
CONTINUOUS
  0
LAYER
  5
5A
100
AcDbSymbolTableRecord
100
AcDbLayerTableRecord
  2
LAYER037
 70
               0
 62
               7
  6
CONTINUOUS
  0
LAYER
  5
5B
100
AcDbSymbolTableRecord
100
AcDbLayerTableRecord
  2
LAYER038
 70
               0
 62
               7
  6
CONTINUOUS
  0
LAYER
  5
5C
100
AcDbSymbolTableRecord
100
AcDbLayerTableRecord
  2
LAYER039
 70
               0
 62
               7
  6
CONTINUOUS
  0
LAYER
  5
5D
100
AcDbSymbolTableRecord
100
AcDbLayerTableRecord
  2
LAYER040
 70
               0
 62
               7
  6
CONTINUOUS
  0
LAYER
  5
5E
100
AcDbSymbolTableRecord
100
AcDbLayerTableRecord
  2
LAYER041
 70
               0
 62
               7
  6
CONTINUOUS
  0
LAYER
  5
5F
100
AcDbSymbolTableRecord
100
AcDbLayerTableRecord
  2
LAYER042
 70
               0
 62
               7
  6
CONTINUOUS
  0
LAYER
  5
60
100
AcDbSymbolTableRecord
100
AcDbLayerTableRecord
  2
LAYER043
 70
               0
 62
               7
  6
CONTINUOUS
  0
LAYER
  5
61
100
AcDbSymbolTableRecord
100
AcDbLayerTableRecord
  2
LAYER044
 70
               0
 62
               7
  6
CONTINUOUS
  0
LAYER
  5
62
100
AcDbSymbolTableRecord
100
AcDbLayerTableRecord
  2
LAYER045
 70
               0
 62
               7
  6
CONTINUOUS
  0
LAYER
  5
63
100
AcDbSymbolTableRecord
100
AcDbLayerTableRecord
  2
LAYER046
 70
               0
 62
               7
  6
CONTINUOUS
  0
LAYER
  5
64
100
AcDbSymbolTableRecord
100
AcDbLayerTableRecord
  2
LAYER047
 70
               0
 62
               7
  6
CONTINUOUS
  0
LAYER
  5
65
100
AcDbSymbolTableRecord
100
AcDbLayerTableRecord
  2
LAYER048
 70
               0
 62
               7
  6
CONTINUOUS
  0
LAYER
  5
66
100
AcDbSymbolTableRecord
100
AcDbLayerTableRecord
  2
LAYER049
 70
               0
 62
               7
  6
CONTINUOUS
  0
LAYER
  5
67
100
AcDbSymbolTableRecord
100
AcDbLayerTableRecord
  2
LAYER050
 70
               0
 62
               7
  6
CONTINUOUS
  0
LAYER
  5
68
100
AcDbSymbolTableRecord
100
AcDbLayerTableRecord
  2
LAYER051
 70
               0
 62
               7
  6
CONTINUOUS
  0
LAYER
  5
69
100
AcDbSymbolTableRecord
100
AcDbLayerTableRecord
  2
LAYER052
 70
               0
 62
               7
  6
CONTINUOUS
  0
LAYER
  5
6A
100
AcDbSymbolTableRecord
100
AcDbLayerTableRecord
  2
LAYER053
 70
               0
 62
               7
  6
CONTINUOUS
  0
LAYER
  5
6B
100
AcDbSymbolTableRecord
100
AcDbLayerTableRecord
  2
LAYER054
 70
               0
 62
               7
  6
CONTINUOUS
  0
LAYER
  5
6C
100
AcDbSymbolTableRecord
100
AcDbLayerTableRecord
  2
LAYER055
 70
               0
 62
               7
  6
CONTINUOUS
  0
LAYER
  5
6D
100
AcDbSymbolTableRecord
100
AcDbLayerTableRecord
  2
LAYER056
 70
               0
 62
               7
  6
CONTINUOUS
  0
LAYER
  5
6E
100
AcDbSymbolTableRecord
100
AcDbLayerTableRecord
  2
LAYER057
 70
               0
 62
               7
  6
CONTINUOUS
  0
LAYER
  5
6F
100
AcDbSymbolTableRecord
100
AcDbLayerTableRecord
  2
LAYER058
 70
               0
 62
               7
  6
CONTINUOUS
  0
LAYER
  5
70
100
AcDbSymbolTableRecord
100
AcDbLayerTableRecord
  2
LAYER059
 70
               0
 62
               7
  6
CONTINUOUS
  0
LAYER
  5
71
100
AcDbSymbolTableRecord
100
AcDbLayerTableRecord
  2
LAYER060
 70
               0
 62
               7
  6
CONTINUOUS
  0
LAYER
  5
72
100
AcDbSymbolTableRecord
100
AcDbLayerTableRecord
  2
LAYER061
 70
               0
 62
               7
  6
CONTINUOUS
  0
LAYER
  5
73
100
AcDbSymbolTableRecord
100
AcDbLayerTableRecord
  2
LAYER062
 70
               0
 62
               7
  6
CONTINUOUS
  0
LAYER
  5
74
100
AcDbSymbolTableRecord
100
AcDbLayerTableRecord
  2
LAYER063
 70
               0
 62
               7
  6
CONTINUOUS
  0
LAYER
  5
75
100
AcDbSymbolTableRecord
100
AcDbLayerTableRecord
  2
LAYER064
 70
               0
 62
               7
  6
CONTINUOUS
  0
LAYER
  5
76
100
AcDbSymbolTableRecord
100
AcDbLayerTableRecord
  2
LAYER065
 70
               0
 62
               7
  6
CONTINUOUS
  0
LAYER
  5
77
100
AcDbSymbolTableRecord
100
AcDbLayerTableRecord
  2
LAYER066
 70
               0
 62
               7
  6
CONTINUOUS
  0
LAYER
  5
78
100
AcDbSymbolTableRecord
100
AcDbLayerTableRecord
  2
LAYER067
 70
               0
 62
               7
  6
CONTINUOUS
  0
LAYER
  5
79
100
AcDbSymbolTableRecord
100
AcDbLayerTableRecord
  2
LAYER068
 70
               0
 62
               7
  6
CONTINUOUS
  0
LAYER
  5
7A
100
AcDbSymbolTableRecord
100
AcDbLayerTableRecord
  2
LAYER069
 70
               0
 62
               7
  6
CONTINUOUS
  0
LAYER
  5
7B
100
AcDbSymbolTableRecord
100
AcDbLayerTableRecord
  2
LAYER070
 70
               0
 62
               7
  6
CONTINUOUS
  0
LAYER
  5
7C
100
AcDbSymbolTableRecord
100
AcDbLayerTableRecord
  2
LAYER071
 70
               0
 62
               7
  6
CONTINUOUS
  0
LAYER
  5
7D
100
AcDbSymbolTableRecord
100
AcDbLayerTableRecord
  2
LAYER072
 70
               0
 62
               7
  6
CONTINUOUS
  0
LAYER
  5
7E
100
AcDbSymbolTableRecord
100
AcDbLayerTableRecord
  2
LAYER073
 70
               0
 62
               7
  6
CONTINUOUS
  0
LAYER
  5
7F
100
AcDbSymbolTableRecord
100
AcDbLayerTableRecord
  2
LAYER074
 70
               0
 62
               7
  6
CONTINUOUS
  0
LAYER
  5
80
100
AcDbSymbolTableRecord
100
AcDbLayerTableRecord
  2
LAYER075
 70
               0
 62
               7
  6
CONTINUOUS
  0
LAYER
  5
81
100
AcDbSymbolTableRecord
100
AcDbLayerTableRecord
  2
LAYER076
 70
               0
 62
               7
  6
CONTINUOUS
  0
LAYER
  5
82
100
AcDbSymbolTableRecord
100
AcDbLayerTableRecord
  2
LAYER077
 70
               0
 62
               7
  6
CONTINUOUS
  0
LAYER
  5
83
100
AcDbSymbolTableRecord
100
AcDbLayerTableRecord
  2
LAYER078
 70
               0
 62
               7
  6
CONTINUOUS
  0
LAYER
  5
84
100
AcDbSymbolTableRecord
100
AcDbLayerTableRecord
  2
LAYER079
 70
               0
 62
               7
  6
CONTINUOUS
  0
LAYER
  5
85
100
AcDbSymbolTableRecord
100
AcDbLayerTableRecord
  2
LAYER080
 70
               0
 62
               7
  6
CONTINUOUS
  0
LAYER
  5
86
100
AcDbSymbolTableRecord
100
AcDbLayerTableRecord
  2
LAYER081
 70
               0
 62
               7
  6
CONTINUOUS
  0
LAYER
  5
87
100
AcDbSymbolTableRecord
100
AcDbLayerTableRecord
  2
LAYER082
 70
               0
 62
               7
  6
CONTINUOUS
  0
LAYER
  5
88
100
AcDbSymbolTableRecord
100
AcDbLayerTableRecord
  2
LAYER083
 70
               0
 62
               7
  6
CONTINUOUS
  0
LAYER
  5
89
100
AcDbSymbolTableRecord
100
AcDbLayerTableRecord
  2
LAYER084
 70
               0
 62
               7
  6
CONTINUOUS
  0
LAYER
  5
8A
100
AcDbSymbolTableRecord
100
AcDbLayerTableRecord
  2
LAYER085
 70
               0
 62
               7
  6
CONTINUOUS
  0
LAYER
  5
8B
100
AcDbSymbolTableRecord
100
AcDbLayerTableRecord
  2
LAYER086
 70
               0
 62
               7
  6
CONTINUOUS
  0
LAYER
  5
8C
100
AcDbSymbolTableRecord
100
AcDbLayerTableRecord
  2
LAYER087
 70
               0
 62
               7
  6
CONTINUOUS
  0
LAYER
  5
8D
100
AcDbSymbolTableRecord
100
AcDbLayerTableRecord
  2
LAYER088
 70
               0
 62
               7
  6
CONTINUOUS
  0
LAYER
  5
8E
100
AcDbSymbolTableRecord
100
AcDbLayerTableRecord
  2
LAYER089
 70
               0
 62
               7
  6
CONTINUOUS
  0
LAYER
  5
8F
100
AcDbSymbolTableRecord
100
AcDbLayerTableRecord
  2
LAYER090
 70
               0
 62
               7
  6
CONTINUOUS
  0
LAYER
  5
90
100
AcDbSymbolTableRecord
100
AcDbLayerTableRecord
  2
LAYER091
 70
               0
 62
               7
  6
CONTINUOUS
  0
LAYER
  5
91
100
AcDbSymbolTableRecord
100
AcDbLayerTableRecord
  2
LAYER092
 70
               0
 62
               7
  6
CONTINUOUS
  0
LAYER
  5
92
100
AcDbSymbolTableRecord
100
AcDbLayerTableRecord
  2
LAYER093
 70
               0
 62
               7
  6
CONTINUOUS
  0
LAYER
  5
93
100
AcDbSymbolTableRecord
100
AcDbLayerTableRecord
  2
LAYER094
 70
               0
 62
               7
  6
CONTINUOUS
  0
LAYER
  5
94
100
AcDbSymbolTableRecord
100
AcDbLayerTableRecord
  2
LAYER095
 70
               0
 62
               7
  6
CONTINUOUS
  0
LAYER
  5
95
100
AcDbSymbolTableRecord
100
AcDbLayerTableRecord
  2
LAYER096
 70
               0
 62
               7
  6
CONTINUOUS
  0
LAYER
  5
96
100
AcDbSymbolTableRecord
100
AcDbLayerTableRecord
  2
LAYER097
 70
               0
 62
               7
  6
CONTINUOUS
  0
LAYER
  5
97
100
AcDbSymbolTableRecord
100
AcDbLayerTableRecord
  2
LAYER098
 70
               0
 62
               7
  6
CONTINUOUS
  0
LAYER
  5
98
100
AcDbSymbolTableRecord
100
AcDbLayerTableRecord
  2
LAYER099
 70
               0
 62
               7
  6
CONTINUOUS
  0
LAYER
  5
99
100
AcDbSymbolTableRecord
100
AcDbLayerTableRecord
  2
LAYER100
 70
               0
 62
               7
  6
CONTINUOUS
  0
LAYER
  5
9A
100
AcDbSymbolTableRecord
100
AcDbLayerTableRecord
  2
LAYER101
 70
               0
 62
               7
  6
CONTINUOUS
  0
LAYER
  5
9B
100
AcDbSymbolTableRecord
100
AcDbLayerTableRecord
  2
LAYER102
 70
               0
 62
               7
  6
CONTINUOUS
  0
LAYER
  5
9C
100
AcDbSymbolTableRecord
100
AcDbLayerTableRecord
  2
LAYER103
 70
               0
 62
               7
  6
CONTINUOUS
  0
LAYER
  5
9D
100
AcDbSymbolTableRecord
100
AcDbLayerTableRecord
  2
LAYER104
 70
               0
 62
               7
  6
CONTINUOUS
  0
LAYER
  5
9E
100
AcDbSymbolTableRecord
100
AcDbLayerTableRecord
  2
LAYER105
 70
               0
 62
               7
  6
CONTINUOUS
  0
LAYER
  5
9F
100
AcDbSymbolTableRecord
100
AcDbLayerTableRecord
  2
LAYER106
 70
               0
 62
               7
  6
CONTINUOUS
  0
LAYER
  5
A0
100
AcDbSymbolTableRecord
100
AcDbLayerTableRecord
  2
LAYER107
 70
               0
 62
               7
  6
CONTINUOUS
  0
LAYER
  5
A1
100
AcDbSymbolTableRecord
100
AcDbLayerTableRecord
  2
LAYER108
 70
               0
 62
               7
  6
CONTINUOUS
  0
LAYER
  5
A2
100
AcDbSymbolTableRecord
100
AcDbLayerTableRecord
  2
LAYER109
 70
               0
 62
               7
  6
CONTINUOUS
  0
LAYER
  5
A3
100
AcDbSymbolTableRecord
100
AcDbLayerTableRecord
  2
LAYER110
 70
               0
 62
               7
  6
CONTINUOUS
  0
LAYER
  5
A4
100
AcDbSymbolTableRecord
100
AcDbLayerTableRecord
  2
LAYER111
 70
               0
 62
               7
  6
CONTINUOUS
  0
LAYER
  5
A5
100
AcDbSymbolTableRecord
100
AcDbLayerTableRecord
  2
LAYER112
 70
               0
 62
               7
  6
CONTINUOUS
  0
LAYER
  5
A6
100
AcDbSymbolTableRecord
100
AcDbLayerTableRecord
  2
LAYER113
 70
               0
 62
               7
  6
CONTINUOUS
  0
LAYER
  5
A7
100
AcDbSymbolTableRecord
100
AcDbLayerTableRecord
  2
LAYER114
 70
               0
 62
               7
  6
CONTINUOUS
  0
LAYER
  5
A8
100
AcDbSymbolTableRecord
100
AcDbLayerTableRecord
  2
LAYER115
 70
               0
 62
               7
  6
CONTINUOUS
  0
LAYER
  5
A9
100
AcDbSymbolTableRecord
100
AcDbLayerTableRecord
  2
LAYER116
 70
               0
 62
               7
  6
CONTINUOUS
  0
LAYER
  5
AA
100
AcDbSymbolTableRecord
100
AcDbLayerTableRecord
  2
LAYER117
 70
               0
 62
               7
  6
CONTINUOUS
  0
LAYER
  5
AB
100
AcDbSymbolTableRecord
100
AcDbLayerTableRecord
  2
LAYER118
 70
               0
 62
               7
  6
CONTINUOUS
  0
LAYER
  5
AC
100
AcDbSymbolTableRecord
100
AcDbLayerTableRecord
  2
LAYER119
 70
               0
 62
               7
  6
CONTINUOUS
  0
LAYER
  5
AD
100
AcDbSymbolTableRecord
100
AcDbLayerTableRecord
  2
LAYER120
 70
               0
 62
               7
  6
CONTINUOUS
  0
LAYER
  5
AE
100
AcDbSymbolTableRecord
100
AcDbLayerTableRecord
  2
LAYER121
 70
               0
 62
               7
  6
CONTINUOUS
  0
LAYER
  5
AF
100
AcDbSymbolTableRecord
100
AcDbLayerTableRecord
  2
LAYER122
 70
               0
 62
               7
  6
CONTINUOUS
  0
LAYER
  5
B0
100
AcDbSymbolTableRecord
100
AcDbLayerTableRecord
  2
LAYER123
 70
               0
 62
               7
  6
CONTINUOUS
  0
LAYER
  5
B1
100
AcDbSymbolTableRecord
100
AcDbLayerTableRecord
  2
LAYER124
 70
               0
 62
               7
  6
CONTINUOUS
  0
LAYER
  5
B2
100
AcDbSymbolTableRecord
100
AcDbLayerTableRecord
  2
LAYER125
 70
               0
 62
               7
  6
CONTINUOUS
  0
LAYER
  5
B3
100
AcDbSymbolTableRecord
100
AcDbLayerTableRecord
  2
LAYER126
 70
               0
 62
               7
  6
CONTINUOUS
  0
LAYER
  5
B4
100
AcDbSymbolTableRecord
100
AcDbLayerTableRecord
  2
LAYER127
 70
               0
 62
               7
  6
CONTINUOUS
  0
LAYER
  5
B5
100
AcDbSymbolTableRecord
100
AcDbLayerTableRecord
  2
LAYER128
 70
               0
 62
               7
  6
CONTINUOUS
  0
LAYER
  5
B6
100
AcDbSymbolTableRecord
100
AcDbLayerTableRecord
  2
LAYER129
 70
               0
 62
               7
  6
CONTINUOUS
  0
LAYER
  5
B7
100
AcDbSymbolTableRecord
100
AcDbLayerTableRecord
  2
LAYER130
 70
               0
 62
               7
  6
CONTINUOUS
  0
LAYER
  5
B8
100
AcDbSymbolTableRecord
100
AcDbLayerTableRecord
  2
LAYER131
 70
               0
 62
               7
  6
CONTINUOUS
  0
LAYER
  5
B9
100
AcDbSymbolTableRecord
100
AcDbLayerTableRecord
  2
LAYER132
 70
               0
 62
               7
  6
CONTINUOUS
  0
LAYER
  5
BA
100
AcDbSymbolTableRecord
100
AcDbLayerTableRecord
  2
LAYER133
 70
               0
 62
               7
  6
CONTINUOUS
  0
LAYER
  5
BB
100
AcDbSymbolTableRecord
100
AcDbLayerTableRecord
  2
LAYER134
 70
               0
 62
               7
  6
CONTINUOUS
  0
LAYER
  5
BC
100
AcDbSymbolTableRecord
100
AcDbLayerTableRecord
  2
LAYER135
 70
               0
 62
               7
  6
CONTINUOUS
  0
LAYER
  5
BD
100
AcDbSymbolTableRecord
100
AcDbLayerTableRecord
  2
LAYER136
 70
               0
 62
               7
  6
CONTINUOUS
  0
LAYER
  5
BE
100
AcDbSymbolTableRecord
100
AcDbLayerTableRecord
  2
LAYER137
 70
               0
 62
               7
  6
CONTINUOUS
  0
LAYER
  5
BF
100
AcDbSymbolTableRecord
100
AcDbLayerTableRecord
  2
LAYER138
 70
               0
 62
               7
  6
CONTINUOUS
  0
LAYER
  5
C0
100
AcDbSymbolTableRecord
100
AcDbLayerTableRecord
  2
LAYER139
 70
               0
 62
               7
  6
CONTINUOUS
  0
LAYER
  5
C1
100
AcDbSymbolTableRecord
100
AcDbLayerTableRecord
  2
LAYER140
 70
               0
 62
               7
  6
CONTINUOUS
  0
LAYER
  5
C2
100
AcDbSymbolTableRecord
100
AcDbLayerTableRecord
  2
LAYER141
 70
               0
 62
               7
  6
CONTINUOUS
  0
LAYER
  5
C3
100
AcDbSymbolTableRecord
100
AcDbLayerTableRecord
  2
LAYER142
 70
               0
 62
               7
  6
CONTINUOUS
  0
LAYER
  5
C4
100
AcDbSymbolTableRecord
100
AcDbLayerTableRecord
  2
LAYER143
 70
               0
 62
               7
  6
CONTINUOUS
  0
LAYER
  5
C5
100
AcDbSymbolTableRecord
100
AcDbLayerTableRecord
  2
LAYER144
 70
               0
 62
               7
  6
CONTINUOUS
  0
LAYER
  5
C6
100
AcDbSymbolTableRecord
100
AcDbLayerTableRecord
  2
LAYER145
 70
               0
 62
               7
  6
CONTINUOUS
  0
LAYER
  5
C7
100
AcDbSymbolTableRecord
100
AcDbLayerTableRecord
  2
LAYER146
 70
               0
 62
               7
  6
CONTINUOUS
  0
LAYER
  5
C8
100
AcDbSymbolTableRecord
100
AcDbLayerTableRecord
  2
LAYER147
 70
               0
 62
               7
  6
CONTINUOUS
  0
LAYER
  5
C9
100
AcDbSymbolTableRecord
100
AcDbLayerTableRecord
  2
LAYER148
 70
               0
 62
               7
  6
CONTINUOUS
  0
LAYER
  5
CA
100
AcDbSymbolTableRecord
100
AcDbLayerTableRecord
  2
LAYER149
 70
               0
 62
               7
  6
CONTINUOUS
  0
LAYER
  5
CB
100
AcDbSymbolTableRecord
100
AcDbLayerTableRecord
  2
LAYER150
 70
               0
 62
               7
  6
CONTINUOUS
  0
LAYER
  5
CC
100
AcDbSymbolTableRecord
100
AcDbLayerTableRecord
  2
LAYER151
 70
               0
 62
               7
  6
CONTINUOUS
  0
LAYER
  5
CD
100
AcDbSymbolTableRecord
100
AcDbLayerTableRecord
  2
LAYER152
 70
               0
 62
               7
  6
CONTINUOUS
  0
LAYER
  5
CE
100
AcDbSymbolTableRecord
100
AcDbLayerTableRecord
  2
LAYER153
 70
               0
 62
               7
  6
CONTINUOUS
  0
LAYER
  5
CF
100
AcDbSymbolTableRecord
100
AcDbLayerTableRecord
  2
LAYER154
 70
               0
 62
               7
  6
CONTINUOUS
  0
LAYER
  5
D0
100
AcDbSymbolTableRecord
100
AcDbLayerTableRecord
  2
LAYER155
 70
               0
 62
               7
  6
CONTINUOUS
  0
LAYER
  5
D1
100
AcDbSymbolTableRecord
100
AcDbLayerTableRecord
  2
LAYER156
 70
               0
 62
               7
  6
CONTINUOUS
  0
LAYER
  5
D2
100
AcDbSymbolTableRecord
100
AcDbLayerTableRecord
  2
LAYER157
 70
               0
 62
               7
  6
CONTINUOUS
  0
LAYER
  5
D3
100
AcDbSymbolTableRecord
100
AcDbLayerTableRecord
  2
LAYER158
 70
               0
 62
               7
  6
CONTINUOUS
  0
LAYER
  5
D4
100
AcDbSymbolTableRecord
100
AcDbLayerTableRecord
  2
LAYER159
 70
               0
 62
               7
  6
CONTINUOUS
  0
LAYER
  5
D5
100
AcDbSymbolTableRecord
100
AcDbLayerTableRecord
  2
LAYER160
 70
               0
 62
               7
  6
CONTINUOUS
  0
LAYER
  5
D6
100
AcDbSymbolTableRecord
100
AcDbLayerTableRecord
  2
LAYER161
 70
               0
 62
               7
  6
CONTINUOUS
  0
LAYER
  5
D7
100
AcDbSymbolTableRecord
100
AcDbLayerTableRecord
  2
LAYER162
 70
               0
 62
               7
  6
CONTINUOUS
  0
LAYER
  5
D8
100
AcDbSymbolTableRecord
100
AcDbLayerTableRecord
  2
LAYER163
 70
               0
 62
               7
  6
CONTINUOUS
  0
LAYER
  5
D9
100
AcDbSymbolTableRecord
100
AcDbLayerTableRecord
  2
LAYER164
 70
               0
 62
               7
  6
CONTINUOUS
  0
LAYER
  5
DA
100
AcDbSymbolTableRecord
100
AcDbLayerTableRecord
  2
LAYER165
 70
               0
 62
               7
  6
CONTINUOUS
  0
LAYER
  5
DB
100
AcDbSymbolTableRecord
100
AcDbLayerTableRecord
  2
LAYER166
 70
               0
 62
               7
  6
CONTINUOUS
  0
LAYER
  5
DC
100
AcDbSymbolTableRecord
100
AcDbLayerTableRecord
  2
LAYER167
 70
               0
 62
               7
  6
CONTINUOUS
  0
LAYER
  5
DD
100
AcDbSymbolTableRecord
100
AcDbLayerTableRecord
  2
LAYER168
 70
               0
 62
               7
  6
CONTINUOUS
  0
LAYER
  5
DE
100
AcDbSymbolTableRecord
100
AcDbLayerTableRecord
  2
LAYER169
 70
               0
 62
               7
  6
CONTINUOUS
  0
LAYER
  5
DF
100
AcDbSymbolTableRecord
100
AcDbLayerTableRecord
  2
LAYER170
 70
               0
 62
               7
  6
CONTINUOUS
  0
LAYER
  5
E0
100
AcDbSymbolTableRecord
100
AcDbLayerTableRecord
  2
LAYER171
 70
               0
 62
               7
  6
CONTINUOUS
  0
LAYER
  5
E1
100
AcDbSymbolTableRecord
100
AcDbLayerTableRecord
  2
LAYER172
 70
               0
 62
               7
  6
CONTINUOUS
  0
LAYER
  5
E2
100
AcDbSymbolTableRecord
100
AcDbLayerTableRecord
  2
LAYER173
 70
               0
 62
               7
  6
CONTINUOUS
  0
LAYER
  5
E3
100
AcDbSymbolTableRecord
100
AcDbLayerTableRecord
  2
LAYER174
 70
               0
 62
               7
  6
CONTINUOUS
  0
LAYER
  5
E4
100
AcDbSymbolTableRecord
100
AcDbLayerTableRecord
  2
LAYER175
 70
               0
 62
               7
  6
CONTINUOUS
  0
LAYER
  5
E5
100
AcDbSymbolTableRecord
100
AcDbLayerTableRecord
  2
LAYER176
 70
               0
 62
               7
  6
CONTINUOUS
  0
LAYER
  5
E6
100
AcDbSymbolTableRecord
100
AcDbLayerTableRecord
  2
LAYER177
 70
               0
 62
               7
  6
CONTINUOUS
  0
LAYER
  5
E7
100
AcDbSymbolTableRecord
100
AcDbLayerTableRecord
  2
LAYER178
 70
               0
 62
               7
  6
CONTINUOUS
  0
LAYER
  5
E8
100
AcDbSymbolTableRecord
100
AcDbLayerTableRecord
  2
LAYER179
 70
               0
 62
               7
  6
CONTINUOUS
  0
LAYER
  5
E9
100
AcDbSymbolTableRecord
100
AcDbLayerTableRecord
  2
LAYER180
 70
               0
 62
               7
  6
CONTINUOUS
  0
LAYER
  5
EA
100
AcDbSymbolTableRecord
100
AcDbLayerTableRecord
  2
LAYER181
 70
               0
 62
               7
  6
CONTINUOUS
  0
LAYER
  5
EB
100
AcDbSymbolTableRecord
100
AcDbLayerTableRecord
  2
LAYER182
 70
               0
 62
               7
  6
CONTINUOUS
  0
LAYER
  5
EC
100
AcDbSymbolTableRecord
100
AcDbLayerTableRecord
  2
LAYER183
 70
               0
 62
               7
  6
CONTINUOUS
  0
LAYER
  5
ED
100
AcDbSymbolTableRecord
100
AcDbLayerTableRecord
  2
LAYER184
 70
               0
 62
               7
  6
CONTINUOUS
  0
LAYER
  5
EE
100
AcDbSymbolTableRecord
100
AcDbLayerTableRecord
  2
LAYER185
 70
               0
 62
               7
  6
CONTINUOUS
  0
LAYER
  5
EF
100
AcDbSymbolTableRecord
100
AcDbLayerTableRecord
  2
LAYER186
 70
               0
 62
               7
  6
CONTINUOUS
  0
LAYER
  5
F0
100
AcDbSymbolTableRecord
100
AcDbLayerTableRecord
  2
LAYER187
 70
               0
 62
               7
  6
CONTINUOUS
  0
LAYER
  5
F1
100
AcDbSymbolTableRecord
100
AcDbLayerTableRecord
  2
LAYER188
 70
               0
 62
               7
  6
CONTINUOUS
  0
LAYER
  5
F2
100
AcDbSymbolTableRecord
100
AcDbLayerTableRecord
  2
LAYER189
 70
               0
 62
               7
  6
CONTINUOUS
  0
LAYER
  5
F3
100
AcDbSymbolTableRecord
100
AcDbLayerTableRecord
  2
LAYER190
 70
               0
 62
               7
  6
CONTINUOUS
  0
LAYER
  5
F4
100
AcDbSymbolTableRecord
100
AcDbLayerTableRecord
  2
LAYER191
 70
               0
 62
               7
  6
CONTINUOUS
  0
LAYER
  5
F5
100
AcDbSymbolTableRecord
100
AcDbLayerTableRecord
  2
LAYER192
 70
               0
 62
               7
  6
CONTINUOUS
  0
LAYER
  5
F6
100
AcDbSymbolTableRecord
100
AcDbLayerTableRecord
  2
LAYER193
 70
               0
 62
               7
  6
CONTINUOUS
  0
LAYER
  5
F7
100
AcDbSymbolTableRecord
100
AcDbLayerTableRecord
  2
LAYER194
 70
               0
 62
               7
  6
CONTINUOUS
  0
LAYER
  5
F8
100
AcDbSymbolTableRecord
100
AcDbLayerTableRecord
  2
LAYER195
 70
               0
 62
               7
  6
CONTINUOUS
  0
LAYER
  5
F9
100
AcDbSymbolTableRecord
100
AcDbLayerTableRecord
  2
LAYER196
 70
               0
 62
               7
  6
CONTINUOUS
  0
LAYER
  5
FA
100
AcDbSymbolTableRecord
100
AcDbLayerTableRecord
  2
LAYER197
 70
               0
 62
               7
  6
CONTINUOUS
  0
LAYER
  5
FB
100
AcDbSymbolTableRecord
100
AcDbLayerTableRecord
  2
LAYER198
 70
               0
 62
               7
  6
CONTINUOUS
  0
LAYER
  5
FC
100
AcDbSymbolTableRecord
100
AcDbLayerTableRecord
  2
LAYER199
 70
               0
 62
               7
  6
CONTINUOUS
  0
LAYER
  5
FD
100
AcDbSymbolTableRecord
100
AcDbLayerTableRecord
  2
LAYER200
 70
               0
 62
               7
  6
CONTINUOUS
  0
LAYER
  5
FE
100
AcDbSymbolTableRecord
100
AcDbLayerTableRecord
  2
LAYER201
 70
               0
 62
               7
  6
CONTINUOUS
  0
LAYER
  5
FF
100
AcDbSymbolTableRecord
100
AcDbLayerTableRecord
  2
LAYER202
 70
               0
 62
               7
  6
CONTINUOUS
  0
LAYER
  5
100
100
AcDbSymbolTableRecord
100
AcDbLayerTableRecord
  2
LAYER203
 70
               0
 62
               7
  6
CONTINUOUS
  0
LAYER
  5
101
100
AcDbSymbolTableRecord
100
AcDbLayerTableRecord
  2
LAYER204
 70
               0
 62
               7
  6
CONTINUOUS
  0
LAYER
  5
102
100
AcDbSymbolTableRecord
100
AcDbLayerTableRecord
  2
LAYER205
 70
               0
 62
               7
  6
CONTINUOUS
  0
LAYER
  5
103
100
AcDbSymbolTableRecord
100
AcDbLayerTableRecord
  2
LAYER206
 70
               0
 62
               7
  6
CONTINUOUS
  0
LAYER
  5
104
100
AcDbSymbolTableRecord
100
AcDbLayerTableRecord
  2
LAYER207
 70
               0
 62
               7
  6
CONTINUOUS
  0
LAYER
  5
105
100
AcDbSymbolTableRecord
100
AcDbLayerTableRecord
  2
LAYER208
 70
               0
 62
               7
  6
CONTINUOUS
  0
LAYER
  5
106
100
AcDbSymbolTableRecord
100
AcDbLayerTableRecord
  2
LAYER209
 70
               0
 62
               7
  6
CONTINUOUS
  0
LAYER
  5
107
100
AcDbSymbolTableRecord
100
AcDbLayerTableRecord
  2
LAYER210
 70
               0
 62
               7
  6
CONTINUOUS
  0
LAYER
  5
108
100
AcDbSymbolTableRecord
100
AcDbLayerTableRecord
  2
LAYER211
 70
               0
 62
               7
  6
CONTINUOUS
  0
LAYER
  5
109
100
AcDbSymbolTableRecord
100
AcDbLayerTableRecord
  2
LAYER212
 70
               0
 62
               7
  6
CONTINUOUS
  0
LAYER
  5
10A
100
AcDbSymbolTableRecord
100
AcDbLayerTableRecord
  2
LAYER213
 70
               0
 62
               7
  6
CONTINUOUS
  0
LAYER
  5
10B
100
AcDbSymbolTableRecord
100
AcDbLayerTableRecord
  2
LAYER214
 70
               0
 62
               7
  6
CONTINUOUS
  0
LAYER
  5
10C
100
AcDbSymbolTableRecord
100
AcDbLayerTableRecord
  2
LAYER215
 70
               0
 62
               7
  6
CONTINUOUS
  0
LAYER
  5
10D
100
AcDbSymbolTableRecord
100
AcDbLayerTableRecord
  2
LAYER216
 70
               0
 62
               7
  6
CONTINUOUS
  0
LAYER
  5
10E
100
AcDbSymbolTableRecord
100
AcDbLayerTableRecord
  2
LAYER217
 70
               0
 62
               7
  6
CONTINUOUS
  0
LAYER
  5
10F
100
AcDbSymbolTableRecord
100
AcDbLayerTableRecord
  2
LAYER218
 70
               0
 62
               7
  6
CONTINUOUS
  0
LAYER
  5
110
100
AcDbSymbolTableRecord
100
AcDbLayerTableRecord
  2
LAYER219
 70
               0
 62
               7
  6
CONTINUOUS
  0
LAYER
  5
111
100
AcDbSymbolTableRecord
100
AcDbLayerTableRecord
  2
LAYER220
 70
               0
 62
               7
  6
CONTINUOUS
  0
LAYER
  5
112
100
AcDbSymbolTableRecord
100
AcDbLayerTableRecord
  2
LAYER221
 70
               0
 62
               7
  6
CONTINUOUS
  0
LAYER
  5
113
100
AcDbSymbolTableRecord
100
AcDbLayerTableRecord
  2
LAYER222
 70
               0
 62
               7
  6
CONTINUOUS
  0
LAYER
  5
114
100
AcDbSymbolTableRecord
100
AcDbLayerTableRecord
  2
LAYER223
 70
               0
 62
               7
  6
CONTINUOUS
  0
LAYER
  5
115
100
AcDbSymbolTableRecord
100
AcDbLayerTableRecord
  2
LAYER224
 70
               0
 62
               7
  6
CONTINUOUS
  0
LAYER
  5
116
100
AcDbSymbolTableRecord
100
AcDbLayerTableRecord
  2
LAYER225
 70
               0
 62
               7
  6
CONTINUOUS
  0
LAYER
  5
117
100
AcDbSymbolTableRecord
100
AcDbLayerTableRecord
  2
LAYER226
 70
               0
 62
               7
  6
CONTINUOUS
  0
LAYER
  5
118
100
AcDbSymbolTableRecord
100
AcDbLayerTableRecord
  2
LAYER227
 70
               0
 62
               7
  6
CONTINUOUS
  0
LAYER
  5
119
100
AcDbSymbolTableRecord
100
AcDbLayerTableRecord
  2
LAYER228
 70
               0
 62
               7
  6
CONTINUOUS
  0
LAYER
  5
11A
100
AcDbSymbolTableRecord
100
AcDbLayerTableRecord
  2
LAYER229
 70
               0
 62
               7
  6
CONTINUOUS
  0
LAYER
  5
11B
100
AcDbSymbolTableRecord
100
AcDbLayerTableRecord
  2
LAYER230
 70
               0
 62
               7
  6
CONTINUOUS
  0
LAYER
  5
11C
100
AcDbSymbolTableRecord
100
AcDbLayerTableRecord
  2
LAYER231
 70
               0
 62
               7
  6
CONTINUOUS
  0
LAYER
  5
11D
100
AcDbSymbolTableRecord
100
AcDbLayerTableRecord
  2
LAYER232
 70
               0
 62
               7
  6
CONTINUOUS
  0
LAYER
  5
11E
100
AcDbSymbolTableRecord
100
AcDbLayerTableRecord
  2
LAYER233
 70
               0
 62
               7
  6
CONTINUOUS
  0
LAYER
  5
11F
100
AcDbSymbolTableRecord
100
AcDbLayerTableRecord
  2
LAYER234
 70
               0
 62
               7
  6
CONTINUOUS
  0
LAYER
  5
120
100
AcDbSymbolTableRecord
100
AcDbLayerTableRecord
  2
LAYER235
 70
               0
 62
               7
  6
CONTINUOUS
  0
LAYER
  5
121
100
AcDbSymbolTableRecord
100
AcDbLayerTableRecord
  2
LAYER236
 70
               0
 62
               7
  6
CONTINUOUS
  0
LAYER
  5
122
100
AcDbSymbolTableRecord
100
AcDbLayerTableRecord
  2
LAYER237
 70
               0
 62
               7
  6
CONTINUOUS
  0
LAYER
  5
123
100
AcDbSymbolTableRecord
100
AcDbLayerTableRecord
  2
LAYER238
 70
               0
 62
               7
  6
CONTINUOUS
  0
LAYER
  5
124
100
AcDbSymbolTableRecord
100
AcDbLayerTableRecord
  2
LAYER239
 70
               0
 62
               7
  6
CONTINUOUS
  0
LAYER
  5
125
100
AcDbSymbolTableRecord
100
AcDbLayerTableRecord
  2
LAYER240
 70
               0
 62
               7
  6
CONTINUOUS
  0
LAYER
  5
126
100
AcDbSymbolTableRecord
100
AcDbLayerTableRecord
  2
LAYER241
 70
               0
 62
               7
  6
CONTINUOUS
  0
LAYER
  5
127
100
AcDbSymbolTableRecord
100
AcDbLayerTableRecord
  2
LAYER242
 70
               0
 62
               7
  6
CONTINUOUS
  0
LAYER
  5
128
100
AcDbSymbolTableRecord
100
AcDbLayerTableRecord
  2
LAYER243
 70
               0
 62
               7
  6
CONTINUOUS
  0
LAYER
  5
129
100
AcDbSymbolTableRecord
100
AcDbLayerTableRecord
  2
LAYER244
 70
               0
 62
               7
  6
CONTINUOUS
  0
LAYER
  5
12A
100
AcDbSymbolTableRecord
100
AcDbLayerTableRecord
  2
LAYER245
 70
               0
 62
               7
  6
CONTINUOUS
  0
LAYER
  5
12B
100
AcDbSymbolTableRecord
100
AcDbLayerTableRecord
  2
LAYER246
 70
               0
 62
               7
  6
CONTINUOUS
  0
LAYER
  5
12C
100
AcDbSymbolTableRecord
100
AcDbLayerTableRecord
  2
LAYER247
 70
               0
 62
               7
  6
CONTINUOUS
  0
LAYER
  5
12D
100
AcDbSymbolTableRecord
100
AcDbLayerTableRecord
  2
LAYER248
 70
               0
 62
               7
  6
CONTINUOUS
  0
LAYER
  5
12E
100
AcDbSymbolTableRecord
100
AcDbLayerTableRecord
  2
LAYER249
 70
               0
 62
               7
  6
CONTINUOUS
  0
LAYER
  5
12F
100
AcDbSymbolTableRecord
100
AcDbLayerTableRecord
  2
LAYER250
 70
               0
 62
               7
  6
CONTINUOUS
  0
LAYER
  5
130
100
AcDbSymbolTableRecord
100
AcDbLayerTableRecord
  2
LAYER251
 70
               0
 62
               7
  6
CONTINUOUS
  0
LAYER
  5
131
100
AcDbSymbolTableRecord
100
AcDbLayerTableRecord
  2
LAYER252
 70
               0
 62
               7
  6
CONTINUOUS
  0
LAYER
  5
132
100
AcDbSymbolTableRecord
100
AcDbLayerTableRecord
  2
LAYER253
 70
               0
 62
               7
  6
CONTINUOUS
  0
LAYER
  5
133
100
AcDbSymbolTableRecord
100
AcDbLayerTableRecord
  2
LAYER254
 70
               0
 62
               7
  6
CONTINUOUS
  0
LAYER
  5
134
100
AcDbSymbolTableRecord
100
AcDbLayerTableRecord
  2
LAYER255
 70
               0
 62
               7
  6
CONTINUOUS
  0
ENDTAB
  0
TABLE
  2
STYLE
  5
3
100
AcDbSymbolTable
 70
               1
  0
STYLE
  5
17
100
AcDbSymbolTableRecord
100
AcDbTextStyleTableRecord
  2
STANDARD
 70
               0
 40
0.0
 41
1.0
 50
0.0
 71
               0
 42
0.0
  3
txt
  4

  0
ENDTAB
  0
TABLE
  2
VIEW
  5
5
100
AcDbSymbolTable
 70
               1
  0
VIEW
  5
135
100
AcDbSymbolTableRecord
100
AcDbViewTableRecord
  2
QQQQ
 70
               0
 40
375.40804774123842
 10
0.0000149999999906
 20
8.3321280944622771
 41
254.15003315000004
 11
0.0
 21
0.0
 31
1.0
 12
100.0
 22
100.0
 32
0.0
 42
50.0
 43
0.0
 44
0.0
 50
0.0
 71
               0
  0
ENDTAB
  0
TABLE
  2
UCS
  5
6
100
AcDbSymbolTable
 70
               0
  0
ENDTAB
  0
TABLE
  2
APPID
  5
8
100
AcDbSymbolTable
 70
               1
  0
APPID
  5
16
100
AcDbSymbolTableRecord
100
AcDbRegAppTableRecord
  2
ACAD
 70
               0
  0
ENDTAB
  0
TABLE
  2
DIMSTYLE
  5
9
100
AcDbSymbolTable
 70
               1
  0
DIMSTYLE
105
18
100
AcDbSymbolTableRecord
100
AcDbDimStyleTableRecord
  2
STANDARD
 70
               0
  3

  4

  5

  6

  7

 40
1.0
 41
0.18
 42
0.0625
 43
0.38
 44
0.18
 45
0.0
 46
0.0
 47
0.0
 48
0.0
140
0.18
141
0.09
142
0.0
143
25.399999999999999
144
1.0
145
0.0
146
1.0
147
0.09
 71
               0
 72
               0
 73
               1
 74
               1
 75
               0
 76
               0
 77
               0
 78
               0
170
               0
171
               2
172
               0
173
               0
174
               0
175
               0
176
               0
177
               0
178
               0
270
               2
271
               4
272
               4
273
               2
274
               2
340
17
275
               0
280
               0
281
               0
282
               0
283
               1
284
               0
285
               0
286
               0
287
               0
288
               0
  0
ENDTAB
  0
TABLE
  2
BLOCK_RECORD
  5
1
100
AcDbSymbolTable
 70
               0
  0
BLOCK_RECORD
  5
A
100
AcDbSymbolTableRecord
100
AcDbBlockTableRecord
  2
*MODEL_SPACE
  0
BLOCK_RECORD
  5
B
100
AcDbSymbolTableRecord
100
AcDbBlockTableRecord
  2
*PAPER_SPACE
  0
ENDTAB
  0
ENDSEC
  0
SECTION
  2
BLOCKS
  0
BLOCK
  5
D
100
AcDbEntity
  8
0
100
AcDbBlockBegin
  2
*MODEL_SPACE
 70
               0
 10
0.0
 20
0.0
 30
0.0
  3
*MODEL_SPACE
  1

  0
ENDBLK
  5
E
100
AcDbEntity
  8
0
100
AcDbBlockEnd
  0
BLOCK
  5
F
100
AcDbEntity
 67
               1
  8
0
100
AcDbBlockBegin
  2
*PAPER_SPACE
 70
               0
 10
0.0
 20
0.0
 30
0.0
  3
*PAPER_SPACE
  1

  0
ENDBLK
  5
10
100
AcDbEntity
 67
               1
  8
0
100
AcDbBlockEnd
  0
ENDSEC
  0
SECTION
  2
ENTITIES
  0
ARC
  5
136
100
AcDbEntity
  8
LAYER001
  6
CONTINUOUS
 62
               3
100
AcDbCircle
 10
31.000008000000008
 20
1.0
 30
0.0
 40
1.0
100
AcDbArc
 50
269.9999999999489
 51
359.9999999999992
  0
ARC
  5
137
100
AcDbEntity
  8
LAYER001
  6
CONTINUOUS
 62
               3
100
AcDbCircle
 10
33.500008000000008
 20
6.4999929999999893
 30
0.0
 40
1.5
100
AcDbArc
 50
89.999999999982435
 51
179.99999999996541
  0
ARC
  5
138
100
AcDbEntity
  8
LAYER001
  6
CONTINUOUS
 62
               3
100
AcDbCircle
 10
-33.500008000000008
 20
6.4999929999999893
 30
0.0
 40
1.5
100
AcDbArc
 50
0.0
 51
89.999999999982975
  0
ARC
  5
139
100
AcDbEntity
  8
LAYER001
  6
CONTINUOUS
 62
               3
100
AcDbCircle
 10
-31.000008000000008
 20
1.0
 30
0.0
 40
1.0
100
AcDbArc
 50
179.99999999996541
 51
269.9999999999481
  0
LINE
  5
13A
100
AcDbEntity
  8
LAYER001
  6
CONTINUOUS
 62
               3
100
AcDbLine
 10
40.000008000000008
 20
23.999992999999989
 30
0.0
 11
-40.000008000000008
 21
23.999984999999981
 31
0.0
  0
LINE
  5
13B
100
AcDbEntity
  8
LAYER001
  6
CONTINUOUS
 62
               3
100
AcDbLine
 10
31.000008000000008
 20
0.0
 30
0.0
 11
-31.000008000000008
 21
0.0
 31
0.0
  0
ARC
  5
13C
100
AcDbEntity
  8
LAYER001
  6
CONTINUOUS
 62
               3
100
AcDbCircle
 10
0.0000149999999906
 20
63.200007999999997
 30
0.0
 40
34.0
100
AcDbArc
 50
0.0
 51
180.00001999996559
  0
ARC
  5
13D
100
AcDbEntity
  8
LAYER001
  6
CONTINUOUS
 62
               3
100
AcDbCircle
 10
0.0000149999999906
 20
63.200007999999997
 30
0.0
 40
40.0
100
AcDbArc
 50
0.0
 51
180.00001999996559
  0
ARC
  5
13E
100
AcDbEntity
  8
LAYER001
  6
CONTINUOUS
 62
               3
100
AcDbCircle
 10
0.0000149999999906
 20
63.200007999999997
 30
0.0
 40
33.499985000000002
100
AcDbArc
 50
0.0
 51
179.99999999996564
  0
ARC
  5
13F
100
AcDbEntity
  8
LAYER001
  6
CONTINUOUS
 62
               3
100
AcDbCircle
 10
15.0
 20
63.200007999999997
 30
0.0
 40
3.5
100
AcDbArc
 50
0.0
 51
179.99999999996564
  0
ARC
  5
140
100
AcDbEntity
  8
LAYER001
  6
CONTINUOUS
 62
               3
100
AcDbCircle
 10
-14.99996999999999
 20
63.200007999999997
 30
0.0
 40
3.5
100
AcDbArc
 50
0.0
 51
179.99999999996564
  0
ARC
  5
141
100
AcDbEntity
  8
LAYER001
  6
CONTINUOUS
 62
               3
100
AcDbCircle
 10
38.500008000000008
 20
20.0
 30
0.0
 40
2.0
100
AcDbArc
 50
89.999999999982705
 51
179.99999999996541
  0
LINE
  5
142
100
AcDbEntity
  8
LAYER001
  6
CONTINUOUS
 62
               3
100
AcDbLine
 10
36.500008000000008
 20
18.999984999999981
 30
0.0
 11
36.500008000000008
 21
20.0
 31
0.0
  0
ARC
  5
143
100
AcDbEntity
  8
LAYER001
  6
CONTINUOUS
 62
               3
100
AcDbCircle
 10
35.500008000000008
 20
18.999984999999981
 30
0.0
 40
1.0
100
AcDbArc
 50
269.9999999999489
 51
359.9999999999992
  0
ARC
  5
144
100
AcDbEntity
  8
LAYER001
  6
CONTINUOUS
 62
               3
100
AcDbCircle
 10
34.000008000000008
 20
15.999984999999981
 30
0.0
 40
2.0
100
AcDbArc
 50
89.999999999982705
 51
179.99999999996541
  0
LINE
  5
145
100
AcDbEntity
  8
LAYER001
  6
CONTINUOUS
 62
               3
100
AcDbLine
 10
40.000008000000008
 20
22.0
 30
0.0
 11
-40.000008000000008
 21
22.0
 31
0.0
  0
ARC
  5
146
100
AcDbEntity
  8
LAYER001
  6
CONTINUOUS
 62
               3
100
AcDbCircle
 10
-38.500008000000008
 20
20.0
 30
0.0
 40
2.0
100
AcDbArc
 50
0.0
 51
89.999999999982705
  0
LINE
  5
147
100
AcDbEntity
  8
LAYER001
  6
CONTINUOUS
 62
               3
100
AcDbLine
 10
-36.500008000000008
 20
18.999984999999981
 30
0.0
 11
-36.500008000000008
 21
20.0
 31
0.0
  0
ARC
  5
148
100
AcDbEntity
  8
LAYER001
  6
CONTINUOUS
 62
               3
100
AcDbCircle
 10
-35.500008000000008
 20
18.999984999999981
 30
0.0
 40
1.0
100
AcDbArc
 50
179.99999999996541
 51
269.9999999999481
  0
LINE
  5
149
100
AcDbEntity
  8
LAYER001
  6
CONTINUOUS
 62
               3
100
AcDbLine
 10
35.500007999999127
 20
17.999984999999981
 30
0.0
 11
-35.500008000000008
 21
17.999984999999981
 31
0.0
  0
ARC
  5
14A
100
AcDbEntity
  8
LAYER001
  6
CONTINUOUS
 62
               3
100
AcDbCircle
 10
-34.000008000000008
 20
15.999984999999981
 30
0.0
 40
2.0
100
AcDbArc
 50
0.0
 51
89.999999999982705
  0
LINE
  5
14B
100
AcDbEntity
  8
LAYER001
  6
CONTINUOUS
 62
               3
100
AcDbLine
 10
-40.000008000000008
 20
22.0
 30
0.0
 11
-40.000008000000008
 21
23.999992999999989
 31
0.0
  0
LINE
  5
14C
100
AcDbEntity
  8
LAYER001
  6
CONTINUOUS
 62
               3
100
AcDbLine
 10
-33.500008000000008
 20
17.936476999999996
 30
0.0
 11
-33.500008000000008
 21
7.9999929999999893
 31
0.0
  0
LINE
  5
14D
100
AcDbEntity
  8
LAYER001
  6
CONTINUOUS
 62
               3
100
AcDbLine
 10
-32.000008000000008
 20
15.999984999999981
 30
0.0
 11
-32.000008000000008
 21
1.0
 31
0.0
  0
LINE
  5
14E
100
AcDbEntity
  8
LAYER001
  6
CONTINUOUS
 62
               3
100
AcDbLine
 10
40.000008000000008
 20
22.0
 30
0.0
 11
40.000008000000008
 21
23.999992999999989
 31
0.0
  0
LINE
  5
14F
100
AcDbEntity
  8
LAYER001
  6
CONTINUOUS
 62
               3
100
AcDbLine
 10
32.000008000000008
 20
15.999984999999981
 30
0.0
 11
32.000008000000008
 21
1.0
 31
0.0
  0
LINE
  5
150
100
AcDbEntity
  8
LAYER001
  6
CONTINUOUS
 62
               3
100
AcDbLine
 10
33.500008000000008
 20
17.936476999999996
 30
0.0
 11
33.500008000000008
 21
7.9999929999999893
 31
0.0
  0
ARC
  5
151
100
AcDbEntity
  8
LAYER001
  6
CONTINUOUS
 62
               4
100
AcDbCircle
 10
4.5582190000000082
 20
64.814866999999992
 30
0.0
 40
0.12913
100
AcDbArc
 50
36.283535999992722
 51
224.32277599995942
  0
ARC
  5
152
100
AcDbEntity
  8
LAYER001
  6
CONTINUOUS
 62
               4
100
AcDbCircle
 10
-4.2002619999999808
 20
62.897036999999983
 30
0.0
 40
0.125217
100
AcDbArc
 50
322.01793999994197
 51
507.75533399997391
  0
ELLIPSE
  5
153
100
AcDbEntity
  8
LAYER001
  6
CONTINUOUS
 62
               4
100
AcDbEllipse
 10
0.0984430000000032
 20
62.543509
 30
0.0
 11
-4.9027441084481893
 21
-1.7844529216991418
 31
0.0
210
0.0
220
0.0
230
1.0
 40
0.5666670000000009
 41
5.5845956283909084
 42
9.644795789492461
  0
ELLIPSE
  5
154
100
AcDbEntity
  8
LAYER001
  6
CONTINUOUS
 62
               4
100
AcDbEllipse
 10
0.0984430000000032
 20
62.543509
 30
0.0
 11
-4.6576069030257941
 21
-1.6952302756141648
 31
0.0
210
0.0
220
0.0
230
1.0
 40
0.5438599999999997
 41
5.6025769877894271
 42
9.6324738471232507
  0
ARC
  5
155
100
AcDbEntity
  8
LAYER001
  6
CONTINUOUS
 62
               4
100
AcDbCircle
 10
-1.8700450000000046
 20
62.053766999999993
 30
0.0
 40
1.768014
100
AcDbArc
 50
182.19415599996483
 51
278.85422699994672
  0
ARC
  5
156
100
AcDbEntity
  8
LAYER001
  6
CONTINUOUS
 62
               4
100
AcDbCircle
 10
-1.8521070000000179
 20
62.043295999999998
 30
0.0
 40
1.75498
100
AcDbArc
 50
278.3281729999469
 51
360.85302599999875
  0
ARC
  5
157
100
AcDbEntity
  8
LAYER001
  6
CONTINUOUS
 62
               4
100
AcDbCircle
 10
0.2604929999999968
 20
62.079286999999994
 30
0.0
 40
0.35795
100
AcDbArc
 50
130.4678159999759
 51
181.57900899996395
  0
ARC
  5
158
100
AcDbEntity
  8
LAYER001
  6
CONTINUOUS
 62
               4
100
AcDbCircle
 10
0.2971540000000061
 20
61.966036000000003
 30
0.0
 40
0.47012
100
AcDbArc
 50
90.104216999983208
 51
124.90013699997537
  0
LINE
  5
159
100
AcDbEntity
  8
LAYER001
  6
CONTINUOUS
 62
               4
100
AcDbLine
 10
-2.2044329999999945
 20
62.138995999999992
 30
0.0
 11
-2.2044329999999945
 21
66.404443999999984
 31
0.0
  0
ARC
  5
15A
100
AcDbEntity
  8
LAYER001
  6
CONTINUOUS
 62
               4
100
AcDbCircle
 10
-1.8553560000000004
 20
62.129868999999985
 30
0.0
 40
0.349195
100
AcDbArc
 50
178.50222199996759
 51
356.21227299993194
  0
ARC
  5
15B
100
AcDbEntity
  8
LAYER001
  6
CONTINUOUS
 62
               4
100
AcDbCircle
 10
-0.8532419999999945
 20
63.267358000000002
 30
0.0
 40
0.654695
100
AcDbArc
 50
97.982124999980584
 51
176.81094599996644
  0
LINE
  5
15C
100
AcDbEntity
  8
LAYER001
  6
CONTINUOUS
 62
               4
100
AcDbLine
 10
-0.5944429999999841
 20
64.860735000000005
 30
0.0
 11
-0.5944429999999841
 21
64.962645000000009
 31
0.0
  0
LINE
  5
15D
100
AcDbEntity
  8
LAYER001
  6
CONTINUOUS
 62
               4
100
AcDbLine
 10
-0.8142589999999927
 20
64.659376000000009
 30
0.0
 11
-0.7168539999999837
 21
64.659376000000009
 31
0.0
  0
ARC
  5
15E
100
AcDbEntity
  8
LAYER001
  6
CONTINUOUS
 62
               4
100
AcDbCircle
 10
-0.717253999999997
 20
65.108694999999983
 30
0.0
 40
0.449319
100
AcDbArc
 50
270.05099599994873
 51
276.9651349999462
  0
ARC
  5
15F
100
AcDbEntity
  8
LAYER001
  6
CONTINUOUS
 62
               4
100
AcDbCircle
 10
-0.6664250000000038
 20
64.703589999999991
 30
0.0
 40
0.041061
100
AcDbArc
 50
275.11084499993609
 51
313.00385399994872
  0
ARC
  5
160
100
AcDbEntity
  8
LAYER001
  6
CONTINUOUS
 62
               4
100
AcDbCircle
 10
-0.7347059999999885
 20
64.752460999999983
 30
0.0
 40
0.124484
100
AcDbArc
 50
320.66784399993577
 51
344.92413299993603
  0
ARC
  5
161
100
AcDbEntity
  8
LAYER001
  6
CONTINUOUS
 62
               4
100
AcDbCircle
 10
-1.1739239999999995
 20
64.87163799999999
 30
0.0
 40
0.579583
100
AcDbArc
 50
344.84151699993458
 51
358.9221129999321
  0
ARC
  5
162
100
AcDbEntity
  8
LAYER001
  6
CONTINUOUS
 62
               4
100
AcDbCircle
 10
-0.8138590000000079
 20
65.108694999999983
 30
0.0
 40
0.449319
100
AcDbArc
 50
263.03486499995012
 51
269.94900399994862
  0
ARC
  5
163
100
AcDbEntity
  8
LAYER001
  6
CONTINUOUS
 62
               4
100
AcDbCircle
 10
-0.864688000000001
 20
64.703589999999991
 30
0.0
 40
0.041061
100
AcDbArc
 50
226.99614599996499
 51
264.88915499994067
  0
ARC
  5
164
100
AcDbEntity
  8
LAYER001
  6
CONTINUOUS
 62
               4
100
AcDbCircle
 10
-0.7964070000000163
 20
64.752460999999983
 30
0.0
 40
0.124484
100
AcDbArc
 50
195.07586699996756
 51
219.33215599996504
  0
ARC
  5
165
100
AcDbEntity
  8
LAYER001
  6
CONTINUOUS
 62
               4
100
AcDbCircle
 10
-0.3571889999999769
 20
64.87163799999999
 30
0.0
 40
0.579583
100
AcDbArc
 50
181.07788699996556
 51
195.1584829999623
  0
LINE
  5
166
100
AcDbEntity
  8
LAYER001
  6
CONTINUOUS
 62
               4
100
AcDbLine
 10
-0.9366699999999923
 20
65.810016999999988
 30
0.0
 11
-0.9366699999999923
 21
64.860735000000005
 31
0.0
  0
LINE
  5
167
100
AcDbEntity
  8
LAYER001
  6
CONTINUOUS
 62
               4
100
AcDbLine
 10
-0.5944429999999841
 20
65.811930999999987
 30
0.0
 11
-0.5944429999999841
 21
65.701674999999994
 31
0.0
  0
LINE
  5
168
100
AcDbEntity
  8
LAYER001
  6
CONTINUOUS
 62
               4
100
AcDbLine
 10
-0.6583459999999946
 20
66.025518000000005
 30
0.0
 11
-0.8727800000000059
 21
66.025518000000005
 31
0.0
  0
ARC
  5
169
100
AcDbEntity
  8
LAYER001
  6
CONTINUOUS
 62
               4
100
AcDbCircle
 10
-0.2615370000000041
 20
65.815525000000008
 30
0.0
 40
0.675155
100
AcDbArc
 50
171.26835699996701
 51
180.46741399996634
  0
ARC
  5
16A
100
AcDbEntity
  8
LAYER001
  6
CONTINUOUS
 62
               4
100
AcDbCircle
 10
-0.8445920000000058
 20
65.963969999999989
 30
0.0
 40
0.067696
100
AcDbArc
 50
114.60731299997883
 51
144.54739299997377
  0
ARC
  5
16B
100
AcDbEntity
  8
LAYER001
  6
CONTINUOUS
 62
               4
100
AcDbCircle
 10
-0.6973890000000154
 20
65.886477999999983
 30
0.0
 40
0.233617
100
AcDbArc
 50
150.0144559999745
 51
172.24091899996822
  0
ARC
  5
16C
100
AcDbEntity
  8
LAYER001
  6
CONTINUOUS
 62
               4
100
AcDbCircle
 10
-0.6865339999999947
 20
65.963969999999989
 30
0.0
 40
0.067696
100
AcDbArc
 50
35.452606999992291
 51
65.392686999977954
  0
ARC
  5
16D
100
AcDbEntity
  8
LAYER001
  6
CONTINUOUS
 62
               4
100
AcDbCircle
 10
-0.8337370000000135
 20
65.886477999999983
 30
0.0
 40
0.233617
100
AcDbArc
 50
7.7590809999959136
 51
29.985543999993986
  0
ARC
  5
16E
100
AcDbEntity
  8
LAYER001
  6
CONTINUOUS
 62
               4
100
AcDbCircle
 10
-1.2695889999999963
 20
65.815525000000008
 30
0.0
 40
0.675155
100
AcDbArc
 50
359.69500999993204
 51
368.73164299999769
  0
ARC
  5
16F
100
AcDbEntity
  8
LAYER001
  6
CONTINUOUS
 62
               4
100
AcDbCircle
 10
0.9692670000000021
 20
65.116303999999985
 30
0.0
 40
0.449319
100
AcDbArc
 50
270.05099599994873
 51
276.9651349999462
  0
ARC
  5
170
100
AcDbEntity
  8
LAYER001
  6
CONTINUOUS
 62
               4
100
AcDbCircle
 10
1.0200959999999952
 20
64.711198999999993
 30
0.0
 40
0.041061
100
AcDbArc
 50
275.11084499993609
 51
313.00385399994872
  0
ARC
  5
171
100
AcDbEntity
  8
LAYER001
  6
CONTINUOUS
 62
               4
100
AcDbCircle
 10
0.951816000000008
 20
64.760069999999985
 30
0.0
 40
0.124484
100
AcDbArc
 50
320.66784399993577
 51
344.92413299993603
  0
ARC
  5
172
100
AcDbEntity
  8
LAYER001
  6
CONTINUOUS
 62
               4
100
AcDbCircle
 10
0.512597999999997
 20
64.879246999999992
 30
0.0
 40
0.579583
100
AcDbArc
 50
344.84151699993458
 51
358.9221129999321
  0
ARC
  5
173
100
AcDbEntity
  8
LAYER001
  6
CONTINUOUS
 62
               4
100
AcDbCircle
 10
0.8726630000000171
 20
65.116303999999985
 30
0.0
 40
0.449319
100
AcDbArc
 50
263.03486499995012
 51
269.94900399994862
  0
ARC
  5
174
100
AcDbEntity
  8
LAYER001
  6
CONTINUOUS
 62
               4
100
AcDbCircle
 10
0.8218339999999955
 20
64.711198999999993
 30
0.0
 40
0.041061
100
AcDbArc
 50
226.99614599996499
 51
264.88915499994067
  0
ARC
  5
175
100
AcDbEntity
  8
LAYER001
  6
CONTINUOUS
 62
               4
100
AcDbCircle
 10
0.8901150000000087
 20
64.760069999999985
 30
0.0
 40
0.124484
100
AcDbArc
 50
195.07586699996756
 51
219.33215599996504
  0
ARC
  5
176
100
AcDbEntity
  8
LAYER001
  6
CONTINUOUS
 62
               4
100
AcDbCircle
 10
1.3293319999999937
 20
64.879246999999992
 30
0.0
 40
0.579583
100
AcDbArc
 50
181.07788699996556
 51
195.1584829999623
  0
LINE
  5
177
100
AcDbEntity
  8
LAYER001
  6
CONTINUOUS
 62
               4
100
AcDbLine
 10
0.8722630000000038
 20
64.666984999999983
 30
0.0
 11
0.969666999999987
 21
64.666984999999983
 31
0.0
  0
LINE
  5
178
100
AcDbEntity
  8
LAYER001
  6
CONTINUOUS
 62
               4
100
AcDbLine
 10
0.7498520000000042
 20
65.817951999999991
 30
0.0
 11
0.7498520000000042
 21
64.868344000000008
 31
0.0
  0
ARC
  5
179
100
AcDbEntity
  8
LAYER001
  6
CONTINUOUS
 62
               4
100
AcDbCircle
 10
0.8419300000000192
 20
65.971903999999995
 30
0.0
 40
0.067696
100
AcDbArc
 50
114.60731299997883
 51
144.54739299997377
  0
ARC
  5
17A
100
AcDbEntity
  8
LAYER001
  6
CONTINUOUS
 62
               4
100
AcDbCircle
 10
0.9891330000000096
 20
65.894412999999986
 30
0.0
 40
0.233617
100
AcDbArc
 50
150.0144559999745
 51
172.24091899996822
  0
ARC
  5
17B
100
AcDbEntity
  8
LAYER001
  6
CONTINUOUS
 62
               4
100
AcDbCircle
 10
1.4249850000000208
 20
65.823459999999983
 30
0.0
 40
0.675155
100
AcDbArc
 50
171.26835699996701
 51
180.46741399996634
  0
ARC
  5
17C
100
AcDbEntity
  8
LAYER001
  6
CONTINUOUS
 62
               4
100
AcDbCircle
 10
0.9999880000000019
 20
65.971903999999995
 30
0.0
 40
0.067696
100
AcDbArc
 50
35.452606999992291
 51
65.392686999977954
  0
ARC
  5
17D
100
AcDbEntity
  8
LAYER001
  6
CONTINUOUS
 62
               4
100
AcDbCircle
 10
0.8527850000000115
 20
65.894412999999986
 30
0.0
 40
0.233617
100
AcDbArc
 50
7.7590809999959136
 51
29.985543999993986
  0
ARC
  5
17E
100
AcDbEntity
  8
LAYER001
  6
CONTINUOUS
 62
               4
100
AcDbCircle
 10
0.4169330000000002
 20
65.823459999999983
 30
0.0
 40
0.675155
100
AcDbArc
 50
359.69500999993204
 51
368.73164299999769
  0
ARC
  5
17F
100
AcDbEntity
  8
LAYER001
  6
CONTINUOUS
 62
               4
100
AcDbCircle
 10
1.3325240000000065
 20
64.587692000000004
 30
0.0
 40
0.304348
100
AcDbArc
 50
269.99999999994856
 51
359.9999999999992
  0
ARC
  5
180
100
AcDbEntity
  8
LAYER001
  6
CONTINUOUS
 62
               4
100
AcDbCircle
 10
0.5012200000000178
 20
64.587692000000004
 30
0.0
 40
0.304348
100
AcDbArc
 50
179.99999999996751
 51
269.99999999994856
  0
ARC
  5
181
100
AcDbEntity
  8
LAYER001
  6
CONTINUOUS
 62
               4
100
AcDbCircle
 10
1.3325240000000065
 20
66.112498999999985
 30
0.0
 40
0.304348
100
AcDbArc
 50
0.0
 51
89.999999999983757
  0
ARC
  5
182
100
AcDbEntity
  8
LAYER001
  6
CONTINUOUS
 62
               4
100
AcDbCircle
 10
0.5012200000000178
 20
66.112498999999985
 30
0.0
 40
0.304348
100
AcDbArc
 50
89.999999999983757
 51
179.99999999996751
  0
LINE
  5
183
100
AcDbEntity
  8
LAYER001
  6
CONTINUOUS
 62
               4
100
AcDbLine
 10
1.636872000000011
 20
64.587692000000004
 30
0.0
 11
1.636872000000011
 21
66.112498999999985
 31
0.0
  0
LINE
  5
184
100
AcDbEntity
  8
LAYER001
  6
CONTINUOUS
 62
               4
100
AcDbLine
 10
0.5012200000000178
 20
64.283344
 30
0.0
 11
1.3325240000000065
 21
64.283344
 31
0.0
  0
LINE
  5
185
100
AcDbEntity
  8
LAYER001
  6
CONTINUOUS
 62
               4
100
AcDbLine
 10
0.1968720000000133
 20
66.112498999999985
 30
0.0
 11
0.1968720000000133
 21
64.587692000000004
 31
0.0
  0
ARC
  5
186
100
AcDbEntity
  8
LAYER001
  6
CONTINUOUS
 62
               4
100
AcDbCircle
 10
-0.3529539999999827
 20
64.580804999999998
 30
0.0
 40
0.304348
100
AcDbArc
 50
269.99999999994856
 51
359.9999999999992
  0
ARC
  5
187
100
AcDbEntity
  8
LAYER001
  6
CONTINUOUS
 62
               4
100
AcDbCircle
 10
-1.1852669999999819
 20
64.580804999999998
 30
0.0
 40
0.304348
100
AcDbArc
 50
179.99999999996751
 51
269.99999999994856
  0
LINE
  5
188
100
AcDbEntity
  8
LAYER001
  6
CONTINUOUS
 62
               4
100
AcDbLine
 10
-1.1852669999999819
 20
64.276456999999994
 30
0.0
 11
-0.3529539999999827
 21
64.276456999999994
 31
0.0
  0
ARC
  5
189
100
AcDbEntity
  8
LAYER001
  6
CONTINUOUS
 62
               4
100
AcDbCircle
 10
-0.3529539999999827
 20
66.104919999999993
 30
0.0
 40
0.304348
100
AcDbArc
 50
0.0
 51
89.999999999983757
  0
LINE
  5
18A
100
AcDbEntity
  8
LAYER001
  6
CONTINUOUS
 62
               4
100
AcDbLine
 10
-0.0486059999999782
 20
65.701674999999994
 30
0.0
 11
-0.0486059999999782
 21
66.104919999999993
 31
0.0
  0
ARC
  5
18B
100
AcDbEntity
  8
LAYER001
  6
CONTINUOUS
 62
               4
100
AcDbCircle
 10
-1.1852669999999819
 20
66.104919999999993
 30
0.0
 40
0.304348
100
AcDbArc
 50
89.999999999983757
 51
179.99999999996751
  0
LINE
  5
18C
100
AcDbEntity
  8
LAYER001
  6
CONTINUOUS
 62
               4
100
AcDbLine
 10
-1.1852669999999819
 20
66.409267999999997
 30
0.0
 11
-0.3529539999999827
 21
66.409267999999997
 31
0.0
  0
LINE
  5
18D
100
AcDbEntity
  8
LAYER001
  6
CONTINUOUS
 62
               4
100
AcDbLine
 10
-1.4896149999999864
 20
64.580804999999998
 30
0.0
 11
-1.4896149999999864
 21
66.104919999999993
 31
0.0
  0
LINE
  5
18E
100
AcDbEntity
  8
LAYER001
  6
CONTINUOUS
 62
               4
100
AcDbLine
 10
-0.0486059999999782
 20
64.962645000000009
 30
0.0
 11
-0.0486059999999782
 21
64.580804999999998
 31
0.0
  0
LINE
  5
18F
100
AcDbEntity
  8
LAYER001
  6
CONTINUOUS
 62
               4
100
AcDbLine
 10
-0.5944429999999841
 20
64.962645000000009
 30
0.0
 11
-0.0486059999999782
 21
64.962645000000009
 31
0.0
  0
LINE
  5
190
100
AcDbEntity
  8
LAYER001
  6
CONTINUOUS
 62
               4
100
AcDbLine
 10
-0.0512980000000027
 20
65.701674999999994
 30
0.0
 11
-0.5937699999999779
 21
65.701674999999994
 31
0.0
  0
LINE
  5
191
100
AcDbEntity
  8
LAYER001
  6
CONTINUOUS
 62
               4
100
AcDbLine
 10
1.028176000000002
 20
66.033453000000009
 30
0.0
 11
0.8137410000000216
 21
66.033453000000009
 31
0.0
  0
LINE
  5
192
100
AcDbEntity
  8
LAYER001
  6
CONTINUOUS
 62
               4
100
AcDbLine
 10
1.0920779999999866
 20
64.868344000000008
 30
0.0
 11
1.0920779999999866
 21
65.81986599999999
 31
0.0
  0
LINE
  5
193
100
AcDbEntity
  8
LAYER001
  6
CONTINUOUS
 62
               4
100
AcDbLine
 10
1.3325240000000065
 20
66.41684699999999
 30
0.0
 11
0.5012200000000178
 21
66.41684699999999
 31
0.0
  0
LINE
  5
194
100
AcDbEntity
  8
LAYER001
  6
CONTINUOUS
 62
               4
100
AcDbLine
 10
1.8992429999999842
 20
66.408638999999994
 30
0.0
 11
1.8992429999999842
 21
64.281846000000002
 31
0.0
  0
LINE
  5
195
100
AcDbEntity
  8
LAYER001
  6
CONTINUOUS
 62
               4
100
AcDbLine
 10
2.7183369999999911
 20
66.408638999999994
 30
0.0
 11
1.8992429999999842
 21
66.408638999999994
 31
0.0
  0
LINE
  5
196
100
AcDbEntity
  8
LAYER001
  6
CONTINUOUS
 62
               4
100
AcDbLine
 10
2.9304050000000075
 20
65.544609000000008
 30
0.0
 11
2.7183369999999911
 21
66.408638999999994
 31
0.0
  0
LINE
  5
197
100
AcDbEntity
  8
LAYER001
  6
CONTINUOUS
 62
               4
100
AcDbLine
 10
3.1446300000000065
 20
66.408638999999994
 30
0.0
 11
2.9325619999999901
 21
65.544609000000008
 31
0.0
  0
LINE
  5
198
100
AcDbEntity
  8
LAYER001
  6
CONTINUOUS
 62
               4
100
AcDbLine
 10
3.9522210000000086
 20
66.408638999999994
 30
0.0
 11
3.1446300000000065
 21
66.408638999999994
 31
0.0
  0
LINE
  5
199
100
AcDbEntity
  8
LAYER001
  6
CONTINUOUS
 62
               4
100
AcDbLine
 10
3.9522210000000086
 20
64.281846000000002
 30
0.0
 11
3.9522210000000086
 21
66.408638999999994
 31
0.0
  0
LINE
  5
19A
100
AcDbEntity
  8
LAYER001
  6
CONTINUOUS
 62
               4
100
AcDbLine
 10
3.444324000000023
 20
64.281846000000002
 30
0.0
 11
3.9522210000000086
 21
64.281846000000002
 31
0.0
  0
LINE
  5
19B
100
AcDbEntity
  8
LAYER001
  6
CONTINUOUS
 62
               4
100
AcDbLine
 10
3.444324000000023
 20
65.811138999999997
 30
0.0
 11
3.444324000000023
 21
64.281846000000002
 31
0.0
  0
LINE
  5
19C
100
AcDbEntity
  8
LAYER001
  6
CONTINUOUS
 62
               4
100
AcDbLine
 10
3.0624269999999854
 20
64.278745999999984
 30
0.0
 11
3.444324000000023
 21
65.811138999999997
 31
0.0
  0
LINE
  5
19D
100
AcDbEntity
  8
LAYER001
  6
CONTINUOUS
 62
               4
100
AcDbLine
 10
2.8005399999999838
 20
64.278745999999984
 30
0.0
 11
3.0624269999999854
 21
64.278745999999984
 31
0.0
  0
LINE
  5
19E
100
AcDbEntity
  8
LAYER001
  6
CONTINUOUS
 62
               4
100
AcDbLine
 10
2.4071399999999983
 20
65.833337999999998
 30
0.0
 11
2.8005399999999838
 21
64.278745999999984
 31
0.0
  0
LINE
  5
19F
100
AcDbEntity
  8
LAYER001
  6
CONTINUOUS
 62
               4
100
AcDbLine
 10
2.4071399999999983
 20
64.281846000000002
 30
0.0
 11
2.4071399999999983
 21
65.833337999999998
 31
0.0
  0
LINE
  5
1A0
100
AcDbEntity
  8
LAYER001
  6
CONTINUOUS
 62
               4
100
AcDbLine
 10
1.8992429999999842
 20
64.281846000000002
 30
0.0
 11
2.4071399999999983
 21
64.281846000000002
 31
0.0
  0
LINE
  5
1A1
100
AcDbEntity
  8
LAYER001
  6
CONTINUOUS
 62
               4
100
AcDbLine
 10
3.9583619999999939
 20
62.436154999999985
 30
0.0
 11
0.2962990000000048
 21
62.436154999999985
 31
0.0
  0
LINE
  5
1A2
100
AcDbEntity
  8
LAYER001
  6
CONTINUOUS
 62
               4
100
AcDbLine
 10
3.9583619999999939
 20
63.91570999999999
 30
0.0
 11
3.9583619999999939
 21
62.436154999999985
 31
0.0
  0
LINE
  5
1A3
100
AcDbEntity
  8
LAYER001
  6
CONTINUOUS
 62
               4
100
AcDbLine
 10
-0.9441559999999925
 20
63.91570999999999
 30
0.0
 11
3.9583619999999939
 21
63.91570999999999
 31
0.0
  0
LINE
  5
1A4
100
AcDbEntity
  8
LAYER001
  6
CONTINUOUS
 62
               4
100
AcDbLine
 10
-1.5069239999999979
 20
62.10680099999999
 30
0.0
 11
-1.5069239999999979
 21
63.303778999999992
 31
0.0
  0
LINE
  5
1A5
100
AcDbEntity
  8
LAYER001
  6
CONTINUOUS
 62
               4
100
AcDbLine
 10
-3.636763000000002
 20
66.404443999999984
 30
0.0
 11
-3.636763000000002
 21
61.986076999999995
 31
0.0
  0
LINE
  5
1A6
100
AcDbEntity
  8
LAYER001
  6
CONTINUOUS
 62
               4
100
AcDbLine
 10
-3.6363100000000088
 20
66.404443999999984
 30
0.0
 11
-2.2044329999999945
 21
66.404443999999984
 31
0.0
  0
LINE
  5
1A7
100
AcDbEntity
  8
LAYER001
  6
DASHDOT
 62
               4
100
AcDbLine
 10
0.0
 20
-161.53576681107546
 30
0.0
 11
0.0
 21
26.100008000000003
 31
0.0
  0
LINE
  5
1A8
100
AcDbEntity
  8
LAYER001
  6
DASHDOT
 62
               4
100
AcDbLine
 10
15.0
 20
59.700007999999997
 30
0.0
 11
15.0
 21
69.100008000000003
 31
0.0
  0
LINE
  5
1A9
100
AcDbEntity
  8
LAYER001
  6
DASHDOT
 62
               4
100
AcDbLine
 10
-14.99996999999999
 20
59.700007999999997
 30
0.0
 11
-14.99996999999999
 21
69.100008000000003
 31
0.0
  0
LINE
  5
1AA
100
AcDbEntity
  8
LAYER001
  6
DASHDOT
 62
               4
100
AcDbLine
 10
0.0000149999999906
 20
178.20002300000002
 30
0.0
 11
0.0000149999999906
 21
57.599418684549306
 31
0.0
  0
LINE
  5
1AB
100
AcDbEntity
  8
LAYER001
  6
DASHDOT
 62
               4
100
AcDbLine
 10
115.00003000000001
 20
63.20000799999999
 30
0.0
 11
-115.00000000000003
 21
63.20000799999999
 31
0.0
  0
LINE
  5
1AC
100
AcDbEntity
  8
0
  6
CONTINUOUS
 62
               3
100
AcDbLine
 10
-4.0
 20
17.999984999999981
 30
0.0
 11
-4.0
 21
11.999992999999989
 31
0.0
  0
LINE
  5
1AD
100
AcDbEntity
  8
0
  6
CONTINUOUS
 62
               3
100
AcDbLine
 10
4.0
 20
11.999992999999989
 30
0.0
 11
4.0
 21
17.999984999999981
 31
0.0
  0
ARC
  5
1AE
100
AcDbEntity
  8
0
  6
CONTINUOUS
 62
               3
100
AcDbCircle
 10
0.0
 20
11.999992999999989
 30
0.0
 40
4.0
100
AcDbArc
 50
179.9999999999996
 51
359.9999999999992
  0
LINE
  5
1AF
100
AcDbEntity
  8
0
  6
CONTINUOUS
 62
               3
100
AcDbLine
 10
-29.806999999999988
 20
0.0
 30
0.0
 11
-29.806999999999988
 21
-50.0
 31
0.0
  0
LINE
  5
1B0
100
AcDbEntity
  8
0
  6
CONTINUOUS
 62
               3
100
AcDbLine
 10
59.0
 20
-50.0
 30
0.0
 11
-59.000000000000028
 21
-50.0
 31
0.0
  0
LINE
  5
1B1
100
AcDbEntity
  8
0
  6
CONTINUOUS
 62
               3
100
AcDbLine
 10
-59.000000000000028
 20
-50.0
 30
0.0
 11
-58.386077195485498
 21
-55.0
 31
0.0
  0
LINE
  5
1B2
100
AcDbEntity
  8
0
  6
CONTINUOUS
 62
               3
100
AcDbLine
 10
59.0
 20
-50.0
 30
0.0
 11
58.386077195485456
 21
-55.0
 31
0.0
  0
LINE
  5
1B3
100
AcDbEntity
  8
0
  6
CONTINUOUS
 62
               3
100
AcDbLine
 10
104.99999999999997
 20
-55.0
 30
0.0
 11
-105.00000000000003
 21
-55.0
 31
0.0
  0
LINE
  5
1B4
100
AcDbEntity
  8
0
  6
CONTINUOUS
 62
               3
100
AcDbLine
 10
104.99999999999997
 20
-62.0
 30
0.0
 11
104.99999999999997
 21
-55.0
 31
0.0
  0
LINE
  5
1B5
100
AcDbEntity
  8
0
  6
CONTINUOUS
 62
               3
100
AcDbLine
 10
104.99999999999997
 20
-62.0
 30
0.0
 11
-104.99999999999997
 21
-62.0
 31
0.0
  0
LINE
  5
1B6
100
AcDbEntity
  8
0
  6
CONTINUOUS
 62
               3
100
AcDbLine
 10
85.194037346472896
 20
-69.03305408092686
 30
0.0
 11
97.375644347017868
 21
-62.0
 31
0.0
  0
LINE
  5
1B7
100
AcDbEntity
  8
0
  6
CONTINUOUS
 62
               3
100
AcDbLine
 10
85.194037346472896
 20
-69.03305408092686
 30
0.0
 11
45.581569892287661
 21
-72.498695917456473
 31
0.0
  0
LINE
  5
1B8
100
AcDbEntity
  8
0
  6
CONTINUOUS
 62
               3
100
AcDbLine
 10
-37.068622450385845
 20
-110.0
 30
0.0
 11
37.068622450385845
 21
-110.0
 31
0.0
  0
LINE
  5
1B9
100
AcDbEntity
  8
0
  6
CONTINUOUS
 62
               3
100
AcDbLine
 10
39.067404104424043
 20
-108.06979899340479
 30
0.0
 11
40.108159386658969
 21
-78.266467125793127
 31
0.0
  0
ARC
  5
1BA
100
AcDbEntity
  8
0
  6
CONTINUOUS
 62
               3
100
AcDbCircle
 10
37.068622450385845
 20
-108.0
 30
0.0
 40
2.0
100
AcDbArc
 50
269.99999999999937
 51
358.00000000000534
  0
ARC
  5
1BB
100
AcDbEntity
  8
0
  6
CONTINUOUS
 62
               3
100
AcDbCircle
 10
46.104504348773531
 20
-78.475864106008146
 30
0.0
 40
6.0
100
AcDbArc
 50
94.999999999999716
 51
177.99999999999974
  0
LINE
  5
1BC
100
AcDbEntity
  8
0
  6
CONTINUOUS
 62
               3
100
AcDbLine
 10
29.806999999999988
 20
-50.0
 30
0.0
 11
29.806999999999988
 21
0.0
 31
0.0
  0
LINE
  5
1BD
100
AcDbEntity
  8
0
  6
CONTINUOUS
 62
               3
100
AcDbLine
 10
-85.194037346472896
 20
-69.03305408092686
 30
0.0
 11
-97.375644347017868
 21
-62.0
 31
0.0
  0
LINE
  5
1BE
100
AcDbEntity
  8
0
  6
CONTINUOUS
 62
               3
100
AcDbLine
 10
-85.194037346472896
 20
-69.03305408092686
 30
0.0
 11
-45.58156989228759
 21
-72.498695917457667
 31
0.0
  0
LINE
  5
1BF
100
AcDbEntity
  8
0
  6
CONTINUOUS
 62
               3
100
AcDbLine
 10
-39.067404104424043
 20
-108.06979899340479
 30
0.0
 11
-40.108159386658969
 21
-78.266467125793127
 31
0.0
  0
ARC
  5
1C0
100
AcDbEntity
  8
0
  6
CONTINUOUS
 62
               3
100
AcDbCircle
 10
-37.068622450385845
 20
-108.0
 30
0.0
 40
2.0
100
AcDbArc
 50
181.99999999999346
 51
269.99999999999937
  0
ARC
  5
1C1
100
AcDbEntity
  8
0
  6
CONTINUOUS
 62
               3
100
AcDbCircle
 10
-46.104504348773531
 20
-78.475864106008146
 30
0.0
 40
6.0
100
AcDbArc
 50
1.9999999999998437
 51
84.999999999999886
  0
LINE
  5
1C2
100
AcDbEntity
  8
0
  6
CONTINUOUS
 62
               3
100
AcDbLine
 10
-104.99999999999997
 20
-62.0
 30
0.0
 11
-104.99999999999997
 21
-55.0
 31
0.0
  0
LINE
  5
1C3
100
AcDbEntity
  8
0
  6
CONTINUOUS
 62
               3
100
AcDbLine
 10
85.194037346472896
 20
-69.03305408092686
 30
0.0
 11
-85.194037346472896
 21
-69.03305408092686
 31
0.0
  0
ARC
  5
1C4
100
AcDbEntity
  8
0
  6
CONTINUOUS
 62
               3
100
AcDbCircle
 10
0.0000149999999906
 20
63.20000799999999
 30
0.0
 40
105.00001500000002
100
AcDbArc
 50
0.0
 51
179.9999999999996
  0
ARC
  5
1C5
100
AcDbEntity
  8
0
  6
CONTINUOUS
 62
               3
100
AcDbCircle
 10
0.0000149999999621
 20
63.200007999999997
 30
0.0
 40
83.499999999999972
100
AcDbArc
 50
0.0
 51
179.9999999999996
  0
ARC
  5
1C6
100
AcDbEntity
  8
0
  6
CONTINUOUS
 62
               3
100
AcDbCircle
 10
0.0000149999999621
 20
63.200007999999997
 30
0.0
 40
59.000014999999991
100
AcDbArc
 50
0.0
 51
179.9999999999996
  0
LINE
  5
1C7
100
AcDbEntity
  8
0
  6
CONTINUOUS
 62
               3
100
AcDbLine
 10
-50.19613742270667
 20
-43.700000000000003
 30
0.0
 11
-50.19613742270667
 21
-50.0
 31
0.0
  0
LINE
  5
1C8
100
AcDbEntity
  8
0
  6
CONTINUOUS
 62
               3
100
AcDbLine
 10
22.500014999999934
 20
108.17115117029974
 30
0.0
 11
17.303862577293302
 21
105.17115117029974
 31
0.0
  0
LINE
  5
1C9
100
AcDbEntity
  8
0
  6
CONTINUOUS
 62
               3
100
AcDbLine
 10
22.500014999999934
 20
108.17115117029974
 30
0.0
 11
27.696167422706566
 21
105.17115117029974
 31
0.0
  0
LINE
  5
1CA
100
AcDbEntity
  8
0
  6
CONTINUOUS
 62
               3
100
AcDbLine
 10
17.303862577293302
 20
105.17115117029974
 30
0.0
 11
17.303862577293302
 21
99.263519462720879
 31
0.0
  0
LINE
  5
1CB
100
AcDbEntity
  8
0
  6
CONTINUOUS
 62
               3
100
AcDbLine
 10
27.696167422706566
 20
105.17115117029974
 30
0.0
 11
27.696167422706566
 21
99.171151170299737
 31
0.0
  0
LINE
  5
1CC
100
AcDbEntity
  8
0
  6
CONTINUOUS
 62
               3
100
AcDbLine
 10
22.580008287740867
 20
96.217335316510315
 30
0.0
 11
27.696167422706566
 21
99.171151170299737
 31
0.0
  0
LINE
  5
1CD
100
AcDbEntity
  8
0
  6
CONTINUOUS
 62
               3
100
AcDbLine
 10
-50.19613742270667
 20
63.20000799999999
 30
0.0
 11
-50.19613742270667
 21
66.200007999999968
 31
0.0
  0
LINE
  5
1CE
100
AcDbEntity
  8
0
  6
CONTINUOUS
 62
               3
100
AcDbLine
 10
-50.19613742270667
 20
66.200007999999968
 30
0.0
 11
-44.999985000000009
 21
69.200007999999968
 31
0.0
  0
LINE
  5
1CF
100
AcDbEntity
  8
0
  6
CONTINUOUS
 62
               3
100
AcDbLine
 10
-39.883825865034311
 20
66.246192146210575
 30
0.0
 11
-44.999985000000009
 21
69.200007999999968
 31
0.0
  0
LINE
  5
1D0
100
AcDbEntity
  8
0
  6
CONTINUOUS
 62
               3
100
AcDbLine
 10
-39.803832577293406
 20
-43.700000000000003
 30
0.0
 11
-39.803832577293406
 21
-50.0
 31
0.0
  0
LINE
  5
1D1
100
AcDbEntity
  8
0
  6
CONTINUOUS
 62
               3
100
AcDbLine
 10
-50.19613742270667
 20
-43.700000000000003
 30
0.0
 11
-39.803832577293406
 21
-43.700000000000003
 31
0.0
  0
LINE
  5
1D2
100
AcDbEntity
  8
0
  6
CONTINUOUS
 62
               3
100
AcDbLine
 10
-44.999985000000038
 20
-43.700000000000003
 30
0.0
 11
-44.999985000000038
 21
-50.0
 31
0.0
  0
LINE
  5
1D3
100
AcDbEntity
  8
0
  6
DASHED2
 62
               3
100
AcDbLine
 10
28.306999999999988
 20
10.0
 30
0.0
 11
-28.306999999999988
 21
10.0
 31
0.0
  0
LINE
  5
1D4
100
AcDbEntity
  8
0
  6
DASHED2
 62
               3
100
AcDbLine
 10
29.806999999999988
 20
0.0
 30
0.0
 11
29.806999999999988
 21
8.5
 31
0.0
  0
LINE
  5
1D5
100
AcDbEntity
  8
0
  6
DASHED2
 62
               3
100
AcDbLine
 10
28.306999999999988
 20
10.0
 30
0.0
 11
29.806999999999988
 21
8.5
 31
0.0
  0
LINE
  5
1D6
100
AcDbEntity
  8
0
  6
DASHED2
 62
               3
100
AcDbLine
 10
-29.806999999999988
 20
0.0
 30
0.0
 11
-29.806999999999988
 21
8.5
 31
0.0
  0
LINE
  5
1D7
100
AcDbEntity
  8
0
  6
DASHED2
 62
               3
100
AcDbLine
 10
-28.306999999999988
 20
10.0
 30
0.0
 11
-29.806999999999988
 21
8.5
 31
0.0
  0
LINE
  5
1D8
100
AcDbEntity
  8
0
  6
DASHED2
 62
               3
100
AcDbLine
 10
28.306999999999988
 20
-60.0
 30
0.0
 11
-28.306999999999988
 21
-60.0
 31
0.0
  0
LINE
  5
1D9
100
AcDbEntity
  8
0
  6
DASHED2
 62
               3
100
AcDbLine
 10
29.806999999999988
 20
-50.0
 30
0.0
 11
29.806999999999988
 21
-58.5
 31
0.0
  0
LINE
  5
1DA
100
AcDbEntity
  8
0
  6
DASHED2
 62
               3
100
AcDbLine
 10
28.306999999999988
 20
-60.0
 30
0.0
 11
29.806999999999988
 21
-58.5
 31
0.0
  0
LINE
  5
1DB
100
AcDbEntity
  8
0
  6
DASHED2
 62
               3
100
AcDbLine
 10
-29.806999999999988
 20
-50.0
 30
0.0
 11
-29.806999999999988
 21
-58.5
 31
0.0
  0
LINE
  5
1DC
100
AcDbEntity
  8
0
  6
DASHED2
 62
               3
100
AcDbLine
 10
-28.306999999999988
 20
-60.0
 30
0.0
 11
-29.806999999999988
 21
-58.5
 31
0.0
  0
LINE
  5
1DD
100
AcDbEntity
  8
0
  6
CONTINUOUS
 62
               4
100
AcDbLine
 10
40.293418185376964
 20
-72.961349242816254
 30
0.0
 11
-40.293418185376908
 21
-72.961349242817619
 31
0.0
  0
LINE
  5
1DE
100
AcDbEntity
  8
0
  6
CONTINUOUS
 62
               4
100
AcDbLine
 10
28.306999999999988
 20
-50.0
 30
0.0
 11
28.306999999999988
 21
0.0
 31
0.0
  0
LINE
  5
1DF
100
AcDbEntity
  8
0
  6
CONTINUOUS
 62
               4
100
AcDbLine
 10
-28.306999999999988
 20
0.0
 30
0.0
 11
-28.306999999999988
 21
-50.0
 31
0.0
  0
LINE
  5
1E0
100
AcDbEntity
  8
0
  6
DASHDOT
 62
               4
100
AcDbLine
 10
20.000014999999991
 20
97.841024151377539
 30
0.0
 11
25.477104276038887
 21
107.32762105506755
 31
0.0
  0
LINE
  5
1E1
100
AcDbEntity
  8
0
  6
DASHDOT
 62
               4
100
AcDbLine
 10
-44.999985000000038
 20
-36.799992000000003
 30
0.0
 11
-44.999985000000038
 21
-56.799992000000003
 31
0.0
  0
ARC
  5
1E2
100
AcDbEntity
  8
0
  6
DASHDOT
 62
               4
100
AcDbCircle
 10
0.0000149999999621
 20
63.200007999999997
 30
0.0
 40
45.0
100
AcDbArc
 50
52.405356631408466
 51
67.594643368591321
  0
ENDSEC
  0
SECTION
  2
OBJECTS
  0
DICTIONARY
  5
19
100
AcDbDictionary
  3
ACAD_GROUP
350
1A
  3
ACAD_MLINESTYLE
350
1B
  0
DICTIONARY
  5
1A
102
{ACAD_REACTORS
330
19
102
}
100
AcDbDictionary
  0
DICTIONARY
  5
1B
102
{ACAD_REACTORS
330
19
102
}
100
AcDbDictionary
  3
STANDARD
350
1C
  0
MLINESTYLE
  5
1C
102
{ACAD_REACTORS
330
1B
102
}
100
AcDbMlineStyle
  2
STANDARD
 70
               0
  3

 62
               0
 51
90.0
 52
90.0
 71
               2
 49
0.5
 62
             256
  6
BYLAYER
 49
-0.5
 62
             256
  6
BYLAYER
  0
ENDSEC
  0
EOF
