  0
SECTION
  2
HEADER
  9
$ACADVER
  1
AC1009
  9
$INSBASE
 10
0.0
 20
0.0
 30
0.0
  9
$EXTMIN
 10
-647.9357908324049
 20
-1552.9358253300068
 30
0.0
  9
$EXTMAX
 10
737.78547312504304
 20
678.665408339804
 30
0.0
  9
$LIMMIN
 10
-691.2395803310751
 20
-1622.6733638821884
  9
$LIMMAX
 10
781.08926262371324
 20
748.40294689198561
  9
$ORTHOMODE
 70
               0
  9
$REGENMODE
 70
               1
  9
$FILLMODE
 70
               1
  9
$QTEXTMODE
 70
               0
  9
$MIRRTEXT
 70
               1
  9
$DRAGMODE
 70
               2
  9
$LTSCALE
 40
1.0
  9
$OSMODE
 70
               0
  9
$ATTMODE
 70
               1
  9
$TEXTSIZE
 40
0.2
  9
$TRACEWID
 40
0.05
  9
$TEXTSTYLE
  7
STANDARD
  9
$CLAYER
  8
0
  9
$CELTYPE
  6
CONTINUOUS
  9
$CECOLOR
 62
             256
  9
$DIMSCALE
 40
1.0
  9
$DIMASZ
 40
0.18
  9
$DIMEXO
 40
0.0625
  9
$DIMDLI
 40
0.38
  9
$DIMRND
 40
0.0
  9
$DIMDLE
 40
0.0
  9
$DIMEXE
 40
0.18
  9
$DIMTP
 40
0.0
  9
$DIMTM
 40
0.0
  9
$DIMTXT
 40
0.18
  9
$DIMCEN
 40
0.09
  9
$DIMTSZ
 40
0.0
  9
$DIMTOL
 70
               0
  9
$DIMLIM
 70
               0
  9
$DIMTIH
 70
               1
  9
$DIMTOH
 70
               1
  9
$DIMSE1
 70
               0
  9
$DIMSE2
 70
               0
  9
$DIMTAD
 70
               0
  9
$DIMZIN
 70
               0
  9
$DIMBLK
  1

  9
$DIMASO
 70
               1
  9
$DIMSHO
 70
               1
  9
$DIMPOST
  1

  9
$DIMAPOST
  1

  9
$DIMALT
 70
               0
  9
$DIMALTD
 70
               2
  9
$DIMALTF
 40
25.399999999999999
  9
$DIMLFAC
 40
1.0
  9
$DIMTOFL
 70
               0
  9
$DIMTVP
 40
0.0
  9
$DIMTIX
 70
               0
  9
$DIMSOXD
 70
               0
  9
$DIMSAH
 70
               0
  9
$DIMBLK1
  1

  9
$DIMBLK2
  1

  9
$DIMSTYLE
  2
STANDARD
  9
$DIMCLRD
 70
               0
  9
$DIMCLRE
 70
               0
  9
$DIMCLRT
 70
               0
  9
$DIMTFAC
 40
1.0
  9
$DIMGAP
 40
0.09
  9
$LUNITS
 70
               2
  9
$LUPREC
 70
               4
  9
$AXISMODE
 70
               0
  9
$AXISUNIT
 10
0.0
 20
0.0
  9
$SKETCHINC
 40
0.1
  9
$FILLETRAD
 40
0.0
  9
$AUNITS
 70
               0
  9
$AUPREC
 70
               0
  9
$MENU
  1
acad
  9
$ELEVATION
 40
0.0
  9
$PELEVATION
 40
0.0
  9
$THICKNESS
 40
0.0
  9
$LIMCHECK
 70
               0
  9
$BLIPMODE
 70
               1
  9
$CHAMFERA
 40
0.0
  9
$CHAMFERB
 40
0.0
  9
$SKPOLY
 70
               0
  9
$TDCREATE
 40
0.000000000
  9
$TDUPDATE
 40
0.000000000
  9
$TDINDWG
 40
0.0000000000
  9
$TDUSRTIMER
 40
0.0000000000
  9
$USRTIMER
 70
               1
  9
$ANGBASE
 50
0.0
  9
$ANGDIR
 70
               0
  9
$PDMODE
 70
               0
  9
$PDSIZE
 40
1.0
  9
$PLINEWID
 40
0.0
  9
$COORDS
 70
               1
  9
$SPLFRAME
 70
               0
  9
$SPLINETYPE
 70
               6
  9
$SPLINESEGS
 70
               8
  9
$ATTDIA
 70
               0
  9
$ATTREQ
 70
               1
  9
$HANDLING
 70
               1
  9
$HANDSEED
  5
404
  9
$SURFTAB1
 70
               6
  9
$SURFTAB2
 70
               6
  9
$SURFTYPE
 70
               6
  9
$SURFU
 70
               6
  9
$SURFV
 70
               6
  9
$UCSNAME
  2

  9
$UCSORG
 10
0.0
 20
0.0
 30
0.0
  9
$UCSXDIR
 10
1.0
 20
0.0
 30
0.0
  9
$UCSYDIR
 10
0.0
 20
1.0
 30
0.0
  9
$PUCSNAME
  2

  9
$PUCSORG
 10
0.0
 20
0.0
 30
0.0
  9
$PUCSXDIR
 10
1.0
 20
0.0
 30
0.0
  9
$PUCSYDIR
 10
0.0
 20
1.0
 30
0.0
  9
$USERI1
 70
               0
  9
$USERI2
 70
               0
  9
$USERI3
 70
               0
  9
$USERI4
 70
               0
  9
$USERI5
 70
               0
  9
$USERR1
 40
0.0
  9
$USERR2
 40
0.0
  9
$USERR3
 40
0.0
  9
$USERR4
 40
0.0
  9
$USERR5
 40
0.0
  9
$WORLDVIEW
 70
               1
  9
$SHADEDGE
 70
               3
  9
$SHADEDIF
 70
              70
  9
$TILEMODE
 70
               1
  9
$MAXACTVP
 70
              16
  9
$PINSBASE
 10
0.0
 20
0.0
 30
0.0
  9
$PLIMCHECK
 70
               0
  9
$PEXTMIN
 10
1.0000000000000000E+20
 20
1.0000000000000000E+20
 30
1.0000000000000000E+20
  9
$PEXTMAX
 10
-1.0000000000000000E+20
 20
-1.0000000000000000E+20
 30
-1.0000000000000000E+20
  9
$PLIMMIN
 10
0.0
 20
0.0
  9
$PLIMMAX
 10
12.0
 20
9.0
  9
$UNITMODE
 70
               0
  9
$VISRETAIN
 70
               0
  9
$PLINEGEN
 70
               1
  9
$PSLTSCALE
 70
               0
  9
$TREEDEPTH
 70
            3020
  9
$DWGCODEPAGE
  3
dos932
  0
ENDSEC
  0
SECTION
  2
TABLES
  0
TABLE
  2
VPORT
 70
               1
  0
VPORT
  2
*ACTIVE
 70
               0
 10
0.0
 20
0.0
 11
1.0
 21
1.0
 12
44.924841146319068
 22
-437.13520849510138
 13
0.0
 23
0.0
 14
1.0
 24
1.0
 15
0.0
 25
0.0
 16
0.0
 26
0.0
 36
1.0
 17
0.0
 27
0.0
 37
0.0
 40
2371.0763107741741
 41
0.6209537990255835
 42
50.0
 43
0.0
 44
0.0
 50
0.0
 51
0.0
 71
               0
 72
             100
 73
               1
 74
               1
 75
               0
 76
               0
 77
               0
 78
               0
  0
ENDTAB
  0
TABLE
  2
LTYPE
 70
              26
  0
LTYPE
  2
CONTINUOUS
 70
               0
  3
Solid line
 72
              65
 73
               0
 40
0.0
  0
LTYPE
  2
HIDDENX2
 70
               0
  3
CADPAC FUSION LINETYPE
 72
              65
 73
               2
 40
47.560000000000002
 49
35.670000000000002
 49
-11.890000000000001
  0
LTYPE
  2
HIDDEN
 70
               0
  3
CADPAC FUSION LINETYPE
 72
              65
 73
               2
 40
35.670000000000002
 49
23.780000000000001
 49
-11.890000000000001
  0
LTYPE
  2
HIDDEN2
 70
               0
  3
CADPAC FUSION LINETYPE
 72
              65
 73
               2
 40
29.725000000000001
 49
17.835000000000001
 49
-11.890000000000001
  0
LTYPE
  2
DASHED
 70
               0
  3
CADPAC FUSION LINETYPE
 72
              65
 73
               2
 40
35.670000000000002
 49
23.780000000000001
 49
-11.890000000000001
  0
LTYPE
  2
DASHED2
 70
               0
  3
CADPAC FUSION LINETYPE
 72
              65
 73
               2
 40
26.752500000000001
 49
17.835000000000001
 49
-8.9175000000000004
  0
LTYPE
  2
DASHEDX2
 70
               0
  3
CADPAC FUSION LINETYPE
 72
              65
 73
               2
 40
53.505000000000003
 49
35.670000000000002
 49
-17.835000000000001
  0
LTYPE
  2
DOTX2
 70
               0
  3
CADPAC FUSION LINETYPE
 72
              65
 73
               2
 40
14.862500000000001
 49
0.0
 49
-14.862500000000001
  0
LTYPE
  2
DOT
 70
               0
  3
CADPAC FUSION LINETYPE
 72
              65
 73
               2
 40
11.890000000000001
 49
0.0
 49
-11.890000000000001
  0
LTYPE
  2
DOTS
 70
               0
  3
CADPAC FUSION LINETYPE
 72
              65
 73
               2
 40
11.890000000000001
 49
0.0
 49
-11.890000000000001
  0
LTYPE
  2
DOT2
 70
               0
  3
CADPAC FUSION LINETYPE
 72
              65
 73
               2
 40
8.9175000000000004
 49
0.0
 49
-8.9175000000000004
  0
LTYPE
  2
CENTERX2
 70
               0
  3
CADPAC FUSION LINETYPE
 72
              65
 73
               4
 40
71.340000000000003
 49
29.725000000000001
 49
-14.862500000000001
 49
11.890000000000001
 49
-14.862500000000001
  0
LTYPE
  2
CENTER
 70
               0
  3
CADPAC FUSION LINETYPE
 72
              65
 73
               4
 40
54.694000000000003
 49
23.780000000000001
 49
-11.890000000000001
 49
7.1340000000000003
 49
-11.890000000000001
  0
LTYPE
  2
CENTER2
 70
               0
  3
CADPAC FUSION LINETYPE
 72
              65
 73
               4
 40
38.048000000000002
 49
17.835000000000001
 49
-8.9175000000000004
 49
2.3780000000000001
 49
-8.9175000000000004
  0
LTYPE
  2
DASHDOTX2
 70
               0
  3
CADPAC FUSION LINETYPE
 72
              65
 73
               4
 40
59.450000000000003
 49
29.725000000000001
 49
-14.862500000000001
 49
0.0
 49
-14.862500000000001
  0
LTYPE
  2
DASHDOT
 70
               0
  3
CADPAC FUSION LINETYPE
 72
              65
 73
               4
 40
47.560000000000002
 49
23.780000000000001
 49
-11.890000000000001
 49
0.0
 49
-11.890000000000001
  0
LTYPE
  2
DASHDOT2
 70
               0
  3
CADPAC FUSION LINETYPE
 72
              65
 73
               4
 40
35.670000000000002
 49
17.835000000000001
 49
-8.9175000000000004
 49
0.0
 49
-8.9175000000000004
  0
LTYPE
  2
DIVIDEX2
 70
               0
  3
CADPAC FUSION LINETYPE
 72
              65
 73
               6
 40
74.3125
 49
29.725000000000001
 49
-14.862500000000001
 49
0.0
 49
-14.862500000000001
 49
0.0
 49
-14.862500000000001
  0
LTYPE
  2
DIVIDE
 70
               0
  3
CADPAC FUSION LINETYPE
 72
              65
 73
               6
 40
59.450000000000003
 49
23.780000000000001
 49
-11.890000000000001
 49
0.0
 49
-11.890000000000001
 49
0.0
 49
-11.890000000000001
  0
LTYPE
  2
DIVIDE2
 70
               0
  3
CADPAC FUSION LINETYPE
 72
              65
 73
               6
 40
44.587500000000006
 49
17.835000000000001
 49
-8.9175000000000004
 49
0.0
 49
-8.9175000000000004
 49
0.0
 49
-8.9175000000000004
  0
LTYPE
  2
BORDERX2
 70
               0
  3
CADPAC FUSION LINETYPE
 72
              65
 73
               6
 40
104.03750000000001
 49
29.725000000000001
 49
-14.862500000000001
 49
29.725000000000001
 49
-14.862500000000001
 49
0.0
 49
-14.862500000000001
  0
LTYPE
  2
BORDER
 70
               0
  3
CADPAC FUSION LINETYPE
 72
              65
 73
               6
 40
83.230000000000004
 49
23.780000000000001
 49
-11.890000000000001
 49
23.780000000000001
 49
-11.890000000000001
 49
0.0
 49
-11.890000000000001
  0
LTYPE
  2
BORDER2
 70
               0
  3
CADPAC FUSION LINETYPE
 72
              65
 73
               6
 40
62.422499999999999
 49
17.835000000000001
 49
-8.9175000000000004
 49
17.835000000000001
 49
-8.9175000000000004
 49
0.0
 49
-8.9175000000000004
  0
LTYPE
  2
PHANTOMX2
 70
               0
  3
CADPAC FUSION LINETYPE
 72
              65
 73
               6
 40
89.175000000000011
 49
29.725000000000001
 49
-11.890000000000001
 49
11.890000000000001
 49
-11.890000000000001
 49
11.890000000000001
 49
-11.890000000000001
  0
LTYPE
  2
PHANTOM
 70
               0
  3
CADPAC FUSION LINETYPE
 72
              65
 73
               6
 40
73.718000000000004
 49
23.780000000000001
 49
-11.890000000000001
 49
7.1340000000000003
 49
-11.890000000000001
 49
7.1340000000000003
 49
-11.890000000000001
  0
LTYPE
  2
PHANTOM2
 70
               0
  3
CADPAC FUSION LINETYPE
 72
              65
 73
               6
 40
63.017000000000003
 49
17.835000000000001
 49
-11.890000000000001
 49
4.7560000000000002
 49
-11.890000000000001
 49
4.7560000000000002
 49
-11.890000000000001
  0
ENDTAB
  0
TABLE
  2
LAYER
 70
             256
  0
LAYER
  2
0
 70
               0
 62
               7
  6
CONTINUOUS
  0
LAYER
  2
LAYER001
 70
               0
 62
               7
  6
CONTINUOUS
  0
LAYER
  2
LAYER002
 70
               0
 62
               7
  6
CONTINUOUS
  0
LAYER
  2
LAYER003
 70
               0
 62
               7
  6
CONTINUOUS
  0
LAYER
  2
LAYER004
 70
               0
 62
               7
  6
CONTINUOUS
  0
LAYER
  2
LAYER005
 70
               0
 62
               7
  6
CONTINUOUS
  0
LAYER
  2
LAYER006
 70
               0
 62
               7
  6
CONTINUOUS
  0
LAYER
  2
LAYER007
 70
               0
 62
               7
  6
CONTINUOUS
  0
LAYER
  2
LAYER008
 70
               0
 62
               7
  6
CONTINUOUS
  0
LAYER
  2
LAYER009
 70
               0
 62
               7
  6
CONTINUOUS
  0
LAYER
  2
LAYER010
 70
               0
 62
               7
  6
CONTINUOUS
  0
LAYER
  2
LAYER011
 70
               0
 62
               7
  6
CONTINUOUS
  0
LAYER
  2
LAYER012
 70
               0
 62
               7
  6
CONTINUOUS
  0
LAYER
  2
LAYER013
 70
               0
 62
               7
  6
CONTINUOUS
  0
LAYER
  2
LAYER014
 70
               0
 62
               7
  6
CONTINUOUS
  0
LAYER
  2
LAYER015
 70
               0
 62
               7
  6
CONTINUOUS
  0
LAYER
  2
LAYER016
 70
               0
 62
               7
  6
CONTINUOUS
  0
LAYER
  2
LAYER017
 70
               0
 62
               7
  6
CONTINUOUS
  0
LAYER
  2
LAYER018
 70
               0
 62
               7
  6
CONTINUOUS
  0
LAYER
  2
LAYER019
 70
               0
 62
               7
  6
CONTINUOUS
  0
LAYER
  2
LAYER020
 70
               0
 62
               7
  6
CONTINUOUS
  0
LAYER
  2
LAYER021
 70
               0
 62
               7
  6
CONTINUOUS
  0
LAYER
  2
LAYER022
 70
               0
 62
               7
  6
CONTINUOUS
  0
LAYER
  2
LAYER023
 70
               0
 62
               7
  6
CONTINUOUS
  0
LAYER
  2
LAYER024
 70
               0
 62
               7
  6
CONTINUOUS
  0
LAYER
  2
LAYER025
 70
               0
 62
               7
  6
CONTINUOUS
  0
LAYER
  2
LAYER026
 70
               0
 62
               7
  6
CONTINUOUS
  0
LAYER
  2
LAYER027
 70
               0
 62
               7
  6
CONTINUOUS
  0
LAYER
  2
LAYER028
 70
               0
 62
               7
  6
CONTINUOUS
  0
LAYER
  2
LAYER029
 70
               0
 62
               7
  6
CONTINUOUS
  0
LAYER
  2
LAYER030
 70
               0
 62
               7
  6
CONTINUOUS
  0
LAYER
  2
LAYER031
 70
               0
 62
               7
  6
CONTINUOUS
  0
LAYER
  2
LAYER032
 70
               0
 62
               7
  6
CONTINUOUS
  0
LAYER
  2
LAYER033
 70
               0
 62
               7
  6
CONTINUOUS
  0
LAYER
  2
LAYER034
 70
               0
 62
               7
  6
CONTINUOUS
  0
LAYER
  2
LAYER035
 70
               0
 62
               7
  6
CONTINUOUS
  0
LAYER
  2
LAYER036
 70
               0
 62
               7
  6
CONTINUOUS
  0
LAYER
  2
LAYER037
 70
               0
 62
               7
  6
CONTINUOUS
  0
LAYER
  2
LAYER038
 70
               0
 62
               7
  6
CONTINUOUS
  0
LAYER
  2
LAYER039
 70
               0
 62
               7
  6
CONTINUOUS
  0
LAYER
  2
LAYER040
 70
               0
 62
               7
  6
CONTINUOUS
  0
LAYER
  2
LAYER041
 70
               0
 62
               7
  6
CONTINUOUS
  0
LAYER
  2
LAYER042
 70
               0
 62
               7
  6
CONTINUOUS
  0
LAYER
  2
LAYER043
 70
               0
 62
               7
  6
CONTINUOUS
  0
LAYER
  2
LAYER044
 70
               0
 62
               7
  6
CONTINUOUS
  0
LAYER
  2
LAYER045
 70
               0
 62
               7
  6
CONTINUOUS
  0
LAYER
  2
LAYER046
 70
               0
 62
               7
  6
CONTINUOUS
  0
LAYER
  2
LAYER047
 70
               0
 62
               7
  6
CONTINUOUS
  0
LAYER
  2
LAYER048
 70
               0
 62
               7
  6
CONTINUOUS
  0
LAYER
  2
LAYER049
 70
               0
 62
               7
  6
CONTINUOUS
  0
LAYER
  2
LAYER050
 70
               0
 62
               7
  6
CONTINUOUS
  0
LAYER
  2
LAYER051
 70
               0
 62
               7
  6
CONTINUOUS
  0
LAYER
  2
LAYER052
 70
               0
 62
               7
  6
CONTINUOUS
  0
LAYER
  2
LAYER053
 70
               0
 62
               7
  6
CONTINUOUS
  0
LAYER
  2
LAYER054
 70
               0
 62
               7
  6
CONTINUOUS
  0
LAYER
  2
LAYER055
 70
               0
 62
               7
  6
CONTINUOUS
  0
LAYER
  2
LAYER056
 70
               0
 62
               7
  6
CONTINUOUS
  0
LAYER
  2
LAYER057
 70
               0
 62
               7
  6
CONTINUOUS
  0
LAYER
  2
LAYER058
 70
               0
 62
               7
  6
CONTINUOUS
  0
LAYER
  2
LAYER059
 70
               0
 62
               7
  6
CONTINUOUS
  0
LAYER
  2
LAYER060
 70
               0
 62
               7
  6
CONTINUOUS
  0
LAYER
  2
LAYER061
 70
               0
 62
               7
  6
CONTINUOUS
  0
LAYER
  2
LAYER062
 70
               0
 62
               7
  6
CONTINUOUS
  0
LAYER
  2
LAYER063
 70
               0
 62
               7
  6
CONTINUOUS
  0
LAYER
  2
LAYER064
 70
               0
 62
               7
  6
CONTINUOUS
  0
LAYER
  2
LAYER065
 70
               0
 62
               7
  6
CONTINUOUS
  0
LAYER
  2
LAYER066
 70
               0
 62
               7
  6
CONTINUOUS
  0
LAYER
  2
LAYER067
 70
               0
 62
               7
  6
CONTINUOUS
  0
LAYER
  2
LAYER068
 70
               0
 62
               7
  6
CONTINUOUS
  0
LAYER
  2
LAYER069
 70
               0
 62
               7
  6
CONTINUOUS
  0
LAYER
  2
LAYER070
 70
               0
 62
               7
  6
CONTINUOUS
  0
LAYER
  2
LAYER071
 70
               0
 62
               7
  6
CONTINUOUS
  0
LAYER
  2
LAYER072
 70
               0
 62
               7
  6
CONTINUOUS
  0
LAYER
  2
LAYER073
 70
               0
 62
               7
  6
CONTINUOUS
  0
LAYER
  2
LAYER074
 70
               0
 62
               7
  6
CONTINUOUS
  0
LAYER
  2
LAYER075
 70
               0
 62
               7
  6
CONTINUOUS
  0
LAYER
  2
LAYER076
 70
               0
 62
               7
  6
CONTINUOUS
  0
LAYER
  2
LAYER077
 70
               0
 62
               7
  6
CONTINUOUS
  0
LAYER
  2
LAYER078
 70
               0
 62
               7
  6
CONTINUOUS
  0
LAYER
  2
LAYER079
 70
               0
 62
               7
  6
CONTINUOUS
  0
LAYER
  2
LAYER080
 70
               0
 62
               7
  6
CONTINUOUS
  0
LAYER
  2
LAYER081
 70
               0
 62
               7
  6
CONTINUOUS
  0
LAYER
  2
LAYER082
 70
               0
 62
               7
  6
CONTINUOUS
  0
LAYER
  2
LAYER083
 70
               0
 62
               7
  6
CONTINUOUS
  0
LAYER
  2
LAYER084
 70
               0
 62
               7
  6
CONTINUOUS
  0
LAYER
  2
LAYER085
 70
               0
 62
               7
  6
CONTINUOUS
  0
LAYER
  2
LAYER086
 70
               0
 62
               7
  6
CONTINUOUS
  0
LAYER
  2
LAYER087
 70
               0
 62
               7
  6
CONTINUOUS
  0
LAYER
  2
LAYER088
 70
               0
 62
               7
  6
CONTINUOUS
  0
LAYER
  2
LAYER089
 70
               0
 62
               7
  6
CONTINUOUS
  0
LAYER
  2
LAYER090
 70
               0
 62
               7
  6
CONTINUOUS
  0
LAYER
  2
LAYER091
 70
               0
 62
               7
  6
CONTINUOUS
  0
LAYER
  2
LAYER092
 70
               0
 62
               7
  6
CONTINUOUS
  0
LAYER
  2
LAYER093
 70
               0
 62
               7
  6
CONTINUOUS
  0
LAYER
  2
LAYER094
 70
               0
 62
               7
  6
CONTINUOUS
  0
LAYER
  2
LAYER095
 70
               0
 62
               7
  6
CONTINUOUS
  0
LAYER
  2
LAYER096
 70
               0
 62
               7
  6
CONTINUOUS
  0
LAYER
  2
LAYER097
 70
               0
 62
               7
  6
CONTINUOUS
  0
LAYER
  2
LAYER098
 70
               0
 62
               7
  6
CONTINUOUS
  0
LAYER
  2
LAYER099
 70
               0
 62
               7
  6
CONTINUOUS
  0
LAYER
  2
LAYER100
 70
               0
 62
               7
  6
CONTINUOUS
  0
LAYER
  2
LAYER101
 70
               0
 62
               7
  6
CONTINUOUS
  0
LAYER
  2
LAYER102
 70
               0
 62
               7
  6
CONTINUOUS
  0
LAYER
  2
LAYER103
 70
               0
 62
               7
  6
CONTINUOUS
  0
LAYER
  2
LAYER104
 70
               0
 62
               7
  6
CONTINUOUS
  0
LAYER
  2
LAYER105
 70
               0
 62
               7
  6
CONTINUOUS
  0
LAYER
  2
LAYER106
 70
               0
 62
               7
  6
CONTINUOUS
  0
LAYER
  2
LAYER107
 70
               0
 62
               7
  6
CONTINUOUS
  0
LAYER
  2
LAYER108
 70
               0
 62
               7
  6
CONTINUOUS
  0
LAYER
  2
LAYER109
 70
               0
 62
               7
  6
CONTINUOUS
  0
LAYER
  2
LAYER110
 70
               0
 62
               7
  6
CONTINUOUS
  0
LAYER
  2
LAYER111
 70
               0
 62
               7
  6
CONTINUOUS
  0
LAYER
  2
LAYER112
 70
               0
 62
               7
  6
CONTINUOUS
  0
LAYER
  2
LAYER113
 70
               0
 62
               7
  6
CONTINUOUS
  0
LAYER
  2
LAYER114
 70
               0
 62
               7
  6
CONTINUOUS
  0
LAYER
  2
LAYER115
 70
               0
 62
               7
  6
CONTINUOUS
  0
LAYER
  2
LAYER116
 70
               0
 62
               7
  6
CONTINUOUS
  0
LAYER
  2
LAYER117
 70
               0
 62
               7
  6
CONTINUOUS
  0
LAYER
  2
LAYER118
 70
               0
 62
               7
  6
CONTINUOUS
  0
LAYER
  2
LAYER119
 70
               0
 62
               7
  6
CONTINUOUS
  0
LAYER
  2
LAYER120
 70
               0
 62
               7
  6
CONTINUOUS
  0
LAYER
  2
LAYER121
 70
               0
 62
               7
  6
CONTINUOUS
  0
LAYER
  2
LAYER122
 70
               0
 62
               7
  6
CONTINUOUS
  0
LAYER
  2
LAYER123
 70
               0
 62
               7
  6
CONTINUOUS
  0
LAYER
  2
LAYER124
 70
               0
 62
               7
  6
CONTINUOUS
  0
LAYER
  2
LAYER125
 70
               0
 62
               7
  6
CONTINUOUS
  0
LAYER
  2
LAYER126
 70
               0
 62
               7
  6
CONTINUOUS
  0
LAYER
  2
LAYER127
 70
               0
 62
               7
  6
CONTINUOUS
  0
LAYER
  2
LAYER128
 70
               0
 62
               7
  6
CONTINUOUS
  0
LAYER
  2
LAYER129
 70
               0
 62
               7
  6
CONTINUOUS
  0
LAYER
  2
LAYER130
 70
               0
 62
               7
  6
CONTINUOUS
  0
LAYER
  2
LAYER131
 70
               0
 62
               7
  6
CONTINUOUS
  0
LAYER
  2
LAYER132
 70
               0
 62
               7
  6
CONTINUOUS
  0
LAYER
  2
LAYER133
 70
               0
 62
               7
  6
CONTINUOUS
  0
LAYER
  2
LAYER134
 70
               0
 62
               7
  6
CONTINUOUS
  0
LAYER
  2
LAYER135
 70
               0
 62
               7
  6
CONTINUOUS
  0
LAYER
  2
LAYER136
 70
               0
 62
               7
  6
CONTINUOUS
  0
LAYER
  2
LAYER137
 70
               0
 62
               7
  6
CONTINUOUS
  0
LAYER
  2
LAYER138
 70
               0
 62
               7
  6
CONTINUOUS
  0
LAYER
  2
LAYER139
 70
               0
 62
               7
  6
CONTINUOUS
  0
LAYER
  2
LAYER140
 70
               0
 62
               7
  6
CONTINUOUS
  0
LAYER
  2
LAYER141
 70
               0
 62
               7
  6
CONTINUOUS
  0
LAYER
  2
LAYER142
 70
               0
 62
               7
  6
CONTINUOUS
  0
LAYER
  2
LAYER143
 70
               0
 62
               7
  6
CONTINUOUS
  0
LAYER
  2
LAYER144
 70
               0
 62
               7
  6
CONTINUOUS
  0
LAYER
  2
LAYER145
 70
               0
 62
               7
  6
CONTINUOUS
  0
LAYER
  2
LAYER146
 70
               0
 62
               7
  6
CONTINUOUS
  0
LAYER
  2
LAYER147
 70
               0
 62
               7
  6
CONTINUOUS
  0
LAYER
  2
LAYER148
 70
               0
 62
               7
  6
CONTINUOUS
  0
LAYER
  2
LAYER149
 70
               0
 62
               7
  6
CONTINUOUS
  0
LAYER
  2
LAYER150
 70
               0
 62
               7
  6
CONTINUOUS
  0
LAYER
  2
LAYER151
 70
               0
 62
               7
  6
CONTINUOUS
  0
LAYER
  2
LAYER152
 70
               0
 62
               7
  6
CONTINUOUS
  0
LAYER
  2
LAYER153
 70
               0
 62
               7
  6
CONTINUOUS
  0
LAYER
  2
LAYER154
 70
               0
 62
               7
  6
CONTINUOUS
  0
LAYER
  2
LAYER155
 70
               0
 62
               7
  6
CONTINUOUS
  0
LAYER
  2
LAYER156
 70
               0
 62
               7
  6
CONTINUOUS
  0
LAYER
  2
LAYER157
 70
               0
 62
               7
  6
CONTINUOUS
  0
LAYER
  2
LAYER158
 70
               0
 62
               7
  6
CONTINUOUS
  0
LAYER
  2
LAYER159
 70
               0
 62
               7
  6
CONTINUOUS
  0
LAYER
  2
LAYER160
 70
               0
 62
               7
  6
CONTINUOUS
  0
LAYER
  2
LAYER161
 70
               0
 62
               7
  6
CONTINUOUS
  0
LAYER
  2
LAYER162
 70
               0
 62
               7
  6
CONTINUOUS
  0
LAYER
  2
LAYER163
 70
               0
 62
               7
  6
CONTINUOUS
  0
LAYER
  2
LAYER164
 70
               0
 62
               7
  6
CONTINUOUS
  0
LAYER
  2
LAYER165
 70
               0
 62
               7
  6
CONTINUOUS
  0
LAYER
  2
LAYER166
 70
               0
 62
               7
  6
CONTINUOUS
  0
LAYER
  2
LAYER167
 70
               0
 62
               7
  6
CONTINUOUS
  0
LAYER
  2
LAYER168
 70
               0
 62
               7
  6
CONTINUOUS
  0
LAYER
  2
LAYER169
 70
               0
 62
               7
  6
CONTINUOUS
  0
LAYER
  2
LAYER170
 70
               0
 62
               7
  6
CONTINUOUS
  0
LAYER
  2
LAYER171
 70
               0
 62
               7
  6
CONTINUOUS
  0
LAYER
  2
LAYER172
 70
               0
 62
               7
  6
CONTINUOUS
  0
LAYER
  2
LAYER173
 70
               0
 62
               7
  6
CONTINUOUS
  0
LAYER
  2
LAYER174
 70
               0
 62
               7
  6
CONTINUOUS
  0
LAYER
  2
LAYER175
 70
               0
 62
               7
  6
CONTINUOUS
  0
LAYER
  2
LAYER176
 70
               0
 62
               7
  6
CONTINUOUS
  0
LAYER
  2
LAYER177
 70
               0
 62
               7
  6
CONTINUOUS
  0
LAYER
  2
LAYER178
 70
               0
 62
               7
  6
CONTINUOUS
  0
LAYER
  2
LAYER179
 70
               0
 62
               7
  6
CONTINUOUS
  0
LAYER
  2
LAYER180
 70
               0
 62
               7
  6
CONTINUOUS
  0
LAYER
  2
LAYER181
 70
               0
 62
               7
  6
CONTINUOUS
  0
LAYER
  2
LAYER182
 70
               0
 62
               7
  6
CONTINUOUS
  0
LAYER
  2
LAYER183
 70
               0
 62
               7
  6
CONTINUOUS
  0
LAYER
  2
LAYER184
 70
               0
 62
               7
  6
CONTINUOUS
  0
LAYER
  2
LAYER185
 70
               0
 62
               7
  6
CONTINUOUS
  0
LAYER
  2
LAYER186
 70
               0
 62
               7
  6
CONTINUOUS
  0
LAYER
  2
LAYER187
 70
               0
 62
               7
  6
CONTINUOUS
  0
LAYER
  2
LAYER188
 70
               0
 62
               7
  6
CONTINUOUS
  0
LAYER
  2
LAYER189
 70
               0
 62
               7
  6
CONTINUOUS
  0
LAYER
  2
LAYER190
 70
               0
 62
               7
  6
CONTINUOUS
  0
LAYER
  2
LAYER191
 70
               0
 62
               7
  6
CONTINUOUS
  0
LAYER
  2
LAYER192
 70
               0
 62
               7
  6
CONTINUOUS
  0
LAYER
  2
LAYER193
 70
               0
 62
               7
  6
CONTINUOUS
  0
LAYER
  2
LAYER194
 70
               0
 62
               7
  6
CONTINUOUS
  0
LAYER
  2
LAYER195
 70
               0
 62
               7
  6
CONTINUOUS
  0
LAYER
  2
LAYER196
 70
               0
 62
               7
  6
CONTINUOUS
  0
LAYER
  2
LAYER197
 70
               0
 62
               7
  6
CONTINUOUS
  0
LAYER
  2
LAYER198
 70
               0
 62
               7
  6
CONTINUOUS
  0
LAYER
  2
LAYER199
 70
               0
 62
               7
  6
CONTINUOUS
  0
LAYER
  2
LAYER200
 70
               0
 62
               7
  6
CONTINUOUS
  0
LAYER
  2
LAYER201
 70
               0
 62
               7
  6
CONTINUOUS
  0
LAYER
  2
LAYER202
 70
               0
 62
               7
  6
CONTINUOUS
  0
LAYER
  2
LAYER203
 70
               0
 62
               7
  6
CONTINUOUS
  0
LAYER
  2
LAYER204
 70
               0
 62
               7
  6
CONTINUOUS
  0
LAYER
  2
LAYER205
 70
               0
 62
               7
  6
CONTINUOUS
  0
LAYER
  2
LAYER206
 70
               0
 62
               7
  6
CONTINUOUS
  0
LAYER
  2
LAYER207
 70
               0
 62
               7
  6
CONTINUOUS
  0
LAYER
  2
LAYER208
 70
               0
 62
               7
  6
CONTINUOUS
  0
LAYER
  2
LAYER209
 70
               0
 62
               7
  6
CONTINUOUS
  0
LAYER
  2
LAYER210
 70
               0
 62
               7
  6
CONTINUOUS
  0
LAYER
  2
LAYER211
 70
               0
 62
               7
  6
CONTINUOUS
  0
LAYER
  2
LAYER212
 70
               0
 62
               7
  6
CONTINUOUS
  0
LAYER
  2
LAYER213
 70
               0
 62
               7
  6
CONTINUOUS
  0
LAYER
  2
LAYER214
 70
               0
 62
               7
  6
CONTINUOUS
  0
LAYER
  2
LAYER215
 70
               0
 62
               7
  6
CONTINUOUS
  0
LAYER
  2
LAYER216
 70
               0
 62
               7
  6
CONTINUOUS
  0
LAYER
  2
LAYER217
 70
               0
 62
               7
  6
CONTINUOUS
  0
LAYER
  2
LAYER218
 70
               0
 62
               7
  6
CONTINUOUS
  0
LAYER
  2
LAYER219
 70
               0
 62
               7
  6
CONTINUOUS
  0
LAYER
  2
LAYER220
 70
               0
 62
               7
  6
CONTINUOUS
  0
LAYER
  2
LAYER221
 70
               0
 62
               7
  6
CONTINUOUS
  0
LAYER
  2
LAYER222
 70
               0
 62
               7
  6
CONTINUOUS
  0
LAYER
  2
LAYER223
 70
               0
 62
               7
  6
CONTINUOUS
  0
LAYER
  2
LAYER224
 70
               0
 62
               7
  6
CONTINUOUS
  0
LAYER
  2
LAYER225
 70
               0
 62
               7
  6
CONTINUOUS
  0
LAYER
  2
LAYER226
 70
               0
 62
               7
  6
CONTINUOUS
  0
LAYER
  2
LAYER227
 70
               0
 62
               7
  6
CONTINUOUS
  0
LAYER
  2
LAYER228
 70
               0
 62
               7
  6
CONTINUOUS
  0
LAYER
  2
LAYER229
 70
               0
 62
               7
  6
CONTINUOUS
  0
LAYER
  2
LAYER230
 70
               0
 62
               7
  6
CONTINUOUS
  0
LAYER
  2
LAYER231
 70
               0
 62
               7
  6
CONTINUOUS
  0
LAYER
  2
LAYER232
 70
               0
 62
               7
  6
CONTINUOUS
  0
LAYER
  2
LAYER233
 70
               0
 62
               7
  6
CONTINUOUS
  0
LAYER
  2
LAYER234
 70
               0
 62
               7
  6
CONTINUOUS
  0
LAYER
  2
LAYER235
 70
               0
 62
               7
  6
CONTINUOUS
  0
LAYER
  2
LAYER236
 70
               0
 62
               7
  6
CONTINUOUS
  0
LAYER
  2
LAYER237
 70
               0
 62
               7
  6
CONTINUOUS
  0
LAYER
  2
LAYER238
 70
               0
 62
               7
  6
CONTINUOUS
  0
LAYER
  2
LAYER239
 70
               0
 62
               7
  6
CONTINUOUS
  0
LAYER
  2
LAYER240
 70
               0
 62
               7
  6
CONTINUOUS
  0
LAYER
  2
LAYER241
 70
               0
 62
               7
  6
CONTINUOUS
  0
LAYER
  2
LAYER242
 70
               0
 62
               7
  6
CONTINUOUS
  0
LAYER
  2
LAYER243
 70
               0
 62
               7
  6
CONTINUOUS
  0
LAYER
  2
LAYER244
 70
               0
 62
               7
  6
CONTINUOUS
  0
LAYER
  2
LAYER245
 70
               0
 62
               7
  6
CONTINUOUS
  0
LAYER
  2
LAYER246
 70
               0
 62
               7
  6
CONTINUOUS
  0
LAYER
  2
LAYER247
 70
               0
 62
               7
  6
CONTINUOUS
  0
LAYER
  2
LAYER248
 70
               0
 62
               7
  6
CONTINUOUS
  0
LAYER
  2
LAYER249
 70
               0
 62
               7
  6
CONTINUOUS
  0
LAYER
  2
LAYER250
 70
               0
 62
               7
  6
CONTINUOUS
  0
LAYER
  2
LAYER251
 70
               0
 62
               7
  6
CONTINUOUS
  0
LAYER
  2
LAYER252
 70
               0
 62
               7
  6
CONTINUOUS
  0
LAYER
  2
LAYER253
 70
               0
 62
               7
  6
CONTINUOUS
  0
LAYER
  2
LAYER254
 70
               0
 62
               7
  6
CONTINUOUS
  0
LAYER
  2
LAYER255
 70
               0
 62
               7
  6
CONTINUOUS
  0
ENDTAB
  0
TABLE
  2
STYLE
 70
               1
  0
STYLE
  2
STANDARD
 70
               0
 40
0.0
 41
0.8
 50
0.0
 71
               0
 42
40.0
  3
MS PGothic.ttf
  4

  0
ENDTAB
  0
TABLE
  2
VIEW
 70
               0
  0
VIEW
  2
QQQQ
 70
               0
 40
2371.0763107741741
 10
44.924841146319068
 20
-437.13520849510138
 41
1472.3288429547883
 11
0.0
 21
0.0
 31
1.0
 12
100.0
 22
100.0
 32
0.0
 42
50.0
 43
0.0
 44
0.0
 50
0.0
 71
               0
  0
ENDTAB
  0
TABLE
  2
UCS
 70
               0
  0
ENDTAB
  0
TABLE
  2
APPID
 70
               1
  0
APPID
  2
ACAD
 70
               0
  0
ENDTAB
  0
TABLE
  2
DIMSTYLE
 70
               1
  0
DIMSTYLE
  2
STANDARD
 70
               0
  3

  4

  5

  6

  7

 40
1.0
 41
0.18
 42
0.0625
 43
0.38
 44
0.18
 45
0.0
 46
0.0
 47
0.0
 48
0.0
140
0.18
141
0.09
142
0.0
143
25.399999999999999
144
1.0
145
0.0
146
1.0
147
0.09
 71
               0
 72
               0
 73
               1
 74
               1
 75
               0
 76
               0
 77
               0
 78
               0
170
               0
171
               2
172
               0
173
               0
174
               0
175
               0
176
               0
177
               0
178
               0
  0
ENDTAB
  0
ENDSEC
  0
SECTION
  2
BLOCKS
  0
BLOCK
  8
0
  5
13C
  2
GROUP_1
 70
               0
 10
0.0
 20
0.0
 30
0.0
  3
GROUP_1
  0
LINE
  8
0
  6
CONTINUOUS
 62
               4
  5
13D
 10
-81.949535936600682
 20
-1.0499999999985334
 30
0.0
 11
-81.949535936600682
 21
-9.9241669750787764
 31
0.0
  0
LINE
  8
0
  6
CONTINUOUS
 62
               4
  5
13E
 10
-76.464708379299339
 20
-1.0499999999985334
 30
0.0
 11
-76.464708379299339
 21
-9.9241669750787764
 31
0.0
  0
LINE
  8
0
  6
CONTINUOUS
 62
               4
  5
13F
 10
-81.949535936600682
 20
-1.0499999999985334
 30
0.0
 11
-60.049535936600989
 21
-1.0499999999985334
 31
0.0
  0
LINE
  8
0
  6
CONTINUOUS
 62
               4
  5
140
 10
-79.207122157949982
 20
-11.049999999998533
 30
0.0
 11
-62.791949715251633
 21
-11.049999999998533
 31
0.0
  0
LINE
  8
0
  6
CONTINUOUS
 62
               4
  5
141
 10
-60.049535936600989
 20
-1.0499999999985334
 30
0.0
 11
-60.049535936600989
 21
-9.9241669750787764
 31
0.0
  0
LINE
  8
0
  6
CONTINUOUS
 62
               4
  5
142
 10
-65.534363493902333
 20
-1.0499999999985334
 30
0.0
 11
-65.534363493902333
 21
-9.9241669750787764
 31
0.0
  0
ARC
  8
0
  6
CONTINUOUS
 62
               4
  5
143
 10
-79.207122157949982
 20
-7.1469641417463095
 30
0.0
 40
3.9030358582523994
 50
225.36111921400504
 51
314.63888078588815
  0
ARC
  8
0
  6
CONTINUOUS
 62
               4
  5
144
 10
-62.791949715251633
 20
-7.1469641417463095
 30
0.0
 40
3.9030358582525593
 50
225.3611192140074
 51
314.63888078589054
  0
ARC
  8
0
  6
CONTINUOUS
 62
               4
  5
145
 10
-70.999535936600807
 20
2.777809781407484
 30
0.0
 40
13.827809781406303
 50
246.71964825748174
 51
293.28035174241393
  0
ENDBLK
  8
0
  5
146
  0
BLOCK
  8
0
  5
147
  2
GROUP_2
 70
               0
 10
0.0
 20
0.0
 30
0.0
  3
GROUP_2
  0
LINE
  8
0
  6
CONTINUOUS
 62
               4
  5
148
 10
68.650464063399397
 20
-1.0499999999985334
 30
0.0
 11
68.650464063399397
 21
-9.9241669750787764
 31
0.0
  0
LINE
  8
0
  6
CONTINUOUS
 62
               4
  5
149
 10
63.165636506098053
 20
-1.0499999999985334
 30
0.0
 11
63.165636506098053
 21
-9.9241669750787764
 31
0.0
  0
LINE
  8
0
  6
CONTINUOUS
 62
               4
  5
14A
 10
68.650464063399397
 20
-1.0499999999985334
 30
0.0
 11
46.750464063399704
 21
-1.0499999999985334
 31
0.0
  0
LINE
  8
0
  6
CONTINUOUS
 62
               4
  5
14B
 10
65.908050284748754
 20
-11.049999999998533
 30
0.0
 11
49.492877842050405
 21
-11.049999999998533
 31
0.0
  0
LINE
  8
0
  6
CONTINUOUS
 62
               4
  5
14C
 10
46.750464063399704
 20
-1.0499999999985334
 30
0.0
 11
46.750464063399704
 21
-9.9241669750787764
 31
0.0
  0
LINE
  8
0
  6
CONTINUOUS
 62
               4
  5
14D
 10
52.235291620701048
 20
-1.0499999999985334
 30
0.0
 11
52.235291620701048
 21
-9.9241669750787764
 31
0.0
  0
ARC
  8
0
  6
CONTINUOUS
 62
               4
  5
14E
 10
65.908050284748754
 20
-7.1469641417463095
 30
0.0
 40
3.9030358582523994
 50
225.36111921400743
 51
314.63888078589054
  0
ARC
  8
0
  6
CONTINUOUS
 62
               4
  5
14F
 10
49.492877842050405
 20
-7.1469641417463095
 30
0.0
 40
3.9030358582525593
 50
225.36111921400502
 51
314.6388807858882
  0
ARC
  8
0
  6
CONTINUOUS
 62
               4
  5
150
 10
57.700464063399579
 20
2.777809781407484
 30
0.0
 40
13.827809781406303
 50
246.71964825748174
 51
293.28035174241393
  0
ENDBLK
  8
0
  5
151
  0
BLOCK
  8
0
  5
152
  2
GROUP_3
 70
               0
 10
0.0
 20
0.0
 30
0.0
  3
GROUP_3
  0
LINE
  8
0
  6
CONTINUOUS
 62
               4
  5
153
 10
-581.94953593660057
 20
-1.0499999999984624
 30
0.0
 11
-581.94953593660057
 21
-9.9241669750787054
 31
0.0
  0
LINE
  8
0
  6
CONTINUOUS
 62
               4
  5
154
 10
-576.46470837929928
 20
-1.0499999999984624
 30
0.0
 11
-576.46470837929928
 21
-9.9241669750787054
 31
0.0
  0
LINE
  8
0
  6
CONTINUOUS
 62
               4
  5
155
 10
-581.94953593660057
 20
-1.0499999999984624
 30
0.0
 11
-560.04953593660093
 21
-1.0499999999984624
 31
0.0
  0
LINE
  8
0
  6
CONTINUOUS
 62
               4
  5
156
 10
-579.20712215794993
 20
-11.049999999998462
 30
0.0
 11
-562.79194971525158
 21
-11.049999999998462
 31
0.0
  0
LINE
  8
0
  6
CONTINUOUS
 62
               4
  5
157
 10
-560.04953593660093
 20
-1.0499999999984624
 30
0.0
 11
-560.04953593660093
 21
-9.9241669750787054
 31
0.0
  0
LINE
  8
0
  6
CONTINUOUS
 62
               4
  5
158
 10
-565.53436349390222
 20
-1.0499999999984624
 30
0.0
 11
-565.53436349390222
 21
-9.9241669750787054
 31
0.0
  0
ARC
  8
0
  6
CONTINUOUS
 62
               4
  5
159
 10
-579.20712215794993
 20
-7.1469641417462384
 30
0.0
 40
3.9030358582523994
 50
225.3611192140055
 51
314.63888078588769
  0
ARC
  8
0
  6
CONTINUOUS
 62
               4
  5
15A
 10
-562.79194971525158
 20
-7.1469641417462384
 30
0.0
 40
3.9030358582525593
 50
225.36111921400786
 51
314.63888078589008
  0
ARC
  8
0
  6
CONTINUOUS
 62
               4
  5
15B
 10
-570.99953593660075
 20
2.7778097814075551
 30
0.0
 40
13.827809781406303
 50
246.71964825748168
 51
293.28035174241398
  0
ENDBLK
  8
0
  5
15C
  0
BLOCK
  8
0
  5
15D
  2
GROUP_4
 70
               0
 10
0.0
 20
0.0
 30
0.0
  3
GROUP_4
  0
LINE
  8
0
  6
CONTINUOUS
 62
               4
  5
15E
 10
-431.3495359366006
 20
-1.0499999999984624
 30
0.0
 11
-431.3495359366006
 21
-9.9241669750787054
 31
0.0
  0
LINE
  8
0
  6
CONTINUOUS
 62
               4
  5
15F
 10
-436.83436349390195
 20
-1.0499999999984624
 30
0.0
 11
-436.83436349390195
 21
-9.9241669750787054
 31
0.0
  0
LINE
  8
0
  6
CONTINUOUS
 62
               4
  5
160
 10
-431.3495359366006
 20
-1.0499999999984624
 30
0.0
 11
-453.2495359366003
 21
-1.0499999999984624
 31
0.0
  0
LINE
  8
0
  6
CONTINUOUS
 62
               4
  5
161
 10
-434.09194971525125
 20
-11.049999999998462
 30
0.0
 11
-450.5071221579496
 21
-11.049999999998462
 31
0.0
  0
LINE
  8
0
  6
CONTINUOUS
 62
               4
  5
162
 10
-453.2495359366003
 20
-1.0499999999984624
 30
0.0
 11
-453.2495359366003
 21
-9.9241669750787054
 31
0.0
  0
LINE
  8
0
  6
CONTINUOUS
 62
               4
  5
163
 10
-447.76470837929895
 20
-1.0499999999984624
 30
0.0
 11
-447.76470837929895
 21
-9.9241669750787054
 31
0.0
  0
ARC
  8
0
  6
CONTINUOUS
 62
               4
  5
164
 10
-434.09194971525125
 20
-7.1469641417462384
 30
0.0
 40
3.9030358582523994
 50
225.36111921400726
 51
314.63888078589071
  0
ARC
  8
0
  6
CONTINUOUS
 62
               4
  5
165
 10
-450.5071221579496
 20
-7.1469641417462384
 30
0.0
 40
3.9030358582525593
 50
225.3611192140049
 51
314.63888078588832
  0
ARC
  8
0
  6
CONTINUOUS
 62
               4
  5
166
 10
-442.29953593660042
 20
2.7778097814075551
 30
0.0
 40
13.827809781406303
 50
246.71964825748168
 51
293.28035174241381
  0
ENDBLK
  8
0
  5
167
  0
BLOCK
  8
0
  5
168
  2
GROUP_5
 70
               0
 10
0.0
 20
0.0
 30
0.0
  3
GROUP_5
  0
LINE
  8
0
  6
CONTINUOUS
 62
               4
  5
169
 10
418.05046406339932
 20
-1.0499999999984624
 30
0.0
 11
418.05046406339932
 21
-9.9241669750787054
 31
0.0
  0
LINE
  8
0
  6
CONTINUOUS
 62
               4
  5
16A
 10
423.53529162070066
 20
-1.0499999999984624
 30
0.0
 11
423.53529162070066
 21
-9.9241669750787054
 31
0.0
  0
LINE
  8
0
  6
CONTINUOUS
 62
               4
  5
16B
 10
418.05046406339932
 20
-1.0499999999984624
 30
0.0
 11
439.95046406339901
 21
-1.0499999999984624
 31
0.0
  0
LINE
  8
0
  6
CONTINUOUS
 62
               4
  5
16C
 10
420.79287784205002
 20
-11.049999999998462
 30
0.0
 11
437.20805028474837
 21
-11.049999999998462
 31
0.0
  0
LINE
  8
0
  6
CONTINUOUS
 62
               4
  5
16D
 10
439.95046406339901
 20
-1.0499999999984624
 30
0.0
 11
439.95046406339901
 21
-9.9241669750787054
 31
0.0
  0
LINE
  8
0
  6
CONTINUOUS
 62
               4
  5
16E
 10
434.46563650609767
 20
-1.0499999999984624
 30
0.0
 11
434.46563650609767
 21
-9.9241669750787054
 31
0.0
  0
ARC
  8
0
  6
CONTINUOUS
 62
               4
  5
16F
 10
420.79287784205002
 20
-7.1469641417462384
 30
0.0
 40
3.9030358582523994
 50
225.3611192140049
 51
314.63888078588832
  0
ARC
  8
0
  6
CONTINUOUS
 62
               4
  5
170
 10
437.20805028474837
 20
-7.1469641417462384
 30
0.0
 40
3.9030358582525593
 50
225.36111921400723
 51
314.63888078589071
  0
ARC
  8
0
  6
CONTINUOUS
 62
               4
  5
171
 10
429.00046406339919
 20
2.7778097814075551
 30
0.0
 40
13.827809781406303
 50
246.71964825748168
 51
293.28035174241381
  0
ENDBLK
  8
0
  5
172
  0
BLOCK
  8
0
  5
173
  2
GROUP_6
 70
               0
 10
0.0
 20
0.0
 30
0.0
  3
GROUP_6
  0
LINE
  8
0
  6
CONTINUOUS
 62
               4
  5
174
 10
568.65046406339934
 20
-1.0499999999984624
 30
0.0
 11
568.65046406339934
 21
-9.9241669750787054
 31
0.0
  0
LINE
  8
0
  6
CONTINUOUS
 62
               4
  5
175
 10
563.16563650609805
 20
-1.0499999999984624
 30
0.0
 11
563.16563650609805
 21
-9.9241669750787054
 31
0.0
  0
LINE
  8
0
  6
CONTINUOUS
 62
               4
  5
176
 10
568.65046406339934
 20
-1.0499999999984624
 30
0.0
 11
546.7504640633997
 21
-1.0499999999984624
 31
0.0
  0
LINE
  8
0
  6
CONTINUOUS
 62
               4
  5
177
 10
565.9080502847487
 20
-11.049999999998462
 30
0.0
 11
549.49287784205035
 21
-11.049999999998462
 31
0.0
  0
LINE
  8
0
  6
CONTINUOUS
 62
               4
  5
178
 10
546.7504640633997
 20
-1.0499999999984624
 30
0.0
 11
546.7504640633997
 21
-9.9241669750787054
 31
0.0
  0
LINE
  8
0
  6
CONTINUOUS
 62
               4
  5
179
 10
552.23529162070099
 20
-1.0499999999984624
 30
0.0
 11
552.23529162070099
 21
-9.9241669750787054
 31
0.0
  0
ARC
  8
0
  6
CONTINUOUS
 62
               4
  5
17A
 10
565.9080502847487
 20
-7.1469641417462384
 30
0.0
 40
3.9030358582523994
 50
225.36111921400786
 51
314.63888078589008
  0
ARC
  8
0
  6
CONTINUOUS
 62
               4
  5
17B
 10
549.49287784205035
 20
-7.1469641417462384
 30
0.0
 40
3.9030358582525593
 50
225.3611192140055
 51
314.63888078588775
  0
ARC
  8
0
  6
CONTINUOUS
 62
               4
  5
17C
 10
557.70046406339952
 20
2.7778097814075551
 30
0.0
 40
13.827809781406303
 50
246.71964825748168
 51
293.28035174241398
  0
ENDBLK
  8
0
  5
17D
  0
ENDSEC
  0
SECTION
  2
ENTITIES
  0
LINE
  8
0
  6
DASHDOT
 62
               4
  5
17E
 10
-6.649535936600671
 20
635.75
 30
0.0
 11
-6.6495359366006541
 21
361.24325309471391
 31
0.0
  0
LINE
  8
0
  6
DASHDOT
 62
               4
  5
17F
 10
-183.04615889330984
 20
527.25
 30
0.0
 11
152.45231015581589
 21
527.25
 31
0.0
  0
LINE
  8
0
  6
DASHDOT
 62
               4
  5
180
 10
-6.6495359366006586
 20
88.525800967386544
 30
0.0
 11
-6.649535936600671
 21
-635.75
 31
0.0
  0
LINE
  8
0
  6
DASHDOT
 62
               4
  5
181
 10
493.35046406339933
 20
88.525800967386573
 30
0.0
 11
493.35046406339933
 21
-635.75
 31
0.0
  0
LINE
  8
0
  6
DASHDOT
 62
               4
  5
182
 10
-506.64953593660067
 20
88.525800967386516
 30
0.0
 11
-506.64953593660067
 21
-635.75
 31
0.0
  0
LINE
  8
0
  6
DASHDOT
 62
               4
  5
183
 10
-88.124311161375942
 20
-52.749999999999829
 30
0.0
 11
-176.64953593660113
 21
-52.749999999999829
 31
0.0
  0
LINE
  8
0
  6
DASHDOT
 62
               4
  5
184
 10
-438.12431116137583
 20
-52.750000000000057
 30
0.0
 11
-574.82511036217488
 21
-52.750000000000057
 31
0.0
  0
LINE
  8
0
  6
DASHDOT
 62
               4
  5
185
 10
61.875688838624171
 20
-52.750000000000128
 30
0.0
 11
-74.825110362174939
 21
-52.750000000000128
 31
0.0
  0
LINE
  8
0
  6
DASHDOT
 62
               4
  5
186
 10
-425.1747607118254
 20
-52.749999999999829
 30
0.0
 11
-336.64953593660022
 21
-52.749999999999829
 31
0.0
  0
LINE
  8
0
  6
DASHDOT
 62
               4
  5
187
 10
411.87568883862406
 20
-52.749999999999829
 30
0.0
 11
323.35046406339887
 21
-52.749999999999829
 31
0.0
  0
LINE
  8
0
  6
DASHDOT
 62
               4
  5
188
 10
558.47346561256222
 20
-32.750000000000057
 30
0.0
 11
596.64953593660107
 21
-32.750000000000057
 31
0.0
  0
LINE
  8
0
  6
DASHDOT
 62
               4
  5
189
 10
74.8252392881746
 20
-52.749999999999829
 30
0.0
 11
163.35046406339978
 21
-52.749999999999829
 31
0.0
  0
LINE
  8
0
  6
DASHDOT
 62
               4
  5
18A
 10
561.87568883862423
 20
-52.750000000000128
 30
0.0
 11
425.17488963782506
 21
-52.750000000000128
 31
0.0
  0
LINE
  8
0
  6
DASHDOT
 62
               4
  5
18B
 10
-398.78730498706938
 20
-1078.8981954811902
 30
0.0
 11
-398.78730498706926
 21
-949.89819548118999
 31
0.0
  0
LINE
  8
0
  6
DASHDOT
 62
               4
  5
18C
 10
-456.78730498706938
 20
-1020.89819548119
 30
0.0
 11
-340.78730498706938
 21
-1020.89819548119
 31
0.0
  0
LINE
  8
0
  6
DASHDOT
 62
               4
  5
18D
 10
-468.59048347117681
 20
-1014.39819548119
 30
0.0
 11
-334.28730498706938
 21
-1014.39819548119
 31
0.0
  0
LINE
  8
0
  6
DASHDOT
 62
               4
  5
18E
 10
-274.88730498706929
 20
-1014.39819548119
 30
0.0
 11
-176.28730498706938
 21
-1014.39819548119
 31
0.0
  0
LINE
  8
0
  6
DASHDOT
 62
               4
  5
18F
 10
-309.28730498706938
 20
-1020.89819548119
 30
0.0
 11
-234.8873049870694
 21
-1020.89819548119
 31
0.0
  0
LINE
  8
0
  6
DASHDOT
 62
               4
  5
190
 10
-522.68730498706918
 20
-1014.3981954811898
 30
0.0
 11
-621.28730498706932
 21
-1014.3981954811895
 31
0.0
  0
LINE
  8
0
  6
DASHDOT
 62
               4
  5
191
 10
-488.28730498706938
 20
-1020.8981954811898
 30
0.0
 11
-562.68730498706918
 21
-1020.8981954811898
 31
0.0
  0
LINE
  8
0
  6
DASHDOT
 62
               4
  5
192
 10
-400.7332623828359
 20
-917.43031141215488
 30
0.0
 11
-400.7332623828359
 21
-784.43031141215488
 31
0.0
  0
LINE
  8
0
  6
DASHDOT
 62
               4
  5
193
 10
214.9843877492803
 20
-1014.39819548119
 30
0.0
 11
313.58438774928044
 21
-1014.39819548119
 31
0.0
  0
LINE
  8
0
  6
DASHDOT
 62
               4
  5
194
 10
189.9843877492803
 20
-1028.89819548119
 30
0.0
 11
254.9843877492803
 21
-1028.89819548119
 31
0.0
  0
LINE
  8
0
  6
DASHDOT
 62
               4
  5
195
 10
64.228371524037314
 20
-1028.89819548119
 30
0.0
 11
164.22837152403753
 21
-1028.89819548119
 31
0.0
  0
LINE
  8
0
  6
DASHDOT
 62
               4
  5
196
 10
114.22837152403731
 20
-1078.8981954811902
 30
0.0
 11
114.22837152403754
 21
-949.89819548118999
 31
0.0
  0
LINE
  8
0
  6
DASHDOT
 62
               4
  5
197
 10
49.728371524037314
 20
-1014.39819548119
 30
0.0
 11
184.27238130398854
 21
-1014.39819548119
 31
0.0
  0
LINE
  8
0
  6
DASHDOT
 62
               4
  5
198
 10
13.472355298794538
 20
-1014.39819548119
 30
0.0
 11
-85.127644701205483
 21
-1014.39819548119
 31
0.0
  0
LINE
  8
0
  6
DASHDOT
 62
               4
  5
199
 10
38.47235529879454
 20
-1028.89819548119
 30
0.0
 11
-26.52764470120546
 21
-1028.89819548119
 31
0.0
  0
LINE
  8
0
  6
DASHDOT
 62
               4
  5
19A
 10
114.22837152403754
 20
-928.14217925594721
 30
0.0
 11
114.22837152403754
 21
-804.54217925594708
 31
0.0
  0
LINE
  8
0
  6
DASHDOT
 62
               4
  5
19B
 10
602.63698727970723
 20
-848.21375990939896
 30
0.0
 11
602.63698727970723
 21
-1118.7605467092253
 31
0.0
  0
LINE
  8
0
  6
DASHDOT
 62
               4
  5
19C
 10
440.63698727970728
 20
-956.71375990939896
 30
0.0
 11
711.13698727970745
 21
-956.71375990939896
 31
0.0
  0
LINE
  8
0
  6
DASHDOT
 62
               4
  5
19D
 10
671.16221205493207
 20
-1431.2131936579835
 30
0.0
 11
440.90837398627895
 21
-1431.2131936579835
 31
0.0
  0
LINE
  8
0
  6
DASHDOT
 62
               4
  5
19E
 10
602.63698727970723
 20
-1245.2131936579835
 30
0.0
 11
602.63698727970723
 21
-1496.2131936579835
 31
0.0
  0
LINE
  8
0
  6
DASHDOT
 62
               4
  5
19F
 10
552.63698727970723
 20
-1445.7131936579835
 30
0.0
 11
652.63698727970745
 21
-1445.7131936579835
 31
0.0
  0
LINE
  8
0
  6
DASHDOT
 62
               4
  5
1A0
 10
602.63698727970723
 20
-1147.3137599093993
 30
0.0
 11
602.63698727970723
 21
-1023.713759909399
 31
0.0
  0
LINE
  8
0
  6
DASHDOT
 62
               4
  5
1A1
 10
402.63698727970717
 20
-1437.7131936579835
 30
0.0
 11
477.03698727970715
 21
-1437.7131936579835
 31
0.0
  0
LINE
  8
0
  6
DASHDOT
 62
               4
  5
1A2
 10
402.6369872797074
 20
-956.71375990939873
 30
0.0
 11
535.63698727970745
 21
-956.71375990939873
 31
0.0
  0
LINE
  8
0
  6
CONTINUOUS
 62
               4
  5
1A3
 10
-62.499535936601035
 20
46.249999999999375
 30
0.0
 11
-78.999535936601092
 21
46.249999999999375
 31
0.0
  0
LINE
  8
0
  6
CONTINUOUS
 62
               4
  5
1A4
 10
-62.499535936601035
 20
46.249999999999375
 30
0.0
 11
-62.499535936601035
 21
39.249999999999261
 31
0.0
  0
LINE
  8
0
  6
CONTINUOUS
 62
               4
  5
1A5
 10
-62.499535936601035
 20
39.249999999999261
 30
0.0
 11
-88.499535936601148
 21
39.249999999999261
 31
0.0
  0
LINE
  8
0
  6
CONTINUOUS
 62
               4
  5
1A6
 10
-88.499535936601148
 20
42.849999999999397
 30
0.0
 11
-84.972980342263838
 21
42.849999999999397
 31
0.0
  0
LINE
  8
0
  6
CONTINUOUS
 62
               4
  5
1A7
 10
-78.999535936601092
 20
46.249999999999375
 30
0.0
 11
-84.972980342263838
 21
42.849999999999397
 31
0.0
  0
LINE
  8
0
  6
CONTINUOUS
 62
               4
  5
1A8
 10
-88.499535936601148
 20
39.249999999999261
 30
0.0
 11
-88.499535936601148
 21
42.849999999999397
 31
0.0
  0
LINE
  8
0
  6
CONTINUOUS
 62
               4
  5
1A9
 10
66.200464063399806
 20
46.249999999999375
 30
0.0
 11
49.70046406339975
 21
46.249999999999375
 31
0.0
  0
LINE
  8
0
  6
CONTINUOUS
 62
               4
  5
1AA
 10
66.200464063399806
 20
46.249999999999375
 30
0.0
 11
66.200464063399806
 21
39.249999999999261
 31
0.0
  0
LINE
  8
0
  6
CONTINUOUS
 62
               4
  5
1AB
 10
66.200464063399806
 20
39.249999999999261
 30
0.0
 11
40.200464063399693
 21
39.249999999999261
 31
0.0
  0
LINE
  8
0
  6
CONTINUOUS
 62
               4
  5
1AC
 10
40.200464063399693
 20
42.849999999999397
 30
0.0
 11
43.727019657737003
 21
42.849999999999397
 31
0.0
  0
LINE
  8
0
  6
CONTINUOUS
 62
               4
  5
1AD
 10
49.70046406339975
 20
46.249999999999375
 30
0.0
 11
43.727019657737003
 21
42.849999999999397
 31
0.0
  0
LINE
  8
0
  6
CONTINUOUS
 62
               4
  5
1AE
 10
40.200464063399693
 20
39.249999999999261
 30
0.0
 11
40.200464063399693
 21
42.849999999999397
 31
0.0
  0
LINE
  8
0
  6
CONTINUOUS
 62
               4
  5
1AF
 10
-57.999535936601035
 20
-1.0499999999996703
 30
0.0
 11
-57.999535936601035
 21
1.2500000000002842
 31
0.0
  0
LINE
  8
0
  6
CONTINUOUS
 62
               4
  5
1B0
 10
-57.999535936601035
 20
1.2500000000002842
 30
0.0
 11
-83.999535936601092
 21
1.2500000000002842
 31
0.0
  0
LINE
  8
0
  6
CONTINUOUS
 62
               4
  5
1B1
 10
-83.999535936601092
 20
1.2500000000002842
 30
0.0
 11
-83.999535936601092
 21
-1.0499999999996703
 31
0.0
  0
LINE
  8
0
  6
CONTINUOUS
 62
               4
  5
1B2
 10
-83.999535936601092
 20
-1.0499999999996703
 30
0.0
 11
-57.999535936601035
 21
-1.0499999999996703
 31
0.0
  0
LINE
  8
0
  6
CONTINUOUS
 62
               4
  5
1B3
 10
-64.999535936601035
 20
-11.049999999998533
 30
0.0
 11
-64.999535936601035
 21
-27.456242835975502
 31
0.0
  0
LINE
  8
0
  6
CONTINUOUS
 62
               4
  5
1B4
 10
-76.999535936601035
 20
-27.456242835975502
 30
0.0
 11
-76.999535936601035
 21
-11.049999999998533
 31
0.0
  0
LINE
  8
0
  6
CONTINUOUS
 62
               4
  5
1B5
 10
-76.999535936601035
 20
-27.456242835975502
 30
0.0
 11
-64.999535936601035
 21
-27.456242835975502
 31
0.0
  0
LINE
  8
0
  6
CONTINUOUS
 62
               4
  5
1B6
 10
44.70046406339975
 20
-1.0499999999996703
 30
0.0
 11
44.70046406339975
 21
1.2500000000002842
 31
0.0
  0
LINE
  8
0
  6
CONTINUOUS
 62
               4
  5
1B7
 10
44.70046406339975
 20
1.2500000000002842
 30
0.0
 11
70.700464063399806
 21
1.2500000000002842
 31
0.0
  0
LINE
  8
0
  6
CONTINUOUS
 62
               4
  5
1B8
 10
70.700464063399806
 20
1.2500000000002842
 30
0.0
 11
70.700464063399806
 21
-1.0499999999996703
 31
0.0
  0
LINE
  8
0
  6
CONTINUOUS
 62
               4
  5
1B9
 10
70.700464063399806
 20
-1.0499999999996703
 30
0.0
 11
44.70046406339975
 21
-1.0499999999996703
 31
0.0
  0
LINE
  8
0
  6
CONTINUOUS
 62
               4
  5
1BA
 10
51.70046406339975
 20
-11.049999999998533
 30
0.0
 11
51.70046406339975
 21
-27.456242835975502
 31
0.0
  0
LINE
  8
0
  6
CONTINUOUS
 62
               4
  5
1BB
 10
63.700464063399806
 20
-27.456242835975502
 30
0.0
 11
63.700464063399806
 21
-11.049999999998533
 31
0.0
  0
LINE
  8
0
  6
CONTINUOUS
 62
               4
  5
1BC
 10
63.700464063399806
 20
-27.456242835975502
 30
0.0
 11
51.70046406339975
 21
-27.456242835975502
 31
0.0
  0
LINE
  8
0
  6
CONTINUOUS
 62
               4
  5
1BD
 10
-562.49953593660098
 20
46.249999999999446
 30
0.0
 11
-578.99953593660098
 21
46.249999999999446
 31
0.0
  0
LINE
  8
0
  6
CONTINUOUS
 62
               4
  5
1BE
 10
-562.49953593660098
 20
46.249999999999446
 30
0.0
 11
-562.49953593660098
 21
39.249999999999332
 31
0.0
  0
LINE
  8
0
  6
CONTINUOUS
 62
               4
  5
1BF
 10
-562.49953593660098
 20
39.249999999999332
 30
0.0
 11
-588.49953593660121
 21
39.249999999999332
 31
0.0
  0
LINE
  8
0
  6
CONTINUOUS
 62
               4
  5
1C0
 10
-588.49953593660121
 20
42.849999999999469
 30
0.0
 11
-584.97298034226378
 21
42.849999999999469
 31
0.0
  0
LINE
  8
0
  6
CONTINUOUS
 62
               4
  5
1C1
 10
-578.99953593660098
 20
46.249999999999446
 30
0.0
 11
-584.97298034226378
 21
42.849999999999469
 31
0.0
  0
LINE
  8
0
  6
CONTINUOUS
 62
               4
  5
1C2
 10
-588.49953593660121
 20
39.249999999999332
 30
0.0
 11
-588.49953593660121
 21
42.849999999999469
 31
0.0
  0
LINE
  8
0
  6
CONTINUOUS
 62
               4
  5
1C3
 10
-433.79953593660019
 20
46.249999999999446
 30
0.0
 11
-450.29953593660025
 21
46.249999999999446
 31
0.0
  0
LINE
  8
0
  6
CONTINUOUS
 62
               4
  5
1C4
 10
-433.79953593660019
 20
46.249999999999446
 30
0.0
 11
-433.79953593660019
 21
39.249999999999332
 31
0.0
  0
LINE
  8
0
  6
CONTINUOUS
 62
               4
  5
1C5
 10
-433.79953593660019
 20
39.249999999999332
 30
0.0
 11
-459.79953593660031
 21
39.249999999999332
 31
0.0
  0
LINE
  8
0
  6
CONTINUOUS
 62
               4
  5
1C6
 10
-459.79953593660031
 20
42.849999999999469
 30
0.0
 11
-456.272980342263
 21
42.849999999999469
 31
0.0
  0
LINE
  8
0
  6
CONTINUOUS
 62
               4
  5
1C7
 10
-450.29953593660025
 20
46.249999999999446
 30
0.0
 11
-456.272980342263
 21
42.849999999999469
 31
0.0
  0
LINE
  8
0
  6
CONTINUOUS
 62
               4
  5
1C8
 10
-459.79953593660031
 20
39.249999999999332
 30
0.0
 11
-459.79953593660031
 21
42.849999999999469
 31
0.0
  0
LINE
  8
0
  6
CONTINUOUS
 62
               4
  5
1C9
 10
-557.99953593660098
 20
-1.0499999999995993
 30
0.0
 11
-557.99953593660098
 21
1.2500000000003553
 31
0.0
  0
LINE
  8
0
  6
CONTINUOUS
 62
               4
  5
1CA
 10
-557.99953593660098
 20
1.2500000000003553
 30
0.0
 11
-583.99953593660098
 21
1.2500000000003553
 31
0.0
  0
LINE
  8
0
  6
CONTINUOUS
 62
               4
  5
1CB
 10
-583.99953593660098
 20
1.2500000000003553
 30
0.0
 11
-583.99953593660098
 21
-1.0499999999995993
 31
0.0
  0
LINE
  8
0
  6
CONTINUOUS
 62
               4
  5
1CC
 10
-583.99953593660098
 20
-1.0499999999995993
 30
0.0
 11
-557.99953593660098
 21
-1.0499999999995993
 31
0.0
  0
LINE
  8
0
  6
CONTINUOUS
 62
               4
  5
1CD
 10
-564.99953593660098
 20
-11.049999999998462
 30
0.0
 11
-564.99953593660098
 21
-27.456242835975431
 31
0.0
  0
LINE
  8
0
  6
CONTINUOUS
 62
               4
  5
1CE
 10
-576.99953593660098
 20
-27.456242835975431
 30
0.0
 11
-576.99953593660098
 21
-11.049999999998462
 31
0.0
  0
LINE
  8
0
  6
CONTINUOUS
 62
               4
  5
1CF
 10
-576.99953593660098
 20
-27.456242835975431
 30
0.0
 11
-564.99953593660098
 21
-27.456242835975431
 31
0.0
  0
LINE
  8
0
  6
CONTINUOUS
 62
               4
  5
1D0
 10
-455.29953593660025
 20
-1.0499999999995993
 30
0.0
 11
-455.29953593660025
 21
1.2500000000003553
 31
0.0
  0
LINE
  8
0
  6
CONTINUOUS
 62
               4
  5
1D1
 10
-455.29953593660025
 20
1.2500000000003553
 30
0.0
 11
-429.29953593660019
 21
1.2500000000003553
 31
0.0
  0
LINE
  8
0
  6
CONTINUOUS
 62
               4
  5
1D2
 10
-429.29953593660019
 20
1.2500000000003553
 30
0.0
 11
-429.29953593660019
 21
-1.0499999999995993
 31
0.0
  0
LINE
  8
0
  6
CONTINUOUS
 62
               4
  5
1D3
 10
-429.29953593660019
 20
-1.0499999999995993
 30
0.0
 11
-455.29953593660025
 21
-1.0499999999995993
 31
0.0
  0
LINE
  8
0
  6
CONTINUOUS
 62
               4
  5
1D4
 10
-448.29953593660025
 20
-11.049999999998462
 30
0.0
 11
-448.29953593660025
 21
-27.456242835975431
 31
0.0
  0
LINE
  8
0
  6
CONTINUOUS
 62
               4
  5
1D5
 10
-436.29953593660019
 20
-27.456242835975431
 30
0.0
 11
-436.29953593660019
 21
-11.049999999998462
 31
0.0
  0
LINE
  8
0
  6
CONTINUOUS
 62
               4
  5
1D6
 10
-436.29953593660019
 20
-27.456242835975431
 30
0.0
 11
-448.29953593660025
 21
-27.456242835975431
 31
0.0
  0
LINE
  8
0
  6
CONTINUOUS
 62
               4
  5
1D7
 10
437.50046406339897
 20
46.249999999999446
 30
0.0
 11
421.00046406339891
 21
46.249999999999446
 31
0.0
  0
LINE
  8
0
  6
CONTINUOUS
 62
               4
  5
1D8
 10
437.50046406339897
 20
46.249999999999446
 30
0.0
 11
437.50046406339897
 21
39.249999999999332
 31
0.0
  0
LINE
  8
0
  6
CONTINUOUS
 62
               4
  5
1D9
 10
437.50046406339897
 20
39.249999999999332
 30
0.0
 11
411.50046406339885
 21
39.249999999999332
 31
0.0
  0
LINE
  8
0
  6
CONTINUOUS
 62
               4
  5
1DA
 10
411.50046406339885
 20
42.849999999999469
 30
0.0
 11
415.02701965773616
 21
42.849999999999469
 31
0.0
  0
LINE
  8
0
  6
CONTINUOUS
 62
               4
  5
1DB
 10
421.00046406339891
 20
46.249999999999446
 30
0.0
 11
415.02701965773616
 21
42.849999999999469
 31
0.0
  0
LINE
  8
0
  6
CONTINUOUS
 62
               4
  5
1DC
 10
411.50046406339885
 20
39.249999999999332
 30
0.0
 11
411.50046406339885
 21
42.849999999999469
 31
0.0
  0
LINE
  8
0
  6
CONTINUOUS
 62
               4
  5
1DD
 10
566.20046406339975
 20
46.249999999999446
 30
0.0
 11
549.70046406339975
 21
46.249999999999446
 31
0.0
  0
LINE
  8
0
  6
CONTINUOUS
 62
               4
  5
1DE
 10
566.20046406339975
 20
46.249999999999446
 30
0.0
 11
566.20046406339975
 21
39.249999999999332
 31
0.0
  0
LINE
  8
0
  6
CONTINUOUS
 62
               4
  5
1DF
 10
566.20046406339975
 20
39.249999999999332
 30
0.0
 11
540.20046406339975
 21
39.249999999999332
 31
0.0
  0
LINE
  8
0
  6
CONTINUOUS
 62
               4
  5
1E0
 10
540.20046406339975
 20
42.849999999999469
 30
0.0
 11
543.72701965773695
 21
42.849999999999469
 31
0.0
  0
LINE
  8
0
  6
CONTINUOUS
 62
               4
  5
1E1
 10
549.70046406339975
 20
46.249999999999446
 30
0.0
 11
543.72701965773695
 21
42.849999999999469
 31
0.0
  0
LINE
  8
0
  6
CONTINUOUS
 62
               4
  5
1E2
 10
540.20046406339975
 20
39.249999999999332
 30
0.0
 11
540.20046406339975
 21
42.849999999999469
 31
0.0
  0
LINE
  8
0
  6
CONTINUOUS
 62
               4
  5
1E3
 10
442.00046406339897
 20
-1.0499999999995993
 30
0.0
 11
442.00046406339897
 21
1.2500000000003553
 31
0.0
  0
LINE
  8
0
  6
CONTINUOUS
 62
               4
  5
1E4
 10
442.00046406339897
 20
1.2500000000003553
 30
0.0
 11
416.00046406339891
 21
1.2500000000003553
 31
0.0
  0
LINE
  8
0
  6
CONTINUOUS
 62
               4
  5
1E5
 10
416.00046406339891
 20
1.2500000000003553
 30
0.0
 11
416.00046406339891
 21
-1.0499999999995993
 31
0.0
  0
LINE
  8
0
  6
CONTINUOUS
 62
               4
  5
1E6
 10
416.00046406339891
 20
-1.0499999999995993
 30
0.0
 11
442.00046406339897
 21
-1.0499999999995993
 31
0.0
  0
LINE
  8
0
  6
CONTINUOUS
 62
               4
  5
1E7
 10
435.00046406339897
 20
-11.049999999998462
 30
0.0
 11
435.00046406339897
 21
-27.456242835975431
 31
0.0
  0
LINE
  8
0
  6
CONTINUOUS
 62
               4
  5
1E8
 10
423.00046406339897
 20
-27.456242835975431
 30
0.0
 11
423.00046406339897
 21
-11.049999999998462
 31
0.0
  0
LINE
  8
0
  6
CONTINUOUS
 62
               4
  5
1E9
 10
423.00046406339897
 20
-27.456242835975431
 30
0.0
 11
435.00046406339897
 21
-27.456242835975431
 31
0.0
  0
LINE
  8
0
  6
CONTINUOUS
 62
               4
  5
1EA
 10
544.70046406339975
 20
-1.0499999999995993
 30
0.0
 11
544.70046406339975
 21
1.2500000000003553
 31
0.0
  0
LINE
  8
0
  6
CONTINUOUS
 62
               4
  5
1EB
 10
544.70046406339975
 20
1.2500000000003553
 30
0.0
 11
570.70046406339975
 21
1.2500000000003553
 31
0.0
  0
LINE
  8
0
  6
CONTINUOUS
 62
               4
  5
1EC
 10
570.70046406339975
 20
1.2500000000003553
 30
0.0
 11
570.70046406339975
 21
-1.0499999999995993
 31
0.0
  0
LINE
  8
0
  6
CONTINUOUS
 62
               4
  5
1ED
 10
570.70046406339975
 20
-1.0499999999995993
 30
0.0
 11
544.70046406339975
 21
-1.0499999999995993
 31
0.0
  0
LINE
  8
0
  6
CONTINUOUS
 62
               4
  5
1EE
 10
551.70046406339975
 20
-11.049999999998462
 30
0.0
 11
551.70046406339975
 21
-27.456242835975431
 31
0.0
  0
LINE
  8
0
  6
CONTINUOUS
 62
               4
  5
1EF
 10
563.70046406339975
 20
-27.456242835975431
 30
0.0
 11
563.70046406339975
 21
-11.049999999998462
 31
0.0
  0
LINE
  8
0
  6
CONTINUOUS
 62
               4
  5
1F0
 10
563.70046406339975
 20
-27.456242835975431
 30
0.0
 11
551.70046406339975
 21
-27.456242835975431
 31
0.0
  0
LINE
  8
0
  6
CONTINUOUS
 62
               4
  5
1F1
 10
-84.551694736301783
 20
471.40328291202451
 30
0.0
 11
-70.996253024576902
 21
471.40328291202451
 31
0.0
  0
LINE
  8
0
  6
CONTINUOUS
 62
               4
  5
1F2
 10
-70.996253024576902
 20
454.40328291202462
 30
0.0
 11
-84.551694736302181
 21
454.40328291202462
 31
0.0
  0
ARC
  8
0
  6
CONTINUOUS
 62
               4
  5
1F3
 10
-70.996253024575992
 20
462.90328291202428
 30
0.0
 40
16.000000000000014
 50
147.91004874369011
 51
212.08995125623778
  0
CIRCLE
  8
0
  6
CONTINUOUS
 62
               4
  5
1F4
 10
-70.996253024576902
 20
462.90328291202428
 30
0.0
 40
8.5
  0
LINE
  8
0
  6
CONTINUOUS
 62
               4
  5
1F5
 10
44.14173943964974
 20
471.40328291202451
 30
0.0
 11
57.697181151374707
 21
471.40328291202451
 31
0.0
  0
LINE
  8
0
  6
CONTINUOUS
 62
               4
  5
1F6
 10
57.697181151374707
 20
454.40328291202462
 30
0.0
 11
44.141739439649371
 21
454.40328291202462
 31
0.0
  0
CIRCLE
  8
0
  6
CONTINUOUS
 62
               4
  5
1F7
 10
57.697181151374707
 20
462.90328291202428
 30
0.0
 40
8.5
  0
ARC
  8
0
  6
CONTINUOUS
 62
               4
  5
1F8
 10
57.69718115137556
 20
462.90328291202428
 30
0.0
 40
16.000000000000014
 50
147.91004874369011
 51
212.08995125623775
  0
LINE
  8
0
  6
CONTINUOUS
 62
               4
  5
1F9
 10
44.14173943964974
 20
600.09671708797578
 30
0.0
 11
57.697181151374707
 21
600.09671708797578
 31
0.0
  0
LINE
  8
0
  6
CONTINUOUS
 62
               4
  5
1FA
 10
57.697181151374707
 20
583.096717087976
 30
0.0
 11
44.141739439649371
 21
583.096717087976
 31
0.0
  0
CIRCLE
  8
0
  6
CONTINUOUS
 62
               4
  5
1FB
 10
57.697181151374707
 20
591.59671708797555
 30
0.0
 40
8.5
  0
ARC
  8
0
  6
CONTINUOUS
 62
               4
  5
1FC
 10
57.69718115137556
 20
591.59671708797555
 30
0.0
 40
16.000000000000014
 50
147.91004874369011
 51
212.08995125623792
  0
LINE
  8
0
  6
CONTINUOUS
 62
               4
  5
1FD
 10
-84.55169473630275
 20
600.09671708797578
 30
0.0
 11
-70.996253024577811
 21
600.09671708797578
 31
0.0
  0
LINE
  8
0
  6
CONTINUOUS
 62
               4
  5
1FE
 10
-70.996253024577811
 20
583.096717087976
 30
0.0
 11
-84.551694736303091
 21
583.096717087976
 31
0.0
  0
CIRCLE
  8
0
  6
CONTINUOUS
 62
               4
  5
1FF
 10
-70.996253024577811
 20
591.59671708797555
 30
0.0
 40
8.5
  0
ARC
  8
0
  6
CONTINUOUS
 62
               4
  5
200
 10
-70.996253024576902
 20
591.59671708797555
 30
0.0
 40
16.000000000000014
 50
147.91004874369011
 51
212.08995125623792
  0
POINT
  8
0
  6
CONTINUOUS
 62
               4
  5
201
 10
-253.68730498706935
 20
-969.89819548118999
 30
0.0
  0
POINT
  8
0
  6
CONTINUOUS
 62
               4
  5
202
 10
-543.88730498706923
 20
-969.89819548118976
 30
0.0
  0
POINT
  8
0
  6
CONTINUOUS
 62
               4
  5
203
 10
-356.2332623828359
 20
-861.83031141215497
 30
0.0
  0
POINT
  8
0
  6
CONTINUOUS
 62
               4
  5
204
 10
236.18438774928035
 20
-969.89819548118999
 30
0.0
  0
POINT
  8
0
  6
CONTINUOUS
 62
               4
  5
205
 10
-7.7276447012055076
 20
-969.89819548118999
 30
0.0
  0
POINT
  8
0
  6
CONTINUOUS
 62
               4
  5
206
 10
158.72837152403753
 20
-881.94217925594717
 30
0.0
  0
LINE
  8
0
  6
CONTINUOUS
 62
               4
  5
207
 10
679.63698727970723
 20
-1361.6775399051307
 30
0.0
 11
674.63698727970723
 21
-1356.6775399051307
 31
0.0
  0
ARC
  8
0
  6
CONTINUOUS
 62
               4
  5
208
 10
657.13698727970723
 20
-1372.2131936579835
 30
0.0
 40
19.999999999999996
 50
0.0
 51
31.78833061703342
  0
LINE
  8
0
  6
CONTINUOUS
 62
               4
  5
209
 10
674.13698727970768
 20
-1361.6775399051307
 30
0.0
 11
674.13698727970768
 21
-1356.6775399051303
 31
0.0
  0
LINE
  8
0
  6
CONTINUOUS
 62
               4
  5
20A
 10
674.63698727970723
 20
-1356.6775399051307
 30
0.0
 11
674.13698727970768
 21
-1356.6775399051307
 31
0.0
  0
LINE
  8
0
  6
CONTINUOUS
 62
               4
  5
20B
 10
679.38698727970745
 20
-1361.9275399051307
 30
0.0
 11
674.13698727970768
 21
-1356.6775399051307
 31
0.0
  0
LINE
  8
0
  6
CONTINUOUS
 62
               4
  5
20C
 10
679.38698727970745
 20
-1361.9275399051307
 30
0.0
 11
679.63698727970723
 21
-1361.6775399051307
 31
0.0
  0
LINE
  8
0
  6
CONTINUOUS
 62
               4
  5
20D
 10
679.63698727970723
 20
-1361.6775399051307
 30
0.0
 11
679.63698727970723
 21
-1492.3662172551003
 31
0.0
  0
LINE
  8
0
  6
CONTINUOUS
 62
               4
  5
20E
 10
679.38698727970745
 20
-1361.9275399051307
 30
0.0
 11
679.38698727970745
 21
-1492.0808601479648
 31
0.0
  0
LINE
  8
0
  6
CONTINUOUS
 62
               4
  5
20F
 10
677.13698727970723
 20
-1372.0601700608663
 30
0.0
 11
677.13698727970723
 21
-1491.2131936579835
 31
0.0
  0
POINT
  8
0
  6
CONTINUOUS
 62
               4
  5
210
 10
647.13698727970723
 20
-1101.1137599093991
 30
0.0
  0
POINT
  8
0
  6
CONTINUOUS
 62
               4
  5
211
 10
458.23698727970719
 20
-1386.7131936579835
 30
0.0
  0
POINT
  8
0
  6
CONTINUOUS
 62
               4
  5
212
 10
458.23698727970731
 20
-1001.2137599093987
 30
0.0
  0
LINE
  8
0
  6
DASHED2
 62
               4
  5
213
 10
545.63698727970745
 20
-1330.2131936579835
 30
0.0
 11
659.63698727970723
 21
-1330.2131936579835
 31
0.0
  0
ARC
  8
0
  6
CONTINUOUS
 62
               3
  5
214
 10
-70.996253024575992
 20
591.59671708797555
 30
0.0
 40
17.5
 50
97.816433606452236
 51
172.1835663934956
  0
LINE
  8
0
  6
CONTINUOUS
 62
               3
  5
215
 10
-88.333658314424895
 20
593.97671242736715
 30
0.0
 11
-95.813334570108339
 21
539.4899760311564
 31
0.0
  0
ARC
  8
0
  6
CONTINUOUS
 62
               3
  5
216
 10
57.69718115137556
 20
591.59671708797555
 30
0.0
 40
17.5
 50
7.8164336064694728
 51
82.183566393513019
  0
ARC
  8
0
  6
CONTINUOUS
 62
               3
  5
217
 10
57.69718115137556
 20
462.90328291202428
 30
0.0
 40
17.5
 50
277.81643360641743
 51
352.18356639346075
  0
ARC
  8
0
  6
CONTINUOUS
 62
               3
  5
218
 10
-70.996253024575992
 20
462.90328291202428
 30
0.0
 40
17.5
 50
187.81643360643486
 51
262.1835663934782
  0
LINE
  8
0
  6
CONTINUOUS
 62
               3
  5
219
 10
-88.333658314424895
 20
460.52328757263268
 30
0.0
 11
-95.813334570108395
 21
515.0100239688436
 31
0.0
  0
LINE
  8
0
  6
CONTINUOUS
 62
               3
  5
21A
 10
75.034586441224008
 20
460.52328757263268
 30
0.0
 11
82.514262696907451
 21
515.01002396884337
 31
0.0
  0
ARC
  8
0
  6
CONTINUOUS
 62
               3
  5
21B
 10
-6.649535936600671
 20
527.25
 30
0.0
 40
90.0
 50
352.18356639346075
 51
367.81643360639998
  0
LINE
  8
0
  6
CONTINUOUS
 62
               3
  5
21C
 10
75.034586441224008
 20
593.97671242736715
 30
0.0
 11
82.514262696907451
 21
539.4899760311564
 31
0.0
  0
LINE
  8
0
  6
CONTINUOUS
 62
               3
  5
21D
 10
60.077176490766931
 20
608.93412237782468
 30
0.0
 11
5.5904400945561861
 21
616.41379863350744
 31
0.0
  0
ARC
  8
0
  6
CONTINUOUS
 62
               3
  5
21E
 10
-6.649535936600671
 20
527.25
 30
0.0
 40
90.0
 50
82.183566393512962
 51
97.816433606452264
  0
LINE
  8
0
  6
CONTINUOUS
 62
               3
  5
21F
 10
-73.376248363967818
 20
608.93412237782468
 30
0.0
 11
-18.889511967757073
 21
616.41379863350744
 31
0.0
  0
LINE
  8
0
  6
CONTINUOUS
 62
               3
  5
220
 10
60.077176490766931
 20
445.56587762217504
 30
0.0
 11
5.590440094555845
 21
438.08620136649239
 31
0.0
  0
LINE
  8
0
  6
CONTINUOUS
 62
               3
  5
221
 10
-73.376248363967818
 20
445.56587762217504
 30
0.0
 11
-18.889511967757187
 21
438.08620136649239
 31
0.0
  0
ARC
  8
0
  6
CONTINUOUS
 62
               3
  5
222
 10
-6.649535936600671
 20
527.25
 30
0.0
 40
90.0
 50
262.1835663934782
 51
277.81643360641743
  0
ARC
  8
0
  6
CONTINUOUS
 62
               3
  5
223
 10
-6.649535936600671
 20
527.25
 30
0.0
 40
90.0
 50
172.18356639349557
 51
187.8164336064348
  0
ARC
  8
0
  6
CONTINUOUS
 62
               3
  5
224
 10
-71.649535936600671
 20
-115.24999999999991
 30
0.0
 40
2.4999999999999996
 50
89.999999999982535
 51
269.99999999994793
  0
LINE
  8
0
  6
CONTINUOUS
 62
               3
  5
225
 10
83.350464063399784
 20
22.249999999999943
 30
0.0
 11
83.350464063399784
 21
1.2500000000000711
 31
0.0
  0
LINE
  8
0
  6
CONTINUOUS
 62
               3
  5
226
 10
-96.649535936601126
 20
22.249999999999943
 30
0.0
 11
-96.649535936601126
 21
1.2500000000000711
 31
0.0
  0
LINE
  8
0
  6
CONTINUOUS
 62
               3
  5
227
 10
79.350464063399784
 20
27.249999999999943
 30
0.0
 11
79.350464063399784
 21
22.249999999999943
 31
0.0
  0
LINE
  8
0
  6
CONTINUOUS
 62
               3
  5
228
 10
-76.99953593660058
 20
22.249999999999943
 30
0.0
 11
-76.99953593660058
 21
27.249999999999943
 31
0.0
  0
LINE
  8
0
  6
CONTINUOUS
 62
               3
  5
229
 10
-64.99953593660058
 20
27.249999999999943
 30
0.0
 11
-64.99953593660058
 21
22.249999999999943
 31
0.0
  0
LINE
  8
0
  6
CONTINUOUS
 62
               3
  5
22A
 10
51.700464063399693
 20
22.249999999999943
 30
0.0
 11
51.700464063399693
 21
27.249999999999943
 31
0.0
  0
LINE
  8
0
  6
CONTINUOUS
 62
               3
  5
22B
 10
63.700464063399693
 20
27.249999999999943
 30
0.0
 11
63.700464063399693
 21
22.249999999999943
 31
0.0
  0
LINE
  8
0
  6
CONTINUOUS
 62
               3
  5
22C
 10
-96.649535936601126
 20
22.249999999999943
 30
0.0
 11
83.350464063399784
 21
22.249999999999943
 31
0.0
  0
LINE
  8
0
  6
CONTINUOUS
 62
               3
  5
22D
 10
-92.649535936601126
 20
27.249999999999943
 30
0.0
 11
-92.649535936601126
 21
22.249999999999943
 31
0.0
  0
LINE
  8
0
  6
CONTINUOUS
 62
               3
  5
22E
 10
-81.649535936600216
 20
-230.75000000000006
 30
0.0
 11
68.350464063399329
 21
-230.74999999999983
 31
0.0
  0
LINE
  8
0
  6
CONTINUOUS
 62
               3
  5
22F
 10
-79.37082377056737
 20
-250.74999999999994
 30
0.0
 11
66.071751897367392
 21
-250.74999999999994
 31
0.0
  0
LINE
  8
0
  6
CONTINUOUS
 62
               3
  5
230
 10
-81.649535936601254
 20
-131.67575586106679
 30
0.0
 11
-81.649535936600216
 21
-230.75000000000006
 31
0.0
  0
LINE
  8
0
  6
CONTINUOUS
 62
               3
  5
231
 10
51.350464063399784
 20
-379.95708506678932
 30
0.0
 11
68.350464063399329
 21
-230.75000000000904
 31
0.0
  0
LINE
  8
0
  6
CONTINUOUS
 62
               3
  5
232
 10
-64.649535936600216
 20
-379.95708506678932
 30
0.0
 11
-81.649535936600216
 21
-230.75000000000006
 31
0.0
  0
LINE
  8
0
  6
CONTINUOUS
 62
               3
  5
233
 10
583.35046406339984
 20
22.250000000000014
 30
0.0
 11
583.35046406339984
 21
1.2500000000000711
 31
0.0
  0
LINE
  8
0
  6
CONTINUOUS
 62
               3
  5
234
 10
579.35046406339984
 20
27.250000000000014
 30
0.0
 11
579.35046406339984
 21
22.250000000000014
 31
0.0
  0
LINE
  8
0
  6
CONTINUOUS
 62
               3
  5
235
 10
423.00046406339942
 20
22.250000000000014
 30
0.0
 11
423.00046406339942
 21
27.250000000000014
 31
0.0
  0
LINE
  8
0
  6
CONTINUOUS
 62
               3
  5
236
 10
435.00046406339942
 20
27.250000000000014
 30
0.0
 11
435.00046406339942
 21
22.250000000000014
 31
0.0
  0
LINE
  8
0
  6
CONTINUOUS
 62
               3
  5
237
 10
551.70046406339975
 20
22.250000000000014
 30
0.0
 11
551.70046406339975
 21
27.250000000000014
 31
0.0
  0
LINE
  8
0
  6
CONTINUOUS
 62
               3
  5
238
 10
563.70046406339975
 20
27.250000000000014
 30
0.0
 11
563.70046406339975
 21
22.250000000000014
 31
0.0
  0
LINE
  8
0
  6
CONTINUOUS
 62
               3
  5
239
 10
403.35046406339887
 20
22.250000000000014
 30
0.0
 11
583.35046406339984
 21
22.250000000000014
 31
0.0
  0
LINE
  8
0
  6
CONTINUOUS
 62
               3
  5
23A
 10
403.35046406339887
 20
22.250000000000014
 30
0.0
 11
403.35046406339887
 21
1.2500000000000711
 31
0.0
  0
LINE
  8
0
  6
CONTINUOUS
 62
               3
  5
23B
 10
407.35046406339887
 20
27.250000000000014
 30
0.0
 11
407.35046406339887
 21
22.250000000000014
 31
0.0
  0
ARC
  8
0
  6
CONTINUOUS
 62
               3
  5
23C
 10
568.35046406339893
 20
-115.25
 30
0.0
 40
2.4999999999999996
 50
269.99999999994731
 51
449.99999999991297
  0
LINE
  8
0
  6
CONTINUOUS
 62
               3
  5
23D
 10
568.35046406339893
 20
-112.75
 30
0.0
 11
568.35046406339893
 21
-71.750000000000057
 31
0.0
  0
LINE
  8
0
  6
CONTINUOUS
 62
               3
  5
23E
 10
418.35046406339978
 20
-230.75000000000006
 30
0.0
 11
568.35046406339939
 21
-230.74999999999983
 31
0.0
  0
LINE
  8
0
  6
CONTINUOUS
 62
               3
  5
23F
 10
420.62917622943263
 20
-250.74999999999994
 30
0.0
 11
566.07175189736745
 21
-250.74999999999994
 31
0.0
  0
LINE
  8
0
  6
CONTINUOUS
 62
               3
  5
240
 10
568.35046406339939
 20
-230.75000000000904
 30
0.0
 11
568.35046406339893
 21
-117.75
 31
0.0
  0
LINE
  8
0
  6
CONTINUOUS
 62
               3
  5
241
 10
551.35046406339984
 20
-379.95708506678932
 30
0.0
 11
568.35046406339939
 21
-230.75000000000904
 31
0.0
  0
LINE
  8
0
  6
CONTINUOUS
 62
               3
  5
242
 10
435.35046406339978
 20
-379.95708506678932
 30
0.0
 11
418.35046406339978
 21
-230.75000000000006
 31
0.0
  0
LINE
  8
0
  6
CONTINUOUS
 62
               3
  5
243
 10
-564.64953593660016
 20
-379.95708506678932
 30
0.0
 11
-581.64953593660016
 21
-230.75000000000006
 31
0.0
  0
LINE
  8
0
  6
CONTINUOUS
 62
               3
  5
244
 10
-581.64953593660016
 20
-117.75
 30
0.0
 11
-581.64953593660016
 21
-230.75000000000006
 31
0.0
  0
ARC
  8
0
  6
CONTINUOUS
 62
               3
  5
245
 10
-581.64953593660016
 20
-115.25
 30
0.0
 40
2.4999999999999996
 50
89.999999999981569
 51
269.99999999994731
  0
LINE
  8
0
  6
CONTINUOUS
 62
               3
  5
246
 10
-448.64953593660022
 20
-379.95708506678932
 30
0.0
 11
-431.64953593660067
 21
-230.75000000000904
 31
0.0
  0
LINE
  8
0
  6
CONTINUOUS
 62
               3
  5
247
 10
-581.64953593660016
 20
-117.75
 30
0.0
 11
-529.14953593660016
 21
-117.75
 31
0.0
  0
LINE
  8
0
  6
CONTINUOUS
 62
               3
  5
248
 10
-581.64953593660016
 20
-112.75
 30
0.0
 11
-529.14953593660016
 21
-112.75
 31
0.0
  0
ARC
  8
0
  6
CONTINUOUS
 62
               3
  5
249
 10
-529.14953593660016
 20
-115.25
 30
0.0
 40
2.4999999999999996
 50
269.99999999994731
 51
449.99999999991297
  0
ARC
  8
0
  6
CONTINUOUS
 62
               3
  5
24A
 10
-484.14953593660022
 20
-115.25
 30
0.0
 40
2.4999999999999996
 50
89.999999999982862
 51
269.99999999994731
  0
LINE
  8
0
  6
CONTINUOUS
 62
               3
  5
24B
 10
-416.64953593660022
 20
22.250000000000014
 30
0.0
 11
-416.64953593660022
 21
1.2500000000000711
 31
0.0
  0
LINE
  8
0
  6
CONTINUOUS
 62
               3
  5
24C
 10
-581.64953593660016
 20
-71.750000000000057
 30
0.0
 11
-581.64953593660016
 21
-112.75
 31
0.0
  0
LINE
  8
0
  6
CONTINUOUS
 62
               3
  5
24D
 10
-581.64953593660016
 20
-230.75000000000006
 30
0.0
 11
-431.64953593660067
 21
-230.74999999999983
 31
0.0
  0
LINE
  8
0
  6
CONTINUOUS
 62
               3
  5
24E
 10
-579.37082377056731
 20
-250.74999999999994
 30
0.0
 11
-433.92824810263261
 21
-250.74999999999994
 31
0.0
  0
LINE
  8
0
  6
CONTINUOUS
 62
               3
  5
24F
 10
-596.64953593660107
 20
22.250000000000014
 30
0.0
 11
-596.64953593660107
 21
1.2500000000000711
 31
0.0
  0
LINE
  8
0
  6
CONTINUOUS
 62
               3
  5
250
 10
-420.64953593660022
 20
27.250000000000014
 30
0.0
 11
-420.64953593660022
 21
22.250000000000014
 31
0.0
  0
LINE
  8
0
  6
CONTINUOUS
 62
               3
  5
251
 10
-576.99953593660052
 20
22.250000000000014
 30
0.0
 11
-576.99953593660052
 21
27.250000000000014
 31
0.0
  0
LINE
  8
0
  6
CONTINUOUS
 62
               3
  5
252
 10
-564.99953593660052
 20
27.250000000000014
 30
0.0
 11
-564.99953593660052
 21
22.250000000000014
 31
0.0
  0
LINE
  8
0
  6
CONTINUOUS
 62
               3
  5
253
 10
-448.29953593660031
 20
22.250000000000014
 30
0.0
 11
-448.29953593660031
 21
27.250000000000014
 31
0.0
  0
LINE
  8
0
  6
CONTINUOUS
 62
               3
  5
254
 10
-436.29953593660031
 20
27.250000000000014
 30
0.0
 11
-436.29953593660031
 21
22.250000000000014
 31
0.0
  0
LINE
  8
0
  6
CONTINUOUS
 62
               3
  5
255
 10
-596.64953593660107
 20
22.250000000000014
 30
0.0
 11
-416.64953593660022
 21
22.250000000000014
 31
0.0
  0
LINE
  8
0
  6
CONTINUOUS
 62
               3
  5
256
 10
-592.64953593660107
 20
27.250000000000014
 30
0.0
 11
-592.64953593660107
 21
22.250000000000014
 31
0.0
  0
LINE
  8
0
  6
CONTINUOUS
 62
               3
  5
257
 10
-143.64953593660044
 20
469.64999999999992
 30
0.0
 11
-143.64953593660044
 21
584.84999999999991
 31
0.0
  0
LINE
  8
0
  6
CONTINUOUS
 62
               3
  5
258
 10
-143.64953593660044
 20
584.84999999999991
 30
0.0
 11
-146.64953593660056
 21
581.85000000000036
 31
0.0
  0
LINE
  8
0
  6
CONTINUOUS
 62
               3
  5
259
 10
-143.64953593660044
 20
469.64999999999992
 30
0.0
 11
-146.64953593660056
 21
472.64999999999992
 31
0.0
  0
LINE
  8
0
  6
CONTINUOUS
 62
               3
  5
25A
 10
-151.64953593660056
 20
582.35000000000014
 30
0.0
 11
-151.64953593660056
 21
472.14999999999992
 31
0.0
  0
LINE
  8
0
  6
CONTINUOUS
 62
               3
  5
25B
 10
-146.64953593660056
 20
469.64999999999992
 30
0.0
 11
-146.64953593660056
 21
584.85000000000014
 31
0.0
  0
LINE
  8
0
  6
CONTINUOUS
 62
               3
  5
25C
 10
-146.64953593660056
 20
584.85000000000014
 30
0.0
 11
-149.14953593660056
 21
584.85000000000014
 31
0.0
  0
LINE
  8
0
  6
CONTINUOUS
 62
               3
  5
25D
 10
-146.64953593660056
 20
469.64999999999992
 30
0.0
 11
-149.14953593660056
 21
469.64999999999992
 31
0.0
  0
ARC
  8
0
  6
CONTINUOUS
 62
               3
  5
25E
 10
-149.14953593660056
 20
472.14999999999992
 30
0.0
 40
2.5
 50
179.99999999996572
 51
269.99999999994793
  0
ARC
  8
0
  6
CONTINUOUS
 62
               3
  5
25F
 10
-149.14953593660056
 20
582.35000000000014
 30
0.0
 40
2.5
 50
89.999999999982862
 51
179.99999999996572
  0
LINE
  8
0
  6
CONTINUOUS
 62
               3
  5
260
 10
-89.329203239509269
 20
467.77547229953717
 30
0.0
 11
-143.64953593660044
 21
469.64999999999992
 31
0.0
  0
LINE
  8
0
  6
CONTINUOUS
 62
               3
  5
261
 10
-89.32611620664747
 20
586.74701561839356
 30
0.0
 11
-143.64953593660044
 21
584.84999999999991
 31
0.0
  0
LINE
  8
0
  6
CONTINUOUS
 62
               3
  5
262
 10
-143.64953593660056
 20
-110.34999999999982
 30
0.0
 11
-146.64953593660067
 21
-107.35000000000076
 31
0.0
  0
LINE
  8
0
  6
CONTINUOUS
 62
               3
  5
263
 10
-143.64953593660056
 20
-110.34999999999982
 30
0.0
 11
-101.3258650230427
 21
-111.82797515601723
 31
0.0
  0
LINE
  8
0
  6
CONTINUOUS
 62
               3
  5
264
 10
-143.64953593660056
 20
4.850000000000172
 30
0.0
 11
-146.64953593660067
 21
1.8500000000000796
 31
0.0
  0
LINE
  8
0
  6
CONTINUOUS
 62
               3
  5
265
 10
-143.64953593660056
 20
-110.34999999999982
 30
0.0
 11
-143.64953593660056
 21
4.850000000000172
 31
0.0
  0
LINE
  8
0
  6
CONTINUOUS
 62
               3
  5
266
 10
-146.64953593660067
 20
-110.35000000000034
 30
0.0
 11
-146.64953593660067
 21
4.8500000000000583
 31
0.0
  0
LINE
  8
0
  6
CONTINUOUS
 62
               3
  5
267
 10
-146.64953593660067
 20
4.8500000000000583
 30
0.0
 11
-149.14953593660067
 21
4.8500000000000583
 31
0.0
  0
ARC
  8
0
  6
CONTINUOUS
 62
               3
  5
268
 10
-149.14953593660067
 20
2.3500000000000583
 30
0.0
 40
2.5
 50
89.999999999982862
 51
179.99999999996524
  0
LINE
  8
0
  6
CONTINUOUS
 62
               3
  5
269
 10
-151.64953593660067
 20
2.3500000000000583
 30
0.0
 11
-151.64953593660067
 21
-107.85000000000034
 31
0.0
  0
LINE
  8
0
  6
CONTINUOUS
 62
               3
  5
26A
 10
-146.64953593660067
 20
-110.35000000000034
 30
0.0
 11
-149.14953593660067
 21
-110.35000000000034
 31
0.0
  0
ARC
  8
0
  6
CONTINUOUS
 62
               3
  5
26B
 10
-149.14953593660067
 20
-107.85000000000034
 30
0.0
 40
2.5
 50
179.99999999996507
 51
269.99999999994793
  0
LINE
  8
0
  6
CONTINUOUS
 62
               3
  5
26C
 10
-143.64953593660056
 20
4.850000000000172
 30
0.0
 11
-99.544837446493887
 21
6.3901700094761864
 31
0.0
  0
ARC
  8
0
  6
CONTINUOUS
 62
               3
  5
26D
 10
-99.649535936601353
 20
9.3883424905334678
 30
0.0
 40
3.0
 50
271.99999999994657
 51
359.99999999993042
  0
ARC
  8
0
  6
CONTINUOUS
 62
               3
  5
26E
 10
-101.50036250655518
 20
-116.82492929111274
 30
0.0
 40
5.0
 50
44.999999999992419
 51
87.99999999998262
  0
LINE
  8
0
  6
CONTINUOUS
 62
               3
  5
26F
 10
-83.114002030668019
 20
-128.14022195513408
 30
0.0
 11
-97.964828600622525
 21
-113.28939538517992
 31
0.0
  0
ARC
  8
0
  6
CONTINUOUS
 62
               3
  5
270
 10
-86.649535936600671
 20
-131.67575586106685
 30
0.0
 40
5.0
 50
0.0
 51
44.99999999999207
  0
LINE
  8
0
  6
CONTINUOUS
 62
               3
  5
271
 10
-479.86217884412105
 20
-24.750000000000171
 30
0.0
 11
-533.43689302908001
 21
-24.750000000000171
 31
0.0
  0
CIRCLE
  8
0
  6
CONTINUOUS
 62
               3
  5
272
 10
-506.64953593660067
 20
-52.750000000000057
 30
0.0
 40
38.75
  0
CIRCLE
  8
0
  6
CONTINUOUS
 62
               3
  5
273
 10
-506.64953593660067
 20
-52.750000000000057
 30
0.0
 40
47.299999999999997
  0
LINE
  8
0
  6
CONTINUOUS
 62
               3
  5
274
 10
-538.46934108999517
 20
-84.569805153394384
 30
0.0
 11
-540.09568668672432
 21
-86.196150750123763
 31
0.0
  0
LINE
  8
0
  6
CONTINUOUS
 62
               3
  5
275
 10
-474.82973078320589
 20
-84.569805153394384
 30
0.0
 11
-473.20338518647696
 21
-86.196150750123763
 31
0.0
  0
ARC
  8
0
  6
CONTINUOUS
 62
               3
  5
276
 10
-506.64953593660067
 20
-52.750000000000057
 30
0.0
 40
45.0
 50
224.99999999995646
 51
314.99999999993918
  0
CIRCLE
  8
0
  6
CONTINUOUS
 62
               3
  5
277
 10
-506.64953593660067
 20
-52.750000000000057
 30
0.0
 40
57.5
  0
LINE
  8
0
  6
CONTINUOUS
 62
               3
  5
278
 10
-526.40428220173862
 20
1.2500000000000817
 30
0.0
 11
-596.64953593660016
 21
1.2500000000000711
 31
0.0
  0
LINE
  8
0
  6
CONTINUOUS
 62
               3
  5
279
 10
-416.64953593660022
 20
1.2500000000000711
 30
0.0
 11
-486.89478967146266
 21
1.2500000000000817
 31
0.0
  0
LINE
  8
0
  6
CONTINUOUS
 62
               3
  5
27A
 10
50.950464063399352
 20
390.25000000000017
 30
0.0
 11
-64.249535936600694
 21
390.25000000000017
 31
0.0
  0
LINE
  8
0
  6
CONTINUOUS
 62
               3
  5
27B
 10
-64.249535936600694
 20
390.25000000000017
 30
0.0
 11
-61.249535936601148
 21
387.25000000000006
 31
0.0
  0
LINE
  8
0
  6
CONTINUOUS
 62
               3
  5
27C
 10
50.950464063399352
 20
390.25000000000017
 30
0.0
 11
47.950464063399352
 21
387.25000000000006
 31
0.0
  0
LINE
  8
0
  6
CONTINUOUS
 62
               3
  5
27D
 10
-61.749535936600807
 20
382.25000000000006
 30
0.0
 11
48.450464063399352
 21
382.25000000000006
 31
0.0
  0
LINE
  8
0
  6
CONTINUOUS
 62
               3
  5
27E
 10
50.950464063399352
 20
387.25000000000006
 30
0.0
 11
-64.249535936600807
 21
387.25000000000006
 31
0.0
  0
LINE
  8
0
  6
CONTINUOUS
 62
               3
  5
27F
 10
-64.249535936600807
 20
387.25000000000006
 30
0.0
 11
-64.249535936600807
 21
384.75000000000006
 31
0.0
  0
LINE
  8
0
  6
CONTINUOUS
 62
               3
  5
280
 10
50.950464063399352
 20
387.25000000000006
 30
0.0
 11
50.950464063399352
 21
384.75000000000006
 31
0.0
  0
ARC
  8
0
  6
CONTINUOUS
 62
               3
  5
281
 10
48.450464063399352
 20
384.75000000000006
 30
0.0
 40
2.5
 50
269.99999999994782
 51
359.99999999993014
  0
ARC
  8
0
  6
CONTINUOUS
 62
               3
  5
282
 10
-61.749535936600807
 20
384.75000000000006
 30
0.0
 40
2.5
 50
179.99999999996572
 51
269.99999999994782
  0
LINE
  8
0
  6
CONTINUOUS
 62
               3
  5
283
 10
52.824991763862101
 20
444.57033269709132
 30
0.0
 11
50.950464063399352
 21
390.25000000000017
 31
0.0
  0
LINE
  8
0
  6
CONTINUOUS
 62
               3
  5
284
 10
-66.146551554994232
 20
444.57341972995312
 30
0.0
 11
-64.249535936600694
 21
390.25000000000017
 31
0.0
  0
CIRCLE
  8
0
  6
CONTINUOUS
 62
               3
  5
285
 10
-6.649535936600671
 20
-52.750000000000128
 30
0.0
 40
57.5
  0
CIRCLE
  8
0
  6
CONTINUOUS
 62
               3
  5
286
 10
-6.649535936600671
 20
-52.750000000000128
 30
0.0
 40
47.299999999999997
  0
LINE
  8
0
  6
CONTINUOUS
 62
               3
  5
287
 10
20.137821155878953
 20
-24.750000000000242
 30
0.0
 11
-33.436893029080068
 21
-24.750000000000242
 31
0.0
  0
LINE
  8
0
  6
CONTINUOUS
 62
               3
  5
288
 10
-38.469341089995226
 20
-84.569805153394455
 30
0.0
 11
-40.095686686724378
 21
-86.196150750123834
 31
0.0
  0
LINE
  8
0
  6
CONTINUOUS
 62
               3
  5
289
 10
25.170269216794111
 20
-84.569805153394455
 30
0.0
 11
26.796614813523036
 21
-86.196150750123834
 31
0.0
  0
ARC
  8
0
  6
CONTINUOUS
 62
               3
  5
28A
 10
-6.649535936600671
 20
-52.750000000000128
 30
0.0
 40
45.0
 50
224.99999999995646
 51
314.99999999993918
  0
CIRCLE
  8
0
  6
CONTINUOUS
 62
               3
  5
28B
 10
-6.649535936600671
 20
-52.750000000000128
 30
0.0
 40
38.75
  0
LINE
  8
0
  6
CONTINUOUS
 62
               3
  5
28C
 10
-26.404282201738681
 20
1.2500000000000107
 30
0.0
 11
-96.649535936600216
 21
1.25
 31
0.0
  0
LINE
  8
0
  6
CONTINUOUS
 62
               3
  5
28D
 10
83.350464063399784
 20
1.25
 30
0.0
 11
13.105210328537339
 21
1.2500000000000107
 31
0.0
  0
ARC
  8
0
  6
CONTINUOUS
 62
               3
  5
28E
 10
-29.149535936600216
 20
-115.25000000000006
 30
0.0
 40
2.4999999999999996
 50
269.99999999994782
 51
449.99999999991297
  0
ARC
  8
0
  6
CONTINUOUS
 62
               3
  5
28F
 10
15.850464063399784
 20
-115.25000000000006
 30
0.0
 40
2.4999999999999996
 50
89.99999999998262
 51
269.99999999994782
  0
LINE
  8
0
  6
CONTINUOUS
 62
               3
  5
290
 10
15.850464063399784
 20
-117.74999999999991
 30
0.0
 11
58.350464063399329
 21
-117.74999999999991
 31
0.0
  0
LINE
  8
0
  6
CONTINUOUS
 62
               3
  5
291
 10
15.850464063399784
 20
-112.74999999999991
 30
0.0
 11
58.350464063399329
 21
-112.74999999999991
 31
0.0
  0
LINE
  8
0
  6
CONTINUOUS
 62
               3
  5
292
 10
-71.649535936600671
 20
-117.74999999999991
 30
0.0
 11
-29.149535936600216
 21
-117.74999999999991
 31
0.0
  0
LINE
  8
0
  6
CONTINUOUS
 62
               3
  5
293
 10
-71.649535936600671
 20
-112.74999999999991
 30
0.0
 11
-29.149535936600216
 21
-112.74999999999991
 31
0.0
  0
LINE
  8
0
  6
CONTINUOUS
 62
               3
  5
294
 10
-369.64953593660078
 20
-110.34999999999982
 30
0.0
 11
-366.64953593660067
 21
-107.35000000000076
 31
0.0
  0
LINE
  8
0
  6
CONTINUOUS
 62
               3
  5
295
 10
-369.64953593660078
 20
4.850000000000172
 30
0.0
 11
-366.64953593660067
 21
1.8500000000000796
 31
0.0
  0
LINE
  8
0
  6
CONTINUOUS
 62
               3
  5
296
 10
-369.64953593660078
 20
-110.34999999999982
 30
0.0
 11
-369.64953593660078
 21
4.850000000000172
 31
0.0
  0
LINE
  8
0
  6
CONTINUOUS
 62
               3
  5
297
 10
-366.64953593660067
 20
-110.35000000000034
 30
0.0
 11
-366.64953593660067
 21
4.8500000000000583
 31
0.0
  0
LINE
  8
0
  6
CONTINUOUS
 62
               3
  5
298
 10
-366.64953593660067
 20
4.8500000000000583
 30
0.0
 11
-364.14953593660067
 21
4.8500000000000583
 31
0.0
  0
ARC
  8
0
  6
CONTINUOUS
 62
               3
  5
299
 10
-364.14953593660067
 20
2.3500000000000583
 30
0.0
 40
2.5
 50
0.0
 51
89.999999999982862
  0
LINE
  8
0
  6
CONTINUOUS
 62
               3
  5
29A
 10
-361.64953593660067
 20
2.3500000000000583
 30
0.0
 11
-361.64953593660067
 21
-107.85000000000034
 31
0.0
  0
LINE
  8
0
  6
CONTINUOUS
 62
               3
  5
29B
 10
-366.64953593660067
 20
-110.35000000000034
 30
0.0
 11
-364.14953593660067
 21
-110.35000000000034
 31
0.0
  0
ARC
  8
0
  6
CONTINUOUS
 62
               3
  5
29C
 10
-364.14953593660067
 20
-107.85000000000034
 30
0.0
 40
2.5
 50
269.99999999994731
 51
359.99999999993014
  0
ARC
  8
0
  6
CONTINUOUS
 62
               3
  5
29D
 10
-441.64953593660067
 20
-115.24999999999991
 30
0.0
 40
2.4999999999999996
 50
269.99999999994731
 51
449.99999999991297
  0
ARC
  8
0
  6
CONTINUOUS
 62
               3
  5
29E
 10
-411.79870936664616
 20
-116.82492929111274
 30
0.0
 40
5.0
 50
91.999999999982577
 51
134.99999999997274
  0
LINE
  8
0
  6
CONTINUOUS
 62
               3
  5
29F
 10
-430.18506984253332
 20
-128.14022195513408
 30
0.0
 11
-415.33424327257882
 21
-113.28939538517992
 31
0.0
  0
ARC
  8
0
  6
CONTINUOUS
 62
               3
  5
2A0
 10
-426.64953593660067
 20
-131.67575586106685
 30
0.0
 40
5.0
 50
134.9999999999732
 51
179.99999999996507
  0
LINE
  8
0
  6
CONTINUOUS
 62
               3
  5
2A1
 10
-369.64953593660078
 20
-110.34999999999982
 30
0.0
 11
-411.97320685015865
 21
-111.82797515601723
 31
0.0
  0
LINE
  8
0
  6
CONTINUOUS
 62
               3
  5
2A2
 10
-369.64953593660078
 20
4.850000000000172
 30
0.0
 11
-413.75423442670746
 21
6.3901700094761864
 31
0.0
  0
LINE
  8
0
  6
CONTINUOUS
 62
               3
  5
2A3
 10
-431.6495359366001
 20
-131.67575586106679
 30
0.0
 11
-431.64953593660113
 21
-230.75000000000006
 31
0.0
  0
LINE
  8
0
  6
CONTINUOUS
 62
               3
  5
2A4
 10
-441.64953593660067
 20
-117.74999999999991
 30
0.0
 11
-484.14953593660113
 21
-117.74999999999991
 31
0.0
  0
LINE
  8
0
  6
CONTINUOUS
 62
               3
  5
2A5
 10
-441.64953593660067
 20
-112.74999999999991
 30
0.0
 11
-484.14953593660113
 21
-112.74999999999991
 31
0.0
  0
ARC
  8
0
  6
CONTINUOUS
 62
               3
  5
2A6
 10
-413.64953593659999
 20
9.3883424905334678
 30
0.0
 40
3.0
 50
179.99999999996518
 51
267.99999999994907
  0
LINE
  8
0
  6
CONTINUOUS
 62
               3
  5
2A7
 10
356.35046406339944
 20
-110.34999999999982
 30
0.0
 11
353.35046406339933
 21
-107.35000000000076
 31
0.0
  0
LINE
  8
0
  6
CONTINUOUS
 62
               3
  5
2A8
 10
356.35046406339944
 20
4.850000000000172
 30
0.0
 11
353.35046406339933
 21
1.8500000000000796
 31
0.0
  0
LINE
  8
0
  6
CONTINUOUS
 62
               3
  5
2A9
 10
356.35046406339944
 20
-110.34999999999982
 30
0.0
 11
356.35046406339944
 21
4.850000000000172
 31
0.0
  0
LINE
  8
0
  6
CONTINUOUS
 62
               3
  5
2AA
 10
353.35046406339933
 20
-110.35000000000034
 30
0.0
 11
353.35046406339933
 21
4.8500000000000583
 31
0.0
  0
LINE
  8
0
  6
CONTINUOUS
 62
               3
  5
2AB
 10
353.35046406339933
 20
4.8500000000000583
 30
0.0
 11
350.85046406339933
 21
4.8500000000000583
 31
0.0
  0
ARC
  8
0
  6
CONTINUOUS
 62
               3
  5
2AC
 10
350.85046406339933
 20
2.3500000000000583
 30
0.0
 40
2.5
 50
89.999999999982862
 51
179.99999999996524
  0
LINE
  8
0
  6
CONTINUOUS
 62
               3
  5
2AD
 10
348.35046406339933
 20
2.3500000000000583
 30
0.0
 11
348.35046406339933
 21
-107.85000000000034
 31
0.0
  0
LINE
  8
0
  6
CONTINUOUS
 62
               3
  5
2AE
 10
353.35046406339933
 20
-110.35000000000034
 30
0.0
 11
350.85046406339933
 21
-110.35000000000034
 31
0.0
  0
ARC
  8
0
  6
CONTINUOUS
 62
               3
  5
2AF
 10
350.85046406339933
 20
-107.85000000000034
 30
0.0
 40
2.5
 50
179.99999999996507
 51
269.99999999994731
  0
ARC
  8
0
  6
CONTINUOUS
 62
               3
  5
2B0
 10
428.35046406339933
 20
-115.24999999999991
 30
0.0
 40
2.4999999999999996
 50
89.999999999982862
 51
269.99999999994731
  0
ARC
  8
0
  6
CONTINUOUS
 62
               3
  5
2B1
 10
398.49963749344482
 20
-116.82492929111274
 30
0.0
 40
5.0
 50
44.999999999992305
 51
87.999999999982478
  0
LINE
  8
0
  6
CONTINUOUS
 62
               3
  5
2B2
 10
416.88599796933198
 20
-128.14022195513408
 30
0.0
 11
402.03517139937748
 21
-113.28939538517992
 31
0.0
  0
ARC
  8
0
  6
CONTINUOUS
 62
               3
  5
2B3
 10
413.35046406339933
 20
-131.67575586106685
 30
0.0
 40
5.0
 50
0.0
 51
44.99999999999207
  0
LINE
  8
0
  6
CONTINUOUS
 62
               3
  5
2B4
 10
356.35046406339944
 20
-110.34999999999982
 30
0.0
 11
398.6741349769573
 21
-111.82797515601723
 31
0.0
  0
LINE
  8
0
  6
CONTINUOUS
 62
               3
  5
2B5
 10
356.35046406339944
 20
4.850000000000172
 30
0.0
 11
400.45516255350611
 21
6.3901700094761864
 31
0.0
  0
LINE
  8
0
  6
CONTINUOUS
 62
               3
  5
2B6
 10
418.35046406339876
 20
-131.67575586106679
 30
0.0
 11
418.35046406339978
 21
-230.75000000000006
 31
0.0
  0
ARC
  8
0
  6
CONTINUOUS
 62
               3
  5
2B7
 10
400.35046406339865
 20
9.3883424905334678
 30
0.0
 40
3.0
 50
271.99999999994657
 51
359.99999999993042
  0
LINE
  8
0
  6
CONTINUOUS
 62
               3
  5
2B8
 10
576.35046406339939
 20
1.2500000000000711
 30
0.0
 11
576.35046406339939
 21
-71.750000000000057
 31
0.0
  0
LINE
  8
0
  6
CONTINUOUS
 62
               3
  5
2B9
 10
576.35046406339939
 20
-71.750000000000057
 30
0.0
 11
568.35046406339893
 21
-71.750000000000057
 31
0.0
  0
LINE
  8
0
  6
CONTINUOUS
 62
               3
  5
2BA
 10
-589.64953593660061
 20
-71.750000000000057
 30
0.0
 11
-581.64953593660016
 21
-71.750000000000057
 31
0.0
  0
LINE
  8
0
  6
CONTINUOUS
 62
               3
  5
2BB
 10
-589.64953593660061
 20
1.2500000000000711
 30
0.0
 11
-589.64953593660061
 21
-71.750000000000057
 31
0.0
  0
LINE
  8
0
  6
CONTINUOUS
 62
               3
  5
2BC
 10
130.35046406339922
 20
-110.34999999999982
 30
0.0
 11
133.35046406339933
 21
-107.35000000000076
 31
0.0
  0
LINE
  8
0
  6
CONTINUOUS
 62
               3
  5
2BD
 10
133.35046406339933
 20
-110.35000000000034
 30
0.0
 11
135.85046406339933
 21
-110.35000000000034
 31
0.0
  0
ARC
  8
0
  6
CONTINUOUS
 62
               3
  5
2BE
 10
135.85046406339933
 20
-107.85000000000034
 30
0.0
 40
2.5
 50
269.99999999994793
 51
359.99999999993014
  0
ARC
  8
0
  6
CONTINUOUS
 62
               3
  5
2BF
 10
58.350464063399329
 20
-115.24999999999991
 30
0.0
 40
2.4999999999999996
 50
269.99999999994793
 51
449.99999999991297
  0
ARC
  8
0
  6
CONTINUOUS
 62
               3
  5
2C0
 10
88.201290633353835
 20
-116.82492929111274
 30
0.0
 40
5.0
 50
91.999999999982577
 51
134.99999999997297
  0
LINE
  8
0
  6
CONTINUOUS
 62
               3
  5
2C1
 10
69.814930157466677
 20
-128.14022195513408
 30
0.0
 11
84.665756727421183
 21
-113.28939538517992
 31
0.0
  0
ARC
  8
0
  6
CONTINUOUS
 62
               3
  5
2C2
 10
73.350464063399329
 20
-131.67575586106685
 30
0.0
 40
5.0
 50
134.99999999997311
 51
179.99999999996507
  0
LINE
  8
0
  6
CONTINUOUS
 62
               3
  5
2C3
 10
130.35046406339922
 20
-110.34999999999982
 30
0.0
 11
88.026793149841353
 21
-111.82797515601723
 31
0.0
  0
LINE
  8
0
  6
CONTINUOUS
 62
               3
  5
2C4
 10
130.35046406339922
 20
4.850000000000172
 30
0.0
 11
133.35046406339933
 21
1.8500000000000796
 31
0.0
  0
LINE
  8
0
  6
CONTINUOUS
 62
               3
  5
2C5
 10
130.35046406339922
 20
-110.34999999999982
 30
0.0
 11
130.35046406339922
 21
4.850000000000172
 31
0.0
  0
LINE
  8
0
  6
CONTINUOUS
 62
               3
  5
2C6
 10
133.35046406339933
 20
-110.35000000000034
 30
0.0
 11
133.35046406339933
 21
4.8500000000000583
 31
0.0
  0
LINE
  8
0
  6
CONTINUOUS
 62
               3
  5
2C7
 10
133.35046406339933
 20
4.8500000000000583
 30
0.0
 11
135.85046406339933
 21
4.8500000000000583
 31
0.0
  0
ARC
  8
0
  6
CONTINUOUS
 62
               3
  5
2C8
 10
135.85046406339933
 20
2.3500000000000583
 30
0.0
 40
2.5
 50
0.0
 51
89.999999999982862
  0
LINE
  8
0
  6
CONTINUOUS
 62
               3
  5
2C9
 10
138.35046406339933
 20
2.3500000000000583
 30
0.0
 11
138.35046406339933
 21
-107.85000000000034
 31
0.0
  0
LINE
  8
0
  6
CONTINUOUS
 62
               3
  5
2CA
 10
130.35046406339922
 20
4.850000000000172
 30
0.0
 11
86.245765573292545
 21
6.3901700094761864
 31
0.0
  0
ARC
  8
0
  6
CONTINUOUS
 62
               3
  5
2CB
 10
86.350464063400011
 20
9.3883424905334678
 30
0.0
 40
3.0
 50
179.99999999996518
 51
267.99999999994873
  0
LINE
  8
0
  6
CONTINUOUS
 62
               3
  5
2CC
 10
68.350464063399897
 20
-131.67575586106688
 30
0.0
 11
68.350464063398874
 21
-230.75000000000011
 31
0.0
  0
CIRCLE
  8
0
  6
CONTINUOUS
 62
               3
  5
2CD
 10
493.35046406339933
 20
-52.750000000000128
 30
0.0
 40
47.299999999999997
  0
LINE
  8
0
  6
CONTINUOUS
 62
               3
  5
2CE
 10
520.13782115587901
 20
-24.750000000000242
 30
0.0
 11
466.56310697091993
 21
-24.750000000000242
 31
0.0
  0
LINE
  8
0
  6
CONTINUOUS
 62
               3
  5
2CF
 10
461.53065891000477
 20
-84.569805153394455
 30
0.0
 11
459.90431331327562
 21
-86.196150750123834
 31
0.0
  0
LINE
  8
0
  6
CONTINUOUS
 62
               3
  5
2D0
 10
525.17026921679417
 20
-84.569805153394455
 30
0.0
 11
526.79661481352309
 21
-86.196150750123834
 31
0.0
  0
ARC
  8
0
  6
CONTINUOUS
 62
               3
  5
2D1
 10
493.35046406339933
 20
-52.750000000000128
 30
0.0
 40
45.0
 50
224.99999999995646
 51
314.99999999993918
  0
CIRCLE
  8
0
  6
CONTINUOUS
 62
               3
  5
2D2
 10
493.35046406339933
 20
-52.750000000000128
 30
0.0
 40
38.75
  0
ARC
  8
0
  6
CONTINUOUS
 62
               3
  5
2D3
 10
470.85046406339978
 20
-115.25000000000006
 30
0.0
 40
2.4999999999999996
 50
269.99999999994731
 51
449.99999999991297
  0
ARC
  8
0
  6
CONTINUOUS
 62
               3
  5
2D4
 10
515.85046406339984
 20
-115.25000000000006
 30
0.0
 40
2.4999999999999996
 50
89.999999999981569
 51
269.99999999994731
  0
CIRCLE
  8
0
  6
CONTINUOUS
 62
               3
  5
2D5
 10
493.35046406339933
 20
-52.750000000000128
 30
0.0
 40
57.5
  0
LINE
  8
0
  6
CONTINUOUS
 62
               3
  5
2D6
 10
428.35046406339933
 20
-112.74999999999991
 30
0.0
 11
470.85046406339978
 21
-112.74999999999991
 31
0.0
  0
LINE
  8
0
  6
CONTINUOUS
 62
               3
  5
2D7
 10
428.35046406339933
 20
-117.74999999999991
 30
0.0
 11
470.85046406339978
 21
-117.74999999999991
 31
0.0
  0
LINE
  8
0
  6
CONTINUOUS
 62
               3
  5
2D8
 10
515.85046406339984
 20
-117.74999999999991
 30
0.0
 11
568.35046406339939
 21
-117.74999999999991
 31
0.0
  0
LINE
  8
0
  6
CONTINUOUS
 62
               3
  5
2D9
 10
515.85046406339984
 20
-112.74999999999991
 30
0.0
 11
568.35046406339939
 21
-112.74999999999991
 31
0.0
  0
LINE
  8
0
  6
CONTINUOUS
 62
               3
  5
2DA
 10
473.59571779826149
 20
1.2500000000000817
 30
0.0
 11
403.35046406339978
 21
1.2500000000000711
 31
0.0
  0
LINE
  8
0
  6
CONTINUOUS
 62
               3
  5
2DB
 10
583.35046406339984
 20
1.2500000000000711
 30
0.0
 11
513.10521032853717
 21
1.2500000000000817
 31
0.0
  0
LINE
  8
0
  6
CONTINUOUS
 62
               3
  5
2DC
 10
130.35046406339913
 20
469.64999999999992
 30
0.0
 11
130.35046406339913
 21
584.84999999999991
 31
0.0
  0
LINE
  8
0
  6
CONTINUOUS
 62
               3
  5
2DD
 10
130.35046406339913
 20
584.84999999999991
 30
0.0
 11
133.35046406339924
 21
581.85000000000036
 31
0.0
  0
LINE
  8
0
  6
CONTINUOUS
 62
               3
  5
2DE
 10
130.35046406339913
 20
469.64999999999992
 30
0.0
 11
133.35046406339924
 21
472.64999999999992
 31
0.0
  0
LINE
  8
0
  6
CONTINUOUS
 62
               3
  5
2DF
 10
138.35046406339924
 20
582.35000000000014
 30
0.0
 11
138.35046406339924
 21
472.14999999999992
 31
0.0
  0
LINE
  8
0
  6
CONTINUOUS
 62
               3
  5
2E0
 10
133.35046406339924
 20
469.64999999999992
 30
0.0
 11
133.35046406339924
 21
584.85000000000014
 31
0.0
  0
LINE
  8
0
  6
CONTINUOUS
 62
               3
  5
2E1
 10
133.35046406339924
 20
584.85000000000014
 30
0.0
 11
135.85046406339924
 21
584.85000000000014
 31
0.0
  0
LINE
  8
0
  6
CONTINUOUS
 62
               3
  5
2E2
 10
133.35046406339924
 20
469.64999999999992
 30
0.0
 11
135.85046406339924
 21
469.64999999999992
 31
0.0
  0
ARC
  8
0
  6
CONTINUOUS
 62
               3
  5
2E3
 10
135.85046406339924
 20
472.14999999999992
 30
0.0
 40
2.5
 50
269.99999999994793
 51
359.99999999993014
  0
ARC
  8
0
  6
CONTINUOUS
 62
               3
  5
2E4
 10
135.85046406339924
 20
582.35000000000014
 30
0.0
 40
2.5
 50
0.0
 51
89.999999999982862
  0
LINE
  8
0
  6
CONTINUOUS
 62
               3
  5
2E5
 10
76.030131366307941
 20
467.77547229953717
 30
0.0
 11
130.35046406339913
 21
469.64999999999992
 31
0.0
  0
LINE
  8
0
  6
CONTINUOUS
 62
               3
  5
2E6
 10
76.027044333446128
 20
586.74701561839356
 30
0.0
 11
130.35046406339913
 21
584.84999999999991
 31
0.0
  0
LINE
  8
0
  6
CONTINUOUS
 62
               3
  5
2E7
 10
-448.64953593660022
 20
-491.74999999999903
 30
0.0
 11
-448.64953593660022
 21
-379.95708506678932
 31
0.0
  0
LINE
  8
0
  6
CONTINUOUS
 62
               3
  5
2E8
 10
-564.64953593660016
 20
-379.95708506678932
 30
0.0
 11
-564.64953593660016
 21
-491.74999999999903
 31
0.0
  0
LINE
  8
0
  6
CONTINUOUS
 62
               3
  5
2E9
 10
-564.64953593660016
 20
-379.95708506678892
 30
0.0
 11
-448.64953593660022
 21
-379.95708506678932
 31
0.0
  0
LINE
  8
0
  6
CONTINUOUS
 62
               3
  5
2EA
 10
-566.92824810263301
 20
-359.95708506678903
 30
0.0
 11
-446.37082377056737
 21
-359.95708506678903
 31
0.0
  0
LINE
  8
0
  6
CONTINUOUS
 62
               3
  5
2EB
 10
-563.64953593660061
 20
-592.74999999999955
 30
0.0
 11
-449.64953593660067
 21
-592.74999999999955
 31
0.0
  0
LINE
  8
0
  6
CONTINUOUS
 62
               3
  5
2EC
 10
-449.64953593660067
 20
-592.74999999999955
 30
0.0
 11
-449.64953593660067
 21
-492.74999999999949
 31
0.0
  0
LINE
  8
0
  6
CONTINUOUS
 62
               3
  5
2ED
 10
-563.64953593660061
 20
-592.74999999999955
 30
0.0
 11
-563.64953593660061
 21
-492.74999999999949
 31
0.0
  0
LINE
  8
0
  6
CONTINUOUS
 62
               3
  5
2EE
 10
-563.64953593660061
 20
-492.74999999999949
 30
0.0
 11
-449.64953593660067
 21
-492.74999999999949
 31
0.0
  0
LINE
  8
0
  6
CONTINUOUS
 62
               3
  5
2EF
 10
-449.64953593660067
 20
-492.74999999999949
 30
0.0
 11
-448.64953593660022
 21
-491.74999999999903
 31
0.0
  0
LINE
  8
0
  6
CONTINUOUS
 62
               3
  5
2F0
 10
-563.64953593660061
 20
-492.74999999999949
 30
0.0
 11
-564.64953593660016
 21
-491.74999999999903
 31
0.0
  0
LINE
  8
0
  6
CONTINUOUS
 62
               3
  5
2F1
 10
51.350464063399784
 20
-491.74999999999903
 30
0.0
 11
51.350464063399784
 21
-379.95708506678932
 31
0.0
  0
LINE
  8
0
  6
CONTINUOUS
 62
               3
  5
2F2
 10
-64.649535936600216
 20
-379.95708506678932
 30
0.0
 11
-64.649535936600216
 21
-491.74999999999903
 31
0.0
  0
LINE
  8
0
  6
CONTINUOUS
 62
               3
  5
2F3
 10
-64.649535936600216
 20
-379.95708506678892
 30
0.0
 11
51.350464063399784
 21
-379.95708506678932
 31
0.0
  0
LINE
  8
0
  6
CONTINUOUS
 62
               3
  5
2F4
 10
-66.928248102633063
 20
-359.95708506678903
 30
0.0
 11
53.62917622943263
 21
-359.95708506678903
 31
0.0
  0
LINE
  8
0
  6
CONTINUOUS
 62
               3
  5
2F5
 10
-63.649535936600671
 20
-592.74999999999955
 30
0.0
 11
50.350464063399329
 21
-592.74999999999955
 31
0.0
  0
LINE
  8
0
  6
CONTINUOUS
 62
               3
  5
2F6
 10
50.350464063399329
 20
-592.74999999999955
 30
0.0
 11
50.350464063399329
 21
-492.74999999999949
 31
0.0
  0
LINE
  8
0
  6
CONTINUOUS
 62
               3
  5
2F7
 10
-63.649535936600671
 20
-592.74999999999955
 30
0.0
 11
-63.649535936600671
 21
-492.74999999999949
 31
0.0
  0
LINE
  8
0
  6
CONTINUOUS
 62
               3
  5
2F8
 10
-63.649535936600671
 20
-492.74999999999949
 30
0.0
 11
50.350464063399329
 21
-492.74999999999949
 31
0.0
  0
LINE
  8
0
  6
CONTINUOUS
 62
               3
  5
2F9
 10
50.350464063399329
 20
-492.74999999999949
 30
0.0
 11
51.350464063399784
 21
-491.74999999999903
 31
0.0
  0
LINE
  8
0
  6
CONTINUOUS
 62
               3
  5
2FA
 10
-63.649535936600671
 20
-492.74999999999949
 30
0.0
 11
-64.649535936600216
 21
-491.74999999999903
 31
0.0
  0
LINE
  8
0
  6
CONTINUOUS
 62
               3
  5
2FB
 10
551.35046406339984
 20
-491.74999999999903
 30
0.0
 11
551.35046406339984
 21
-379.95708506678932
 31
0.0
  0
LINE
  8
0
  6
CONTINUOUS
 62
               3
  5
2FC
 10
435.35046406339978
 20
-379.95708506678932
 30
0.0
 11
435.35046406339978
 21
-491.74999999999903
 31
0.0
  0
LINE
  8
0
  6
CONTINUOUS
 62
               3
  5
2FD
 10
435.35046406339978
 20
-379.95708506678892
 30
0.0
 11
551.35046406339984
 21
-379.95708506678932
 31
0.0
  0
LINE
  8
0
  6
CONTINUOUS
 62
               3
  5
2FE
 10
433.07175189736694
 20
-359.95708506678903
 30
0.0
 11
553.62917622943269
 21
-359.95708506678903
 31
0.0
  0
LINE
  8
0
  6
CONTINUOUS
 62
               3
  5
2FF
 10
436.35046406339933
 20
-592.74999999999955
 30
0.0
 11
550.35046406339939
 21
-592.74999999999955
 31
0.0
  0
LINE
  8
0
  6
CONTINUOUS
 62
               3
  5
300
 10
550.35046406339939
 20
-592.74999999999955
 30
0.0
 11
550.35046406339939
 21
-492.74999999999949
 31
0.0
  0
LINE
  8
0
  6
CONTINUOUS
 62
               3
  5
301
 10
436.35046406339933
 20
-592.74999999999955
 30
0.0
 11
436.35046406339933
 21
-492.74999999999949
 31
0.0
  0
LINE
  8
0
  6
CONTINUOUS
 62
               3
  5
302
 10
436.35046406339933
 20
-492.74999999999949
 30
0.0
 11
550.35046406339939
 21
-492.74999999999949
 31
0.0
  0
LINE
  8
0
  6
CONTINUOUS
 62
               3
  5
303
 10
550.35046406339939
 20
-492.74999999999949
 30
0.0
 11
551.35046406339984
 21
-491.74999999999903
 31
0.0
  0
LINE
  8
0
  6
CONTINUOUS
 62
               3
  5
304
 10
436.35046406339933
 20
-492.74999999999949
 30
0.0
 11
435.35046406339978
 21
-491.74999999999903
 31
0.0
  0
LINE
  8
0
  6
CONTINUOUS
 62
               3
  5
305
 10
83.350464063398903
 20
39.250000000000398
 30
0.0
 11
-96.649535936601126
 21
39.249999999999261
 31
0.0
  0
LINE
  8
0
  6
CONTINUOUS
 62
               3
  5
306
 10
-96.649535936601126
 20
27.249999999999943
 30
0.0
 11
-96.649535936601126
 21
39.249999999999261
 31
0.0
  0
LINE
  8
0
  6
CONTINUOUS
 62
               3
  5
307
 10
83.350464063398903
 20
27.249999999999943
 30
0.0
 11
83.350464063398903
 21
39.249999999999261
 31
0.0
  0
LINE
  8
0
  6
CONTINUOUS
 62
               3
  5
308
 10
-96.649535936601126
 20
27.249999999999943
 30
0.0
 11
83.350464063398903
 21
27.249999999999943
 31
0.0
  0
LINE
  8
0
  6
CONTINUOUS
 62
               3
  5
309
 10
-416.64953593660113
 20
39.250000000000469
 30
0.0
 11
-596.64953593660107
 21
39.249999999999332
 31
0.0
  0
LINE
  8
0
  6
CONTINUOUS
 62
               3
  5
30A
 10
-596.64953593660107
 20
27.250000000000014
 30
0.0
 11
-596.64953593660107
 21
39.249999999999332
 31
0.0
  0
LINE
  8
0
  6
CONTINUOUS
 62
               3
  5
30B
 10
-416.64953593660113
 20
27.250000000000014
 30
0.0
 11
-416.64953593660113
 21
39.249999999999332
 31
0.0
  0
LINE
  8
0
  6
CONTINUOUS
 62
               3
  5
30C
 10
-596.64953593660107
 20
27.250000000000014
 30
0.0
 11
-416.64953593660113
 21
27.250000000000014
 31
0.0
  0
LINE
  8
0
  6
CONTINUOUS
 62
               3
  5
30D
 10
583.35046406339893
 20
39.250000000000469
 30
0.0
 11
403.35046406339887
 21
39.249999999999332
 31
0.0
  0
LINE
  8
0
  6
CONTINUOUS
 62
               3
  5
30E
 10
403.35046406339887
 20
27.250000000000014
 30
0.0
 11
403.35046406339887
 21
39.249999999999332
 31
0.0
  0
LINE
  8
0
  6
CONTINUOUS
 62
               3
  5
30F
 10
583.35046406339893
 20
27.250000000000014
 30
0.0
 11
583.35046406339893
 21
39.249999999999332
 31
0.0
  0
LINE
  8
0
  6
CONTINUOUS
 62
               3
  5
310
 10
403.35046406339887
 20
27.250000000000014
 30
0.0
 11
583.35046406339893
 21
27.250000000000014
 31
0.0
  0
CIRCLE
  8
0
  6
CONTINUOUS
 62
               3
  5
311
 10
602.63698727970723
 20
-956.71375990939896
 30
0.0
 40
75.0
  0
CIRCLE
  8
0
  6
CONTINUOUS
 62
               3
  5
312
 10
602.63698727970723
 20
-956.71375990939896
 30
0.0
 40
52.5
  0
LINE
  8
0
  6
CONTINUOUS
 62
               3
  5
313
 10
516.42648907908199
 20
-936.71375990939896
 30
0.0
 11
530.35282580570197
 21
-936.71375990939896
 31
0.0
  0
LINE
  8
0
  6
CONTINUOUS
 62
               3
  5
314
 10
530.35282580570197
 20
-976.71375990939896
 30
0.0
 11
516.42648907908199
 21
-976.71375990939896
 31
0.0
  0
ARC
  8
0
  6
CONTINUOUS
 62
               3
  5
315
 10
602.63698727970723
 20
-956.71375990939896
 30
0.0
 40
88.5
 50
166.93897588510336
 51
193.06102411468945
  0
LINE
  8
0
  6
CONTINUOUS
 62
               3
  5
316
 10
582.63698727970723
 20
-1042.9242581100239
 30
0.0
 11
582.63698727970723
 21
-1028.997921383404
 31
0.0
  0
LINE
  8
0
  6
CONTINUOUS
 62
               3
  5
317
 10
622.63698727970723
 20
-1028.997921383404
 30
0.0
 11
622.63698727970723
 21
-1042.9242581100239
 31
0.0
  0
ARC
  8
0
  6
CONTINUOUS
 62
               3
  5
318
 10
602.63698727970723
 20
-956.71375990939896
 30
0.0
 40
88.5
 50
256.93897588505166
 51
283.06102411463769
  0
LINE
  8
0
  6
CONTINUOUS
 62
               3
  5
319
 10
688.8474854803319
 20
-976.71375990939896
 30
0.0
 11
674.92114875371158
 21
-976.71375990939896
 31
0.0
  0
LINE
  8
0
  6
CONTINUOUS
 62
               3
  5
31A
 10
674.92114875371158
 20
-936.71375990939896
 30
0.0
 11
688.8474854803319
 21
-936.71375990939896
 31
0.0
  0
ARC
  8
0
  6
CONTINUOUS
 62
               3
  5
31B
 10
602.63698727970723
 20
-956.71375990939896
 30
0.0
 40
88.5
 50
346.93897588499982
 51
373.06102411458585
  0
LINE
  8
0
  6
CONTINUOUS
 62
               3
  5
31C
 10
622.63698727970723
 20
-870.50326170877338
 30
0.0
 11
622.63698727970723
 21
-884.42959843539393
 31
0.0
  0
LINE
  8
0
  6
CONTINUOUS
 62
               3
  5
31D
 10
582.63698727970723
 20
-884.42959843539393
 30
0.0
 11
582.63698727970723
 21
-870.50326170877338
 31
0.0
  0
ARC
  8
0
  6
CONTINUOUS
 62
               3
  5
31E
 10
602.63698727970723
 20
-956.71375990939896
 30
0.0
 40
88.5
 50
76.938975885155216
 51
103.06102411474124
  0
LINE
  8
0
  6
CONTINUOUS
 62
               3
  5
31F
 10
554.96886375884628
 20
-978.71375990939941
 30
0.0
 11
650.30511080056726
 21
-978.71375990939941
 31
0.0
  0
ARC
  8
0
  6
CONTINUOUS
 62
               3
  5
320
 10
615.14059892908836
 20
-948.00736228177993
 30
0.0
 40
54.763804151667173
 50
141.3859176367566
 51
145.15009542087031
  0
ARC
  8
0
  6
CONTINUOUS
 62
               3
  5
321
 10
602.63698727970723
 20
-956.71375990939896
 30
0.0
 40
51.5
 50
334.71098847326505
 51
410.95932736340404
  0
ARC
  8
0
  6
CONTINUOUS
 62
               3
  5
322
 10
602.63698727970723
 20
-956.71375990939896
 30
0.0
 40
51.5
 50
129.04067263628559
 51
205.28901152642416
  0
ARC
  8
0
  6
CONTINUOUS
 62
               3
  5
323
 10
602.63698727970723
 20
-956.71375990939896
 30
0.0
 40
77.5
 50
104.95524831658298
 51
128.57288309095932
  0
ARC
  8
0
  6
CONTINUOUS
 62
               3
  5
324
 10
602.63698727970723
 20
-956.71375990939896
 30
0.0
 40
77.5
 50
14.9552483166347
 51
75.044751683313535
  0
ARC
  8
0
  6
CONTINUOUS
 62
               3
  5
325
 10
602.63698727970723
 20
-956.71375990939896
 30
0.0
 40
77.5
 50
321.42711690878122
 51
345.04475168315804
  0
LINE
  8
0
  6
CONTINUOUS
 62
               3
  5
326
 10
462.63698727970717
 20
-1011.713759909399
 30
0.0
 11
463.3085434056714
 21
-1011.713759909399
 31
0.0
  0
LINE
  8
0
  6
CONTINUOUS
 62
               3
  5
327
 10
465.80854340567186
 20
-1014.213759909399
 30
0.0
 11
463.3085434056714
 21
-1011.713759909399
 31
0.0
  0
LINE
  8
0
  6
CONTINUOUS
 62
               3
  5
328
 10
462.63698727970717
 20
-901.71375990939896
 30
0.0
 11
463.3085434056714
 21
-901.71375990939896
 31
0.0
  0
LINE
  8
0
  6
CONTINUOUS
 62
               3
  5
329
 10
465.8085434056714
 20
-899.21375990939896
 30
0.0
 11
463.3085434056714
 21
-901.71375990939896
 31
0.0
  0
LINE
  8
0
  6
CONTINUOUS
 62
               3
  5
32A
 10
463.3085434056714
 20
-901.71375990939896
 30
0.0
 11
463.3085434056714
 21
-1011.713759909399
 31
0.0
  0
LINE
  8
0
  6
CONTINUOUS
 62
               3
  5
32B
 10
557.14665149332927
 20
-896.02416289105736
 30
0.0
 11
465.8085434056714
 21
-899.21375990939896
 31
0.0
  0
LINE
  8
0
  6
CONTINUOUS
 62
               3
  5
32C
 10
537.8005155631563
 20
-1016.7277749743666
 30
0.0
 11
465.80854340567197
 21
-1014.213759909399
 31
0.0
  0
LINE
  8
0
  6
CONTINUOUS
 62
               3
  5
32D
 10
457.63698727970717
 20
-901.88531603536308
 30
0.0
 11
457.63698727970717
 21
-1011.8137599093989
 31
0.0
  0
LINE
  8
0
  6
CONTINUOUS
 62
               3
  5
32E
 10
462.63698727970717
 20
-1014.3137599093989
 30
0.0
 11
462.63698727970717
 21
-899.11375990939894
 31
0.0
  0
LINE
  8
0
  6
CONTINUOUS
 62
               3
  5
32F
 10
462.63698727970717
 20
-899.11375990939894
 30
0.0
 11
460.13698727970717
 21
-899.11375990939894
 31
0.0
  0
LINE
  8
0
  6
CONTINUOUS
 62
               3
  5
330
 10
462.63698727970717
 20
-1014.3137599093989
 30
0.0
 11
460.13698727970717
 21
-1014.3137599093989
 31
0.0
  0
ARC
  8
0
  6
CONTINUOUS
 62
               3
  5
331
 10
460.13698727970717
 20
-1011.8137599093989
 30
0.0
 40
2.5
 50
179.99999999989538
 51
269.99999999984436
  0
ARC
  8
0
  6
CONTINUOUS
 62
               3
  5
332
 10
460.13698727970717
 20
-901.61375990939894
 30
0.0
 40
2.5
 50
89.999999999948997
 51
179.99999999989538
  0
LINE
  8
0
  6
CONTINUOUS
 62
               3
  5
333
 10
570.19858411308974
 20
-916.71375990939919
 30
0.0
 11
602.63698727970723
 21
-916.71375990939919
 31
0.0
  0
LINE
  8
0
  6
CONTINUOUS
 62
               3
  5
334
 10
602.63698727970723
 20
-916.71375990939919
 30
0.0
 11
636.64066355154591
 21
-916.71375990939919
 31
0.0
  0
LINE
  8
0
  6
CONTINUOUS
 62
               3
  5
335
 10
465.80854340567186
 20
-1014.213759909399
 30
0.0
 11
465.8085434056714
 21
-899.21375990939896
 31
0.0
  0
ARC
  8
0
  6
CONTINUOUS
 62
               3
  5
336
 10
556.9721540098169
 20
-891.02720875596185
 30
0.0
 40
5.0
 50
271.99999999984402
 51
304.806757870252
  0
LINE
  8
0
  6
CONTINUOUS
 62
               3
  5
337
 10
657.63698727970723
 20
-1096.713759909399
 30
0.0
 11
657.63698727970723
 21
-1096.0422037834346
 31
0.0
  0
LINE
  8
0
  6
CONTINUOUS
 62
               3
  5
338
 10
660.13698727970723
 20
-1093.5422037834342
 30
0.0
 11
657.63698727970723
 21
-1096.0422037834346
 31
0.0
  0
LINE
  8
0
  6
CONTINUOUS
 62
               3
  5
339
 10
547.63698727970723
 20
-1096.713759909399
 30
0.0
 11
547.63698727970723
 21
-1096.0422037834346
 31
0.0
  0
LINE
  8
0
  6
CONTINUOUS
 62
               3
  5
33A
 10
545.13698727970723
 20
-1093.5422037834346
 30
0.0
 11
547.63698727970723
 21
-1096.0422037834346
 31
0.0
  0
LINE
  8
0
  6
CONTINUOUS
 62
               3
  5
33B
 10
547.63698727970723
 20
-1096.0422037834346
 30
0.0
 11
657.63698727970723
 21
-1096.0422037834346
 31
0.0
  0
LINE
  8
0
  6
CONTINUOUS
 62
               3
  5
33C
 10
547.80854340567134
 20
-1101.713759909399
 30
0.0
 11
657.73698727970714
 21
-1101.713759909399
 31
0.0
  0
LINE
  8
0
  6
CONTINUOUS
 62
               3
  5
33D
 10
660.23698727970714
 20
-1096.713759909399
 30
0.0
 11
545.03698727970709
 21
-1096.713759909399
 31
0.0
  0
LINE
  8
0
  6
CONTINUOUS
 62
               3
  5
33E
 10
545.03698727970709
 20
-1096.713759909399
 30
0.0
 11
545.03698727970709
 21
-1099.213759909399
 31
0.0
  0
LINE
  8
0
  6
CONTINUOUS
 62
               3
  5
33F
 10
660.23698727970714
 20
-1096.713759909399
 30
0.0
 11
660.23698727970714
 21
-1099.213759909399
 31
0.0
  0
ARC
  8
0
  6
CONTINUOUS
 62
               3
  5
340
 10
657.73698727970714
 20
-1099.213759909399
 30
0.0
 40
2.5
 50
269.99999999984567
 51
359.99999999979076
  0
ARC
  8
0
  6
CONTINUOUS
 62
               3
  5
341
 10
547.53698727970709
 20
-1099.213759909399
 30
0.0
 40
2.5
 50
179.99999999989538
 51
269.99999999984567
  0
LINE
  8
0
  6
CONTINUOUS
 62
               3
  5
342
 10
660.13698727970723
 20
-1093.5422037834342
 30
0.0
 11
545.13698727970723
 21
-1093.5422037834346
 31
0.0
  0
LINE
  8
0
  6
CONTINUOUS
 62
               3
  5
343
 10
663.32658429804837
 20
-1002.2040956957776
 30
0.0
 11
660.13698727970723
 21
-1093.5422037834342
 31
0.0
  0
ARC
  8
0
  6
CONTINUOUS
 62
               3
  5
344
 10
668.32353843314377
 20
-1002.37859317929
 30
0.0
 40
5.0
 50
145.19324212948862
 51
177.99999999989819
  0
LINE
  8
0
  6
CONTINUOUS
 62
               3
  5
345
 10
542.62297221473909
 20
-1021.5502316259499
 30
0.0
 11
545.13698727970723
 21
-1093.5422037834346
 31
0.0
  0
ARC
  8
0
  6
CONTINUOUS
 62
               3
  5
346
 10
537.6260180796437
 20
-1021.7247291094623
 30
0.0
 40
5.0
 50
1.9999999999958187
 51
87.99999999994921
  0
LINE
  8
0
  6
CONTINUOUS
 62
               3
  5
347
 10
527.63698727970723
 20
-1265.2131936579835
 30
0.0
 11
677.63698727970723
 21
-1265.2131936579835
 31
0.0
  0
LINE
  8
0
  6
CONTINUOUS
 62
               3
  5
348
 10
514.136987279707
 20
-1275.2131936579835
 30
0.0
 11
514.136987279707
 21
-1282.2131936579831
 31
0.0
  0
LINE
  8
0
  6
CONTINUOUS
 62
               3
  5
349
 10
514.136987279707
 20
-1275.2131936579835
 30
0.0
 11
527.63698727970723
 21
-1265.2131936579835
 31
0.0
  0
ARC
  8
0
  6
CONTINUOUS
 62
               3
  5
34A
 10
525.63698727970745
 20
-1286.7957693529388
 30
0.0
 40
4.9999999999999991
 50
0.0
 51
66.421821521760023
  0
LINE
  8
0
  6
CONTINUOUS
 62
               3
  5
34B
 10
514.136987279707
 20
-1282.2131936579831
 30
0.0
 11
691.136987279707
 21
-1282.2131936579831
 31
0.0
  0
ARC
  8
0
  6
CONTINUOUS
 62
               3
  5
34C
 10
547.63698727970723
 20
-1372.2131936579835
 30
0.0
 40
19.999999999999996
 50
148.21166938286279
 51
167.26981986159123
  0
LINE
  8
0
  6
CONTINUOUS
 62
               3
  5
34D
 10
530.63698727970745
 20
-1286.7957693529388
 30
0.0
 11
530.63698727970745
 21
-1361.6775399051307
 31
0.0
  0
LINE
  8
0
  6
CONTINUOUS
 62
               3
  5
34E
 10
674.63698727970723
 20
-1356.6775399051303
 30
0.0
 11
674.63698727970723
 21
-1286.7957693529388
 31
0.0
  0
LINE
  8
0
  6
CONTINUOUS
 62
               3
  5
34F
 10
530.63698727970745
 20
-1361.6775399051307
 30
0.0
 11
674.13698727970768
 21
-1361.6775399051307
 31
0.0
  0
LINE
  8
0
  6
CONTINUOUS
 62
               3
  5
350
 10
582.63698727970723
 20
-1282.2131936579831
 30
0.0
 11
582.63698727970723
 21
-1265.2131936579835
 31
0.0
  0
LINE
  8
0
  6
CONTINUOUS
 62
               3
  5
351
 10
622.63698727970723
 20
-1265.2131936579835
 30
0.0
 11
622.63698727970723
 21
-1282.2131936579831
 31
0.0
  0
LINE
  8
0
  6
CONTINUOUS
 62
               3
  5
352
 10
582.63698727970723
 20
-1275.2131936579835
 30
0.0
 11
622.63698727970723
 21
-1275.2131936579835
 31
0.0
  0
LINE
  8
0
  6
CONTINUOUS
 62
               3
  5
353
 10
530.35282580570197
 20
-1265.2131936579835
 30
0.0
 11
530.35282580570197
 21
-1282.2131936579831
 31
0.0
  0
LINE
  8
0
  6
CONTINUOUS
 62
               3
  5
354
 10
516.42648907908199
 20
-1275.2131936579835
 30
0.0
 11
516.42648907908199
 21
-1282.2131936579831
 31
0.0
  0
LINE
  8
0
  6
CONTINUOUS
 62
               3
  5
355
 10
514.136987279707
 20
-1275.2131936579835
 30
0.0
 11
516.42648907908199
 21
-1275.2131936579835
 31
0.0
  0
LINE
  8
0
  6
CONTINUOUS
 62
               3
  5
356
 10
516.42648907908199
 20
-1275.2131936579835
 30
0.0
 11
530.35282580570197
 21
-1265.2131936579835
 31
0.0
  0
LINE
  8
0
  6
CONTINUOUS
 62
               3
  5
357
 10
691.136987279707
 20
-1275.2131936579835
 30
0.0
 11
691.136987279707
 21
-1282.2131936579831
 31
0.0
  0
LINE
  8
0
  6
CONTINUOUS
 62
               3
  5
358
 10
691.136987279707
 20
-1275.2131936579835
 30
0.0
 11
677.63698727970723
 21
-1265.2131936579835
 31
0.0
  0
ARC
  8
0
  6
CONTINUOUS
 62
               3
  5
359
 10
679.63698727970723
 20
-1286.7957693529388
 30
0.0
 40
4.9999999999999991
 50
113.57817847813573
 51
179.99999999989538
  0
LINE
  8
0
  6
CONTINUOUS
 62
               3
  5
35A
 10
674.92114875371158
 20
-1265.2131936579835
 30
0.0
 11
674.92114875371158
 21
-1282.2131936579831
 31
0.0
  0
LINE
  8
0
  6
CONTINUOUS
 62
               3
  5
35B
 10
688.84748548033258
 20
-1275.2131936579835
 30
0.0
 11
688.84748548033258
 21
-1282.2131936579831
 31
0.0
  0
LINE
  8
0
  6
CONTINUOUS
 62
               3
  5
35C
 10
691.136987279707
 20
-1275.2131936579835
 30
0.0
 11
688.84748548033258
 21
-1275.2131936579835
 31
0.0
  0
LINE
  8
0
  6
CONTINUOUS
 62
               3
  5
35D
 10
688.84748548033258
 20
-1275.2131936579835
 30
0.0
 11
674.92114875371158
 21
-1265.2131936579835
 31
0.0
  0
ARC
  8
0
  6
CONTINUOUS
 62
               3
  5
35E
 10
537.63698727970723
 20
-1493.7131936579835
 30
0.0
 40
2.4999999999999996
 50
89.99999999994769
 51
269.99999999984567
  0
ARC
  8
0
  6
CONTINUOUS
 62
               3
  5
35F
 10
677.63698727970723
 20
-1493.7131936579835
 30
0.0
 40
2.4999999999999996
 50
269.99999999984567
 51
449.99999999974102
  0
LINE
  8
0
  6
CONTINUOUS
 62
               3
  5
360
 10
462.63698727970717
 20
-1486.2131936579835
 30
0.0
 11
463.30854340567151
 21
-1486.2131936579835
 31
0.0
  0
LINE
  8
0
  6
CONTINUOUS
 62
               3
  5
361
 10
465.80854340567163
 20
-1488.7131936579826
 30
0.0
 11
463.30854340567151
 21
-1486.2131936579835
 31
0.0
  0
LINE
  8
0
  6
CONTINUOUS
 62
               3
  5
362
 10
465.80854340567242
 20
-1488.7131936579835
 30
0.0
 11
507.97365366194975
 21
-1490.1856317538377
 31
0.0
  0
LINE
  8
0
  6
CONTINUOUS
 62
               3
  5
363
 10
526.17252118563988
 20
-1506.4848830842693
 30
0.0
 11
511.33469008436992
 21
-1491.647051983
 31
0.0
  0
ARC
  8
0
  6
CONTINUOUS
 62
               3
  5
364
 10
522.63698727970723
 20
-1510.0204169902026
 30
0.0
 40
4.9999999999999991
 50
0.0
 51
44.999999999973191
  0
LINE
  8
0
  6
CONTINUOUS
 62
               3
  5
365
 10
462.63698727970717
 20
-1376.2131936579835
 30
0.0
 11
463.30854340567151
 21
-1376.2131936579835
 31
0.0
  0
LINE
  8
0
  6
CONTINUOUS
 62
               3
  5
366
 10
465.80854340567163
 20
-1373.7131936579835
 30
0.0
 11
463.30854340567151
 21
-1376.2131936579835
 31
0.0
  0
LINE
  8
0
  6
CONTINUOUS
 62
               3
  5
367
 10
465.80854340567151
 20
-1373.7131936579835
 30
0.0
 11
523.426019607846
 21
-1371.7011470528309
 31
0.0
  0
LINE
  8
0
  6
CONTINUOUS
 62
               3
  5
368
 10
463.30854340567151
 20
-1376.2131936579835
 30
0.0
 11
463.30854340567151
 21
-1486.2131936579835
 31
0.0
  0
LINE
  8
0
  6
CONTINUOUS
 62
               3
  5
369
 10
462.63698727970717
 20
-1488.8131936579834
 30
0.0
 11
462.63698727970717
 21
-1373.6131936579836
 31
0.0
  0
LINE
  8
0
  6
CONTINUOUS
 62
               3
  5
36A
 10
462.63698727970717
 20
-1373.6131936579836
 30
0.0
 11
460.13698727970717
 21
-1373.6131936579836
 31
0.0
  0
ARC
  8
0
  6
CONTINUOUS
 62
               3
  5
36B
 10
460.13698727970717
 20
-1376.1131936579836
 30
0.0
 40
2.5
 50
89.999999999948997
 51
179.99999999989538
  0
LINE
  8
0
  6
CONTINUOUS
 62
               3
  5
36C
 10
457.63698727970717
 20
-1376.1131936579836
 30
0.0
 11
457.63698727970717
 21
-1486.3131936579834
 31
0.0
  0
LINE
  8
0
  6
CONTINUOUS
 62
               3
  5
36D
 10
462.63698727970717
 20
-1488.8131936579834
 30
0.0
 11
460.13698727970717
 21
-1488.8131936579834
 31
0.0
  0
ARC
  8
0
  6
CONTINUOUS
 62
               3
  5
36E
 10
460.13698727970717
 20
-1486.3131936579834
 30
0.0
 40
2.5
 50
179.99999999989538
 51
269.99999999984436
  0
LINE
  8
0
  6
CONTINUOUS
 62
               3
  5
36F
 10
465.80854340567163
 20
-1373.7131936579835
 30
0.0
 11
465.80854340567242
 21
-1488.7131936579835
 31
0.0
  0
ARC
  8
0
  6
CONTINUOUS
 62
               3
  5
370
 10
507.79915617843727
 20
-1495.1825858889329
 30
0.0
 40
5.0
 50
44.999999999975948
 51
87.999999999949253
  0
ARC
  8
0
  6
CONTINUOUS
 62
               3
  5
371
 10
523.25152212433341
 20
-1366.7041929177358
 30
0.0
 40
5.0
 50
271.99999999984408
 51
347.26981986148661
  0
CIRCLE
  8
0
  6
CONTINUOUS
 62
               3
  5
372
 10
602.63698727970723
 20
-1431.2131936579835
 30
0.0
 40
48.5
  0
CIRCLE
  8
0
  6
CONTINUOUS
 62
               3
  5
373
 10
602.63698727970723
 20
-1431.2131936579835
 30
0.0
 40
47.299999999999997
  0
LINE
  8
0
  6
CONTINUOUS
 62
               3
  5
374
 10
570.81718212631267
 20
-1463.0329988113781
 30
0.0
 11
569.19083652958352
 21
-1464.6593444081072
 31
0.0
  0
LINE
  8
0
  6
CONTINUOUS
 62
               3
  5
375
 10
634.45679243310201
 20
-1463.0329988113781
 30
0.0
 11
636.08313802983093
 21
-1464.6593444081072
 31
0.0
  0
ARC
  8
0
  6
CONTINUOUS
 62
               3
  5
376
 10
602.63698727970723
 20
-1431.2131936579835
 30
0.0
 40
45.0
 50
224.99999999987043
 51
314.99999999981884
  0
CIRCLE
  8
0
  6
CONTINUOUS
 62
               3
  5
377
 10
602.63698727970723
 20
-1431.2131936579835
 30
0.0
 40
57.600000000000001
  0
ARC
  8
0
  6
CONTINUOUS
 62
               3
  5
378
 10
580.13698727970791
 20
-1493.7131936579835
 30
0.0
 40
2.4999999999999996
 50
269.99999999984567
 51
449.99999999974102
  0
ARC
  8
0
  6
CONTINUOUS
 62
               3
  5
379
 10
625.13698727970791
 20
-1493.7131936579835
 30
0.0
 40
2.4999999999999996
 50
89.99999999994769
 51
269.99999999984567
  0
LINE
  8
0
  6
CONTINUOUS
 62
               3
  5
37A
 10
537.63698727970723
 20
-1496.2131936579835
 30
0.0
 11
580.13698727970791
 21
-1496.2131936579835
 31
0.0
  0
LINE
  8
0
  6
CONTINUOUS
 62
               3
  5
37B
 10
537.63698727970723
 20
-1491.2131936579835
 30
0.0
 11
580.13698727970791
 21
-1491.2131936579835
 31
0.0
  0
LINE
  8
0
  6
CONTINUOUS
 62
               3
  5
37C
 10
625.13698727970791
 20
-1491.2131936579835
 30
0.0
 11
677.63698727970723
 21
-1491.2131936579835
 31
0.0
  0
LINE
  8
0
  6
CONTINUOUS
 62
               3
  5
37D
 10
625.13698727970791
 20
-1496.2131936579835
 30
0.0
 11
677.63698727970723
 21
-1496.2131936579835
 31
0.0
  0
CIRCLE
  8
0
  6
CONTINUOUS
 62
               3
  5
37E
 10
602.63698727970723
 20
-956.71375990939896
 30
0.0
 40
59.0
  0
INSERT
  8
0
  6
CONTINUOUS
  5
37F
  2
GROUP_1
 10
0.0
 20
0.0
 30
0.0
  0
INSERT
  8
0
  6
CONTINUOUS
  5
380
  2
GROUP_2
 10
0.0
 20
0.0
 30
0.0
  0
INSERT
  8
0
  6
CONTINUOUS
  5
381
  2
GROUP_3
 10
0.0
 20
0.0
 30
0.0
  0
INSERT
  8
0
  6
CONTINUOUS
  5
382
  2
GROUP_4
 10
0.0
 20
0.0
 30
0.0
  0
INSERT
  8
0
  6
CONTINUOUS
  5
383
  2
GROUP_5
 10
0.0
 20
0.0
 30
0.0
  0
INSERT
  8
0
  6
CONTINUOUS
  5
384
  2
GROUP_6
 10
0.0
 20
0.0
 30
0.0
  0
POINT
  8
0
  6
CONTINUOUS
 62
               5
  5
385
 10
-398.78730498706938
 20
-1014.39819548119
 30
0.0
  0
POINT
  8
0
  6
CONTINUOUS
 62
               5
  5
386
 10
-225.55723347710904
 20
-1015.6889895560789
 30
0.0
  0
POINT
  8
0
  6
CONTINUOUS
 62
               5
  5
387
 10
-572.01737649702955
 20
-1015.6889895560787
 30
0.0
  0
POINT
  8
0
  6
CONTINUOUS
 62
               5
  5
388
 10
-402.02405645772495
 20
-833.70023990219465
 30
0.0
  0
POINT
  8
0
  6
CONTINUOUS
 62
               5
  5
389
 10
486.36705878966751
 20
-1432.5039877328722
 30
0.0
  0
POINT
  8
0
  6
CONTINUOUS
 62
               5
  5
38A
 10
486.36705878966762
 20
-955.4229658345098
 30
0.0
  0
CIRCLE
  8
0
  6
CONTINUOUS
 62
               7
  5
38B
 10
-398.78730498706938
 20
-1020.89819548119
 30
0.0
 40
38.0
  0
CIRCLE
  8
0
  6
CONTINUOUS
 62
               7
  5
38C
 10
-398.78730498706938
 20
-1020.89819548119
 30
0.0
 40
33.5
  0
LINE
  8
0
  6
CONTINUOUS
 62
               7
  5
38D
 10
-254.28730498706938
 20
-969.89819548118999
 30
0.0
 11
-254.28730498706938
 21
-1058.8929593605155
 31
0.0
  0
LINE
  8
0
  6
CONTINUOUS
 62
               7
  5
38E
 10
-253.68730498706935
 20
-969.89819548118999
 30
0.0
 11
-254.28730498706938
 21
-969.89819548118999
 31
0.0
  0
LINE
  8
0
  6
CONTINUOUS
 62
               7
  5
38F
 10
-289.28730498706938
 20
-1057.89819548119
 30
0.0
 11
-289.28730498706938
 21
-983.89819548118999
 31
0.0
  0
LINE
  8
0
  6
CONTINUOUS
 62
               7
  5
390
 10
-196.28730498706938
 20
-1057.89819548119
 30
0.0
 11
-196.28730498706938
 21
-970.89819548118999
 31
0.0
  0
LINE
  8
0
  6
CONTINUOUS
 62
               7
  5
391
 10
-254.28730498706938
 20
-969.89819548118999
 30
0.0
 11
-197.28730498706938
 21
-969.89819548118999
 31
0.0
  0
LINE
  8
0
  6
CONTINUOUS
 62
               7
  5
392
 10
-288.28730498706938
 20
-1058.89819548119
 30
0.0
 11
-197.28730498706938
 21
-1058.89819548119
 31
0.0
  0
LINE
  8
0
  6
CONTINUOUS
 62
               7
  5
393
 10
-197.28730498706938
 20
-969.89819548118999
 30
0.0
 11
-196.28730498706938
 21
-970.89819548118999
 31
0.0
  0
LINE
  8
0
  6
CONTINUOUS
 62
               7
  5
394
 10
-196.28730498706938
 20
-1057.89819548119
 30
0.0
 11
-197.28730498706938
 21
-1058.89819548119
 31
0.0
  0
LINE
  8
0
  6
CONTINUOUS
 62
               7
  5
395
 10
-288.28730498706938
 20
-982.89819548118999
 30
0.0
 11
-254.28730498706938
 21
-982.89819548118999
 31
0.0
  0
CIRCLE
  8
0
  6
CONTINUOUS
 62
               7
  5
396
 10
-398.78730498706938
 20
-1014.39819548119
 30
0.0
 40
44.5
  0
LINE
  8
0
  6
CONTINUOUS
 62
               7
  5
397
 10
-288.28730498706938
 20
-982.89819548118999
 30
0.0
 11
-289.28730498706938
 21
-983.89819548118999
 31
0.0
  0
LINE
  8
0
  6
CONTINUOUS
 62
               7
  5
398
 10
-289.28730498706938
 20
-1057.89819548119
 30
0.0
 11
-288.28730498706938
 21
-1058.89819548119
 31
0.0
  0
LINE
  8
0
  6
CONTINUOUS
 62
               7
  5
399
 10
-543.28730498706909
 20
-969.89819548118976
 30
0.0
 11
-543.28730498706932
 21
-1058.8929593605153
 31
0.0
  0
LINE
  8
0
  6
CONTINUOUS
 62
               7
  5
39A
 10
-543.88730498706923
 20
-969.89819548118976
 30
0.0
 11
-543.28730498706909
 21
-969.89819548118976
 31
0.0
  0
LINE
  8
0
  6
CONTINUOUS
 62
               7
  5
39B
 10
-508.28730498706943
 20
-1057.8981954811898
 30
0.0
 11
-508.28730498706921
 21
-983.89819548118976
 31
0.0
  0
LINE
  8
0
  6
CONTINUOUS
 62
               7
  5
39C
 10
-601.28730498706932
 20
-1057.8981954811898
 30
0.0
 11
-601.28730498706909
 21
-970.89819548118976
 31
0.0
  0
LINE
  8
0
  6
CONTINUOUS
 62
               7
  5
39D
 10
-543.28730498706909
 20
-969.89819548118976
 30
0.0
 11
-600.28730498706909
 21
-969.89819548118976
 31
0.0
  0
LINE
  8
0
  6
CONTINUOUS
 62
               7
  5
39E
 10
-509.28730498706943
 20
-1058.8981954811898
 30
0.0
 11
-600.28730498706932
 21
-1058.8981954811898
 31
0.0
  0
LINE
  8
0
  6
CONTINUOUS
 62
               7
  5
39F
 10
-600.28730498706909
 20
-969.89819548118976
 30
0.0
 11
-601.28730498706909
 21
-970.89819548118976
 31
0.0
  0
LINE
  8
0
  6
CONTINUOUS
 62
               7
  5
3A0
 10
-601.28730498706932
 20
-1057.8981954811898
 30
0.0
 11
-600.28730498706932
 21
-1058.8981954811898
 31
0.0
  0
LINE
  8
0
  6
CONTINUOUS
 62
               7
  5
3A1
 10
-509.28730498706921
 20
-982.89819548118976
 30
0.0
 11
-543.28730498706909
 21
-982.89819548118976
 31
0.0
  0
LINE
  8
0
  6
CONTINUOUS
 62
               7
  5
3A2
 10
-509.28730498706921
 20
-982.89819548118976
 30
0.0
 11
-508.28730498706921
 21
-983.89819548118976
 31
0.0
  0
LINE
  8
0
  6
CONTINUOUS
 62
               7
  5
3A3
 10
-508.28730498706943
 20
-1057.8981954811898
 30
0.0
 11
-509.28730498706943
 21
-1058.8981954811898
 31
0.0
  0
LINE
  8
0
  6
CONTINUOUS
 62
               7
  5
3A4
 10
-356.2332623828359
 20
-862.43031141215511
 30
0.0
 11
-445.22802626216145
 21
-862.43031141215488
 31
0.0
  0
LINE
  8
0
  6
CONTINUOUS
 62
               7
  5
3A5
 10
-356.2332623828359
 20
-861.83031141215497
 30
0.0
 11
-356.2332623828359
 21
-862.43031141215511
 31
0.0
  0
LINE
  8
0
  6
CONTINUOUS
 62
               7
  5
3A6
 10
-437.7332623828359
 20
-897.43031141215488
 30
0.0
 11
-363.7332623828359
 21
-897.43031141215511
 31
0.0
  0
LINE
  8
0
  6
CONTINUOUS
 62
               7
  5
3A7
 10
-444.23326238283579
 20
-804.43031141215488
 30
0.0
 11
-357.2332623828359
 21
-804.43031141215511
 31
0.0
  0
LINE
  8
0
  6
CONTINUOUS
 62
               7
  5
3A8
 10
-356.2332623828359
 20
-862.43031141215511
 30
0.0
 11
-356.2332623828359
 21
-805.43031141215511
 31
0.0
  0
LINE
  8
0
  6
CONTINUOUS
 62
               7
  5
3A9
 10
-438.7332623828359
 20
-896.43031141215488
 30
0.0
 11
-438.7332623828359
 21
-862.43031141215488
 31
0.0
  0
LINE
  8
0
  6
CONTINUOUS
 62
               7
  5
3AA
 10
-356.2332623828359
 20
-805.43031141215511
 30
0.0
 11
-357.2332623828359
 21
-804.43031141215511
 31
0.0
  0
LINE
  8
0
  6
CONTINUOUS
 62
               7
  5
3AB
 10
-444.23326238283579
 20
-804.43031141215488
 30
0.0
 11
-445.23326238283579
 21
-805.43031141215488
 31
0.0
  0
LINE
  8
0
  6
CONTINUOUS
 62
               7
  5
3AC
 10
-362.7332623828359
 20
-896.43031141215511
 30
0.0
 11
-362.7332623828359
 21
-862.43031141215488
 31
0.0
  0
LINE
  8
0
  6
CONTINUOUS
 62
               7
  5
3AD
 10
-362.7332623828359
 20
-896.43031141215511
 30
0.0
 11
-363.7332623828359
 21
-897.43031141215511
 31
0.0
  0
LINE
  8
0
  6
CONTINUOUS
 62
               7
  5
3AE
 10
-437.7332623828359
 20
-897.43031141215488
 30
0.0
 11
-438.7332623828359
 21
-896.43031141215488
 31
0.0
  0
LINE
  8
0
  6
CONTINUOUS
 62
               7
  5
3AF
 10
-445.2332623828359
 20
-862.43031141215488
 30
0.0
 11
-445.2332623828359
 21
-805.43031141215488
 31
0.0
  0
LINE
  8
0
  6
CONTINUOUS
 62
               7
  5
3B0
 10
209.9843877492803
 20
-1057.89819548119
 30
0.0
 11
209.9843877492803
 21
-999.89819548118999
 31
0.0
  0
LINE
  8
0
  6
CONTINUOUS
 62
               7
  5
3B1
 10
235.58438774928021
 20
-969.89819548118999
 30
0.0
 11
235.58438774928021
 21
-1058.89819548119
 31
0.0
  0
LINE
  8
0
  6
CONTINUOUS
 62
               7
  5
3B2
 10
236.18438774928035
 20
-969.89819548118999
 30
0.0
 11
235.58438774928021
 21
-969.89819548118999
 31
0.0
  0
LINE
  8
0
  6
CONTINUOUS
 62
               7
  5
3B3
 10
293.58438774928044
 20
-1057.89819548119
 30
0.0
 11
293.58438774928044
 21
-970.89819548118999
 31
0.0
  0
CIRCLE
  8
0
  6
CONTINUOUS
 62
               7
  5
3B4
 10
114.22837152403731
 20
-1028.89819548119
 30
0.0
 40
30.0
  0
CIRCLE
  8
0
  6
CONTINUOUS
 62
               7
  5
3B5
 10
114.22837152403731
 20
-1028.89819548119
 30
0.0
 40
25.5
  0
CIRCLE
  8
0
  6
CONTINUOUS
 62
               7
  5
3B6
 10
114.22837152403731
 20
-1014.39819548119
 30
0.0
 40
44.5
  0
LINE
  8
0
  6
CONTINUOUS
 62
               7
  5
3B7
 10
235.71883949476063
 20
-969.89819548118999
 30
0.0
 11
292.58438774928044
 21
-969.89819548118999
 31
0.0
  0
LINE
  8
0
  6
CONTINUOUS
 62
               7
  5
3B8
 10
210.9843877492803
 20
-1058.89819548119
 30
0.0
 11
292.58438774928044
 21
-1058.89819548119
 31
0.0
  0
LINE
  8
0
  6
CONTINUOUS
 62
               7
  5
3B9
 10
210.9843877492803
 20
-998.89819548118999
 30
0.0
 11
235.58438774928021
 21
-998.89819548118999
 31
0.0
  0
LINE
  8
0
  6
CONTINUOUS
 62
               7
  5
3BA
 10
210.9843877492803
 20
-998.89819548118999
 30
0.0
 11
209.9843877492803
 21
-999.89819548118999
 31
0.0
  0
LINE
  8
0
  6
CONTINUOUS
 62
               7
  5
3BB
 10
292.58438774928044
 20
-969.89819548118999
 30
0.0
 11
293.58438774928044
 21
-970.89819548118999
 31
0.0
  0
LINE
  8
0
  6
CONTINUOUS
 62
               7
  5
3BC
 10
209.9843877492803
 20
-1057.89819548119
 30
0.0
 11
210.9843877492803
 21
-1058.89819548119
 31
0.0
  0
LINE
  8
0
  6
CONTINUOUS
 62
               7
  5
3BD
 10
293.58438774928044
 20
-1057.89819548119
 30
0.0
 11
292.58438774928044
 21
-1058.89819548119
 31
0.0
  0
LINE
  8
0
  6
CONTINUOUS
 62
               7
  5
3BE
 10
18.47235529879454
 20
-1057.89819548119
 30
0.0
 11
18.47235529879454
 21
-999.89819548118999
 31
0.0
  0
LINE
  8
0
  6
CONTINUOUS
 62
               7
  5
3BF
 10
-7.1276447012054849
 20
-969.89819548118999
 30
0.0
 11
-7.1276447012054849
 21
-1058.89819548119
 31
0.0
  0
LINE
  8
0
  6
CONTINUOUS
 62
               7
  5
3C0
 10
-7.7276447012055076
 20
-969.89819548118999
 30
0.0
 11
-7.1276447012054849
 21
-969.89819548118999
 31
0.0
  0
LINE
  8
0
  6
CONTINUOUS
 62
               7
  5
3C1
 10
-65.127644701205483
 20
-1057.89819548119
 30
0.0
 11
-65.127644701205483
 21
-970.89819548118999
 31
0.0
  0
LINE
  8
0
  6
CONTINUOUS
 62
               7
  5
3C2
 10
-7.2620964466857902
 20
-969.89819548118999
 30
0.0
 11
-64.127644701205483
 21
-969.89819548118999
 31
0.0
  0
LINE
  8
0
  6
CONTINUOUS
 62
               7
  5
3C3
 10
17.47235529879454
 20
-1058.89819548119
 30
0.0
 11
-64.127644701205483
 21
-1058.89819548119
 31
0.0
  0
LINE
  8
0
  6
CONTINUOUS
 62
               7
  5
3C4
 10
17.47235529879454
 20
-998.89819548118999
 30
0.0
 11
-7.1276447012054849
 21
-998.89819548118999
 31
0.0
  0
LINE
  8
0
  6
CONTINUOUS
 62
               7
  5
3C5
 10
17.47235529879454
 20
-998.89819548118999
 30
0.0
 11
18.47235529879454
 21
-999.89819548118999
 31
0.0
  0
LINE
  8
0
  6
CONTINUOUS
 62
               7
  5
3C6
 10
-64.127644701205483
 20
-969.89819548118999
 30
0.0
 11
-65.127644701205483
 21
-970.89819548118999
 31
0.0
  0
LINE
  8
0
  6
CONTINUOUS
 62
               7
  5
3C7
 10
18.47235529879454
 20
-1057.89819548119
 30
0.0
 11
17.47235529879454
 21
-1058.89819548119
 31
0.0
  0
LINE
  8
0
  6
CONTINUOUS
 62
               7
  5
3C8
 10
-65.127644701205483
 20
-1057.89819548119
 30
0.0
 11
-64.127644701205483
 21
-1058.89819548119
 31
0.0
  0
LINE
  8
0
  6
CONTINUOUS
 62
               7
  5
3C9
 10
85.228371524037541
 20
-908.14217925594721
 30
0.0
 11
143.22837152403753
 21
-908.14217925594721
 31
0.0
  0
LINE
  8
0
  6
CONTINUOUS
 62
               7
  5
3CA
 10
158.72837152403753
 20
-882.54217925594708
 30
0.0
 11
69.728371524037541
 21
-882.54217925594708
 31
0.0
  0
LINE
  8
0
  6
CONTINUOUS
 62
               7
  5
3CB
 10
158.72837152403753
 20
-881.94217925594717
 30
0.0
 11
158.72837152403753
 21
-882.54217925594708
 31
0.0
  0
LINE
  8
0
  6
CONTINUOUS
 62
               7
  5
3CC
 10
70.728371524037541
 20
-824.54217925594708
 30
0.0
 11
157.72837152403753
 21
-824.54217925594708
 31
0.0
  0
LINE
  8
0
  6
CONTINUOUS
 62
               7
  5
3CD
 10
158.72837152403753
 20
-882.40772751046688
 30
0.0
 11
158.72837152403753
 21
-825.54217925594708
 31
0.0
  0
LINE
  8
0
  6
CONTINUOUS
 62
               7
  5
3CE
 10
84.228371524037541
 20
-907.14217925594721
 30
0.0
 11
84.228371524037541
 21
-882.54217925594708
 31
0.0
  0
LINE
  8
0
  6
CONTINUOUS
 62
               7
  5
3CF
 10
144.22837152403753
 20
-907.14217925594721
 30
0.0
 11
144.22837152403753
 21
-882.54217925594708
 31
0.0
  0
LINE
  8
0
  6
CONTINUOUS
 62
               7
  5
3D0
 10
144.22837152403753
 20
-907.14217925594721
 30
0.0
 11
143.22837152403753
 21
-908.14217925594721
 31
0.0
  0
LINE
  8
0
  6
CONTINUOUS
 62
               7
  5
3D1
 10
158.72837152403753
 20
-825.54217925594708
 30
0.0
 11
157.72837152403753
 21
-824.54217925594708
 31
0.0
  0
LINE
  8
0
  6
CONTINUOUS
 62
               7
  5
3D2
 10
85.228371524037541
 20
-908.14217925594721
 30
0.0
 11
84.228371524037541
 21
-907.14217925594721
 31
0.0
  0
LINE
  8
0
  6
CONTINUOUS
 62
               7
  5
3D3
 10
70.728371524037541
 20
-824.54217925594708
 30
0.0
 11
69.728371524037541
 21
-825.54217925594708
 31
0.0
  0
LINE
  8
0
  6
CONTINUOUS
 62
               7
  5
3D4
 10
69.728371524037541
 20
-882.40772751046666
 30
0.0
 11
69.728371524037541
 21
-825.54217925594708
 31
0.0
  0
CIRCLE
  8
0
  6
CONTINUOUS
 62
               7
  5
3D5
 10
602.63698727970723
 20
-1445.7131936579835
 30
0.0
 40
25.5
  0
CIRCLE
  8
0
  6
CONTINUOUS
 62
               7
  5
3D6
 10
602.63698727970723
 20
-1431.2131936579835
 30
0.0
 40
44.5
  0
CIRCLE
  8
0
  6
CONTINUOUS
 62
               7
  5
3D7
 10
602.63698727970723
 20
-1445.7131936579835
 30
0.0
 40
30.0
  0
LINE
  8
0
  6
CONTINUOUS
 62
               7
  5
3D8
 10
573.63698727970723
 20
-1127.3137599093989
 30
0.0
 11
631.63698727970723
 21
-1127.3137599093989
 31
0.0
  0
LINE
  8
0
  6
CONTINUOUS
 62
               7
  5
3D9
 10
647.13698727970723
 20
-1101.713759909399
 30
0.0
 11
558.13698727970723
 21
-1101.713759909399
 31
0.0
  0
LINE
  8
0
  6
CONTINUOUS
 62
               7
  5
3DA
 10
647.13698727970723
 20
-1101.1137599093991
 30
0.0
 11
647.13698727970723
 21
-1101.713759909399
 31
0.0
  0
LINE
  8
0
  6
CONTINUOUS
 62
               7
  5
3DB
 10
559.13698727970723
 20
-1043.713759909399
 30
0.0
 11
646.13698727970723
 21
-1043.713759909399
 31
0.0
  0
LINE
  8
0
  6
CONTINUOUS
 62
               7
  5
3DC
 10
647.13698727970723
 20
-1101.5793081639185
 30
0.0
 11
647.13698727970723
 21
-1044.713759909399
 31
0.0
  0
LINE
  8
0
  6
CONTINUOUS
 62
               7
  5
3DD
 10
572.63698727970723
 20
-1126.3137599093989
 30
0.0
 11
572.63698727970723
 21
-1101.713759909399
 31
0.0
  0
LINE
  8
0
  6
CONTINUOUS
 62
               7
  5
3DE
 10
632.63698727970723
 20
-1126.3137599093989
 30
0.0
 11
632.63698727970723
 21
-1101.713759909399
 31
0.0
  0
LINE
  8
0
  6
CONTINUOUS
 62
               7
  5
3DF
 10
632.63698727970723
 20
-1126.3137599093989
 30
0.0
 11
631.63698727970723
 21
-1127.3137599093989
 31
0.0
  0
LINE
  8
0
  6
CONTINUOUS
 62
               7
  5
3E0
 10
647.13698727970723
 20
-1044.713759909399
 30
0.0
 11
646.13698727970723
 21
-1043.713759909399
 31
0.0
  0
LINE
  8
0
  6
CONTINUOUS
 62
               7
  5
3E1
 10
573.63698727970723
 20
-1127.3137599093989
 30
0.0
 11
572.63698727970723
 21
-1126.3137599093989
 31
0.0
  0
LINE
  8
0
  6
CONTINUOUS
 62
               7
  5
3E2
 10
559.13698727970723
 20
-1043.713759909399
 30
0.0
 11
558.13698727970723
 21
-1044.713759909399
 31
0.0
  0
LINE
  8
0
  6
CONTINUOUS
 62
               7
  5
3E3
 10
558.13698727970723
 20
-1101.5793081639185
 30
0.0
 11
558.13698727970723
 21
-1044.713759909399
 31
0.0
  0
LINE
  8
0
  6
CONTINUOUS
 62
               7
  5
3E4
 10
457.63698727970717
 20
-1386.7131936579835
 30
0.0
 11
457.63698727970717
 21
-1475.7079575373091
 31
0.0
  0
LINE
  8
0
  6
CONTINUOUS
 62
               7
  5
3E5
 10
458.23698727970719
 20
-1386.7131936579835
 30
0.0
 11
457.63698727970717
 21
-1386.7131936579835
 31
0.0
  0
LINE
  8
0
  6
CONTINUOUS
 62
               7
  5
3E6
 10
422.63698727970717
 20
-1474.7131936579835
 30
0.0
 11
422.63698727970717
 21
-1400.7131936579835
 31
0.0
  0
LINE
  8
0
  6
CONTINUOUS
 62
               7
  5
3E7
 10
515.63698727970723
 20
-1474.7131936579835
 30
0.0
 11
515.63698727970723
 21
-1387.7131936579835
 31
0.0
  0
LINE
  8
0
  6
CONTINUOUS
 62
               7
  5
3E8
 10
457.63698727970717
 20
-1386.7131936579835
 30
0.0
 11
514.63698727970723
 21
-1386.7131936579835
 31
0.0
  0
LINE
  8
0
  6
CONTINUOUS
 62
               7
  5
3E9
 10
423.63698727970717
 20
-1475.7131936579835
 30
0.0
 11
514.63698727970723
 21
-1475.7131936579835
 31
0.0
  0
LINE
  8
0
  6
CONTINUOUS
 62
               7
  5
3EA
 10
514.63698727970723
 20
-1386.7131936579835
 30
0.0
 11
515.63698727970723
 21
-1387.7131936579835
 31
0.0
  0
LINE
  8
0
  6
CONTINUOUS
 62
               7
  5
3EB
 10
515.63698727970723
 20
-1474.7131936579835
 30
0.0
 11
514.63698727970723
 21
-1475.7131936579835
 31
0.0
  0
LINE
  8
0
  6
CONTINUOUS
 62
               7
  5
3EC
 10
423.63698727970717
 20
-1399.7131936579835
 30
0.0
 11
457.63698727970717
 21
-1399.7131936579835
 31
0.0
  0
LINE
  8
0
  6
CONTINUOUS
 62
               7
  5
3ED
 10
423.63698727970717
 20
-1399.7131936579835
 30
0.0
 11
422.63698727970717
 21
-1400.7131936579835
 31
0.0
  0
LINE
  8
0
  6
CONTINUOUS
 62
               7
  5
3EE
 10
422.63698727970717
 20
-1474.7131936579835
 30
0.0
 11
423.63698727970717
 21
-1475.7131936579835
 31
0.0
  0
LINE
  8
0
  6
CONTINUOUS
 62
               7
  5
3EF
 10
457.63698727970717
 20
-1001.2137599093987
 30
0.0
 11
457.6369872797074
 21
-912.21899603007319
 31
0.0
  0
LINE
  8
0
  6
CONTINUOUS
 62
               7
  5
3F0
 10
458.23698727970731
 20
-1001.2137599093987
 30
0.0
 11
457.63698727970717
 21
-1001.2137599093987
 31
0.0
  0
LINE
  8
0
  6
CONTINUOUS
 62
               7
  5
3F1
 10
422.6369872797074
 20
-919.71375990939873
 30
0.0
 11
422.63698727970717
 21
-993.71375990939873
 31
0.0
  0
LINE
  8
0
  6
CONTINUOUS
 62
               7
  5
3F2
 10
515.63698727970745
 20
-913.21375990939896
 30
0.0
 11
515.63698727970723
 21
-1000.2137599093987
 31
0.0
  0
LINE
  8
0
  6
CONTINUOUS
 62
               7
  5
3F3
 10
457.63698727970717
 20
-1001.2137599093987
 30
0.0
 11
514.63698727970723
 21
-1001.2137599093987
 31
0.0
  0
LINE
  8
0
  6
CONTINUOUS
 62
               7
  5
3F4
 10
423.6369872797074
 20
-918.71375990939873
 30
0.0
 11
457.6369872797074
 21
-918.71375990939873
 31
0.0
  0
LINE
  8
0
  6
CONTINUOUS
 62
               7
  5
3F5
 10
514.63698727970723
 20
-1001.2137599093987
 30
0.0
 11
515.63698727970723
 21
-1000.2137599093987
 31
0.0
  0
LINE
  8
0
  6
CONTINUOUS
 62
               7
  5
3F6
 10
515.63698727970745
 20
-913.21375990939896
 30
0.0
 11
514.63698727970745
 21
-912.21375990939896
 31
0.0
  0
LINE
  8
0
  6
CONTINUOUS
 62
               7
  5
3F7
 10
423.63698727970717
 20
-994.71375990939873
 30
0.0
 11
457.6369872797074
 21
-994.71375990939873
 31
0.0
  0
LINE
  8
0
  6
CONTINUOUS
 62
               7
  5
3F8
 10
423.63698727970717
 20
-994.71375990939873
 30
0.0
 11
422.63698727970717
 21
-993.71375990939873
 31
0.0
  0
LINE
  8
0
  6
CONTINUOUS
 62
               7
  5
3F9
 10
422.6369872797074
 20
-919.71375990939873
 30
0.0
 11
423.6369872797074
 21
-918.71375990939873
 31
0.0
  0
LINE
  8
0
  6
CONTINUOUS
 62
               7
  5
3FA
 10
457.6369872797074
 20
-912.21375990939873
 30
0.0
 11
514.63698727970745
 21
-912.21375990939873
 31
0.0
  0
CIRCLE
  8
0
  6
DASHED
 62
               7
  5
3FB
 10
-398.78730498706938
 20
-1014.39819548119
 30
0.0
 40
40.0
  0
CIRCLE
  8
0
  6
DASHED
 62
               7
  5
3FC
 10
114.22837152403731
 20
-1014.39819548119
 30
0.0
 40
40.0
  0
CIRCLE
  8
0
  6
DASHED
 62
               7
  5
3FD
 10
602.63698727970723
 20
-1431.2131936579835
 30
0.0
 40
40.0
  0
TEXT
  8
0
 62
               3
  5
3FE
 10
-398.78730498706938
 20
-1098.8981954811898
 30
0.0
 40
40.0
  1
EMB_80×65
 41
0.8
 72
               1
 11
-398.78730498706938
 21
-1098.8981954811898
 31
0.0
 73
               3
  0
TEXT
  8
0
 62
               3
  5
3FF
 10
114.22837152403731
 20
-1098.8981954811902
 30
0.0
 40
40.0
  1
EMB_80×50
 41
0.8
 72
               1
 11
114.22837152403731
 21
-1098.8981954811902
 31
0.0
 73
               3
  0
TEXT
  8
0
 62
               3
  5
400
 10
598.93958330206692
 20
-777.26739140417965
 30
0.0
 40
40.0
  1
EMB使用例
 41
0.8
 72
               1
 11
598.93958330206692
 21
-777.26739140417965
 31
0.0
 73
               3
  0
TEXT
  8
0
 62
               3
  5
401
 10
-130.39224002749157
 20
-722.90725550384013
 30
0.0
 40
35.0
  1
横枝管に呼び６５、５０の管を接続するときは、EMBをご使用ください。
 41
0.8
 72
               1
 11
-130.39224002749157
 21
-722.90725550384013
 31
0.0
 73
               3
  0
ENDSEC
  0
EOF
