  0
SECTION
  2
HEADER
  9
$ACADVER
  1
AC1009
  9
$INSBASE
 10
0.0
 20
0.0
 30
0.0
  9
$EXTMIN
 10
-733.45573046432628
 20
-1577.5254890061719
 30
0.0
  9
$EXTMAX
 10
746.24225368063389
 20
700.25507201596895
 30
0.0
  9
$LIMMIN
 10
-779.69629246885631
 20
-1648.7061315381138
  9
$LIMMAX
 10
792.48281568516393
 20
771.43571454791083
  9
$ORTHOMODE
 70
               0
  9
$REGENMODE
 70
               1
  9
$FILLMODE
 70
               1
  9
$QTEXTMODE
 70
               0
  9
$MIRRTEXT
 70
               1
  9
$DRAGMODE
 70
               2
  9
$LTSCALE
 40
1.0
  9
$OSMODE
 70
               0
  9
$ATTMODE
 70
               1
  9
$TEXTSIZE
 40
0.2
  9
$TRACEWID
 40
0.05
  9
$TEXTSTYLE
  7
STANDARD
  9
$CLAYER
  8
0
  9
$CELTYPE
  6
CONTINUOUS
  9
$CECOLOR
 62
             256
  9
$DIMSCALE
 40
1.0
  9
$DIMASZ
 40
0.18
  9
$DIMEXO
 40
0.0625
  9
$DIMDLI
 40
0.38
  9
$DIMRND
 40
0.0
  9
$DIMDLE
 40
0.0
  9
$DIMEXE
 40
0.18
  9
$DIMTP
 40
0.0
  9
$DIMTM
 40
0.0
  9
$DIMTXT
 40
0.18
  9
$DIMCEN
 40
0.09
  9
$DIMTSZ
 40
0.0
  9
$DIMTOL
 70
               0
  9
$DIMLIM
 70
               0
  9
$DIMTIH
 70
               1
  9
$DIMTOH
 70
               1
  9
$DIMSE1
 70
               0
  9
$DIMSE2
 70
               0
  9
$DIMTAD
 70
               0
  9
$DIMZIN
 70
               0
  9
$DIMBLK
  1

  9
$DIMASO
 70
               1
  9
$DIMSHO
 70
               1
  9
$DIMPOST
  1

  9
$DIMAPOST
  1

  9
$DIMALT
 70
               0
  9
$DIMALTD
 70
               2
  9
$DIMALTF
 40
25.399999999999999
  9
$DIMLFAC
 40
1.0
  9
$DIMTOFL
 70
               0
  9
$DIMTVP
 40
0.0
  9
$DIMTIX
 70
               0
  9
$DIMSOXD
 70
               0
  9
$DIMSAH
 70
               0
  9
$DIMBLK1
  1

  9
$DIMBLK2
  1

  9
$DIMSTYLE
  2
STANDARD
  9
$DIMCLRD
 70
               0
  9
$DIMCLRE
 70
               0
  9
$DIMCLRT
 70
               0
  9
$DIMTFAC
 40
1.0
  9
$DIMGAP
 40
0.09
  9
$LUNITS
 70
               2
  9
$LUPREC
 70
               4
  9
$AXISMODE
 70
               0
  9
$AXISUNIT
 10
0.0
 20
0.0
  9
$SKETCHINC
 40
0.1
  9
$FILLETRAD
 40
0.0
  9
$AUNITS
 70
               0
  9
$AUPREC
 70
               0
  9
$MENU
  1
acad
  9
$ELEVATION
 40
0.0
  9
$PELEVATION
 40
0.0
  9
$THICKNESS
 40
0.0
  9
$LIMCHECK
 70
               0
  9
$BLIPMODE
 70
               1
  9
$CHAMFERA
 40
0.0
  9
$CHAMFERB
 40
0.0
  9
$SKPOLY
 70
               0
  9
$TDCREATE
 40
0.000000000
  9
$TDUPDATE
 40
0.000000000
  9
$TDINDWG
 40
0.0000000000
  9
$TDUSRTIMER
 40
0.0000000000
  9
$USRTIMER
 70
               1
  9
$ANGBASE
 50
0.0
  9
$ANGDIR
 70
               0
  9
$PDMODE
 70
               0
  9
$PDSIZE
 40
1.0
  9
$PLINEWID
 40
0.0
  9
$COORDS
 70
               1
  9
$SPLFRAME
 70
               0
  9
$SPLINETYPE
 70
               6
  9
$SPLINESEGS
 70
               8
  9
$ATTDIA
 70
               0
  9
$ATTREQ
 70
               1
  9
$HANDLING
 70
               1
  9
$HANDSEED
  5
4B2
  9
$SURFTAB1
 70
               6
  9
$SURFTAB2
 70
               6
  9
$SURFTYPE
 70
               6
  9
$SURFU
 70
               6
  9
$SURFV
 70
               6
  9
$UCSNAME
  2

  9
$UCSORG
 10
0.0
 20
0.0
 30
0.0
  9
$UCSXDIR
 10
1.0
 20
0.0
 30
0.0
  9
$UCSYDIR
 10
0.0
 20
1.0
 30
0.0
  9
$PUCSNAME
  2

  9
$PUCSORG
 10
0.0
 20
0.0
 30
0.0
  9
$PUCSXDIR
 10
1.0
 20
0.0
 30
0.0
  9
$PUCSYDIR
 10
0.0
 20
1.0
 30
0.0
  9
$USERI1
 70
               0
  9
$USERI2
 70
               0
  9
$USERI3
 70
               0
  9
$USERI4
 70
               0
  9
$USERI5
 70
               0
  9
$USERR1
 40
0.0
  9
$USERR2
 40
0.0
  9
$USERR3
 40
0.0
  9
$USERR4
 40
0.0
  9
$USERR5
 40
0.0
  9
$WORLDVIEW
 70
               1
  9
$SHADEDGE
 70
               3
  9
$SHADEDIF
 70
              70
  9
$TILEMODE
 70
               1
  9
$MAXACTVP
 70
              16
  9
$PINSBASE
 10
0.0
 20
0.0
 30
0.0
  9
$PLIMCHECK
 70
               0
  9
$PEXTMIN
 10
1.0000000000000000E+20
 20
1.0000000000000000E+20
 30
1.0000000000000000E+20
  9
$PEXTMAX
 10
-1.0000000000000000E+20
 20
-1.0000000000000000E+20
 30
-1.0000000000000000E+20
  9
$PLIMMIN
 10
0.0
 20
0.0
  9
$PLIMMAX
 10
12.0
 20
9.0
  9
$UNITMODE
 70
               0
  9
$VISRETAIN
 70
               0
  9
$PLINEGEN
 70
               1
  9
$PSLTSCALE
 70
               0
  9
$TREEDEPTH
 70
            3020
  9
$DWGCODEPAGE
  3
dos932
  0
ENDSEC
  0
SECTION
  2
TABLES
  0
TABLE
  2
VPORT
 70
               1
  0
VPORT
  2
*ACTIVE
 70
               0
 10
0.0
 20
0.0
 11
1.0
 21
1.0
 12
6.3932616081538072
 22
-438.63520849510149
 13
0.0
 23
0.0
 14
1.0
 24
1.0
 15
0.0
 25
0.0
 16
0.0
 26
0.0
 36
1.0
 17
0.0
 27
0.0
 37
0.0
 40
2420.1418460860245
 41
0.6496227114524826
 42
50.0
 43
0.0
 44
0.0
 50
0.0
 51
0.0
 71
               0
 72
             100
 73
               1
 74
               1
 75
               0
 76
               0
 77
               0
 78
               0
  0
ENDTAB
  0
TABLE
  2
LTYPE
 70
              26
  0
LTYPE
  2
CONTINUOUS
 70
               0
  3
Solid line
 72
              65
 73
               0
 40
0.0
  0
LTYPE
  2
HIDDENX2
 70
               0
  3
CADPAC FUSION LINETYPE
 72
              65
 73
               2
 40
47.560000000000002
 49
35.670000000000002
 49
-11.890000000000001
  0
LTYPE
  2
HIDDEN
 70
               0
  3
CADPAC FUSION LINETYPE
 72
              65
 73
               2
 40
35.670000000000002
 49
23.780000000000001
 49
-11.890000000000001
  0
LTYPE
  2
HIDDEN2
 70
               0
  3
CADPAC FUSION LINETYPE
 72
              65
 73
               2
 40
29.725000000000001
 49
17.835000000000001
 49
-11.890000000000001
  0
LTYPE
  2
DASHED
 70
               0
  3
CADPAC FUSION LINETYPE
 72
              65
 73
               2
 40
35.670000000000002
 49
23.780000000000001
 49
-11.890000000000001
  0
LTYPE
  2
DASHED2
 70
               0
  3
CADPAC FUSION LINETYPE
 72
              65
 73
               2
 40
26.752500000000001
 49
17.835000000000001
 49
-8.9175000000000004
  0
LTYPE
  2
DASHEDX2
 70
               0
  3
CADPAC FUSION LINETYPE
 72
              65
 73
               2
 40
53.505000000000003
 49
35.670000000000002
 49
-17.835000000000001
  0
LTYPE
  2
DOTX2
 70
               0
  3
CADPAC FUSION LINETYPE
 72
              65
 73
               2
 40
14.862500000000001
 49
0.0
 49
-14.862500000000001
  0
LTYPE
  2
DOT
 70
               0
  3
CADPAC FUSION LINETYPE
 72
              65
 73
               2
 40
11.890000000000001
 49
0.0
 49
-11.890000000000001
  0
LTYPE
  2
DOTS
 70
               0
  3
CADPAC FUSION LINETYPE
 72
              65
 73
               2
 40
11.890000000000001
 49
0.0
 49
-11.890000000000001
  0
LTYPE
  2
DOT2
 70
               0
  3
CADPAC FUSION LINETYPE
 72
              65
 73
               2
 40
8.9175000000000004
 49
0.0
 49
-8.9175000000000004
  0
LTYPE
  2
CENTERX2
 70
               0
  3
CADPAC FUSION LINETYPE
 72
              65
 73
               4
 40
71.340000000000003
 49
29.725000000000001
 49
-14.862500000000001
 49
11.890000000000001
 49
-14.862500000000001
  0
LTYPE
  2
CENTER
 70
               0
  3
CADPAC FUSION LINETYPE
 72
              65
 73
               4
 40
54.694000000000003
 49
23.780000000000001
 49
-11.890000000000001
 49
7.1340000000000003
 49
-11.890000000000001
  0
LTYPE
  2
CENTER2
 70
               0
  3
CADPAC FUSION LINETYPE
 72
              65
 73
               4
 40
38.048000000000002
 49
17.835000000000001
 49
-8.9175000000000004
 49
2.3780000000000001
 49
-8.9175000000000004
  0
LTYPE
  2
DASHDOTX2
 70
               0
  3
CADPAC FUSION LINETYPE
 72
              65
 73
               4
 40
59.450000000000003
 49
29.725000000000001
 49
-14.862500000000001
 49
0.0
 49
-14.862500000000001
  0
LTYPE
  2
DASHDOT
 70
               0
  3
CADPAC FUSION LINETYPE
 72
              65
 73
               4
 40
47.560000000000002
 49
23.780000000000001
 49
-11.890000000000001
 49
0.0
 49
-11.890000000000001
  0
LTYPE
  2
DASHDOT2
 70
               0
  3
CADPAC FUSION LINETYPE
 72
              65
 73
               4
 40
35.670000000000002
 49
17.835000000000001
 49
-8.9175000000000004
 49
0.0
 49
-8.9175000000000004
  0
LTYPE
  2
DIVIDEX2
 70
               0
  3
CADPAC FUSION LINETYPE
 72
              65
 73
               6
 40
74.3125
 49
29.725000000000001
 49
-14.862500000000001
 49
0.0
 49
-14.862500000000001
 49
0.0
 49
-14.862500000000001
  0
LTYPE
  2
DIVIDE
 70
               0
  3
CADPAC FUSION LINETYPE
 72
              65
 73
               6
 40
59.450000000000003
 49
23.780000000000001
 49
-11.890000000000001
 49
0.0
 49
-11.890000000000001
 49
0.0
 49
-11.890000000000001
  0
LTYPE
  2
DIVIDE2
 70
               0
  3
CADPAC FUSION LINETYPE
 72
              65
 73
               6
 40
44.587500000000006
 49
17.835000000000001
 49
-8.9175000000000004
 49
0.0
 49
-8.9175000000000004
 49
0.0
 49
-8.9175000000000004
  0
LTYPE
  2
BORDERX2
 70
               0
  3
CADPAC FUSION LINETYPE
 72
              65
 73
               6
 40
104.03750000000001
 49
29.725000000000001
 49
-14.862500000000001
 49
29.725000000000001
 49
-14.862500000000001
 49
0.0
 49
-14.862500000000001
  0
LTYPE
  2
BORDER
 70
               0
  3
CADPAC FUSION LINETYPE
 72
              65
 73
               6
 40
83.230000000000004
 49
23.780000000000001
 49
-11.890000000000001
 49
23.780000000000001
 49
-11.890000000000001
 49
0.0
 49
-11.890000000000001
  0
LTYPE
  2
BORDER2
 70
               0
  3
CADPAC FUSION LINETYPE
 72
              65
 73
               6
 40
62.422499999999999
 49
17.835000000000001
 49
-8.9175000000000004
 49
17.835000000000001
 49
-8.9175000000000004
 49
0.0
 49
-8.9175000000000004
  0
LTYPE
  2
PHANTOMX2
 70
               0
  3
CADPAC FUSION LINETYPE
 72
              65
 73
               6
 40
89.175000000000011
 49
29.725000000000001
 49
-11.890000000000001
 49
11.890000000000001
 49
-11.890000000000001
 49
11.890000000000001
 49
-11.890000000000001
  0
LTYPE
  2
PHANTOM
 70
               0
  3
CADPAC FUSION LINETYPE
 72
              65
 73
               6
 40
73.718000000000004
 49
23.780000000000001
 49
-11.890000000000001
 49
7.1340000000000003
 49
-11.890000000000001
 49
7.1340000000000003
 49
-11.890000000000001
  0
LTYPE
  2
PHANTOM2
 70
               0
  3
CADPAC FUSION LINETYPE
 72
              65
 73
               6
 40
63.017000000000003
 49
17.835000000000001
 49
-11.890000000000001
 49
4.7560000000000002
 49
-11.890000000000001
 49
4.7560000000000002
 49
-11.890000000000001
  0
ENDTAB
  0
TABLE
  2
LAYER
 70
             256
  0
LAYER
  2
0
 70
               0
 62
               7
  6
CONTINUOUS
  0
LAYER
  2
LAYER001
 70
               0
 62
               7
  6
CONTINUOUS
  0
LAYER
  2
LAYER002
 70
               0
 62
               7
  6
CONTINUOUS
  0
LAYER
  2
LAYER003
 70
               0
 62
               7
  6
CONTINUOUS
  0
LAYER
  2
LAYER004
 70
               0
 62
               7
  6
CONTINUOUS
  0
LAYER
  2
LAYER005
 70
               0
 62
               7
  6
CONTINUOUS
  0
LAYER
  2
LAYER006
 70
               0
 62
               7
  6
CONTINUOUS
  0
LAYER
  2
LAYER007
 70
               0
 62
               7
  6
CONTINUOUS
  0
LAYER
  2
LAYER008
 70
               0
 62
               7
  6
CONTINUOUS
  0
LAYER
  2
LAYER009
 70
               0
 62
               7
  6
CONTINUOUS
  0
LAYER
  2
LAYER010
 70
               0
 62
               7
  6
CONTINUOUS
  0
LAYER
  2
LAYER011
 70
               0
 62
               7
  6
CONTINUOUS
  0
LAYER
  2
LAYER012
 70
               0
 62
               7
  6
CONTINUOUS
  0
LAYER
  2
LAYER013
 70
               0
 62
               7
  6
CONTINUOUS
  0
LAYER
  2
LAYER014
 70
               0
 62
               7
  6
CONTINUOUS
  0
LAYER
  2
LAYER015
 70
               0
 62
               7
  6
CONTINUOUS
  0
LAYER
  2
LAYER016
 70
               0
 62
               7
  6
CONTINUOUS
  0
LAYER
  2
LAYER017
 70
               0
 62
               7
  6
CONTINUOUS
  0
LAYER
  2
LAYER018
 70
               0
 62
               7
  6
CONTINUOUS
  0
LAYER
  2
LAYER019
 70
               0
 62
               7
  6
CONTINUOUS
  0
LAYER
  2
LAYER020
 70
               0
 62
               7
  6
CONTINUOUS
  0
LAYER
  2
LAYER021
 70
               0
 62
               7
  6
CONTINUOUS
  0
LAYER
  2
LAYER022
 70
               0
 62
               7
  6
CONTINUOUS
  0
LAYER
  2
LAYER023
 70
               0
 62
               7
  6
CONTINUOUS
  0
LAYER
  2
LAYER024
 70
               0
 62
               7
  6
CONTINUOUS
  0
LAYER
  2
LAYER025
 70
               0
 62
               7
  6
CONTINUOUS
  0
LAYER
  2
LAYER026
 70
               0
 62
               7
  6
CONTINUOUS
  0
LAYER
  2
LAYER027
 70
               0
 62
               7
  6
CONTINUOUS
  0
LAYER
  2
LAYER028
 70
               0
 62
               7
  6
CONTINUOUS
  0
LAYER
  2
LAYER029
 70
               0
 62
               7
  6
CONTINUOUS
  0
LAYER
  2
LAYER030
 70
               0
 62
               7
  6
CONTINUOUS
  0
LAYER
  2
LAYER031
 70
               0
 62
               7
  6
CONTINUOUS
  0
LAYER
  2
LAYER032
 70
               0
 62
               7
  6
CONTINUOUS
  0
LAYER
  2
LAYER033
 70
               0
 62
               7
  6
CONTINUOUS
  0
LAYER
  2
LAYER034
 70
               0
 62
               7
  6
CONTINUOUS
  0
LAYER
  2
LAYER035
 70
               0
 62
               7
  6
CONTINUOUS
  0
LAYER
  2
LAYER036
 70
               0
 62
               7
  6
CONTINUOUS
  0
LAYER
  2
LAYER037
 70
               0
 62
               7
  6
CONTINUOUS
  0
LAYER
  2
LAYER038
 70
               0
 62
               7
  6
CONTINUOUS
  0
LAYER
  2
LAYER039
 70
               0
 62
               7
  6
CONTINUOUS
  0
LAYER
  2
LAYER040
 70
               0
 62
               7
  6
CONTINUOUS
  0
LAYER
  2
LAYER041
 70
               0
 62
               7
  6
CONTINUOUS
  0
LAYER
  2
LAYER042
 70
               0
 62
               7
  6
CONTINUOUS
  0
LAYER
  2
LAYER043
 70
               0
 62
               7
  6
CONTINUOUS
  0
LAYER
  2
LAYER044
 70
               0
 62
               7
  6
CONTINUOUS
  0
LAYER
  2
LAYER045
 70
               0
 62
               7
  6
CONTINUOUS
  0
LAYER
  2
LAYER046
 70
               0
 62
               7
  6
CONTINUOUS
  0
LAYER
  2
LAYER047
 70
               0
 62
               7
  6
CONTINUOUS
  0
LAYER
  2
LAYER048
 70
               0
 62
               7
  6
CONTINUOUS
  0
LAYER
  2
LAYER049
 70
               0
 62
               7
  6
CONTINUOUS
  0
LAYER
  2
LAYER050
 70
               0
 62
               7
  6
CONTINUOUS
  0
LAYER
  2
LAYER051
 70
               0
 62
               7
  6
CONTINUOUS
  0
LAYER
  2
LAYER052
 70
               0
 62
               7
  6
CONTINUOUS
  0
LAYER
  2
LAYER053
 70
               0
 62
               7
  6
CONTINUOUS
  0
LAYER
  2
LAYER054
 70
               0
 62
               7
  6
CONTINUOUS
  0
LAYER
  2
LAYER055
 70
               0
 62
               7
  6
CONTINUOUS
  0
LAYER
  2
LAYER056
 70
               0
 62
               7
  6
CONTINUOUS
  0
LAYER
  2
LAYER057
 70
               0
 62
               7
  6
CONTINUOUS
  0
LAYER
  2
LAYER058
 70
               0
 62
               7
  6
CONTINUOUS
  0
LAYER
  2
LAYER059
 70
               0
 62
               7
  6
CONTINUOUS
  0
LAYER
  2
LAYER060
 70
               0
 62
               7
  6
CONTINUOUS
  0
LAYER
  2
LAYER061
 70
               0
 62
               7
  6
CONTINUOUS
  0
LAYER
  2
LAYER062
 70
               0
 62
               7
  6
CONTINUOUS
  0
LAYER
  2
LAYER063
 70
               0
 62
               7
  6
CONTINUOUS
  0
LAYER
  2
LAYER064
 70
               0
 62
               7
  6
CONTINUOUS
  0
LAYER
  2
LAYER065
 70
               0
 62
               7
  6
CONTINUOUS
  0
LAYER
  2
LAYER066
 70
               0
 62
               7
  6
CONTINUOUS
  0
LAYER
  2
LAYER067
 70
               0
 62
               7
  6
CONTINUOUS
  0
LAYER
  2
LAYER068
 70
               0
 62
               7
  6
CONTINUOUS
  0
LAYER
  2
LAYER069
 70
               0
 62
               7
  6
CONTINUOUS
  0
LAYER
  2
LAYER070
 70
               0
 62
               7
  6
CONTINUOUS
  0
LAYER
  2
LAYER071
 70
               0
 62
               7
  6
CONTINUOUS
  0
LAYER
  2
LAYER072
 70
               0
 62
               7
  6
CONTINUOUS
  0
LAYER
  2
LAYER073
 70
               0
 62
               7
  6
CONTINUOUS
  0
LAYER
  2
LAYER074
 70
               0
 62
               7
  6
CONTINUOUS
  0
LAYER
  2
LAYER075
 70
               0
 62
               7
  6
CONTINUOUS
  0
LAYER
  2
LAYER076
 70
               0
 62
               7
  6
CONTINUOUS
  0
LAYER
  2
LAYER077
 70
               0
 62
               7
  6
CONTINUOUS
  0
LAYER
  2
LAYER078
 70
               0
 62
               7
  6
CONTINUOUS
  0
LAYER
  2
LAYER079
 70
               0
 62
               7
  6
CONTINUOUS
  0
LAYER
  2
LAYER080
 70
               0
 62
               7
  6
CONTINUOUS
  0
LAYER
  2
LAYER081
 70
               0
 62
               7
  6
CONTINUOUS
  0
LAYER
  2
LAYER082
 70
               0
 62
               7
  6
CONTINUOUS
  0
LAYER
  2
LAYER083
 70
               0
 62
               7
  6
CONTINUOUS
  0
LAYER
  2
LAYER084
 70
               0
 62
               7
  6
CONTINUOUS
  0
LAYER
  2
LAYER085
 70
               0
 62
               7
  6
CONTINUOUS
  0
LAYER
  2
LAYER086
 70
               0
 62
               7
  6
CONTINUOUS
  0
LAYER
  2
LAYER087
 70
               0
 62
               7
  6
CONTINUOUS
  0
LAYER
  2
LAYER088
 70
               0
 62
               7
  6
CONTINUOUS
  0
LAYER
  2
LAYER089
 70
               0
 62
               7
  6
CONTINUOUS
  0
LAYER
  2
LAYER090
 70
               0
 62
               7
  6
CONTINUOUS
  0
LAYER
  2
LAYER091
 70
               0
 62
               7
  6
CONTINUOUS
  0
LAYER
  2
LAYER092
 70
               0
 62
               7
  6
CONTINUOUS
  0
LAYER
  2
LAYER093
 70
               0
 62
               7
  6
CONTINUOUS
  0
LAYER
  2
LAYER094
 70
               0
 62
               7
  6
CONTINUOUS
  0
LAYER
  2
LAYER095
 70
               0
 62
               7
  6
CONTINUOUS
  0
LAYER
  2
LAYER096
 70
               0
 62
               7
  6
CONTINUOUS
  0
LAYER
  2
LAYER097
 70
               0
 62
               7
  6
CONTINUOUS
  0
LAYER
  2
LAYER098
 70
               0
 62
               7
  6
CONTINUOUS
  0
LAYER
  2
LAYER099
 70
               0
 62
               7
  6
CONTINUOUS
  0
LAYER
  2
LAYER100
 70
               0
 62
               7
  6
CONTINUOUS
  0
LAYER
  2
LAYER101
 70
               0
 62
               7
  6
CONTINUOUS
  0
LAYER
  2
LAYER102
 70
               0
 62
               7
  6
CONTINUOUS
  0
LAYER
  2
LAYER103
 70
               0
 62
               7
  6
CONTINUOUS
  0
LAYER
  2
LAYER104
 70
               0
 62
               7
  6
CONTINUOUS
  0
LAYER
  2
LAYER105
 70
               0
 62
               7
  6
CONTINUOUS
  0
LAYER
  2
LAYER106
 70
               0
 62
               7
  6
CONTINUOUS
  0
LAYER
  2
LAYER107
 70
               0
 62
               7
  6
CONTINUOUS
  0
LAYER
  2
LAYER108
 70
               0
 62
               7
  6
CONTINUOUS
  0
LAYER
  2
LAYER109
 70
               0
 62
               7
  6
CONTINUOUS
  0
LAYER
  2
LAYER110
 70
               0
 62
               7
  6
CONTINUOUS
  0
LAYER
  2
LAYER111
 70
               0
 62
               7
  6
CONTINUOUS
  0
LAYER
  2
LAYER112
 70
               0
 62
               7
  6
CONTINUOUS
  0
LAYER
  2
LAYER113
 70
               0
 62
               7
  6
CONTINUOUS
  0
LAYER
  2
LAYER114
 70
               0
 62
               7
  6
CONTINUOUS
  0
LAYER
  2
LAYER115
 70
               0
 62
               7
  6
CONTINUOUS
  0
LAYER
  2
LAYER116
 70
               0
 62
               7
  6
CONTINUOUS
  0
LAYER
  2
LAYER117
 70
               0
 62
               7
  6
CONTINUOUS
  0
LAYER
  2
LAYER118
 70
               0
 62
               7
  6
CONTINUOUS
  0
LAYER
  2
LAYER119
 70
               0
 62
               7
  6
CONTINUOUS
  0
LAYER
  2
LAYER120
 70
               0
 62
               7
  6
CONTINUOUS
  0
LAYER
  2
LAYER121
 70
               0
 62
               7
  6
CONTINUOUS
  0
LAYER
  2
LAYER122
 70
               0
 62
               7
  6
CONTINUOUS
  0
LAYER
  2
LAYER123
 70
               0
 62
               7
  6
CONTINUOUS
  0
LAYER
  2
LAYER124
 70
               0
 62
               7
  6
CONTINUOUS
  0
LAYER
  2
LAYER125
 70
               0
 62
               7
  6
CONTINUOUS
  0
LAYER
  2
LAYER126
 70
               0
 62
               7
  6
CONTINUOUS
  0
LAYER
  2
LAYER127
 70
               0
 62
               7
  6
CONTINUOUS
  0
LAYER
  2
LAYER128
 70
               0
 62
               7
  6
CONTINUOUS
  0
LAYER
  2
LAYER129
 70
               0
 62
               7
  6
CONTINUOUS
  0
LAYER
  2
LAYER130
 70
               0
 62
               7
  6
CONTINUOUS
  0
LAYER
  2
LAYER131
 70
               0
 62
               7
  6
CONTINUOUS
  0
LAYER
  2
LAYER132
 70
               0
 62
               7
  6
CONTINUOUS
  0
LAYER
  2
LAYER133
 70
               0
 62
               7
  6
CONTINUOUS
  0
LAYER
  2
LAYER134
 70
               0
 62
               7
  6
CONTINUOUS
  0
LAYER
  2
LAYER135
 70
               0
 62
               7
  6
CONTINUOUS
  0
LAYER
  2
LAYER136
 70
               0
 62
               7
  6
CONTINUOUS
  0
LAYER
  2
LAYER137
 70
               0
 62
               7
  6
CONTINUOUS
  0
LAYER
  2
LAYER138
 70
               0
 62
               7
  6
CONTINUOUS
  0
LAYER
  2
LAYER139
 70
               0
 62
               7
  6
CONTINUOUS
  0
LAYER
  2
LAYER140
 70
               0
 62
               7
  6
CONTINUOUS
  0
LAYER
  2
LAYER141
 70
               0
 62
               7
  6
CONTINUOUS
  0
LAYER
  2
LAYER142
 70
               0
 62
               7
  6
CONTINUOUS
  0
LAYER
  2
LAYER143
 70
               0
 62
               7
  6
CONTINUOUS
  0
LAYER
  2
LAYER144
 70
               0
 62
               7
  6
CONTINUOUS
  0
LAYER
  2
LAYER145
 70
               0
 62
               7
  6
CONTINUOUS
  0
LAYER
  2
LAYER146
 70
               0
 62
               7
  6
CONTINUOUS
  0
LAYER
  2
LAYER147
 70
               0
 62
               7
  6
CONTINUOUS
  0
LAYER
  2
LAYER148
 70
               0
 62
               7
  6
CONTINUOUS
  0
LAYER
  2
LAYER149
 70
               0
 62
               7
  6
CONTINUOUS
  0
LAYER
  2
LAYER150
 70
               0
 62
               7
  6
CONTINUOUS
  0
LAYER
  2
LAYER151
 70
               0
 62
               7
  6
CONTINUOUS
  0
LAYER
  2
LAYER152
 70
               0
 62
               7
  6
CONTINUOUS
  0
LAYER
  2
LAYER153
 70
               0
 62
               7
  6
CONTINUOUS
  0
LAYER
  2
LAYER154
 70
               0
 62
               7
  6
CONTINUOUS
  0
LAYER
  2
LAYER155
 70
               0
 62
               7
  6
CONTINUOUS
  0
LAYER
  2
LAYER156
 70
               0
 62
               7
  6
CONTINUOUS
  0
LAYER
  2
LAYER157
 70
               0
 62
               7
  6
CONTINUOUS
  0
LAYER
  2
LAYER158
 70
               0
 62
               7
  6
CONTINUOUS
  0
LAYER
  2
LAYER159
 70
               0
 62
               7
  6
CONTINUOUS
  0
LAYER
  2
LAYER160
 70
               0
 62
               7
  6
CONTINUOUS
  0
LAYER
  2
LAYER161
 70
               0
 62
               7
  6
CONTINUOUS
  0
LAYER
  2
LAYER162
 70
               0
 62
               7
  6
CONTINUOUS
  0
LAYER
  2
LAYER163
 70
               0
 62
               7
  6
CONTINUOUS
  0
LAYER
  2
LAYER164
 70
               0
 62
               7
  6
CONTINUOUS
  0
LAYER
  2
LAYER165
 70
               0
 62
               7
  6
CONTINUOUS
  0
LAYER
  2
LAYER166
 70
               0
 62
               7
  6
CONTINUOUS
  0
LAYER
  2
LAYER167
 70
               0
 62
               7
  6
CONTINUOUS
  0
LAYER
  2
LAYER168
 70
               0
 62
               7
  6
CONTINUOUS
  0
LAYER
  2
LAYER169
 70
               0
 62
               7
  6
CONTINUOUS
  0
LAYER
  2
LAYER170
 70
               0
 62
               7
  6
CONTINUOUS
  0
LAYER
  2
LAYER171
 70
               0
 62
               7
  6
CONTINUOUS
  0
LAYER
  2
LAYER172
 70
               0
 62
               7
  6
CONTINUOUS
  0
LAYER
  2
LAYER173
 70
               0
 62
               7
  6
CONTINUOUS
  0
LAYER
  2
LAYER174
 70
               0
 62
               7
  6
CONTINUOUS
  0
LAYER
  2
LAYER175
 70
               0
 62
               7
  6
CONTINUOUS
  0
LAYER
  2
LAYER176
 70
               0
 62
               7
  6
CONTINUOUS
  0
LAYER
  2
LAYER177
 70
               0
 62
               7
  6
CONTINUOUS
  0
LAYER
  2
LAYER178
 70
               0
 62
               7
  6
CONTINUOUS
  0
LAYER
  2
LAYER179
 70
               0
 62
               7
  6
CONTINUOUS
  0
LAYER
  2
LAYER180
 70
               0
 62
               7
  6
CONTINUOUS
  0
LAYER
  2
LAYER181
 70
               0
 62
               7
  6
CONTINUOUS
  0
LAYER
  2
LAYER182
 70
               0
 62
               7
  6
CONTINUOUS
  0
LAYER
  2
LAYER183
 70
               0
 62
               7
  6
CONTINUOUS
  0
LAYER
  2
LAYER184
 70
               0
 62
               7
  6
CONTINUOUS
  0
LAYER
  2
LAYER185
 70
               0
 62
               7
  6
CONTINUOUS
  0
LAYER
  2
LAYER186
 70
               0
 62
               7
  6
CONTINUOUS
  0
LAYER
  2
LAYER187
 70
               0
 62
               7
  6
CONTINUOUS
  0
LAYER
  2
LAYER188
 70
               0
 62
               7
  6
CONTINUOUS
  0
LAYER
  2
LAYER189
 70
               0
 62
               7
  6
CONTINUOUS
  0
LAYER
  2
LAYER190
 70
               0
 62
               7
  6
CONTINUOUS
  0
LAYER
  2
LAYER191
 70
               0
 62
               7
  6
CONTINUOUS
  0
LAYER
  2
LAYER192
 70
               0
 62
               7
  6
CONTINUOUS
  0
LAYER
  2
LAYER193
 70
               0
 62
               7
  6
CONTINUOUS
  0
LAYER
  2
LAYER194
 70
               0
 62
               7
  6
CONTINUOUS
  0
LAYER
  2
LAYER195
 70
               0
 62
               7
  6
CONTINUOUS
  0
LAYER
  2
LAYER196
 70
               0
 62
               7
  6
CONTINUOUS
  0
LAYER
  2
LAYER197
 70
               0
 62
               7
  6
CONTINUOUS
  0
LAYER
  2
LAYER198
 70
               0
 62
               7
  6
CONTINUOUS
  0
LAYER
  2
LAYER199
 70
               0
 62
               7
  6
CONTINUOUS
  0
LAYER
  2
LAYER200
 70
               0
 62
               7
  6
CONTINUOUS
  0
LAYER
  2
LAYER201
 70
               0
 62
               7
  6
CONTINUOUS
  0
LAYER
  2
LAYER202
 70
               0
 62
               7
  6
CONTINUOUS
  0
LAYER
  2
LAYER203
 70
               0
 62
               7
  6
CONTINUOUS
  0
LAYER
  2
LAYER204
 70
               0
 62
               7
  6
CONTINUOUS
  0
LAYER
  2
LAYER205
 70
               0
 62
               7
  6
CONTINUOUS
  0
LAYER
  2
LAYER206
 70
               0
 62
               7
  6
CONTINUOUS
  0
LAYER
  2
LAYER207
 70
               0
 62
               7
  6
CONTINUOUS
  0
LAYER
  2
LAYER208
 70
               0
 62
               7
  6
CONTINUOUS
  0
LAYER
  2
LAYER209
 70
               0
 62
               7
  6
CONTINUOUS
  0
LAYER
  2
LAYER210
 70
               0
 62
               7
  6
CONTINUOUS
  0
LAYER
  2
LAYER211
 70
               0
 62
               7
  6
CONTINUOUS
  0
LAYER
  2
LAYER212
 70
               0
 62
               7
  6
CONTINUOUS
  0
LAYER
  2
LAYER213
 70
               0
 62
               7
  6
CONTINUOUS
  0
LAYER
  2
LAYER214
 70
               0
 62
               7
  6
CONTINUOUS
  0
LAYER
  2
LAYER215
 70
               0
 62
               7
  6
CONTINUOUS
  0
LAYER
  2
LAYER216
 70
               0
 62
               7
  6
CONTINUOUS
  0
LAYER
  2
LAYER217
 70
               0
 62
               7
  6
CONTINUOUS
  0
LAYER
  2
LAYER218
 70
               0
 62
               7
  6
CONTINUOUS
  0
LAYER
  2
LAYER219
 70
               0
 62
               7
  6
CONTINUOUS
  0
LAYER
  2
LAYER220
 70
               0
 62
               7
  6
CONTINUOUS
  0
LAYER
  2
LAYER221
 70
               0
 62
               7
  6
CONTINUOUS
  0
LAYER
  2
LAYER222
 70
               0
 62
               7
  6
CONTINUOUS
  0
LAYER
  2
LAYER223
 70
               0
 62
               7
  6
CONTINUOUS
  0
LAYER
  2
LAYER224
 70
               0
 62
               7
  6
CONTINUOUS
  0
LAYER
  2
LAYER225
 70
               0
 62
               7
  6
CONTINUOUS
  0
LAYER
  2
LAYER226
 70
               0
 62
               7
  6
CONTINUOUS
  0
LAYER
  2
LAYER227
 70
               0
 62
               7
  6
CONTINUOUS
  0
LAYER
  2
LAYER228
 70
               0
 62
               7
  6
CONTINUOUS
  0
LAYER
  2
LAYER229
 70
               0
 62
               7
  6
CONTINUOUS
  0
LAYER
  2
LAYER230
 70
               0
 62
               7
  6
CONTINUOUS
  0
LAYER
  2
LAYER231
 70
               0
 62
               7
  6
CONTINUOUS
  0
LAYER
  2
LAYER232
 70
               0
 62
               7
  6
CONTINUOUS
  0
LAYER
  2
LAYER233
 70
               0
 62
               7
  6
CONTINUOUS
  0
LAYER
  2
LAYER234
 70
               0
 62
               7
  6
CONTINUOUS
  0
LAYER
  2
LAYER235
 70
               0
 62
               7
  6
CONTINUOUS
  0
LAYER
  2
LAYER236
 70
               0
 62
               7
  6
CONTINUOUS
  0
LAYER
  2
LAYER237
 70
               0
 62
               7
  6
CONTINUOUS
  0
LAYER
  2
LAYER238
 70
               0
 62
               7
  6
CONTINUOUS
  0
LAYER
  2
LAYER239
 70
               0
 62
               7
  6
CONTINUOUS
  0
LAYER
  2
LAYER240
 70
               0
 62
               7
  6
CONTINUOUS
  0
LAYER
  2
LAYER241
 70
               0
 62
               7
  6
CONTINUOUS
  0
LAYER
  2
LAYER242
 70
               0
 62
               7
  6
CONTINUOUS
  0
LAYER
  2
LAYER243
 70
               0
 62
               7
  6
CONTINUOUS
  0
LAYER
  2
LAYER244
 70
               0
 62
               7
  6
CONTINUOUS
  0
LAYER
  2
LAYER245
 70
               0
 62
               7
  6
CONTINUOUS
  0
LAYER
  2
LAYER246
 70
               0
 62
               7
  6
CONTINUOUS
  0
LAYER
  2
LAYER247
 70
               0
 62
               7
  6
CONTINUOUS
  0
LAYER
  2
LAYER248
 70
               0
 62
               7
  6
CONTINUOUS
  0
LAYER
  2
LAYER249
 70
               0
 62
               7
  6
CONTINUOUS
  0
LAYER
  2
LAYER250
 70
               0
 62
               7
  6
CONTINUOUS
  0
LAYER
  2
LAYER251
 70
               0
 62
               7
  6
CONTINUOUS
  0
LAYER
  2
LAYER252
 70
               0
 62
               7
  6
CONTINUOUS
  0
LAYER
  2
LAYER253
 70
               0
 62
               7
  6
CONTINUOUS
  0
LAYER
  2
LAYER254
 70
               0
 62
               7
  6
CONTINUOUS
  0
LAYER
  2
LAYER255
 70
               0
 62
               7
  6
CONTINUOUS
  0
ENDTAB
  0
TABLE
  2
STYLE
 70
               1
  0
STYLE
  2
STANDARD
 70
               0
 40
0.0
 41
0.8
 50
0.0
 71
               0
 42
40.0
  3
MS PGothic.ttf
  4

  0
ENDTAB
  0
TABLE
  2
VIEW
 70
               0
  0
VIEW
  2
QQQQ
 70
               0
 40
2420.1418460860245
 10
6.3932616081538072
 20
-438.63520849510149
 41
1572.1791081540202
 11
0.0
 21
0.0
 31
1.0
 12
100.0
 22
100.0
 32
0.0
 42
50.0
 43
0.0
 44
0.0
 50
0.0
 71
               0
  0
ENDTAB
  0
TABLE
  2
UCS
 70
               0
  0
ENDTAB
  0
TABLE
  2
APPID
 70
               1
  0
APPID
  2
ACAD
 70
               0
  0
ENDTAB
  0
TABLE
  2
DIMSTYLE
 70
               1
  0
DIMSTYLE
  2
STANDARD
 70
               0
  3

  4

  5

  6

  7

 40
1.0
 41
0.18
 42
0.0625
 43
0.38
 44
0.18
 45
0.0
 46
0.0
 47
0.0
 48
0.0
140
0.18
141
0.09
142
0.0
143
25.399999999999999
144
1.0
145
0.0
146
1.0
147
0.09
 71
               0
 72
               0
 73
               1
 74
               1
 75
               0
 76
               0
 77
               0
 78
               0
170
               0
171
               2
172
               0
173
               0
174
               0
175
               0
176
               0
177
               0
178
               0
  0
ENDTAB
  0
ENDSEC
  0
SECTION
  2
BLOCKS
  0
BLOCK
  8
0
  5
13C
  2
GROUP_1
 70
               0
 10
0.0
 20
0.0
 30
0.0
  3
GROUP_1
  0
LINE
  8
0
  6
CONTINUOUS
 62
               4
  5
13D
 10
66.831745930520782
 20
0.2484003113816868
 30
0.0
 11
66.831745930520782
 21
-8.6257666636985562
 31
0.0
  0
LINE
  8
0
  6
CONTINUOUS
 62
               4
  5
13E
 10
72.316573487822183
 20
0.2484003113816868
 30
0.0
 11
72.316573487822183
 21
-8.6257666636985562
 31
0.0
  0
LINE
  8
0
  6
CONTINUOUS
 62
               4
  5
13F
 10
66.831745930520782
 20
0.2484003113816868
 30
0.0
 11
88.731745930520532
 21
0.2484003113816868
 31
0.0
  0
LINE
  8
0
  6
CONTINUOUS
 62
               4
  5
140
 10
69.574159709171312
 20
-9.7515996886183132
 30
0.0
 11
85.989332151869661
 21
-9.7515996886183132
 31
0.0
  0
LINE
  8
0
  6
CONTINUOUS
 62
               4
  5
141
 10
88.731745930520532
 20
0.2484003113816868
 30
0.0
 11
88.731745930520532
 21
-8.6257666636985562
 31
0.0
  0
LINE
  8
0
  6
CONTINUOUS
 62
               4
  5
142
 10
83.246918373219131
 20
0.2484003113816868
 30
0.0
 11
83.246918373219131
 21
-8.6257666636985562
 31
0.0
  0
ARC
  8
0
  6
CONTINUOUS
 62
               4
  5
143
 10
69.574159709171312
 20
-5.8485638303660892
 30
0.0
 40
3.9030358582523994
 50
225.36111921400504
 51
314.63888078588826
  0
ARC
  8
0
  6
CONTINUOUS
 62
               4
  5
144
 10
85.989332151869661
 20
-5.8485638303660892
 30
0.0
 40
3.9030358582525593
 50
225.3611192140074
 51
314.63888078589065
  0
ARC
  8
0
  6
CONTINUOUS
 62
               4
  5
145
 10
77.781745930520486
 20
4.0762100927875906
 30
0.0
 40
13.827809781406303
 50
246.71964825748174
 51
293.28035174241393
  0
ENDBLK
  8
0
  5
146
  0
BLOCK
  8
0
  5
147
  2
GROUP_2
 70
               0
 10
0.0
 20
0.0
 30
0.0
  3
GROUP_2
  0
LINE
  8
0
  6
CONTINUOUS
 62
               4
  5
148
 10
-66.83174593052118
 20
0.2484003113816868
 30
0.0
 11
-66.83174593052118
 21
-8.6257666636985562
 31
0.0
  0
LINE
  8
0
  6
CONTINUOUS
 62
               4
  5
149
 10
-72.316573487822467
 20
0.2484003113816868
 30
0.0
 11
-72.316573487822467
 21
-8.6257666636985562
 31
0.0
  0
LINE
  8
0
  6
CONTINUOUS
 62
               4
  5
14A
 10
-66.83174593052118
 20
0.2484003113816868
 30
0.0
 11
-88.731745930520816
 21
0.2484003113816868
 31
0.0
  0
LINE
  8
0
  6
CONTINUOUS
 62
               4
  5
14B
 10
-69.57415970917171
 20
-9.7515996886183132
 30
0.0
 11
-85.989332151870059
 21
-9.7515996886183132
 31
0.0
  0
LINE
  8
0
  6
CONTINUOUS
 62
               4
  5
14C
 10
-88.731745930520816
 20
0.2484003113816868
 30
0.0
 11
-88.731745930520816
 21
-8.6257666636985562
 31
0.0
  0
LINE
  8
0
  6
CONTINUOUS
 62
               4
  5
14D
 10
-83.246918373219529
 20
0.2484003113816868
 30
0.0
 11
-83.246918373219529
 21
-8.6257666636985562
 31
0.0
  0
ARC
  8
0
  6
CONTINUOUS
 62
               4
  5
14E
 10
-69.57415970917171
 20
-5.8485638303660892
 30
0.0
 40
3.9030358582523994
 50
225.36111921400743
 51
314.63888078589048
  0
ARC
  8
0
  6
CONTINUOUS
 62
               4
  5
14F
 10
-85.989332151870059
 20
-5.8485638303660892
 30
0.0
 40
3.9030358582525593
 50
225.36111921400502
 51
314.63888078588815
  0
ARC
  8
0
  6
CONTINUOUS
 62
               4
  5
150
 10
-77.781745930520884
 20
4.0762100927875906
 30
0.0
 40
13.827809781406303
 50
246.71964825748174
 51
293.28035174241387
  0
ENDBLK
  8
0
  5
151
  0
BLOCK
  8
0
  5
152
  2
GROUP_3
 70
               0
 10
0.0
 20
0.0
 30
0.0
  3
GROUP_3
  0
LINE
  8
0
  6
CONTINUOUS
 62
               4
  5
153
 10
666.83174593052081
 20
0.2484003113816868
 30
0.0
 11
666.83174593052081
 21
-8.6257666636985562
 31
0.0
  0
LINE
  8
0
  6
CONTINUOUS
 62
               4
  5
154
 10
672.31657348782221
 20
0.2484003113816868
 30
0.0
 11
672.31657348782221
 21
-8.6257666636985562
 31
0.0
  0
LINE
  8
0
  6
CONTINUOUS
 62
               4
  5
155
 10
666.83174593052081
 20
0.2484003113816868
 30
0.0
 11
688.73174593052056
 21
0.2484003113816868
 31
0.0
  0
LINE
  8
0
  6
CONTINUOUS
 62
               4
  5
156
 10
669.57415970917134
 20
-9.7515996886183132
 30
0.0
 11
685.98933215186969
 21
-9.7515996886183132
 31
0.0
  0
LINE
  8
0
  6
CONTINUOUS
 62
               4
  5
157
 10
688.73174593052056
 20
0.2484003113816868
 30
0.0
 11
688.73174593052056
 21
-8.6257666636985562
 31
0.0
  0
LINE
  8
0
  6
CONTINUOUS
 62
               4
  5
158
 10
683.24691837321916
 20
0.2484003113816868
 30
0.0
 11
683.24691837321916
 21
-8.6257666636985562
 31
0.0
  0
ARC
  8
0
  6
CONTINUOUS
 62
               4
  5
159
 10
669.57415970917134
 20
-5.8485638303660892
 30
0.0
 40
3.9030358582523994
 50
225.3611192140055
 51
314.63888078588781
  0
ARC
  8
0
  6
CONTINUOUS
 62
               4
  5
15A
 10
685.98933215186969
 20
-5.8485638303660892
 30
0.0
 40
3.9030358582525593
 50
225.36111921400786
 51
314.63888078589019
  0
ARC
  8
0
  6
CONTINUOUS
 62
               4
  5
15B
 10
677.78174593052051
 20
4.0762100927875906
 30
0.0
 40
13.827809781406303
 50
246.71964825748168
 51
293.28035174241398
  0
ENDBLK
  8
0
  5
15C
  0
BLOCK
  8
0
  5
15D
  2
GROUP_4
 70
               0
 10
0.0
 20
0.0
 30
0.0
  3
GROUP_4
  0
LINE
  8
0
  6
CONTINUOUS
 62
               4
  5
15E
 10
533.16825406947885
 20
0.2484003113816868
 30
0.0
 11
533.16825406947885
 21
-8.6257666636985562
 31
0.0
  0
LINE
  8
0
  6
CONTINUOUS
 62
               4
  5
15F
 10
527.68342651217756
 20
0.2484003113816868
 30
0.0
 11
527.68342651217756
 21
-8.6257666636985562
 31
0.0
  0
LINE
  8
0
  6
CONTINUOUS
 62
               4
  5
160
 10
533.16825406947885
 20
0.2484003113816868
 30
0.0
 11
511.26825406947921
 21
0.2484003113816868
 31
0.0
  0
LINE
  8
0
  6
CONTINUOUS
 62
               4
  5
161
 10
530.42584029082832
 20
-9.7515996886183132
 30
0.0
 11
514.01066784812997
 21
-9.7515996886183132
 31
0.0
  0
LINE
  8
0
  6
CONTINUOUS
 62
               4
  5
162
 10
511.26825406947921
 20
0.2484003113816868
 30
0.0
 11
511.26825406947921
 21
-8.6257666636985562
 31
0.0
  0
LINE
  8
0
  6
CONTINUOUS
 62
               4
  5
163
 10
516.7530816267805
 20
0.2484003113816868
 30
0.0
 11
516.7530816267805
 21
-8.6257666636985562
 31
0.0
  0
ARC
  8
0
  6
CONTINUOUS
 62
               4
  5
164
 10
530.42584029082832
 20
-5.8485638303660892
 30
0.0
 40
3.9030358582523994
 50
225.36111921400786
 51
314.63888078589008
  0
ARC
  8
0
  6
CONTINUOUS
 62
               4
  5
165
 10
514.01066784812997
 20
-5.8485638303660892
 30
0.0
 40
3.9030358582525593
 50
225.3611192140049
 51
314.63888078588764
  0
ARC
  8
0
  6
CONTINUOUS
 62
               4
  5
166
 10
522.21825406947914
 20
4.0762100927875906
 30
0.0
 40
13.827809781406303
 50
246.71964825748168
 51
293.28035174241398
  0
ENDBLK
  8
0
  5
167
  0
BLOCK
  8
0
  5
168
  2
GROUP_5
 70
               0
 10
0.0
 20
0.0
 30
0.0
  3
GROUP_5
  0
LINE
  8
0
  6
CONTINUOUS
 62
               4
  5
169
 10
-533.16825406947896
 20
0.2484003113816868
 30
0.0
 11
-533.16825406947896
 21
-8.6257666636985846
 31
0.0
  0
LINE
  8
0
  6
CONTINUOUS
 62
               4
  5
16A
 10
-527.68342651217756
 20
0.2484003113816868
 30
0.0
 11
-527.68342651217756
 21
-8.6257666636985846
 31
0.0
  0
LINE
  8
0
  6
CONTINUOUS
 62
               4
  5
16B
 10
-533.16825406947896
 20
0.2484003113816868
 30
0.0
 11
-511.26825406947921
 21
0.2484003113816868
 31
0.0
  0
LINE
  8
0
  6
CONTINUOUS
 62
               4
  5
16C
 10
-530.42584029082843
 20
-9.7515996886183416
 30
0.0
 11
-514.01066784813008
 21
-9.7515996886183416
 31
0.0
  0
LINE
  8
0
  6
CONTINUOUS
 62
               4
  5
16D
 10
-511.26825406947921
 20
0.2484003113816868
 30
0.0
 11
-511.26825406947921
 21
-8.6257666636985846
 31
0.0
  0
LINE
  8
0
  6
CONTINUOUS
 62
               4
  5
16E
 10
-516.75308162678061
 20
0.2484003113816868
 30
0.0
 11
-516.75308162678061
 21
-8.6257666636985846
 31
0.0
  0
ARC
  8
0
  6
CONTINUOUS
 62
               4
  5
16F
 10
-530.42584029082843
 20
-5.8485638303661176
 30
0.0
 40
3.9030358582523994
 50
225.3611192140055
 51
314.63888078588781
  0
ARC
  8
0
  6
CONTINUOUS
 62
               4
  5
170
 10
-514.01066784813008
 20
-5.8485638303661176
 30
0.0
 40
3.9030358582525593
 50
225.36111921400786
 51
314.63888078589076
  0
ARC
  8
0
  6
CONTINUOUS
 62
               4
  5
171
 10
-522.21825406947926
 20
4.0762100927875906
 30
0.0
 40
13.827809781406303
 50
246.71964825748168
 51
293.28035174241398
  0
ENDBLK
  8
0
  5
172
  0
BLOCK
  8
0
  5
173
  2
GROUP_6
 70
               0
 10
0.0
 20
0.0
 30
0.0
  3
GROUP_6
  0
LINE
  8
0
  6
CONTINUOUS
 62
               4
  5
174
 10
-666.83174593052092
 20
0.2484003113816868
 30
0.0
 11
-666.83174593052092
 21
-8.6257666636985846
 31
0.0
  0
LINE
  8
0
  6
CONTINUOUS
 62
               4
  5
175
 10
-672.31657348782221
 20
0.2484003113816868
 30
0.0
 11
-672.31657348782221
 21
-8.6257666636985846
 31
0.0
  0
LINE
  8
0
  6
CONTINUOUS
 62
               4
  5
176
 10
-666.83174593052092
 20
0.2484003113816868
 30
0.0
 11
-688.73174593052056
 21
0.2484003113816868
 31
0.0
  0
LINE
  8
0
  6
CONTINUOUS
 62
               4
  5
177
 10
-669.57415970917145
 20
-9.7515996886183416
 30
0.0
 11
-685.9893321518698
 21
-9.7515996886183416
 31
0.0
  0
LINE
  8
0
  6
CONTINUOUS
 62
               4
  5
178
 10
-688.73174593052056
 20
0.2484003113816868
 30
0.0
 11
-688.73174593052056
 21
-8.6257666636985846
 31
0.0
  0
LINE
  8
0
  6
CONTINUOUS
 62
               4
  5
179
 10
-683.24691837321927
 20
0.2484003113816868
 30
0.0
 11
-683.24691837321927
 21
-8.6257666636985846
 31
0.0
  0
ARC
  8
0
  6
CONTINUOUS
 62
               4
  5
17A
 10
-669.57415970917145
 20
-5.8485638303661176
 30
0.0
 40
3.9030358582523994
 50
225.36111921400786
 51
314.63888078589008
  0
ARC
  8
0
  6
CONTINUOUS
 62
               4
  5
17B
 10
-685.9893321518698
 20
-5.8485638303661176
 30
0.0
 40
3.9030358582525593
 50
225.3611192140055
 51
314.63888078588764
  0
ARC
  8
0
  6
CONTINUOUS
 62
               4
  5
17C
 10
-677.78174593052063
 20
4.0762100927875906
 30
0.0
 40
13.827809781406303
 50
246.71964825748168
 51
293.28035174241398
  0
ENDBLK
  8
0
  5
17D
  0
ENDSEC
  0
SECTION
  2
ENTITIES
  0
LINE
  8
0
  6
CONTINUOUS
 62
               3
  5
17E
 10
-100.50000000000031
 20
28.54840031138022
 30
0.0
 11
-100.50000000000031
 21
20.54840031138022
 31
0.0
  0
LINE
  8
0
  6
CONTINUOUS
 62
               3
  5
17F
 10
100.49999999999977
 20
20.54840031138022
 30
0.0
 11
100.49999999999977
 21
28.54840031138022
 31
0.0
  0
LINE
  8
0
  6
CONTINUOUS
 62
               3
  5
180
 10
151.98374363275826
 20
4.0484003113801634
 30
0.0
 11
107.89530150989238
 21
5.5880026360029831
 31
0.0
  0
LINE
  8
0
  6
CONTINUOUS
 62
               3
  5
181
 10
151.9999999999994
 20
-135.95159968861986
 30
0.0
 11
104.2949960017532
 21
-137.61749513684566
 31
0.0
  0
LINE
  8
0
  6
CONTINUOUS
 62
               3
  5
182
 10
100.93395957933291
 20
-139.07891536600837
 30
0.0
 11
91.464466094066466
 21
-148.54840885127504
 31
0.0
  0
ARC
  8
0
  6
CONTINUOUS
 62
               3
  5
183
 10
104.46949348526567
 20
-142.61444927194114
 30
0.0
 40
5.0
 50
91.999999999982592
 51
134.99999999997391
  0
ARC
  8
0
  6
CONTINUOUS
 62
               3
  5
184
 10
94.999999999999375
 20
-152.08394275720769
 30
0.0
 40
5.0
 50
134.99999999997439
 51
179.99999999996524
  0
LINE
  8
0
  6
CONTINUOUS
 62
               3
  5
185
 10
96.999999999999687
 20
22.048400311380107
 30
0.0
 11
66.999999999999687
 21
22.048400311380107
 31
0.0
  0
LINE
  8
0
  6
CONTINUOUS
 62
               3
  5
186
 10
151.98374363275826
 20
4.0484003113801634
 30
0.0
 11
151.98374363275826
 21
-135.95216737347309
 31
0.0
  0
LINE
  8
0
  6
CONTINUOUS
 62
               3
  5
187
 10
96.999999999999687
 20
22.048400311380107
 30
0.0
 11
97.499999999999659
 21
20.548400311380107
 31
0.0
  0
LINE
  8
0
  6
CONTINUOUS
 62
               3
  5
188
 10
66.999999999999687
 20
22.048400311380107
 30
0.0
 11
65.499999999999773
 21
20.548400311380107
 31
0.0
  0
LINE
  8
0
  6
CONTINUOUS
 62
               3
  5
189
 10
97.499999999999659
 20
20.548400311380107
 30
0.0
 11
104.99999999999994
 21
20.548400311380107
 31
0.0
  0
LINE
  8
0
  6
CONTINUOUS
 62
               3
  5
18A
 10
-97.000000000000298
 20
22.048400311380107
 30
0.0
 11
-67.000000000000298
 21
22.048400311380107
 31
0.0
  0
LINE
  8
0
  6
CONTINUOUS
 62
               3
  5
18B
 10
104.9999999999998
 20
20.548400311380107
 30
0.0
 11
104.99999999999973
 21
5.5484003113801066
 31
0.0
  0
ARC
  8
0
  6
CONTINUOUS
 62
               3
  5
18C
 10
101.99999999999969
 20
5.5484003113801066
 30
0.0
 40
3.0000000000000004
 50
269.99999999994782
 51
359.99999999993054
  0
LINE
  8
0
  6
CONTINUOUS
 62
               3
  5
18D
 10
-97.000000000000298
 20
22.048400311380107
 30
0.0
 11
-97.50000000000027
 21
20.548400311380107
 31
0.0
  0
LINE
  8
0
  6
CONTINUOUS
 62
               3
  5
18E
 10
-67.000000000000298
 20
22.048400311380107
 30
0.0
 11
-65.500000000000313
 21
20.548400311380107
 31
0.0
  0
LINE
  8
0
  6
CONTINUOUS
 62
               3
  5
18F
 10
-97.50000000000027
 20
20.548400311380107
 30
0.0
 11
-105.00000000000048
 21
20.548400311380107
 31
0.0
  0
ARC
  8
0
  6
CONTINUOUS
 62
               3
  5
190
 10
107.99999999999984
 20
8.5861751170603782
 30
0.0
 40
3.0000000000000004
 50
179.99999999996515
 51
267.99999999994873
  0
LINE
  8
0
  6
CONTINUOUS
 62
               3
  5
191
 10
-90.000000000000057
 20
-152.08394275720769
 30
0.0
 11
-90.000000000000057
 21
-266.26391232182391
 31
0.0
  0
ARC
  8
0
  6
CONTINUOUS
 62
               3
  5
192
 10
-82.000000000000298
 20
-140.95159968861986
 30
0.0
 40
2.5
 50
89.999999999982535
 51
269.99999999994793
  0
LINE
  8
0
  6
CONTINUOUS
 62
               3
  5
193
 10
-65.500000000000313
 20
20.548400311380107
 30
0.0
 11
65.499999999999773
 21
20.548400311380107
 31
0.0
  0
LINE
  8
0
  6
CONTINUOUS
 62
               3
  5
194
 10
87.721287833966755
 20
-286.26391232182391
 30
0.0
 11
73.278712166032648
 21
-413.02477210235116
 31
0.0
  0
LINE
  8
0
  6
CONTINUOUS
 62
               3
  5
195
 10
154.99999999999952
 20
1.7199564373442797
 30
0.0
 11
154.31218750679415
 21
1.7199564373442797
 31
0.0
  0
LINE
  8
0
  6
CONTINUOUS
 62
               3
  5
196
 10
151.98374363275826
 20
4.0484003113801634
 30
0.0
 11
154.31218750679415
 21
1.7199564373442797
 31
0.0
  0
LINE
  8
0
  6
CONTINUOUS
 62
               3
  5
197
 10
154.99999999999952
 20
4.0484003113799929
 30
0.0
 11
157.49999999999952
 21
4.0484003113799929
 31
0.0
  0
ARC
  8
0
  6
CONTINUOUS
 62
               3
  5
198
 10
157.49999999999952
 20
1.5484003113799929
 30
0.0
 40
2.5
 50
0.0
 51
89.999999999982862
  0
LINE
  8
0
  6
CONTINUOUS
 62
               3
  5
199
 10
154.99999999999952
 20
-133.62315581458398
 30
0.0
 11
154.31218750679415
 21
-133.62315581458398
 31
0.0
  0
LINE
  8
0
  6
CONTINUOUS
 62
               3
  5
19A
 10
151.98374363275826
 20
-135.95159968861986
 30
0.0
 11
154.31218750679415
 21
-133.62315581458398
 31
0.0
  0
LINE
  8
0
  6
CONTINUOUS
 62
               3
  5
19B
 10
154.99999999999952
 20
-135.95159968861972
 30
0.0
 11
157.49999999999952
 21
-135.95159968861972
 31
0.0
  0
ARC
  8
0
  6
CONTINUOUS
 62
               3
  5
19C
 10
157.49999999999952
 20
-133.45159968861972
 30
0.0
 40
2.5
 50
269.99999999994793
 51
359.99999999993048
  0
LINE
  8
0
  6
CONTINUOUS
 62
               3
  5
19D
 10
159.99999999999952
 20
1.5484003113799929
 30
0.0
 11
159.99999999999952
 21
-133.45159968861972
 31
0.0
  0
LINE
  8
0
  6
CONTINUOUS
 62
               3
  5
19E
 10
154.99999999999952
 20
-135.95159968861972
 30
0.0
 11
154.99999999999952
 21
4.0484003113799929
 31
0.0
  0
LINE
  8
0
  6
CONTINUOUS
 62
               3
  5
19F
 10
154.31218750679415
 20
1.7199564373442797
 30
0.0
 11
154.31218750679415
 21
-133.62315581458398
 31
0.0
  0
LINE
  8
0
  6
CONTINUOUS
 62
               3
  5
1A0
 10
90.482497638530873
 20
-284.11326357847463
 30
0.0
 11
92.200921604771452
 21
-269.03084999543512
 31
0.0
  0
ARC
  8
0
  6
CONTINUOUS
 62
               3
  5
1A1
 10
89.716991965580007
 20
-268.7478419610153
 30
0.0
 40
2.5
 50
353.49999999993173
 51
443.49999999991411
  0
ARC
  8
0
  6
CONTINUOUS
 62
               3
  5
1A2
 10
88.004295868386691
 20
-283.77998268263229
 30
0.0
 40
2.5
 50
263.49999999994765
 51
353.49999999993173
  0
LINE
  8
0
  6
CONTINUOUS
 62
               3
  5
1A3
 10
-90.482497638531484
 20
-284.11326357847463
 30
0.0
 11
-92.200921604772063
 21
-269.03084999543512
 31
0.0
  0
ARC
  8
0
  6
CONTINUOUS
 62
               3
  5
1A4
 10
-89.716991965580547
 20
-268.7478419610153
 30
0.0
 40
2.5
 50
96.499999999981398
 51
186.49999999996413
  0
ARC
  8
0
  6
CONTINUOUS
 62
               3
  5
1A5
 10
-88.004295868387231
 20
-283.77998268263229
 30
0.0
 40
2.5
 50
186.49999999996413
 51
276.49999999994787
  0
LINE
  8
0
  6
CONTINUOUS
 62
               3
  5
1A6
 10
-87.721287833967295
 20
-286.26391232182391
 30
0.0
 11
-73.278712166033259
 21
-413.02477210235116
 31
0.0
  0
ARC
  8
0
  6
CONTINUOUS
 62
               3
  5
1A7
 10
-43.284018445716285
 20
-140.95159968861986
 30
0.0
 40
2.5
 50
269.99999999994782
 51
449.99999999991297
  0
ARC
  8
0
  6
CONTINUOUS
 62
               3
  5
1A8
 10
43.284018445715674
 20
-140.95159968861986
 30
0.0
 40
2.5
 50
89.999999999982535
 51
269.99999999994782
  0
CIRCLE
  8
0
  6
CONTINUOUS
 62
               3
  5
1A9
 10
-0.0000000000003411
 20
-78.451599688619865
 30
0.0
 40
57.5
  0
LINE
  8
0
  6
CONTINUOUS
 62
               3
  5
1AA
 10
26.787357092479112
 20
-50.451599688619979
 30
0.0
 11
-26.787357092479724
 21
-50.451599688619979
 31
0.0
  0
CIRCLE
  8
0
  6
CONTINUOUS
 62
               3
  5
1AB
 10
-0.0000000000003411
 20
-78.451599688619865
 30
0.0
 40
48.500000000000014
  0
CIRCLE
  8
0
  6
CONTINUOUS
 62
               3
  5
1AC
 10
-0.0000000000003411
 20
-78.451599688619865
 30
0.0
 40
38.75
  0
CIRCLE
  8
0
  6
CONTINUOUS
 62
               3
  5
1AD
 10
-0.0000000000003411
 20
-78.451599688619865
 30
0.0
 40
47.299999999999997
  0
LINE
  8
0
  6
CONTINUOUS
 62
               3
  5
1AE
 10
-31.819805153394881
 20
-110.27140484201419
 30
0.0
 11
-33.446150750123977
 21
-111.89775043874357
 31
0.0
  0
LINE
  8
0
  6
CONTINUOUS
 62
               3
  5
1AF
 10
31.81980515339427
 20
-110.27140484201419
 30
0.0
 11
33.446150750123365
 21
-111.89775043874357
 31
0.0
  0
ARC
  8
0
  6
CONTINUOUS
 62
               3
  5
1B0
 10
-0.0000000000003411
 20
-78.451599688619865
 30
0.0
 40
45.0
 50
224.99999999995646
 51
314.99999999993918
  0
CIRCLE
  8
0
  6
CONTINUOUS
 62
               3
  5
1B1
 10
-0.0000000000003411
 20
-78.451599688619865
 30
0.0
 40
43.0
  0
LINE
  8
0
  6
CONTINUOUS
 62
               3
  5
1B2
 10
-10.000000000000343
 20
-14.78534735542658
 30
0.0
 11
-10.000000000000343
 21
-2.4515996886198934
 31
0.0
  0
LINE
  8
0
  6
CONTINUOUS
 62
               3
  5
1B3
 10
9.9999999999996572
 20
-2.4515996886198934
 30
0.0
 11
9.9999999999996572
 21
-14.78534735542658
 31
0.0
  0
ARC
  8
0
  6
CONTINUOUS
 62
               3
  5
1B4
 10
-15.000000000000343
 20
-14.78534735542658
 30
0.0
 40
5.0
 50
283.34236379703344
 51
359.99999999993037
  0
ARC
  8
0
  6
CONTINUOUS
 62
               3
  5
1B5
 10
14.999999999999657
 20
-14.78534735542658
 30
0.0
 40
5.0
 50
179.99999999996524
 51
256.65763620286214
  0
ARC
  8
0
  6
CONTINUOUS
 62
               3
  5
1B6
 10
-15.000000000000343
 20
-2.4515996886198934
 30
0.0
 40
5.0
 50
0.0
 51
89.999999999982592
  0
ARC
  8
0
  6
CONTINUOUS
 62
               3
  5
1B7
 10
14.999999999999657
 20
-2.4515996886198934
 30
0.0
 40
5.0
 50
89.999999999982592
 51
179.99999999996524
  0
LINE
  8
0
  6
CONTINUOUS
 62
               3
  5
1B8
 10
-82.000000000000298
 20
-143.45159968861986
 30
0.0
 11
-43.284018445716285
 21
-143.45159968861986
 31
0.0
  0
LINE
  8
0
  6
CONTINUOUS
 62
               3
  5
1B9
 10
-82.000000000000298
 20
-138.45159968861986
 30
0.0
 11
-43.284018445716285
 21
-138.45159968861986
 31
0.0
  0
LINE
  8
0
  6
CONTINUOUS
 62
               3
  5
1BA
 10
-101.9837436327593
 20
2.5484003113801066
 30
0.0
 11
-15.000000000000343
 21
2.5484003113801066
 31
0.0
  0
ARC
  8
0
  6
CONTINUOUS
 62
               3
  5
1BB
 10
-94.73267052858904
 20
-2.2005265844495909
 30
0.0
 40
4.7489268958295181
 50
0.0
 51
89.999999999982663
  0
ARC
  8
0
  6
CONTINUOUS
 62
               3
  5
1BC
 10
-102.0000000000008
 20
5.5484003113798792
 30
0.0
 40
3.0000000000000004
 50
179.99999999996515
 51
269.99999999994782
  0
LINE
  8
0
  6
CONTINUOUS
 62
               3
  5
1BD
 10
-155.00000000000045
 20
-23.451599688619723
 30
0.0
 11
-154.32844387403622
 21
-23.451599688619723
 31
0.0
  0
LINE
  8
0
  6
CONTINUOUS
 62
               3
  5
1BE
 10
-152.00000000000034
 20
-21.123155814583839
 30
0.0
 11
-154.32844387403622
 21
-23.451599688619723
 31
0.0
  0
LINE
  8
0
  6
CONTINUOUS
 62
               3
  5
1BF
 10
-155.00000000000045
 20
-21.123155814583896
 30
0.0
 11
-157.50000000000045
 21
-21.123155814583896
 31
0.0
  0
ARC
  8
0
  6
CONTINUOUS
 62
               3
  5
1C0
 10
-157.50000000000045
 20
-23.623155814583896
 30
0.0
 40
2.5
 50
89.999999999982862
 51
179.99999999996524
  0
LINE
  8
0
  6
CONTINUOUS
 62
               3
  5
1C1
 10
-152.00000000000034
 20
-21.123155814583839
 30
0.0
 11
-94.8255025164882
 21
-19.126578367155616
 31
0.0
  0
ARC
  8
0
  6
CONTINUOUS
 62
               3
  5
1C2
 10
-95.000000000000568
 20
-14.129624232060138
 30
0.0
 40
5.0
 50
271.99999999994748
 51
359.99999999993048
  0
LINE
  8
0
  6
CONTINUOUS
 62
               3
  5
1C3
 10
-90.000000000000568
 20
-2.2005265844495909
 30
0.0
 11
-90.000000000000568
 21
-14.129624232060138
 31
0.0
  0
ARC
  8
0
  6
CONTINUOUS
 62
               3
  5
1C4
 10
-110.00000000000074
 20
-14.65343577443636
 30
0.0
 40
5.0
 50
271.99999999994748
 51
359.99999999993037
  0
LINE
  8
0
  6
CONTINUOUS
 62
               3
  5
1C5
 10
-155.00000000000045
 20
-133.45159968861955
 30
0.0
 11
-154.32844387403622
 21
-133.45159968861955
 31
0.0
  0
LINE
  8
0
  6
CONTINUOUS
 62
               3
  5
1C6
 10
-152.00000000000034
 20
-135.78004356265458
 30
0.0
 11
-154.32844387403622
 21
-133.45159968861955
 31
0.0
  0
LINE
  8
0
  6
CONTINUOUS
 62
               3
  5
1C7
 10
-155.00000000000045
 20
-135.7800435626551
 30
0.0
 11
-157.50000000000045
 21
-135.7800435626551
 31
0.0
  0
ARC
  8
0
  6
CONTINUOUS
 62
               3
  5
1C8
 10
-157.50000000000045
 20
-133.2800435626551
 30
0.0
 40
2.5
 50
179.99999999996524
 51
269.99999999994793
  0
LINE
  8
0
  6
CONTINUOUS
 62
               3
  5
1C9
 10
-152.00000000000034
 20
-135.78004356265458
 30
0.0
 11
-104.47275977548543
 21
-137.43973136311425
 31
0.0
  0
LINE
  8
0
  6
CONTINUOUS
 62
               3
  5
1CA
 10
-101.11172335306526
 20
-138.90115159227705
 30
0.0
 11
-91.464466094067404
 21
-148.54840885127513
 31
0.0
  0
ARC
  8
0
  6
CONTINUOUS
 62
               3
  5
1CB
 10
-95.000000000000341
 20
-152.08394275720772
 30
0.0
 40
5.0
 50
359.99999999993048
 51
404.99999999992122
  0
ARC
  8
0
  6
CONTINUOUS
 62
               3
  5
1CC
 10
-104.64725725899802
 20
-142.43668549820975
 30
0.0
 40
5.0
 50
44.999999999990628
 51
87.999999999982478
  0
LINE
  8
0
  6
CONTINUOUS
 62
               3
  5
1CD
 10
-154.32844387403622
 20
-23.451599688619723
 30
0.0
 11
-154.32844387403622
 21
-133.45159968861955
 31
0.0
  0
LINE
  8
0
  6
CONTINUOUS
 62
               3
  5
1CE
 10
-152.00000000000034
 20
-135.78004356265458
 30
0.0
 11
-152.00000000000034
 21
-21.123155814583839
 31
0.0
  0
LINE
  8
0
  6
CONTINUOUS
 62
               3
  5
1CF
 10
-155.00000000000045
 20
-135.7800435626551
 30
0.0
 11
-155.00000000000045
 21
-21.123155814583896
 31
0.0
  0
LINE
  8
0
  6
CONTINUOUS
 62
               3
  5
1D0
 10
-160.00000000000045
 20
-23.623155814583896
 30
0.0
 11
-160.00000000000045
 21
-133.2800435626551
 31
0.0
  0
ARC
  8
0
  6
CONTINUOUS
 62
               3
  5
1D1
 10
82.0
 20
-140.95159968862001
 30
0.0
 40
2.5
 50
269.99999999994759
 51
449.99999999991297
  0
LINE
  8
0
  6
CONTINUOUS
 62
               3
  5
1D2
 10
-105.00000000000091
 20
20.548400311379993
 30
0.0
 11
-105.00000000000074
 21
-14.65343577443636
 31
0.0
  0
LINE
  8
0
  6
CONTINUOUS
 62
               3
  5
1D3
 10
89.999999999999659
 20
-266.26391232182471
 30
0.0
 11
89.999999999999659
 21
-152.08394275720772
 31
0.0
  0
LINE
  8
0
  6
CONTINUOUS
 62
               3
  5
1D4
 10
14.999999999999657
 20
2.5484003113801634
 30
0.0
 11
101.99999999999977
 21
2.5484003113796518
 31
0.0
  0
LINE
  8
0
  6
CONTINUOUS
 62
               3
  5
1D5
 10
43.284018445715681
 20
-143.45159968862012
 30
0.0
 11
82.0
 21
-143.45159968862001
 31
0.0
  0
LINE
  8
0
  6
CONTINUOUS
 62
               3
  5
1D6
 10
43.284018445715681
 20
-138.45159968862023
 30
0.0
 11
82.0
 21
-138.45159968862023
 31
0.0
  0
LINE
  8
0
  6
CONTINUOUS
 62
               3
  5
1D7
 10
-71.000000000000355
 20
-433.02477210235048
 30
0.0
 11
70.999999999999602
 21
-433.02477210235185
 31
0.0
  0
LINE
  8
0
  6
CONTINUOUS
 62
               3
  5
1D8
 10
-73.278712166033117
 20
-413.02477210235105
 30
0.0
 11
73.278712166032648
 21
-413.02477210235105
 31
0.0
  0
LINE
  8
0
  6
CONTINUOUS
 62
               3
  5
1D9
 10
73.76120980456372
 20
-430.87412335900268
 30
0.0
 11
75.479633770804298
 21
-415.79170977596317
 31
0.0
  0
ARC
  8
0
  6
CONTINUOUS
 62
               3
  5
1DA
 10
72.995704131612854
 20
-415.50870174154335
 30
0.0
 40
2.5
 50
353.49999999993105
 51
443.49999999991411
  0
ARC
  8
0
  6
CONTINUOUS
 62
               3
  5
1DB
 10
71.283008034419538
 20
-430.54084246316035
 30
0.0
 40
2.5
 50
263.49999999994765
 51
353.49999999993105
  0
LINE
  8
0
  6
CONTINUOUS
 62
               3
  5
1DC
 10
-73.761209804564331
 20
-430.87412335900268
 30
0.0
 11
-75.479633770804909
 21
-415.79170977596317
 31
0.0
  0
ARC
  8
0
  6
CONTINUOUS
 62
               3
  5
1DD
 10
-72.995704131613394
 20
-415.50870174154335
 30
0.0
 40
2.5
 50
96.499999999981398
 51
186.49999999996413
  0
ARC
  8
0
  6
CONTINUOUS
 62
               3
  5
1DE
 10
-71.283008034420078
 20
-430.54084246316035
 30
0.0
 40
2.5
 50
186.49999999996413
 51
276.49999999994787
  0
LINE
  8
0
  6
CONTINUOUS
 62
               3
  5
1DF
 10
-71.0
 20
-433.02477210235185
 30
0.0
 11
-71.000000000000142
 21
-485.73805813198254
 31
0.0
  0
LINE
  8
0
  6
CONTINUOUS
 62
               3
  5
1E0
 10
70.999999999999602
 20
-433.02477210235185
 30
0.0
 11
70.999999999999602
 21
-485.73805813198254
 31
0.0
  0
LINE
  8
0
  6
CONTINUOUS
 62
               3
  5
1E1
 10
-55.000000000000341
 20
-616.45159968862004
 30
0.0
 11
54.999999999999659
 21
-616.45159968862004
 31
0.0
  0
LINE
  8
0
  6
CONTINUOUS
 62
               3
  5
1E2
 10
56.999999999999687
 20
-614.45159968861981
 30
0.0
 11
56.999999999999687
 21
-516.45159968862004
 31
0.0
  0
LINE
  8
0
  6
CONTINUOUS
 62
               3
  5
1E3
 10
-57.000000000000298
 20
-614.45159968861981
 30
0.0
 11
-57.000000000000298
 21
-516.45159968862004
 31
0.0
  0
LINE
  8
0
  6
CONTINUOUS
 62
               3
  5
1E4
 10
56.999999999999687
 20
-516.45159968862004
 30
0.0
 11
58.053042823173101
 21
-515.39855686544638
 31
0.0
  0
LINE
  8
0
  6
CONTINUOUS
 62
               3
  5
1E5
 10
-57.000000000000298
 20
-516.45159968862004
 30
0.0
 11
-58.05304282317357
 21
-515.39855686544638
 31
0.0
  0
LINE
  8
0
  6
CONTINUOUS
 62
               3
  5
1E6
 10
-55.000000000000341
 20
-616.45159968862004
 30
0.0
 11
-57.000000000000298
 21
-614.45159968861981
 31
0.0
  0
LINE
  8
0
  6
CONTINUOUS
 62
               3
  5
1E7
 10
54.999999999999659
 20
-616.45159968862004
 30
0.0
 11
56.999999999999687
 21
-614.45159968861981
 31
0.0
  0
LINE
  8
0
  6
CONTINUOUS
 62
               3
  5
1E8
 10
499.4999999999996
 20
28.54840031138005
 30
0.0
 11
499.4999999999996
 21
20.548400311380107
 31
0.0
  0
LINE
  8
0
  6
CONTINUOUS
 62
               3
  5
1E9
 10
700.49999999999989
 20
20.54840031138022
 30
0.0
 11
700.49999999999989
 21
28.54840031138022
 31
0.0
  0
LINE
  8
0
  6
CONTINUOUS
 62
               3
  5
1EA
 10
696.99999999999977
 20
22.048400311379993
 30
0.0
 11
666.99999999999977
 21
22.048400311379993
 31
0.0
  0
LINE
  8
0
  6
CONTINUOUS
 62
               3
  5
1EB
 10
696.99999999999977
 20
22.048400311379993
 30
0.0
 11
697.49999999999966
 21
20.548400311380107
 31
0.0
  0
LINE
  8
0
  6
CONTINUOUS
 62
               3
  5
1EC
 10
666.99999999999977
 20
22.048400311379993
 30
0.0
 11
665.49999999999989
 21
20.548400311380107
 31
0.0
  0
LINE
  8
0
  6
CONTINUOUS
 62
               3
  5
1ED
 10
697.49999999999966
 20
20.548400311380107
 30
0.0
 11
705.0
 21
20.548400311380107
 31
0.0
  0
LINE
  8
0
  6
CONTINUOUS
 62
               3
  5
1EE
 10
502.99999999999955
 20
22.048400311379993
 30
0.0
 11
532.99999999999955
 21
22.048400311379993
 31
0.0
  0
LINE
  8
0
  6
CONTINUOUS
 62
               3
  5
1EF
 10
502.99999999999955
 20
22.048400311379993
 30
0.0
 11
502.49999999999972
 21
20.548400311379936
 31
0.0
  0
LINE
  8
0
  6
CONTINUOUS
 62
               3
  5
1F0
 10
532.99999999999955
 20
22.048400311379993
 30
0.0
 11
534.49999999999966
 21
20.548400311380107
 31
0.0
  0
LINE
  8
0
  6
CONTINUOUS
 62
               3
  5
1F1
 10
502.49999999999972
 20
20.548400311379936
 30
0.0
 11
494.99999999999943
 21
20.548400311379936
 31
0.0
  0
LINE
  8
0
  6
CONTINUOUS
 62
               3
  5
1F2
 10
534.49999999999966
 20
20.548400311380107
 30
0.0
 11
665.49999999999989
 21
20.548400311380107
 31
0.0
  0
ARC
  8
0
  6
CONTINUOUS
 62
               3
  5
1F3
 10
497.99999999999966
 20
5.5484003113799361
 30
0.0
 40
3.0000000000000004
 50
179.99999999996515
 51
269.99999999994731
  0
ARC
  8
0
  6
CONTINUOUS
 62
               3
  5
1F4
 10
505.26732947141124
 20
-2.2005265844496478
 30
0.0
 40
4.7489268958295181
 50
359.99999999993031
 51
449.99999999991331
  0
ARC
  8
0
  6
CONTINUOUS
 62
               3
  5
1F5
 10
517.99999999999966
 20
-140.95159968861995
 30
0.0
 40
2.5
 50
89.999999999981569
 51
269.99999999994731
  0
LINE
  8
0
  6
CONTINUOUS
 62
               3
  5
1F6
 10
444.99999999999989
 20
-133.45159968861944
 30
0.0
 11
445.67155612596412
 21
-133.45159968861944
 31
0.0
  0
LINE
  8
0
  6
CONTINUOUS
 62
               3
  5
1F7
 10
448.0
 20
-135.78004356265453
 30
0.0
 11
445.67155612596412
 21
-133.45159968861944
 31
0.0
  0
LINE
  8
0
  6
CONTINUOUS
 62
               3
  5
1F8
 10
444.99999999999989
 20
-23.451599688619694
 30
0.0
 11
445.67155612596412
 21
-23.451599688619694
 31
0.0
  0
LINE
  8
0
  6
CONTINUOUS
 62
               3
  5
1F9
 10
448.0
 20
-21.123155814583811
 30
0.0
 11
445.67155612596412
 21
-23.451599688619694
 31
0.0
  0
LINE
  8
0
  6
CONTINUOUS
 62
               3
  5
1FA
 10
445.67155612596412
 20
-23.451599688619694
 30
0.0
 11
445.67155612596412
 21
-133.45159968861944
 31
0.0
  0
LINE
  8
0
  6
CONTINUOUS
 62
               3
  5
1FB
 10
448.0
 20
-135.78004356265453
 30
0.0
 11
448.0
 21
-21.123155814583811
 31
0.0
  0
LINE
  8
0
  6
CONTINUOUS
 62
               3
  5
1FC
 10
444.99999999999989
 20
-135.78004356265504
 30
0.0
 11
444.99999999999989
 21
-21.123155814583811
 31
0.0
  0
LINE
  8
0
  6
CONTINUOUS
 62
               3
  5
1FD
 10
444.99999999999989
 20
-21.123155814583811
 30
0.0
 11
442.49999999999989
 21
-21.123155814583811
 31
0.0
  0
ARC
  8
0
  6
CONTINUOUS
 62
               3
  5
1FE
 10
442.49999999999989
 20
-23.623155814583811
 30
0.0
 40
2.5
 50
89.999999999982862
 51
179.99999999996524
  0
LINE
  8
0
  6
CONTINUOUS
 62
               3
  5
1FF
 10
439.99999999999989
 20
-23.623155814583811
 30
0.0
 11
439.99999999999989
 21
-133.28004356265504
 31
0.0
  0
LINE
  8
0
  6
CONTINUOUS
 62
               3
  5
200
 10
444.99999999999989
 20
-135.78004356265504
 30
0.0
 11
442.49999999999989
 21
-135.78004356265504
 31
0.0
  0
ARC
  8
0
  6
CONTINUOUS
 62
               3
  5
201
 10
442.49999999999989
 20
-133.28004356265504
 30
0.0
 40
2.5
 50
179.99999999996524
 51
269.99999999994731
  0
LINE
  8
0
  6
CONTINUOUS
 62
               3
  5
202
 10
448.0
 20
-135.78004356265453
 30
0.0
 11
495.52724022451486
 21
-137.43973136311419
 31
0.0
  0
LINE
  8
0
  6
CONTINUOUS
 62
               3
  5
203
 10
448.0
 20
-21.123155814583811
 30
0.0
 11
505.17449748351214
 21
-19.126578367155588
 31
0.0
  0
ARC
  8
0
  6
CONTINUOUS
 62
               3
  5
204
 10
504.99999999999972
 20
-14.129624232060166
 30
0.0
 40
5.0
 50
271.99999999994765
 51
359.99999999993031
  0
LINE
  8
0
  6
CONTINUOUS
 62
               3
  5
205
 10
498.88827664693508
 20
-138.90115159227705
 30
0.0
 11
508.53553390593288
 21
-148.54840885127507
 31
0.0
  0
ARC
  8
0
  6
CONTINUOUS
 62
               3
  5
206
 10
505.0
 20
-152.08394275720772
 30
0.0
 40
5.0
 50
359.99999999993031
 51
404.99999999992122
  0
ARC
  8
0
  6
CONTINUOUS
 62
               3
  5
207
 10
689.9999999999992
 20
-140.95159968861995
 30
0.0
 40
2.5
 50
269.99999999994731
 51
449.99999999991297
  0
ARC
  8
0
  6
CONTINUOUS
 62
               3
  5
208
 10
495.35274274100232
 20
-142.4366854982097
 30
0.0
 40
5.0
 50
44.999999999990408
 51
87.999999999982478
  0
LINE
  8
0
  6
CONTINUOUS
 62
               3
  5
209
 10
509.99999999999972
 20
-2.2005265844496478
 30
0.0
 11
509.99999999999972
 21
-14.129624232060166
 31
0.0
  0
ARC
  8
0
  6
CONTINUOUS
 62
               3
  5
20A
 10
489.99999999999955
 20
-14.653435774436247
 30
0.0
 40
5.0
 50
271.99999999994765
 51
359.99999999993031
  0
ARC
  8
0
  6
CONTINUOUS
 62
               3
  5
20B
 10
701.99999999999989
 20
5.5484003113799361
 30
0.0
 40
3.0000000000000004
 50
269.99999999994731
 51
359.99999999993025
  0
ARC
  8
0
  6
CONTINUOUS
 62
               3
  5
20C
 10
694.99999999999898
 20
-2.4515996886200071
 30
0.0
 40
5.0
 50
89.999999999982862
 51
179.99999999996524
  0
LINE
  8
0
  6
CONTINUOUS
 62
               3
  5
20D
 10
689.99999999999898
 20
-2.4515996886200071
 30
0.0
 11
689.9999999999992
 21
-138.45159968861995
 31
0.0
  0
LINE
  8
0
  6
CONTINUOUS
 62
               3
  5
20E
 10
705.0
 20
20.548400311380107
 30
0.0
 11
704.99999999999989
 21
5.5484003113799361
 31
0.0
  0
LINE
  8
0
  6
CONTINUOUS
 62
               3
  5
20F
 10
494.99999999999943
 20
20.548400311379936
 30
0.0
 11
494.99999999999955
 21
-14.653435774436389
 31
0.0
  0
LINE
  8
0
  6
CONTINUOUS
 62
               3
  5
210
 10
509.99999999999989
 20
-266.26391232182459
 30
0.0
 11
510.0
 21
-152.08394275720772
 31
0.0
  0
LINE
  8
0
  6
CONTINUOUS
 62
               3
  5
211
 10
689.9999999999992
 20
-143.45159968861995
 30
0.0
 11
689.99999999999966
 21
-266.26391232182254
 31
0.0
  0
ARC
  8
0
  6
CONTINUOUS
 62
               3
  5
212
 10
556.71598155428376
 20
-140.95159968861986
 30
0.0
 40
2.5
 50
269.99999999994731
 51
449.99999999991297
  0
ARC
  8
0
  6
CONTINUOUS
 62
               3
  5
213
 10
643.28401844571567
 20
-140.95159968861986
 30
0.0
 40
2.5
 50
89.999999999981569
 51
269.99999999994731
  0
CIRCLE
  8
0
  6
CONTINUOUS
 62
               3
  5
214
 10
-600.00000000000034
 20
-78.451599688619865
 30
0.0
 40
57.5
  0
LINE
  8
0
  6
CONTINUOUS
 62
               3
  5
215
 10
-626.78735709247974
 20
-50.451599688619986
 30
0.0
 11
-573.21264290752094
 21
-50.451599688619986
 31
0.0
  0
CIRCLE
  8
0
  6
CONTINUOUS
 62
               3
  5
216
 10
-600.00000000000034
 20
-78.451599688619865
 30
0.0
 40
48.500000000000014
  0
CIRCLE
  8
0
  6
CONTINUOUS
 62
               3
  5
217
 10
-600.00000000000034
 20
-78.451599688619865
 30
0.0
 40
38.75
  0
CIRCLE
  8
0
  6
CONTINUOUS
 62
               3
  5
218
 10
-600.00000000000034
 20
-78.451599688619865
 30
0.0
 40
47.299999999999997
  0
LINE
  8
0
  6
CONTINUOUS
 62
               3
  5
219
 10
-568.18019484660579
 20
-110.27140484201419
 30
0.0
 11
-566.55384924987675
 21
-111.89775043874357
 31
0.0
  0
LINE
  8
0
  6
CONTINUOUS
 62
               3
  5
21A
 10
-631.8198051533949
 20
-110.27140484201419
 30
0.0
 11
-633.44615075012405
 21
-111.89775043874357
 31
0.0
  0
ARC
  8
0
  6
CONTINUOUS
 62
               3
  5
21B
 10
-600.00000000000034
 20
-78.451599688619865
 30
0.0
 40
45.0
 50
224.99999999995646
 51
314.99999999993912
  0
CIRCLE
  8
0
  6
CONTINUOUS
 62
               3
  5
21C
 10
-600.00000000000034
 20
-78.451599688619865
 30
0.0
 40
43.0
  0
LINE
  8
0
  6
CONTINUOUS
 62
               3
  5
21D
 10
-590.00000000000034
 20
-14.785347355426588
 30
0.0
 11
-590.00000000000034
 21
-2.4515996886198934
 31
0.0
  0
LINE
  8
0
  6
CONTINUOUS
 62
               3
  5
21E
 10
-610.00000000000034
 20
-2.4515996886198934
 30
0.0
 11
-610.00000000000034
 21
-14.785347355426588
 31
0.0
  0
ARC
  8
0
  6
CONTINUOUS
 62
               3
  5
21F
 10
-585.00000000000034
 20
-14.785347355426588
 30
0.0
 40
5.0
 50
179.99999999996524
 51
256.65763620286259
  0
ARC
  8
0
  6
CONTINUOUS
 62
               3
  5
220
 10
-615.00000000000034
 20
-14.785347355426588
 30
0.0
 40
5.0
 50
283.3423637970331
 51
359.99999999993037
  0
ARC
  8
0
  6
CONTINUOUS
 62
               3
  5
221
 10
-585.00000000000034
 20
-2.4515996886198934
 30
0.0
 40
5.0
 50
89.999999999982862
 51
179.99999999996524
  0
ARC
  8
0
  6
CONTINUOUS
 62
               3
  5
222
 10
-615.00000000000034
 20
-2.4515996886198934
 30
0.0
 40
5.0
 50
0.0
 51
89.999999999982862
  0
LINE
  8
0
  6
CONTINUOUS
 62
               3
  5
223
 10
-701.9837436327598
 20
2.5484003113799929
 30
0.0
 11
-616.67333200053395
 21
2.5484003113799929
 31
0.0
  0
LINE
  8
0
  6
CONTINUOUS
 62
               3
  5
224
 10
689.9999999999992
 20
-143.45159968862004
 30
0.0
 11
643.28401844571579
 21
-143.45159968861995
 31
0.0
  0
LINE
  8
0
  6
CONTINUOUS
 62
               3
  5
225
 10
689.9999999999992
 20
-138.45159968862004
 30
0.0
 11
643.28401844571579
 21
-138.45159968861995
 31
0.0
  0
LINE
  8
0
  6
CONTINUOUS
 62
               3
  5
226
 10
-498.01625636724134
 20
2.5484003113799929
 30
0.0
 11
-583.32666799946719
 21
2.5484003113799929
 31
0.0
  0
LINE
  8
0
  6
CONTINUOUS
 62
               3
  5
227
 10
517.99999999999966
 20
-143.45159968862001
 30
0.0
 11
556.71598155428387
 21
-143.45159968861995
 31
0.0
  0
LINE
  8
0
  6
CONTINUOUS
 62
               3
  5
228
 10
517.99999999999966
 20
-138.45159968861995
 30
0.0
 11
556.71598155428387
 21
-138.45159968861995
 31
0.0
  0
LINE
  8
0
  6
CONTINUOUS
 62
               3
  5
229
 10
529.00000000000034
 20
-433.02477210235185
 30
0.0
 11
528.99999999999989
 21
-485.73805813198254
 31
0.0
  0
LINE
  8
0
  6
CONTINUOUS
 62
               3
  5
22A
 10
670.99999999999966
 20
-433.02477210235185
 30
0.0
 11
670.99999999999966
 21
-485.73805813198254
 31
0.0
  0
LINE
  8
0
  6
CONTINUOUS
 62
               3
  5
22B
 10
544.99999999999966
 20
-616.45159968862004
 30
0.0
 11
654.99999999999966
 21
-616.45159968862004
 31
0.0
  0
LINE
  8
0
  6
CONTINUOUS
 62
               3
  5
22C
 10
656.99999999999966
 20
-614.45159968861981
 30
0.0
 11
656.99999999999966
 21
-516.45159968862004
 31
0.0
  0
LINE
  8
0
  6
CONTINUOUS
 62
               3
  5
22D
 10
542.99999999999966
 20
-614.45159968861981
 30
0.0
 11
542.99999999999966
 21
-516.45159968862004
 31
0.0
  0
LINE
  8
0
  6
CONTINUOUS
 62
               3
  5
22E
 10
656.99999999999966
 20
-516.45159968862004
 30
0.0
 11
658.05304282317309
 21
-515.39855686544638
 31
0.0
  0
LINE
  8
0
  6
CONTINUOUS
 62
               3
  5
22F
 10
542.99999999999966
 20
-516.45159968862004
 30
0.0
 11
541.94695717682646
 21
-515.39855686544661
 31
0.0
  0
LINE
  8
0
  6
CONTINUOUS
 62
               3
  5
230
 10
544.99999999999966
 20
-616.45159968862004
 30
0.0
 11
542.99999999999966
 21
-614.45159968861981
 31
0.0
  0
LINE
  8
0
  6
CONTINUOUS
 62
               3
  5
231
 10
654.99999999999966
 20
-616.45159968862004
 30
0.0
 11
656.99999999999966
 21
-614.45159968861981
 31
0.0
  0
LINE
  8
0
  6
CONTINUOUS
 62
               3
  5
232
 10
-499.49999999999977
 20
28.54840031138005
 30
0.0
 11
-499.49999999999977
 21
20.548400311380107
 31
0.0
  0
LINE
  8
0
  6
CONTINUOUS
 62
               3
  5
233
 10
-700.49999999999977
 20
20.54840031138022
 30
0.0
 11
-700.49999999999977
 21
28.54840031138022
 31
0.0
  0
LINE
  8
0
  6
CONTINUOUS
 62
               3
  5
234
 10
-696.99999999999977
 20
22.04840031138005
 30
0.0
 11
-666.99999999999977
 21
22.04840031138005
 31
0.0
  0
LINE
  8
0
  6
CONTINUOUS
 62
               3
  5
235
 10
-705.0
 20
20.548400311380107
 30
0.0
 11
-705.0
 21
5.5484003113799361
 31
0.0
  0
LINE
  8
0
  6
CONTINUOUS
 62
               3
  5
236
 10
-696.99999999999977
 20
22.04840031138005
 30
0.0
 11
-697.49999999999977
 21
20.548400311380107
 31
0.0
  0
LINE
  8
0
  6
CONTINUOUS
 62
               3
  5
237
 10
-666.99999999999977
 20
22.04840031138005
 30
0.0
 11
-665.49999999999977
 21
20.548400311380107
 31
0.0
  0
LINE
  8
0
  6
CONTINUOUS
 62
               3
  5
238
 10
-697.49999999999977
 20
20.548400311380107
 30
0.0
 11
-705.0
 21
20.548400311380107
 31
0.0
  0
LINE
  8
0
  6
CONTINUOUS
 62
               3
  5
239
 10
-502.99999999999966
 20
22.048400311379936
 30
0.0
 11
-532.99999999999966
 21
22.048400311379936
 31
0.0
  0
LINE
  8
0
  6
CONTINUOUS
 62
               3
  5
23A
 10
-502.99999999999966
 20
22.048400311379936
 30
0.0
 11
-502.49999999999989
 21
20.548400311379936
 31
0.0
  0
LINE
  8
0
  6
CONTINUOUS
 62
               3
  5
23B
 10
-532.99999999999966
 20
22.048400311379936
 30
0.0
 11
-534.49999999999977
 21
20.54840031138005
 31
0.0
  0
LINE
  8
0
  6
CONTINUOUS
 62
               3
  5
23C
 10
-502.49999999999989
 20
20.548400311379936
 30
0.0
 11
-494.99999999999955
 21
20.548400311379936
 31
0.0
  0
LINE
  8
0
  6
CONTINUOUS
 62
               3
  5
23D
 10
-534.49999999999977
 20
20.54840031138005
 30
0.0
 11
-665.49999999999977
 21
20.548400311380107
 31
0.0
  0
ARC
  8
0
  6
CONTINUOUS
 62
               3
  5
23E
 10
-556.71598155428399
 20
-140.95159968861998
 30
0.0
 40
2.5
 50
89.999999999981569
 51
269.99999999994731
  0
LINE
  8
0
  6
CONTINUOUS
 62
               3
  5
23F
 10
-643.2840184457159
 20
-143.45159968861992
 30
0.0
 11
-689.99999999999932
 21
-143.45159968861989
 31
0.0
  0
LINE
  8
0
  6
CONTINUOUS
 62
               3
  5
240
 10
-643.2840184457159
 20
-138.45159968861992
 30
0.0
 11
-689.99999999999932
 21
-138.45159968861989
 31
0.0
  0
ARC
  8
0
  6
CONTINUOUS
 62
               3
  5
241
 10
-643.2840184457159
 20
-140.95159968861992
 30
0.0
 40
2.5
 50
269.99999999994731
 51
449.99999999991297
  0
ARC
  8
0
  6
CONTINUOUS
 62
               3
  5
242
 10
-689.99999999999932
 20
-140.95159968861989
 30
0.0
 40
2.5
 50
89.999999999981569
 51
269.99999999994731
  0
LINE
  8
0
  6
CONTINUOUS
 62
               3
  5
243
 10
616.67333200053292
 20
2.5484003113799929
 30
0.0
 11
701.9999999999992
 21
2.5484003113799929
 31
0.0
  0
ARC
  8
0
  6
CONTINUOUS
 62
               3
  5
244
 10
-701.99999999999989
 20
5.5484003113799361
 30
0.0
 40
3.0000000000000004
 50
179.99999999996515
 51
269.99999999994731
  0
LINE
  8
0
  6
CONTINUOUS
 62
               3
  5
245
 10
-689.99999999999932
 20
-143.45159968861989
 30
0.0
 11
-690.0
 21
-266.26391232182254
 31
0.0
  0
ARC
  8
0
  6
CONTINUOUS
 62
               3
  5
246
 10
-694.99999999999909
 20
-2.4515996886200071
 30
0.0
 40
5.0
 50
359.99999999993031
 51
449.99999999991297
  0
LINE
  8
0
  6
CONTINUOUS
 62
               3
  5
247
 10
-689.99999999999909
 20
-2.4515996886200071
 30
0.0
 11
-689.99999999999909
 21
-138.45159968861989
 31
0.0
  0
CIRCLE
  8
0
  6
CONTINUOUS
 62
               3
  5
248
 10
599.99999999999943
 20
-65.951599688619893
 30
0.0
 40
60.999999999999879
  0
CIRCLE
  8
0
  6
CONTINUOUS
 62
               3
  5
249
 10
599.99999999999943
 20
-65.951599688619893
 30
0.0
 40
59.799999999999862
  0
CIRCLE
  8
0
  6
CONTINUOUS
 62
               3
  5
24A
 10
599.99999999999943
 20
-65.951599688619893
 30
0.0
 40
55.499999999999865
  0
CIRCLE
  8
0
  6
CONTINUOUS
 62
               3
  5
24B
 10
599.99999999999943
 20
-65.951599688619893
 30
0.0
 40
51.249999999999865
  0
ARC
  8
0
  6
CONTINUOUS
 62
               3
  5
24C
 10
599.99999999999943
 20
-65.951599688619893
 30
0.0
 40
57.499999999999865
 50
224.99999999995649
 51
314.99999999993912
  0
LINE
  8
0
  6
CONTINUOUS
 62
               3
  5
24D
 10
640.65863991822584
 20
-106.61023960684628
 30
0.0
 11
642.284985514955
 21
-108.23658520357534
 31
0.0
  0
LINE
  8
0
  6
CONTINUOUS
 62
               3
  5
24E
 10
559.34136008177302
 20
-106.61023960684628
 30
0.0
 11
557.71501448504398
 21
-108.23658520357534
 31
0.0
  0
CIRCLE
  8
0
  6
CONTINUOUS
 62
               3
  5
24F
 10
599.99999999999943
 20
-65.951599688619893
 30
0.0
 40
70.5
  0
ARC
  8
0
  6
CONTINUOUS
 62
               3
  5
250
 10
-505.26732947141141
 20
-2.2005265844495909
 30
0.0
 40
4.7489268958295181
 50
89.999999999982663
 51
179.99999999996515
  0
ARC
  8
0
  6
CONTINUOUS
 62
               3
  5
251
 10
-497.99999999999966
 20
5.5484003113798792
 30
0.0
 40
3.0000000000000004
 50
269.99999999994731
 51
359.99999999993025
  0
LINE
  8
0
  6
CONTINUOUS
 62
               3
  5
252
 10
-445.0
 20
-23.451599688619751
 30
0.0
 11
-445.67155612596423
 21
-23.451599688619751
 31
0.0
  0
LINE
  8
0
  6
CONTINUOUS
 62
               3
  5
253
 10
-448.00000000000011
 20
-21.123155814583868
 30
0.0
 11
-445.67155612596423
 21
-23.451599688619751
 31
0.0
  0
LINE
  8
0
  6
CONTINUOUS
 62
               3
  5
254
 10
-445.0
 20
-21.123155814583924
 30
0.0
 11
-442.5
 21
-21.123155814583924
 31
0.0
  0
ARC
  8
0
  6
CONTINUOUS
 62
               3
  5
255
 10
-442.5
 20
-23.623155814583924
 30
0.0
 40
2.5
 50
0.0
 51
89.999999999982862
  0
LINE
  8
0
  6
CONTINUOUS
 62
               3
  5
256
 10
-448.00000000000011
 20
-21.123155814583868
 30
0.0
 11
-505.17449748351225
 21
-19.126578367155645
 31
0.0
  0
ARC
  8
0
  6
CONTINUOUS
 62
               3
  5
257
 10
-504.99999999999989
 20
-14.129624232060166
 30
0.0
 40
5.0
 50
179.99999999996524
 51
267.99999999994816
  0
LINE
  8
0
  6
CONTINUOUS
 62
               3
  5
258
 10
-509.99999999999989
 20
-2.2005265844495909
 30
0.0
 11
-509.99999999999989
 21
-14.129624232060166
 31
0.0
  0
ARC
  8
0
  6
CONTINUOUS
 62
               3
  5
259
 10
-489.99999999999972
 20
-14.653435774436389
 30
0.0
 40
5.0
 50
179.99999999996524
 51
267.99999999994816
  0
ARC
  8
0
  6
CONTINUOUS
 62
               3
  5
25A
 10
-517.99999999999977
 20
-140.95159968862004
 30
0.0
 40
2.5
 50
269.99999999994731
 51
449.99999999991297
  0
LINE
  8
0
  6
CONTINUOUS
 62
               3
  5
25B
 10
-445.0
 20
-133.45159968861958
 30
0.0
 11
-445.67155612596423
 21
-133.45159968861958
 31
0.0
  0
LINE
  8
0
  6
CONTINUOUS
 62
               3
  5
25C
 10
-448.00000000000011
 20
-135.78004356265461
 30
0.0
 11
-445.67155612596423
 21
-133.45159968861958
 31
0.0
  0
LINE
  8
0
  6
CONTINUOUS
 62
               3
  5
25D
 10
-445.0
 20
-135.78004356265512
 30
0.0
 11
-442.5
 21
-135.78004356265512
 31
0.0
  0
ARC
  8
0
  6
CONTINUOUS
 62
               3
  5
25E
 10
-442.5
 20
-133.28004356265512
 30
0.0
 40
2.5
 50
269.99999999994731
 51
359.99999999993048
  0
LINE
  8
0
  6
CONTINUOUS
 62
               3
  5
25F
 10
-448.00000000000011
 20
-135.78004356265461
 30
0.0
 11
-495.52724022451503
 21
-137.43973136311428
 31
0.0
  0
LINE
  8
0
  6
CONTINUOUS
 62
               3
  5
260
 10
-498.8882766469352
 20
-138.90115159227707
 30
0.0
 11
-508.53553390593305
 21
-148.54840885127516
 31
0.0
  0
ARC
  8
0
  6
CONTINUOUS
 62
               3
  5
261
 10
-505.00000000000011
 20
-152.08394275720775
 30
0.0
 40
5.0
 50
134.99999999997439
 51
179.99999999996524
  0
ARC
  8
0
  6
CONTINUOUS
 62
               3
  5
262
 10
-495.35274274100243
 20
-142.43668549820978
 30
0.0
 40
5.0
 50
91.999999999982592
 51
134.99999999997448
  0
LINE
  8
0
  6
CONTINUOUS
 62
               3
  5
263
 10
-494.99999999999955
 20
20.548400311379936
 30
0.0
 11
-494.99999999999972
 21
-14.653435774436389
 31
0.0
  0
LINE
  8
0
  6
CONTINUOUS
 62
               3
  5
264
 10
-445.67155612596423
 20
-23.451599688619751
 30
0.0
 11
-445.67155612596423
 21
-133.45159968861958
 31
0.0
  0
LINE
  8
0
  6
CONTINUOUS
 62
               3
  5
265
 10
-448.00000000000011
 20
-135.78004356265461
 30
0.0
 11
-448.00000000000011
 21
-21.123155814583868
 31
0.0
  0
LINE
  8
0
  6
CONTINUOUS
 62
               3
  5
266
 10
-445.0
 20
-135.78004356265512
 30
0.0
 11
-445.0
 21
-21.123155814583924
 31
0.0
  0
LINE
  8
0
  6
CONTINUOUS
 62
               3
  5
267
 10
-440.0
 20
-23.623155814583924
 30
0.0
 11
-440.0
 21
-133.28004356265512
 31
0.0
  0
LINE
  8
0
  6
CONTINUOUS
 62
               3
  5
268
 10
498.01625636723998
 20
2.5484003113799361
 30
0.0
 11
583.32666799946583
 21
2.5484003113799929
 31
0.0
  0
LINE
  8
0
  6
CONTINUOUS
 62
               3
  5
269
 10
-517.99999999999977
 20
-143.45159968862004
 30
0.0
 11
-556.71598155428399
 21
-143.45159968861998
 31
0.0
  0
LINE
  8
0
  6
CONTINUOUS
 62
               3
  5
26A
 10
-517.99999999999977
 20
-138.45159968862004
 30
0.0
 11
-556.71598155428399
 21
-138.45159968861998
 31
0.0
  0
LINE
  8
0
  6
CONTINUOUS
 62
               3
  5
26B
 10
-510.00000000000011
 20
-266.26391232182459
 30
0.0
 11
-510.00000000000011
 21
-152.08394275720775
 31
0.0
  0
LINE
  8
0
  6
CONTINUOUS
 62
               3
  5
26C
 10
-529.00000000000023
 20
-433.02477210235196
 30
0.0
 11
-529.00000000000023
 21
-485.73805813198265
 31
0.0
  0
LINE
  8
0
  6
CONTINUOUS
 62
               3
  5
26D
 10
-670.99999999999955
 20
-433.02477210235196
 30
0.0
 11
-671.0
 21
-485.73805813198265
 31
0.0
  0
LINE
  8
0
  6
CONTINUOUS
 62
               3
  5
26E
 10
-655.00000000000011
 20
-616.45159968862004
 30
0.0
 11
-545.00000000000011
 21
-616.45159968862004
 31
0.0
  0
LINE
  8
0
  6
CONTINUOUS
 62
               3
  5
26F
 10
-543.00000000000011
 20
-614.45159968861981
 30
0.0
 11
-543.00000000000011
 21
-516.45159968862004
 31
0.0
  0
LINE
  8
0
  6
CONTINUOUS
 62
               3
  5
270
 10
-657.00000000000011
 20
-614.45159968861981
 30
0.0
 11
-657.00000000000011
 21
-516.45159968862004
 31
0.0
  0
LINE
  8
0
  6
CONTINUOUS
 62
               3
  5
271
 10
-543.00000000000011
 20
-516.45159968862004
 30
0.0
 11
-541.94695717682669
 21
-515.39855686544638
 31
0.0
  0
LINE
  8
0
  6
CONTINUOUS
 62
               3
  5
272
 10
-657.00000000000011
 20
-516.45159968862004
 30
0.0
 11
-658.05304282317331
 21
-515.39855686544661
 31
0.0
  0
LINE
  8
0
  6
CONTINUOUS
 62
               3
  5
273
 10
-655.00000000000011
 20
-616.45159968862004
 30
0.0
 11
-657.00000000000011
 21
-614.45159968861981
 31
0.0
  0
LINE
  8
0
  6
CONTINUOUS
 62
               3
  5
274
 10
-545.00000000000011
 20
-616.45159968862004
 30
0.0
 11
-543.00000000000011
 21
-614.45159968861981
 31
0.0
  0
ARC
  8
0
  6
CONTINUOUS
 62
               3
  5
275
 10
-77.781745930520486
 20
620.33014624189991
 30
0.0
 40
17.5
 50
97.698209707834295
 51
172.30179029211342
  0
ARC
  8
0
  6
CONTINUOUS
 62
               3
  5
276
 10
77.781745930519875
 20
620.33014624189991
 30
0.0
 40
17.5
 50
7.6982097078516123
 51
82.30179029213096
  0
LINE
  8
0
  6
CONTINUOUS
 62
               3
  5
277
 10
104.05367551208749
 20
556.61369847477226
 30
0.0
 11
95.124025182534467
 21
622.67436260246541
 31
0.0
  0
ARC
  8
0
  6
CONTINUOUS
 62
               3
  5
278
 10
-77.781745930520486
 20
464.76665438085973
 30
0.0
 40
17.5
 50
187.69820970781666
 51
262.3017902920962
  0
LINE
  8
0
  6
CONTINUOUS
 62
               3
  5
279
 10
-80.12596229108587
 20
447.42437512884516
 30
0.0
 11
-14.06529816339264
 21
438.49472479929233
 31
0.0
  0
ARC
  8
0
  6
CONTINUOUS
 62
               3
  5
27A
 10
77.781745930519875
 20
464.76665438085973
 30
0.0
 40
17.5
 50
277.69820970779944
 51
352.30179029207886
  0
LINE
  8
0
  6
CONTINUOUS
 62
               3
  5
27B
 10
80.125962291085116
 20
447.42437512884516
 30
0.0
 11
14.065298163391887
 21
438.49472479929233
 31
0.0
  0
LINE
  8
0
  6
CONTINUOUS
 62
               3
  5
27C
 10
104.05367551208749
 20
528.48310214798744
 30
0.0
 11
95.124025182534467
 21
462.42243802029435
 31
0.0
  0
ARC
  8
0
  6
CONTINUOUS
 62
               3
  5
27D
 10
-0.0000000000003411
 20
542.54840031137996
 30
0.0
 40
105.0
 50
262.30179029209626
 51
277.69820970779938
  0
ARC
  8
0
  6
CONTINUOUS
 62
               3
  5
27E
 10
-0.0000000000003411
 20
542.54840031137996
 30
0.0
 40
105.0
 50
352.30179029207875
 51
367.69820970778204
  0
LINE
  8
0
  6
CONTINUOUS
 62
               3
  5
27F
 10
-96.229529997969422
 20
614.49594803876744
 30
0.0
 11
-95.124025182535149
 21
622.67436260246541
 31
0.0
  0
LINE
  8
0
  6
CONTINUOUS
 62
               3
  5
280
 10
-96.229529997969422
 20
614.49594803876744
 30
0.0
 11
-104.05367551208818
 21
556.61369847477226
 31
0.0
  0
ARC
  8
0
  6
CONTINUOUS
 62
               3
  5
281
 10
-0.0000000000003411
 20
542.54840031137996
 30
0.0
 40
105.0
 50
172.30179029211342
 51
187.69820970781697
  0
LINE
  8
0
  6
CONTINUOUS
 62
               3
  5
282
 10
-96.229607097849822
 20
470.60142296123269
 30
0.0
 11
-95.124025182535149
 21
462.42243802029435
 31
0.0
  0
LINE
  8
0
  6
CONTINUOUS
 62
               3
  5
283
 10
-104.05367551208818
 20
528.48310214798744
 30
0.0
 11
-96.229607097849822
 21
470.60142296123269
 31
0.0
  0
LINE
  8
0
  6
CONTINUOUS
 62
               3
  5
284
 10
-59.388263356383874
 20
640.47561257311941
 30
0.0
 11
-14.06529816339264
 21
646.60207582346766
 31
0.0
  0
LINE
  8
0
  6
CONTINUOUS
 62
               3
  5
285
 10
-80.12596229108587
 20
637.67242549391472
 30
0.0
 11
-59.388263356383874
 21
640.47561257311941
 31
0.0
  0
ARC
  8
0
  6
CONTINUOUS
 62
               3
  5
286
 10
-0.0000000000003411
 20
542.54840031137996
 30
0.0
 40
105.0
 50
82.30179029213096
 51
97.698209707834224
  0
LINE
  8
0
  6
CONTINUOUS
 62
               3
  5
287
 10
14.065298163391887
 20
646.60207582346766
 30
0.0
 11
59.278057624589678
 21
640.49050946618308
 31
0.0
  0
LINE
  8
0
  6
CONTINUOUS
 62
               3
  5
288
 10
80.125962291085116
 20
637.67242549391472
 30
0.0
 11
59.278057624589678
 21
640.49050946618308
 31
0.0
  0
LINE
  8
0
  6
CONTINUOUS
 62
               3
  5
289
 10
151.98374363275832
 20
612.54840031137974
 30
0.0
 11
151.98374363275832
 21
472.5478326265266
 31
0.0
  0
LINE
  8
0
  6
CONTINUOUS
 62
               3
  5
28A
 10
154.99999999999957
 20
610.21995643734385
 30
0.0
 11
154.3121875067942
 21
610.21995643734385
 31
0.0
  0
LINE
  8
0
  6
CONTINUOUS
 62
               3
  5
28B
 10
151.98374363275832
 20
612.54840031137974
 30
0.0
 11
154.3121875067942
 21
610.21995643734385
 31
0.0
  0
LINE
  8
0
  6
CONTINUOUS
 62
               3
  5
28C
 10
154.99999999999957
 20
612.54840031137974
 30
0.0
 11
157.49999999999957
 21
612.54840031137974
 31
0.0
  0
ARC
  8
0
  6
CONTINUOUS
 62
               3
  5
28D
 10
157.49999999999957
 20
610.04840031137974
 30
0.0
 40
2.5
 50
0.0
 51
89.999999999982862
  0
LINE
  8
0
  6
CONTINUOUS
 62
               3
  5
28E
 10
154.99999999999957
 20
474.87684418541556
 30
0.0
 11
154.3121875067942
 21
474.87684418541556
 31
0.0
  0
LINE
  8
0
  6
CONTINUOUS
 62
               3
  5
28F
 10
151.98374363275832
 20
472.54840031137968
 30
0.0
 11
154.3121875067942
 21
474.87684418541556
 31
0.0
  0
LINE
  8
0
  6
CONTINUOUS
 62
               3
  5
290
 10
154.99999999999957
 20
472.54840031138002
 30
0.0
 11
157.49999999999957
 21
472.54840031138002
 31
0.0
  0
ARC
  8
0
  6
CONTINUOUS
 62
               3
  5
291
 10
157.49999999999957
 20
475.04840031138002
 30
0.0
 40
2.5
 50
269.99999999994793
 51
359.99999999993145
  0
LINE
  8
0
  6
CONTINUOUS
 62
               3
  5
292
 10
159.99999999999957
 20
610.04840031137974
 30
0.0
 11
159.99999999999957
 21
475.04840031138002
 31
0.0
  0
LINE
  8
0
  6
CONTINUOUS
 62
               3
  5
293
 10
154.99999999999957
 20
472.54840031138002
 30
0.0
 11
154.99999999999957
 21
612.54840031137974
 31
0.0
  0
LINE
  8
0
  6
CONTINUOUS
 62
               3
  5
294
 10
154.3121875067942
 20
610.21995643734385
 30
0.0
 11
154.3121875067942
 21
474.87684418541556
 31
0.0
  0
LINE
  8
0
  6
CONTINUOUS
 62
               3
  5
295
 10
151.98374363275832
 20
612.54840031137974
 30
0.0
 11
96.229607097849353
 21
614.49537766152662
 31
0.0
  0
LINE
  8
0
  6
CONTINUOUS
 62
               3
  5
296
 10
151.99999999999946
 20
472.54840031137968
 30
0.0
 11
96.229529997968527
 21
470.60085258399164
 31
0.0
  0
LINE
  8
0
  6
CONTINUOUS
 62
               3
  5
297
 10
-155.00000000000023
 20
487.54840031138036
 30
0.0
 11
-154.328443874036
 21
487.54840031138036
 31
0.0
  0
LINE
  8
0
  6
CONTINUOUS
 62
               3
  5
298
 10
-152.00000000000011
 20
485.21995643734539
 30
0.0
 11
-154.328443874036
 21
487.54840031138036
 31
0.0
  0
LINE
  8
0
  6
CONTINUOUS
 62
               3
  5
299
 10
-155.00000000000023
 20
597.54840031137996
 30
0.0
 11
-154.328443874036
 21
597.54840031137996
 31
0.0
  0
LINE
  8
0
  6
CONTINUOUS
 62
               3
  5
29A
 10
-152.00000000000011
 20
599.87684418541585
 30
0.0
 11
-154.328443874036
 21
597.54840031137996
 31
0.0
  0
LINE
  8
0
  6
CONTINUOUS
 62
               3
  5
29B
 10
-154.328443874036
 20
597.54840031137996
 30
0.0
 11
-154.328443874036
 21
487.54840031138036
 31
0.0
  0
LINE
  8
0
  6
CONTINUOUS
 62
               3
  5
29C
 10
-152.00000000000011
 20
485.21995643734539
 30
0.0
 11
-152.00000000000011
 21
599.87684418541585
 31
0.0
  0
LINE
  8
0
  6
CONTINUOUS
 62
               3
  5
29D
 10
-155.00000000000023
 20
485.21995643734471
 30
0.0
 11
-155.00000000000023
 21
599.87684418541585
 31
0.0
  0
LINE
  8
0
  6
CONTINUOUS
 62
               3
  5
29E
 10
-155.00000000000023
 20
599.87684418541585
 30
0.0
 11
-157.50000000000023
 21
599.87684418541585
 31
0.0
  0
ARC
  8
0
  6
CONTINUOUS
 62
               3
  5
29F
 10
-157.50000000000023
 20
597.37684418541585
 30
0.0
 40
2.5
 50
89.999999999982862
 51
179.99999999996572
  0
LINE
  8
0
  6
CONTINUOUS
 62
               3
  5
2A0
 10
-160.00000000000023
 20
597.37684418541585
 30
0.0
 11
-160.00000000000023
 21
487.71995643734471
 31
0.0
  0
LINE
  8
0
  6
CONTINUOUS
 62
               3
  5
2A1
 10
-155.00000000000023
 20
485.21995643734471
 30
0.0
 11
-157.50000000000023
 21
485.21995643734471
 31
0.0
  0
ARC
  8
0
  6
CONTINUOUS
 62
               3
  5
2A2
 10
-157.50000000000023
 20
487.71995643734471
 30
0.0
 40
2.5
 50
179.99999999996572
 51
269.99999999994793
  0
LINE
  8
0
  6
CONTINUOUS
 62
               3
  5
2A3
 10
-152.00000000000011
 20
485.21995643734539
 30
0.0
 11
-97.950512085123009
 21
483.33250672872231
 31
0.0
  0
LINE
  8
0
  6
CONTINUOUS
 62
               3
  5
2A4
 10
-152.00000000000011
 20
599.87684418541585
 30
0.0
 11
-97.950512085123009
 21
601.76429389403893
 31
0.0
  0
LINE
  8
0
  6
CONTINUOUS
 62
               3
  5
2A5
 10
-83.792153570605933
 20
626.34055388198544
 30
0.0
 11
-93.377298326945976
 21
616.75540912564543
 31
0.0
  0
CIRCLE
  8
0
  6
CONTINUOUS
 62
               3
  5
2A6
 10
-77.781745930520486
 20
620.33014624189991
 30
0.0
 40
8.5
  0
ARC
  8
0
  6
CONTINUOUS
 62
               3
  5
2A7
 10
-77.781745930519918
 20
620.33014624190059
 30
0.0
 40
16.000000000000014
 50
192.91004874368397
 51
257.08995125623147
  0
LINE
  8
0
  6
CONTINUOUS
 62
               3
  5
2A8
 10
-81.356483046774372
 20
604.73459384547436
 30
0.0
 11
-71.771338290434684
 21
614.31973860181415
 31
0.0
  0
LINE
  8
0
  6
CONTINUOUS
 62
               3
  5
2A9
 10
74.207008814266146
 20
635.92569863832568
 30
0.0
 11
83.792153570605834
 21
626.34055388198612
 31
0.0
  0
CIRCLE
  8
0
  6
CONTINUOUS
 62
               3
  5
2AA
 10
77.781745930520032
 20
620.33014624190014
 30
0.0
 40
8.5
  0
ARC
  8
0
  6
CONTINUOUS
 62
               3
  5
2AB
 10
77.7817459305206
 20
620.33014624189946
 30
0.0
 40
16.000000000000014
 50
102.91004874369884
 51
167.08995125624668
  0
LINE
  8
0
  6
CONTINUOUS
 62
               3
  5
2AC
 10
71.771338290434585
 20
614.31973860181461
 30
0.0
 11
62.186193534094535
 21
623.90488335815485
 31
0.0
  0
LINE
  8
0
  6
CONTINUOUS
 62
               3
  5
2AD
 10
81.356483046773761
 20
480.36220677728517
 30
0.0
 11
71.771338290434073
 21
470.77706202094549
 31
0.0
  0
LINE
  8
0
  6
CONTINUOUS
 62
               3
  5
2AE
 10
83.792153570605322
 20
458.7562467407742
 30
0.0
 11
93.377298326945365
 21
468.34139149711422
 31
0.0
  0
CIRCLE
  8
0
  6
CONTINUOUS
 62
               3
  5
2AF
 10
77.781745930519875
 20
464.76665438085973
 30
0.0
 40
8.5
  0
ARC
  8
0
  6
CONTINUOUS
 62
               3
  5
2B0
 10
77.781745930519307
 20
464.76665438085894
 30
0.0
 40
16.000000000000014
 50
12.910048743718656
 51
77.08995125626636
  0
LINE
  8
0
  6
CONTINUOUS
 62
               3
  5
2B1
 10
-74.207008814266828
 20
449.17110198443453
 30
0.0
 11
-83.792153570606516
 21
458.7562467407742
 31
0.0
  0
LINE
  8
0
  6
CONTINUOUS
 62
               3
  5
2B2
 10
-71.771338290435267
 20
470.77706202094549
 30
0.0
 11
-62.186193534095224
 21
461.19191726460548
 31
0.0
  0
CIRCLE
  8
0
  6
CONTINUOUS
 62
               3
  5
2B3
 10
-77.781745930520714
 20
464.76665438085996
 30
0.0
 40
8.5
  0
ARC
  8
0
  6
CONTINUOUS
 62
               3
  5
2B4
 10
-77.781745930521282
 20
464.76665438086076
 30
0.0
 40
16.000000000000014
 50
282.91004874366399
 51
347.08995125621158
  0
LINE
  8
0
  6
CONTINUOUS
 62
               3
  5
2B5
 10
-55.000000000000014
 20
387.54840031138014
 30
0.0
 11
-55.000000000000014
 21
388.21995643734436
 31
0.0
  0
LINE
  8
0
  6
CONTINUOUS
 62
               3
  5
2B6
 10
-57.328443874035045
 20
390.54840031138025
 30
0.0
 11
-55.000000000000014
 21
388.21995643734436
 31
0.0
  0
LINE
  8
0
  6
CONTINUOUS
 62
               3
  5
2B7
 10
54.999999999999645
 20
387.54840031138014
 30
0.0
 11
54.999999999999645
 21
388.21995643734436
 31
0.0
  0
LINE
  8
0
  6
CONTINUOUS
 62
               3
  5
2B8
 10
57.328443874035528
 20
390.54840031138025
 30
0.0
 11
54.999999999999645
 21
388.21995643734436
 31
0.0
  0
LINE
  8
0
  6
CONTINUOUS
 62
               3
  5
2B9
 10
54.999999999999645
 20
388.21995643734436
 30
0.0
 11
-55.000000000000014
 21
388.21995643734436
 31
0.0
  0
LINE
  8
0
  6
CONTINUOUS
 62
               3
  5
2BA
 10
-57.328443874035045
 20
390.54840031138025
 30
0.0
 11
57.328443874035528
 21
390.54840031138025
 31
0.0
  0
LINE
  8
0
  6
CONTINUOUS
 62
               3
  5
2BB
 10
-57.328443874035614
 20
387.54840031138014
 30
0.0
 11
57.328443874035528
 21
387.54840031138014
 31
0.0
  0
LINE
  8
0
  6
CONTINUOUS
 62
               3
  5
2BC
 10
57.328443874035528
 20
387.54840031138014
 30
0.0
 11
57.328443874035528
 21
385.04840031138014
 31
0.0
  0
ARC
  8
0
  6
CONTINUOUS
 62
               3
  5
2BD
 10
54.828443874035528
 20
385.04840031138014
 30
0.0
 40
2.5
 50
269.99999999994782
 51
359.99999999993014
  0
LINE
  8
0
  6
CONTINUOUS
 62
               3
  5
2BE
 10
54.828443874035528
 20
382.54840031138014
 30
0.0
 11
-54.828443874035614
 21
382.54840031138014
 31
0.0
  0
LINE
  8
0
  6
CONTINUOUS
 62
               3
  5
2BF
 10
-57.328443874035614
 20
387.54840031138014
 30
0.0
 11
-57.328443874035614
 21
385.04840031138014
 31
0.0
  0
ARC
  8
0
  6
CONTINUOUS
 62
               3
  5
2C0
 10
-54.828443874035614
 20
385.04840031138014
 30
0.0
 40
2.5
 50
179.99999999996572
 51
269.99999999994782
  0
LINE
  8
0
  6
CONTINUOUS
 62
               3
  5
2C1
 10
-57.328443874035045
 20
390.54840031138025
 30
0.0
 11
-59.215893582658069
 21
444.59788822625734
 31
0.0
  0
LINE
  8
0
  6
CONTINUOUS
 62
               3
  5
2C2
 10
57.328443874035528
 20
390.54840031138025
 30
0.0
 11
59.215893582658609
 21
444.59788822625734
 31
0.0
  0
LINE
  8
0
  6
CONTINUOUS
 62
               3
  5
2C3
 10
-90.000000000000057
 20
-266.26391232182391
 30
0.0
 11
89.999999999999659
 21
-266.26391232182391
 31
0.0
  0
LINE
  8
0
  6
CONTINUOUS
 62
               3
  5
2C4
 10
-87.721287833967153
 20
-286.26391232182391
 30
0.0
 11
88.287303902805178
 21
-286.26391232182391
 31
0.0
  0
LINE
  8
0
  6
CONTINUOUS
 62
               3
  5
2C5
 10
-512.27871216603307
 20
-286.26391232182397
 30
0.0
 11
-526.72128783396704
 21
-413.02477210235128
 31
0.0
  0
LINE
  8
0
  6
CONTINUOUS
 62
               3
  5
2C6
 10
-683.82148288006954
 20
-320.49206111594725
 30
0.0
 11
-673.27871216603307
 21
-413.02477210235128
 31
0.0
  0
LINE
  8
0
  6
CONTINUOUS
 62
               3
  5
2C7
 10
-509.51750236146881
 20
-284.11326357847469
 30
0.0
 11
-507.79907839522832
 21
-269.03084999543529
 31
0.0
  0
ARC
  8
0
  6
CONTINUOUS
 62
               3
  5
2C8
 10
-510.28300803441971
 20
-268.74784196101547
 30
0.0
 40
2.5
 50
353.49999999993179
 51
443.49999999991383
  0
ARC
  8
0
  6
CONTINUOUS
 62
               3
  5
2C9
 10
-511.99570413161302
 20
-283.77998268263246
 30
0.0
 40
2.5
 50
263.49999999994833
 51
353.49999999993179
  0
LINE
  8
0
  6
CONTINUOUS
 62
               3
  5
2CA
 10
-675.44632680640041
 20
-286.26391232182408
 30
0.0
 11
-512.27871216603296
 21
-286.26391232182397
 31
0.0
  0
LINE
  8
0
  6
CONTINUOUS
 62
               3
  5
2CB
 10
-689.99999999999977
 20
-266.26391232182408
 30
0.0
 11
-510.00000000000011
 21
-266.26391232182397
 31
0.0
  0
LINE
  8
0
  6
CONTINUOUS
 62
               3
  5
2CC
 10
-689.99999999999977
 20
-266.26391232182465
 30
0.0
 11
-689.79905196282141
 21
-268.02761060872427
 31
0.0
  0
LINE
  8
0
  6
CONTINUOUS
 62
               3
  5
2CD
 10
-671.00000000000034
 20
-433.0247721023506
 30
0.0
 11
-529.00000000000011
 21
-433.0247721023519
 31
0.0
  0
LINE
  8
0
  6
CONTINUOUS
 62
               3
  5
2CE
 10
-673.27871216603273
 20
-413.02477210235116
 30
0.0
 11
-526.72128783396704
 21
-413.02477210235116
 31
0.0
  0
LINE
  8
0
  6
CONTINUOUS
 62
               3
  5
2CF
 10
-526.23879019543597
 20
-430.87412335900279
 30
0.0
 11
-524.52036622919547
 21
-415.79170977596328
 31
0.0
  0
ARC
  8
0
  6
CONTINUOUS
 62
               3
  5
2D0
 10
-527.00429586838686
 20
-415.50870174154346
 30
0.0
 40
2.5
 50
353.49999999993111
 51
443.49999999991383
  0
ARC
  8
0
  6
CONTINUOUS
 62
               3
  5
2D1
 10
-528.71699196558018
 20
-430.54084246316046
 30
0.0
 40
2.5
 50
263.49999999994833
 51
353.49999999993111
  0
LINE
  8
0
  6
CONTINUOUS
 62
               3
  5
2D2
 10
-673.76120980456426
 20
-430.87412335900279
 30
0.0
 11
-675.47963377080475
 21
-415.79170977596328
 31
0.0
  0
ARC
  8
0
  6
CONTINUOUS
 62
               3
  5
2D3
 10
-672.99570413161325
 20
-415.50870174154346
 30
0.0
 40
2.5
 50
96.499999999980105
 51
186.49999999996422
  0
ARC
  8
0
  6
CONTINUOUS
 62
               3
  5
2D4
 10
-671.28300803441994
 20
-430.54084246316046
 30
0.0
 40
2.5
 50
186.49999999996422
 51
276.49999999994822
  0
LINE
  8
0
  6
CONTINUOUS
 62
               3
  5
2D5
 10
512.27871216603285
 20
-286.26391232182419
 30
0.0
 11
526.72128783396681
 21
-413.02477210235151
 31
0.0
  0
LINE
  8
0
  6
CONTINUOUS
 62
               3
  5
2D6
 10
509.5175023614687
 20
-284.11326357847491
 30
0.0
 11
507.79907839522809
 21
-269.0308499954354
 31
0.0
  0
ARC
  8
0
  6
CONTINUOUS
 62
               3
  5
2D7
 10
510.28300803441959
 20
-268.74784196101558
 30
0.0
 40
2.5
 50
96.499999999981398
 51
186.49999999996407
  0
ARC
  8
0
  6
CONTINUOUS
 62
               3
  5
2D8
 10
511.99570413161291
 20
-283.77998268263258
 30
0.0
 40
2.5
 50
186.49999999996407
 51
276.49999999994822
  0
LINE
  8
0
  6
CONTINUOUS
 62
               3
  5
2D9
 10
671.61833020524159
 20
-286.26391232182363
 30
0.0
 11
512.27871216603285
 21
-286.26391232182419
 31
0.0
  0
LINE
  8
0
  6
CONTINUOUS
 62
               3
  5
2DA
 10
689.99999999999966
 20
-266.26391232182431
 30
0.0
 11
687.31970245100479
 21
-266.26391232182431
 31
0.0
  0
LINE
  8
0
  6
CONTINUOUS
 62
               3
  5
2DB
 10
663.52356847984902
 20
-266.26391232182442
 30
0.0
 11
509.99999999999989
 21
-266.26391232182419
 31
0.0
  0
LINE
  8
0
  6
CONTINUOUS
 62
               3
  5
2DC
 10
689.99999999999966
 20
-266.26391232182476
 30
0.0
 11
687.80478279557087
 21
-285.53108644895889
 31
0.0
  0
LINE
  8
0
  6
CONTINUOUS
 62
               3
  5
2DD
 10
683.8214828800692
 20
-320.49206111594748
 30
0.0
 11
673.27871216603273
 21
-413.02477210235162
 31
0.0
  0
LINE
  8
0
  6
CONTINUOUS
 62
               3
  5
2DE
 10
528.99999999999966
 20
-433.02477210235082
 30
0.0
 11
670.99999999999966
 21
-433.02477210235213
 31
0.0
  0
LINE
  8
0
  6
CONTINUOUS
 62
               3
  5
2DF
 10
526.72128783396693
 20
-413.02477210235139
 30
0.0
 11
673.27871216603262
 21
-413.02477210235139
 31
0.0
  0
LINE
  8
0
  6
CONTINUOUS
 62
               3
  5
2E0
 10
673.76120980456369
 20
-430.87412335900297
 30
0.0
 11
675.4796337708043
 21
-415.79170977596351
 31
0.0
  0
ARC
  8
0
  6
CONTINUOUS
 62
               3
  5
2E1
 10
672.9957041316128
 20
-415.50870174154369
 30
0.0
 40
2.5
 50
353.49999999993111
 51
443.49999999991383
  0
ARC
  8
0
  6
CONTINUOUS
 62
               3
  5
2E2
 10
671.28300803441959
 20
-430.54084246316069
 30
0.0
 40
2.5
 50
263.49999999994833
 51
353.49999999993111
  0
LINE
  8
0
  6
CONTINUOUS
 62
               3
  5
2E3
 10
526.23879019543563
 20
-430.87412335900297
 30
0.0
 11
524.52036622919513
 21
-415.79170977596351
 31
0.0
  0
ARC
  8
0
  6
CONTINUOUS
 62
               3
  5
2E4
 10
527.00429586838663
 20
-415.50870174154369
 30
0.0
 40
2.5
 50
96.499999999980105
 51
186.49999999996422
  0
ARC
  8
0
  6
CONTINUOUS
 62
               3
  5
2E5
 10
528.71699196557995
 20
-430.54084246316069
 30
0.0
 40
2.5
 50
186.49999999996422
 51
276.49999999994822
  0
CIRCLE
  8
0
  6
CONTINUOUS
 62
               3
  5
2E6
 10
609.2865232163075
 20
-980.41535959801945
 30
0.0
 40
75.0
  0
CIRCLE
  8
0
  6
CONTINUOUS
 62
               3
  5
2E7
 10
609.2865232163075
 20
-980.41535959801945
 30
0.0
 40
52.5
  0
LINE
  8
0
  6
CONTINUOUS
 62
               3
  5
2E8
 10
523.07602501568226
 20
-960.41535959801945
 30
0.0
 11
537.00236174230224
 21
-960.41535959801945
 31
0.0
  0
LINE
  8
0
  6
CONTINUOUS
 62
               3
  5
2E9
 10
537.00236174230224
 20
-1000.4153595980194
 30
0.0
 11
523.07602501568226
 21
-1000.4153595980194
 31
0.0
  0
ARC
  8
0
  6
CONTINUOUS
 62
               3
  5
2EA
 10
609.2865232163075
 20
-980.41535959801945
 30
0.0
 40
88.5
 50
166.93897588510336
 51
193.06102411468945
  0
LINE
  8
0
  6
CONTINUOUS
 62
               3
  5
2EB
 10
589.2865232163075
 20
-1066.6258577986443
 30
0.0
 11
589.2865232163075
 21
-1052.6995210720245
 31
0.0
  0
LINE
  8
0
  6
CONTINUOUS
 62
               3
  5
2EC
 10
629.2865232163075
 20
-1052.6995210720245
 30
0.0
 11
629.2865232163075
 21
-1066.6258577986443
 31
0.0
  0
ARC
  8
0
  6
CONTINUOUS
 62
               3
  5
2ED
 10
609.2865232163075
 20
-980.41535959801945
 30
0.0
 40
88.5
 50
256.93897588505166
 51
283.06102411463769
  0
LINE
  8
0
  6
CONTINUOUS
 62
               3
  5
2EE
 10
695.49702141693217
 20
-1000.4153595980194
 30
0.0
 11
681.57068469031185
 21
-1000.4153595980194
 31
0.0
  0
LINE
  8
0
  6
CONTINUOUS
 62
               3
  5
2EF
 10
681.57068469031185
 20
-960.41535959801945
 30
0.0
 11
695.49702141693217
 21
-960.41535959801945
 31
0.0
  0
ARC
  8
0
  6
CONTINUOUS
 62
               3
  5
2F0
 10
609.2865232163075
 20
-980.41535959801945
 30
0.0
 40
88.5
 50
346.93897588499982
 51
373.06102411458585
  0
LINE
  8
0
  6
CONTINUOUS
 62
               3
  5
2F1
 10
629.2865232163075
 20
-894.20486139739387
 30
0.0
 11
629.2865232163075
 21
-908.13119812401442
 31
0.0
  0
LINE
  8
0
  6
CONTINUOUS
 62
               3
  5
2F2
 10
589.2865232163075
 20
-908.13119812401442
 30
0.0
 11
589.2865232163075
 21
-894.20486139739387
 31
0.0
  0
ARC
  8
0
  6
CONTINUOUS
 62
               3
  5
2F3
 10
609.2865232163075
 20
-980.41535959801945
 30
0.0
 40
88.5
 50
76.938975885155216
 51
103.06102411474124
  0
LINE
  8
0
  6
CONTINUOUS
 62
               3
  5
2F4
 10
561.61839969544656
 20
-1002.4153595980199
 30
0.0
 11
656.95464673716754
 21
-1002.4153595980199
 31
0.0
  0
ARC
  8
0
  6
CONTINUOUS
 62
               3
  5
2F5
 10
621.79013486568863
 20
-971.70896197040042
 30
0.0
 40
54.763804151667173
 50
141.3859176367566
 51
145.15009542087031
  0
ARC
  8
0
  6
CONTINUOUS
 62
               3
  5
2F6
 10
609.2865232163075
 20
-980.41535959801945
 30
0.0
 40
51.5
 50
334.71098847326505
 51
410.95932736340404
  0
ARC
  8
0
  6
CONTINUOUS
 62
               3
  5
2F7
 10
609.2865232163075
 20
-980.41535959801945
 30
0.0
 40
51.5
 50
129.04067263628559
 51
205.28901152642416
  0
ARC
  8
0
  6
CONTINUOUS
 62
               3
  5
2F8
 10
609.2865232163075
 20
-980.41535959801945
 30
0.0
 40
77.5
 50
104.95524831658298
 51
128.57288309095932
  0
ARC
  8
0
  6
CONTINUOUS
 62
               3
  5
2F9
 10
609.2865232163075
 20
-980.41535959801945
 30
0.0
 40
77.5
 50
14.9552483166347
 51
75.044751683313535
  0
ARC
  8
0
  6
CONTINUOUS
 62
               3
  5
2FA
 10
609.2865232163075
 20
-980.41535959801945
 30
0.0
 40
77.5
 50
321.42711690878122
 51
345.04475168315804
  0
LINE
  8
0
  6
CONTINUOUS
 62
               3
  5
2FB
 10
469.2865232163075
 20
-1035.4153595980194
 30
0.0
 11
469.95807934227173
 21
-1035.4153595980194
 31
0.0
  0
LINE
  8
0
  6
CONTINUOUS
 62
               3
  5
2FC
 10
472.45807934227219
 20
-1037.9153595980194
 30
0.0
 11
469.95807934227173
 21
-1035.4153595980194
 31
0.0
  0
LINE
  8
0
  6
CONTINUOUS
 62
               3
  5
2FD
 10
469.2865232163075
 20
-925.41535959801945
 30
0.0
 11
469.95807934227173
 21
-925.41535959801945
 31
0.0
  0
LINE
  8
0
  6
CONTINUOUS
 62
               3
  5
2FE
 10
472.45807934227173
 20
-922.91535959801945
 30
0.0
 11
469.95807934227173
 21
-925.41535959801945
 31
0.0
  0
LINE
  8
0
  6
CONTINUOUS
 62
               3
  5
2FF
 10
469.95807934227173
 20
-925.41535959801945
 30
0.0
 11
469.95807934227173
 21
-1035.4153595980194
 31
0.0
  0
LINE
  8
0
  6
CONTINUOUS
 62
               3
  5
300
 10
563.79618742992955
 20
-919.72576257967785
 30
0.0
 11
472.45807934227173
 21
-922.91535959801945
 31
0.0
  0
LINE
  8
0
  6
CONTINUOUS
 62
               3
  5
301
 10
544.45005149975657
 20
-1040.4293746629871
 30
0.0
 11
472.4580793422723
 21
-1037.9153595980194
 31
0.0
  0
LINE
  8
0
  6
CONTINUOUS
 62
               3
  5
302
 10
464.2865232163075
 20
-925.58691572398357
 30
0.0
 11
464.2865232163075
 21
-1035.5153595980194
 31
0.0
  0
LINE
  8
0
  6
CONTINUOUS
 62
               3
  5
303
 10
469.2865232163075
 20
-1038.0153595980194
 30
0.0
 11
469.2865232163075
 21
-922.81535959801943
 31
0.0
  0
LINE
  8
0
  6
CONTINUOUS
 62
               3
  5
304
 10
469.2865232163075
 20
-922.81535959801943
 30
0.0
 11
466.7865232163075
 21
-922.81535959801943
 31
0.0
  0
LINE
  8
0
  6
CONTINUOUS
 62
               3
  5
305
 10
469.2865232163075
 20
-1038.0153595980194
 30
0.0
 11
466.7865232163075
 21
-1038.0153595980194
 31
0.0
  0
ARC
  8
0
  6
CONTINUOUS
 62
               3
  5
306
 10
466.7865232163075
 20
-1035.5153595980194
 30
0.0
 40
2.5
 50
179.99999999989538
 51
269.99999999984436
  0
ARC
  8
0
  6
CONTINUOUS
 62
               3
  5
307
 10
466.7865232163075
 20
-925.31535959801943
 30
0.0
 40
2.5
 50
89.999999999948997
 51
179.99999999989538
  0
LINE
  8
0
  6
CONTINUOUS
 62
               3
  5
308
 10
576.84812004969001
 20
-940.41535959801968
 30
0.0
 11
609.2865232163075
 21
-940.41535959801968
 31
0.0
  0
LINE
  8
0
  6
CONTINUOUS
 62
               3
  5
309
 10
609.2865232163075
 20
-940.41535959801968
 30
0.0
 11
643.29019948814619
 21
-940.41535959801968
 31
0.0
  0
LINE
  8
0
  6
CONTINUOUS
 62
               3
  5
30A
 10
472.45807934227219
 20
-1037.9153595980194
 30
0.0
 11
472.45807934227173
 21
-922.91535959801945
 31
0.0
  0
ARC
  8
0
  6
CONTINUOUS
 62
               3
  5
30B
 10
563.62168994641718
 20
-914.72880844458234
 30
0.0
 40
5.0
 50
271.99999999984402
 51
304.806757870252
  0
LINE
  8
0
  6
CONTINUOUS
 62
               3
  5
30C
 10
664.2865232163075
 20
-1120.4153595980194
 30
0.0
 11
664.2865232163075
 21
-1119.7438034720551
 31
0.0
  0
LINE
  8
0
  6
CONTINUOUS
 62
               3
  5
30D
 10
666.7865232163075
 20
-1117.2438034720547
 30
0.0
 11
664.2865232163075
 21
-1119.7438034720551
 31
0.0
  0
LINE
  8
0
  6
CONTINUOUS
 62
               3
  5
30E
 10
554.2865232163075
 20
-1120.4153595980194
 30
0.0
 11
554.2865232163075
 21
-1119.7438034720551
 31
0.0
  0
LINE
  8
0
  6
CONTINUOUS
 62
               3
  5
30F
 10
551.7865232163075
 20
-1117.2438034720551
 30
0.0
 11
554.2865232163075
 21
-1119.7438034720551
 31
0.0
  0
LINE
  8
0
  6
CONTINUOUS
 62
               3
  5
310
 10
554.2865232163075
 20
-1119.7438034720551
 30
0.0
 11
664.2865232163075
 21
-1119.7438034720551
 31
0.0
  0
LINE
  8
0
  6
CONTINUOUS
 62
               3
  5
311
 10
554.45807934227162
 20
-1125.4153595980194
 30
0.0
 11
664.38652321630741
 21
-1125.4153595980194
 31
0.0
  0
LINE
  8
0
  6
CONTINUOUS
 62
               3
  5
312
 10
666.88652321630741
 20
-1120.4153595980194
 30
0.0
 11
551.68652321630736
 21
-1120.4153595980194
 31
0.0
  0
LINE
  8
0
  6
CONTINUOUS
 62
               3
  5
313
 10
551.68652321630736
 20
-1120.4153595980194
 30
0.0
 11
551.68652321630736
 21
-1122.9153595980194
 31
0.0
  0
LINE
  8
0
  6
CONTINUOUS
 62
               3
  5
314
 10
666.88652321630741
 20
-1120.4153595980194
 30
0.0
 11
666.88652321630741
 21
-1122.9153595980194
 31
0.0
  0
ARC
  8
0
  6
CONTINUOUS
 62
               3
  5
315
 10
664.38652321630741
 20
-1122.9153595980194
 30
0.0
 40
2.5
 50
269.99999999984567
 51
359.99999999979076
  0
ARC
  8
0
  6
CONTINUOUS
 62
               3
  5
316
 10
554.18652321630736
 20
-1122.9153595980194
 30
0.0
 40
2.5
 50
179.99999999989538
 51
269.99999999984567
  0
LINE
  8
0
  6
CONTINUOUS
 62
               3
  5
317
 10
666.7865232163075
 20
-1117.2438034720547
 30
0.0
 11
551.7865232163075
 21
-1117.2438034720551
 31
0.0
  0
LINE
  8
0
  6
CONTINUOUS
 62
               3
  5
318
 10
669.97612023464865
 20
-1025.9056953843981
 30
0.0
 11
666.7865232163075
 21
-1117.2438034720547
 31
0.0
  0
ARC
  8
0
  6
CONTINUOUS
 62
               3
  5
319
 10
674.97307436974404
 20
-1026.0801928679105
 30
0.0
 40
5.0
 50
145.19324212948862
 51
177.99999999989819
  0
LINE
  8
0
  6
CONTINUOUS
 62
               3
  5
31A
 10
549.27250815133937
 20
-1045.2518313145704
 30
0.0
 11
551.7865232163075
 21
-1117.2438034720551
 31
0.0
  0
ARC
  8
0
  6
CONTINUOUS
 62
               3
  5
31B
 10
544.27555401624397
 20
-1045.4263287980827
 30
0.0
 40
5.0
 50
1.9999999999958187
 51
87.99999999994921
  0
LINE
  8
0
  6
CONTINUOUS
 62
               3
  5
31C
 10
534.2865232163075
 20
-1288.914793346604
 30
0.0
 11
684.2865232163075
 21
-1288.914793346604
 31
0.0
  0
LINE
  8
0
  6
CONTINUOUS
 62
               3
  5
31D
 10
520.78652321630727
 20
-1298.914793346604
 30
0.0
 11
520.78652321630727
 21
-1305.9147933466036
 31
0.0
  0
LINE
  8
0
  6
CONTINUOUS
 62
               3
  5
31E
 10
520.78652321630727
 20
-1298.914793346604
 30
0.0
 11
534.2865232163075
 21
-1288.914793346604
 31
0.0
  0
ARC
  8
0
  6
CONTINUOUS
 62
               3
  5
31F
 10
532.28652321630773
 20
-1310.4973690415593
 30
0.0
 40
4.9999999999999991
 50
0.0
 51
66.421821521760023
  0
LINE
  8
0
  6
CONTINUOUS
 62
               3
  5
320
 10
520.78652321630727
 20
-1305.9147933466036
 30
0.0
 11
697.78652321630727
 21
-1305.9147933466036
 31
0.0
  0
ARC
  8
0
  6
CONTINUOUS
 62
               3
  5
321
 10
554.2865232163075
 20
-1395.914793346604
 30
0.0
 40
19.999999999999996
 50
148.21166938286279
 51
167.26981986159123
  0
LINE
  8
0
  6
CONTINUOUS
 62
               3
  5
322
 10
537.28652321630773
 20
-1310.4973690415593
 30
0.0
 11
537.28652321630773
 21
-1385.3791395937512
 31
0.0
  0
LINE
  8
0
  6
CONTINUOUS
 62
               3
  5
323
 10
681.2865232163075
 20
-1380.3791395937508
 30
0.0
 11
681.2865232163075
 21
-1310.4973690415593
 31
0.0
  0
LINE
  8
0
  6
CONTINUOUS
 62
               3
  5
324
 10
537.28652321630773
 20
-1385.3791395937512
 30
0.0
 11
680.78652321630796
 21
-1385.3791395937512
 31
0.0
  0
LINE
  8
0
  6
CONTINUOUS
 62
               3
  5
325
 10
589.2865232163075
 20
-1305.9147933466036
 30
0.0
 11
589.2865232163075
 21
-1288.914793346604
 31
0.0
  0
LINE
  8
0
  6
CONTINUOUS
 62
               3
  5
326
 10
629.2865232163075
 20
-1288.914793346604
 30
0.0
 11
629.2865232163075
 21
-1305.9147933466036
 31
0.0
  0
LINE
  8
0
  6
CONTINUOUS
 62
               3
  5
327
 10
589.2865232163075
 20
-1298.914793346604
 30
0.0
 11
629.2865232163075
 21
-1298.914793346604
 31
0.0
  0
LINE
  8
0
  6
CONTINUOUS
 62
               3
  5
328
 10
537.00236174230224
 20
-1288.914793346604
 30
0.0
 11
537.00236174230224
 21
-1305.9147933466036
 31
0.0
  0
LINE
  8
0
  6
CONTINUOUS
 62
               3
  5
329
 10
523.07602501568226
 20
-1298.914793346604
 30
0.0
 11
523.07602501568226
 21
-1305.9147933466036
 31
0.0
  0
LINE
  8
0
  6
CONTINUOUS
 62
               3
  5
32A
 10
520.78652321630727
 20
-1298.914793346604
 30
0.0
 11
523.07602501568226
 21
-1298.914793346604
 31
0.0
  0
LINE
  8
0
  6
CONTINUOUS
 62
               3
  5
32B
 10
523.07602501568226
 20
-1298.914793346604
 30
0.0
 11
537.00236174230224
 21
-1288.914793346604
 31
0.0
  0
LINE
  8
0
  6
CONTINUOUS
 62
               3
  5
32C
 10
697.78652321630727
 20
-1298.914793346604
 30
0.0
 11
697.78652321630727
 21
-1305.9147933466036
 31
0.0
  0
LINE
  8
0
  6
CONTINUOUS
 62
               3
  5
32D
 10
697.78652321630727
 20
-1298.914793346604
 30
0.0
 11
684.2865232163075
 21
-1288.914793346604
 31
0.0
  0
ARC
  8
0
  6
CONTINUOUS
 62
               3
  5
32E
 10
686.2865232163075
 20
-1310.4973690415593
 30
0.0
 40
4.9999999999999991
 50
113.57817847813573
 51
179.99999999989538
  0
LINE
  8
0
  6
CONTINUOUS
 62
               3
  5
32F
 10
681.57068469031185
 20
-1288.914793346604
 30
0.0
 11
681.57068469031185
 21
-1305.9147933466036
 31
0.0
  0
LINE
  8
0
  6
CONTINUOUS
 62
               3
  5
330
 10
695.49702141693285
 20
-1298.914793346604
 30
0.0
 11
695.49702141693285
 21
-1305.9147933466036
 31
0.0
  0
LINE
  8
0
  6
CONTINUOUS
 62
               3
  5
331
 10
697.78652321630727
 20
-1298.914793346604
 30
0.0
 11
695.49702141693285
 21
-1298.914793346604
 31
0.0
  0
LINE
  8
0
  6
CONTINUOUS
 62
               3
  5
332
 10
695.49702141693285
 20
-1298.914793346604
 30
0.0
 11
681.57068469031185
 21
-1288.914793346604
 31
0.0
  0
ARC
  8
0
  6
CONTINUOUS
 62
               3
  5
333
 10
544.2865232163075
 20
-1517.414793346604
 30
0.0
 40
2.4999999999999996
 50
89.99999999994769
 51
269.99999999984567
  0
ARC
  8
0
  6
CONTINUOUS
 62
               3
  5
334
 10
684.2865232163075
 20
-1517.414793346604
 30
0.0
 40
2.4999999999999996
 50
269.99999999984567
 51
449.99999999974102
  0
LINE
  8
0
  6
CONTINUOUS
 62
               3
  5
335
 10
469.2865232163075
 20
-1509.914793346604
 30
0.0
 11
469.95807934227184
 21
-1509.914793346604
 31
0.0
  0
LINE
  8
0
  6
CONTINUOUS
 62
               3
  5
336
 10
472.45807934227196
 20
-1512.4147933466031
 30
0.0
 11
469.95807934227184
 21
-1509.914793346604
 31
0.0
  0
LINE
  8
0
  6
CONTINUOUS
 62
               3
  5
337
 10
472.45807934227275
 20
-1512.414793346604
 30
0.0
 11
514.62318959855008
 21
-1513.8872314424582
 31
0.0
  0
LINE
  8
0
  6
CONTINUOUS
 62
               3
  5
338
 10
532.82205712224015
 20
-1530.1864827728898
 30
0.0
 11
517.98422602097025
 21
-1515.3486516716205
 31
0.0
  0
ARC
  8
0
  6
CONTINUOUS
 62
               3
  5
339
 10
529.2865232163075
 20
-1533.7220166788231
 30
0.0
 40
4.9999999999999991
 50
0.0
 51
44.999999999973191
  0
LINE
  8
0
  6
CONTINUOUS
 62
               3
  5
33A
 10
469.2865232163075
 20
-1399.914793346604
 30
0.0
 11
469.95807934227184
 21
-1399.914793346604
 31
0.0
  0
LINE
  8
0
  6
CONTINUOUS
 62
               3
  5
33B
 10
472.45807934227196
 20
-1397.414793346604
 30
0.0
 11
469.95807934227184
 21
-1399.914793346604
 31
0.0
  0
LINE
  8
0
  6
CONTINUOUS
 62
               3
  5
33C
 10
472.45807934227184
 20
-1397.414793346604
 30
0.0
 11
530.07555554444627
 21
-1395.4027467414514
 31
0.0
  0
LINE
  8
0
  6
CONTINUOUS
 62
               3
  5
33D
 10
469.95807934227184
 20
-1399.914793346604
 30
0.0
 11
469.95807934227184
 21
-1509.914793346604
 31
0.0
  0
LINE
  8
0
  6
CONTINUOUS
 62
               3
  5
33E
 10
469.2865232163075
 20
-1512.5147933466039
 30
0.0
 11
469.2865232163075
 21
-1397.3147933466041
 31
0.0
  0
LINE
  8
0
  6
CONTINUOUS
 62
               3
  5
33F
 10
469.2865232163075
 20
-1397.3147933466041
 30
0.0
 11
466.7865232163075
 21
-1397.3147933466041
 31
0.0
  0
ARC
  8
0
  6
CONTINUOUS
 62
               3
  5
340
 10
466.7865232163075
 20
-1399.8147933466041
 30
0.0
 40
2.5
 50
89.999999999948997
 51
179.99999999989538
  0
LINE
  8
0
  6
CONTINUOUS
 62
               3
  5
341
 10
464.2865232163075
 20
-1399.8147933466041
 30
0.0
 11
464.2865232163075
 21
-1510.0147933466039
 31
0.0
  0
LINE
  8
0
  6
CONTINUOUS
 62
               3
  5
342
 10
469.2865232163075
 20
-1512.5147933466039
 30
0.0
 11
466.7865232163075
 21
-1512.5147933466039
 31
0.0
  0
ARC
  8
0
  6
CONTINUOUS
 62
               3
  5
343
 10
466.7865232163075
 20
-1510.0147933466039
 30
0.0
 40
2.5
 50
179.99999999989538
 51
269.99999999984436
  0
LINE
  8
0
  6
CONTINUOUS
 62
               3
  5
344
 10
472.45807934227196
 20
-1397.414793346604
 30
0.0
 11
472.45807934227275
 21
-1512.414793346604
 31
0.0
  0
ARC
  8
0
  6
CONTINUOUS
 62
               3
  5
345
 10
514.4486921150376
 20
-1518.8841855775534
 30
0.0
 40
5.0
 50
44.999999999975948
 51
87.999999999949253
  0
ARC
  8
0
  6
CONTINUOUS
 62
               3
  5
346
 10
529.90105806093368
 20
-1390.4057926063563
 30
0.0
 40
5.0
 50
271.99999999984408
 51
347.26981986148661
  0
CIRCLE
  8
0
  6
CONTINUOUS
 62
               3
  5
347
 10
609.2865232163075
 20
-1454.914793346604
 30
0.0
 40
48.5
  0
CIRCLE
  8
0
  6
CONTINUOUS
 62
               3
  5
348
 10
609.2865232163075
 20
-1454.914793346604
 30
0.0
 40
47.299999999999997
  0
LINE
  8
0
  6
CONTINUOUS
 62
               3
  5
349
 10
577.46671806291295
 20
-1486.7345984999986
 30
0.0
 11
575.84037246618379
 21
-1488.3609440967277
 31
0.0
  0
LINE
  8
0
  6
CONTINUOUS
 62
               3
  5
34A
 10
641.10632836970228
 20
-1486.7345984999986
 30
0.0
 11
642.73267396643121
 21
-1488.3609440967277
 31
0.0
  0
ARC
  8
0
  6
CONTINUOUS
 62
               3
  5
34B
 10
609.2865232163075
 20
-1454.914793346604
 30
0.0
 40
45.0
 50
224.99999999987043
 51
314.99999999981884
  0
CIRCLE
  8
0
  6
CONTINUOUS
 62
               3
  5
34C
 10
609.2865232163075
 20
-1454.914793346604
 30
0.0
 40
57.600000000000001
  0
ARC
  8
0
  6
CONTINUOUS
 62
               3
  5
34D
 10
586.78652321630818
 20
-1517.414793346604
 30
0.0
 40
2.4999999999999996
 50
269.99999999984567
 51
449.99999999974102
  0
ARC
  8
0
  6
CONTINUOUS
 62
               3
  5
34E
 10
631.78652321630818
 20
-1517.414793346604
 30
0.0
 40
2.4999999999999996
 50
89.99999999994769
 51
269.99999999984567
  0
LINE
  8
0
  6
CONTINUOUS
 62
               3
  5
34F
 10
544.2865232163075
 20
-1519.914793346604
 30
0.0
 11
586.78652321630818
 21
-1519.914793346604
 31
0.0
  0
LINE
  8
0
  6
CONTINUOUS
 62
               3
  5
350
 10
544.2865232163075
 20
-1514.914793346604
 30
0.0
 11
586.78652321630818
 21
-1514.914793346604
 31
0.0
  0
LINE
  8
0
  6
CONTINUOUS
 62
               3
  5
351
 10
631.78652321630818
 20
-1514.914793346604
 30
0.0
 11
684.2865232163075
 21
-1514.914793346604
 31
0.0
  0
LINE
  8
0
  6
CONTINUOUS
 62
               3
  5
352
 10
631.78652321630818
 20
-1519.914793346604
 30
0.0
 11
684.2865232163075
 21
-1519.914793346604
 31
0.0
  0
CIRCLE
  8
0
  6
CONTINUOUS
 62
               3
  5
353
 10
609.2865232163075
 20
-980.41535959801945
 30
0.0
 40
59.0
  0
LINE
  8
0
  6
DASHED2
 62
               3
  5
354
 10
-51.50000000000054
 20
-616.45159968862004
 30
0.0
 11
-51.50000000000054
 21
-536.45159968862004
 31
0.0
  0
LINE
  8
0
  6
DASHED2
 62
               3
  5
355
 10
51.499999999999361
 20
-616.45159968862004
 30
0.0
 11
51.499999999999361
 21
-536.45159968862004
 31
0.0
  0
LINE
  8
0
  6
DASHED2
 62
               3
  5
356
 10
548.49999999999943
 20
-616.45159968862004
 30
0.0
 11
548.49999999999943
 21
-536.45159968862004
 31
0.0
  0
LINE
  8
0
  6
DASHED2
 62
               3
  5
357
 10
651.49999999999932
 20
-616.45159968862004
 30
0.0
 11
651.49999999999932
 21
-536.45159968862004
 31
0.0
  0
LINE
  8
0
  6
DASHED2
 62
               3
  5
358
 10
-651.50000000000034
 20
-616.45159968862004
 30
0.0
 11
-651.50000000000034
 21
-536.45159968862004
 31
0.0
  0
LINE
  8
0
  6
DASHED2
 62
               3
  5
359
 10
-548.50000000000045
 20
-616.45159968862004
 30
0.0
 11
-548.50000000000045
 21
-536.45159968862004
 31
0.0
  0
LINE
  8
0
  6
DASHDOT
 62
               4
  5
35A
 10
162.01839599130261
 20
-65.951599688619837
 30
0.0
 11
89.999999999999375
 21
-65.951599688619837
 31
0.0
  0
LINE
  8
0
  6
DASHDOT
 62
               4
  5
35B
 10
67.499999999999659
 20
-78.451599688619865
 30
0.0
 11
-67.50000000000027
 21
-78.451599688619865
 31
0.0
  0
LINE
  8
0
  6
DASHDOT
 62
               4
  5
35C
 10
-168.14092777451606
 20
-78.451599688620007
 30
0.0
 11
-90.000000000000341
 21
-78.45159968861995
 31
0.0
  0
LINE
  8
0
  6
DASHDOT
 62
               4
  5
35D
 10
431.85907222548423
 20
-78.451599688619893
 30
0.0
 11
510.0
 21
-78.451599688619893
 31
0.0
  0
LINE
  8
0
  6
DASHDOT
 62
               4
  5
35E
 10
-667.50000000000034
 20
-78.451599688619865
 30
0.0
 11
-532.50000000000045
 21
-78.451599688619865
 31
0.0
  0
LINE
  8
0
  6
DASHDOT
 62
               4
  5
35F
 10
599.99999999999966
 20
-656.45159968862004
 30
0.0
 11
599.99999999999966
 21
82.548400311379993
 31
0.0
  0
LINE
  8
0
  6
DASHDOT
 62
               4
  5
360
 10
-600.00000000000011
 20
-656.45159968861958
 30
0.0
 11
-599.99999999999989
 21
82.548400311380362
 31
0.0
  0
LINE
  8
0
  6
DASHDOT
 62
               4
  5
361
 10
675.49999999999943
 20
-65.951599688619893
 30
0.0
 11
524.49999999999943
 21
-65.951599688619893
 31
0.0
  0
LINE
  8
0
  6
DASHDOT
 62
               4
  5
362
 10
-431.8590722254844
 20
-78.451599688620036
 30
0.0
 11
-510.00000000000011
 21
-78.451599688619979
 31
0.0
  0
LINE
  8
0
  6
DASHDOT
 62
               4
  5
363
 10
-0.0000000000005542
 20
428.64520093413961
 30
0.0
 11
-0.0000000000003411
 21
656.45159968862004
 31
0.0
  0
LINE
  8
0
  6
DASHDOT
 62
               4
  5
364
 10
113.9031993772396
 20
542.54840031137974
 30
0.0
 11
-113.90319937724077
 21
542.54840031137996
 31
0.0
  0
LINE
  8
0
  6
DASHDOT
 62
               4
  5
365
 10
-113.9031993772405
 20
542.54840031137996
 30
0.0
 11
-180.00000000000034
 21
542.54840031137996
 31
0.0
  0
LINE
  8
0
  6
DASHDOT
 62
               4
  5
366
 10
113.90319937724006
 20
542.54840031138019
 30
0.0
 11
179.99999999999989
 21
542.54840031137996
 31
0.0
  0
LINE
  8
0
  6
DASHDOT
 62
               4
  5
367
 10
-0.0000000000002985
 20
428.64520093413961
 30
0.0
 11
-0.0000000000004122
 21
362.54840031137979
 31
0.0
  0
LINE
  8
0
  6
DASHDOT
 62
               4
  5
368
 10
-0.000000000000335
 20
-656.45159968862004
 30
0.0
 11
-0.0000000000003387
 21
82.548400311379993
 31
0.0
  0
LINE
  8
0
  6
DASHDOT
 62
               4
  5
369
 10
-392.13776905046905
 20
-1102.5997951698107
 30
0.0
 11
-392.13776905046893
 21
-973.59979516981048
 31
0.0
  0
LINE
  8
0
  6
DASHDOT
 62
               4
  5
36A
 10
-450.13776905046905
 20
-1044.5997951698105
 30
0.0
 11
-334.13776905046905
 21
-1044.5997951698105
 31
0.0
  0
LINE
  8
0
  6
DASHDOT
 62
               4
  5
36B
 10
-461.94094753457648
 20
-1038.0997951698105
 30
0.0
 11
-327.63776905046905
 21
-1038.0997951698105
 31
0.0
  0
LINE
  8
0
  6
DASHDOT
 62
               4
  5
36C
 10
-268.23776905046896
 20
-1038.0997951698105
 30
0.0
 11
-169.63776905046905
 21
-1038.0997951698105
 31
0.0
  0
LINE
  8
0
  6
DASHDOT
 62
               4
  5
36D
 10
-302.63776905046905
 20
-1044.5997951698105
 30
0.0
 11
-228.23776905046907
 21
-1044.5997951698105
 31
0.0
  0
LINE
  8
0
  6
DASHDOT
 62
               4
  5
36E
 10
-516.03776905046891
 20
-1038.0997951698102
 30
0.0
 11
-614.63776905046905
 21
-1038.09979516981
 31
0.0
  0
LINE
  8
0
  6
DASHDOT
 62
               4
  5
36F
 10
-481.63776905046905
 20
-1044.5997951698102
 30
0.0
 11
-556.03776905046891
 21
-1044.5997951698102
 31
0.0
  0
LINE
  8
0
  6
DASHDOT
 62
               4
  5
370
 10
-394.08372644623557
 20
-941.13191110077537
 30
0.0
 11
-394.08372644623557
 21
-808.13191110077537
 31
0.0
  0
LINE
  8
0
  6
DASHDOT
 62
               4
  5
371
 10
221.63392368588063
 20
-1038.0997951698105
 30
0.0
 11
320.23392368588077
 21
-1038.0997951698105
 31
0.0
  0
LINE
  8
0
  6
DASHDOT
 62
               4
  5
372
 10
196.63392368588063
 20
-1052.5997951698105
 30
0.0
 11
261.63392368588063
 21
-1052.5997951698105
 31
0.0
  0
LINE
  8
0
  6
DASHDOT
 62
               4
  5
373
 10
70.87790746063763
 20
-1052.5997951698105
 30
0.0
 11
170.87790746063786
 21
-1052.5997951698105
 31
0.0
  0
LINE
  8
0
  6
DASHDOT
 62
               4
  5
374
 10
120.87790746063763
 20
-1102.5997951698107
 30
0.0
 11
120.87790746063786
 21
-973.59979516981048
 31
0.0
  0
LINE
  8
0
  6
DASHDOT
 62
               4
  5
375
 10
56.377907460637637
 20
-1038.0997951698105
 30
0.0
 11
190.92191724058887
 21
-1038.0997951698105
 31
0.0
  0
LINE
  8
0
  6
DASHDOT
 62
               4
  5
376
 10
20.121891235394862
 20
-1038.0997951698105
 30
0.0
 11
-78.478108764605167
 21
-1038.0997951698105
 31
0.0
  0
LINE
  8
0
  6
DASHDOT
 62
               4
  5
377
 10
45.121891235394862
 20
-1052.5997951698105
 30
0.0
 11
-19.878108764605138
 21
-1052.5997951698105
 31
0.0
  0
LINE
  8
0
  6
DASHDOT
 62
               4
  5
378
 10
120.87790746063786
 20
-951.8437789445677
 30
0.0
 11
120.87790746063786
 21
-828.24377894456757
 31
0.0
  0
LINE
  8
0
  6
DASHDOT
 62
               4
  5
379
 10
609.2865232163075
 20
-871.91535959801945
 30
0.0
 11
609.2865232163075
 21
-1142.4621463978458
 31
0.0
  0
LINE
  8
0
  6
DASHDOT
 62
               4
  5
37A
 10
447.28652321630761
 20
-980.41535959801945
 30
0.0
 11
717.78652321630773
 21
-980.41535959801945
 31
0.0
  0
LINE
  8
0
  6
DASHDOT
 62
               4
  5
37B
 10
677.81174799153234
 20
-1454.914793346604
 30
0.0
 11
447.55790992287928
 21
-1454.914793346604
 31
0.0
  0
LINE
  8
0
  6
DASHDOT
 62
               4
  5
37C
 10
609.2865232163075
 20
-1268.914793346604
 30
0.0
 11
609.2865232163075
 21
-1519.914793346604
 31
0.0
  0
LINE
  8
0
  6
DASHDOT
 62
               4
  5
37D
 10
559.2865232163075
 20
-1469.414793346604
 30
0.0
 11
659.28652321630773
 21
-1469.414793346604
 31
0.0
  0
LINE
  8
0
  6
DASHDOT
 62
               4
  5
37E
 10
609.2865232163075
 20
-1171.0153595980198
 30
0.0
 11
609.2865232163075
 21
-1047.4153595980194
 31
0.0
  0
LINE
  8
0
  6
DASHDOT
 62
               4
  5
37F
 10
409.2865232163075
 20
-1461.414793346604
 30
0.0
 11
483.68652321630748
 21
-1461.414793346604
 31
0.0
  0
LINE
  8
0
  6
DASHDOT
 62
               4
  5
380
 10
409.28652321630773
 20
-980.41535959801922
 30
0.0
 11
542.28652321630773
 21
-980.41535959801922
 31
0.0
  0
LINE
  8
0
  6
CONTINUOUS
 62
               4
  5
381
 10
-90.781745930520941
 20
0.24840031138055
 30
0.0
 11
-90.781745930520941
 21
2.5484003113805045
 31
0.0
  0
LINE
  8
0
  6
CONTINUOUS
 62
               4
  5
382
 10
90.781745930520259
 20
2.5484003113805045
 30
0.0
 11
64.781745930520373
 21
2.5484003113805045
 31
0.0
  0
LINE
  8
0
  6
CONTINUOUS
 62
               4
  5
383
 10
64.781745930520373
 20
2.5484003113805045
 30
0.0
 11
64.781745930520373
 21
0.24840031138055
 31
0.0
  0
LINE
  8
0
  6
CONTINUOUS
 62
               4
  5
384
 10
64.781745930520373
 20
0.24840031138055
 30
0.0
 11
90.781745930520259
 21
0.24840031138055
 31
0.0
  0
LINE
  8
0
  6
CONTINUOUS
 62
               4
  5
385
 10
83.781745930519918
 20
-28.45159968861995
 30
0.0
 11
83.781745930519918
 21
-9.7515996886183132
 31
0.0
  0
LINE
  8
0
  6
CONTINUOUS
 62
               4
  5
386
 10
71.781745930519918
 20
-9.7515996886183132
 30
0.0
 11
71.781745930519804
 21
-28.45159968861995
 31
0.0
  0
LINE
  8
0
  6
CONTINUOUS
 62
               4
  5
387
 10
83.781745930519918
 20
-28.45159968861995
 30
0.0
 11
71.781745930519804
 21
-28.45159968861995
 31
0.0
  0
LINE
  8
0
  6
CONTINUOUS
 62
               4
  5
388
 10
90.781745930519975
 20
0.24840031138055
 30
0.0
 11
90.781745930519975
 21
2.5484003113805045
 31
0.0
  0
LINE
  8
0
  6
CONTINUOUS
 62
               4
  5
389
 10
-90.781745930520657
 20
2.5484003113805045
 30
0.0
 11
-64.781745930520771
 21
2.5484003113805045
 31
0.0
  0
LINE
  8
0
  6
CONTINUOUS
 62
               4
  5
38A
 10
-64.781745930520771
 20
2.5484003113805045
 30
0.0
 11
-64.781745930520771
 21
0.24840031138055
 31
0.0
  0
LINE
  8
0
  6
CONTINUOUS
 62
               4
  5
38B
 10
-64.781745930520771
 20
0.24840031138055
 30
0.0
 11
-90.781745930520657
 21
0.24840031138055
 31
0.0
  0
LINE
  8
0
  6
CONTINUOUS
 62
               4
  5
38C
 10
-83.781745930520316
 20
-28.45159968861995
 30
0.0
 11
-83.781745930520316
 21
-9.7515996886183132
 31
0.0
  0
LINE
  8
0
  6
CONTINUOUS
 62
               4
  5
38D
 10
-71.781745930520316
 20
-9.7515996886183132
 30
0.0
 11
-71.781745930520202
 21
-28.45159968861995
 31
0.0
  0
LINE
  8
0
  6
CONTINUOUS
 62
               4
  5
38E
 10
-83.781745930520316
 20
-28.45159968861995
 30
0.0
 11
-71.781745930520202
 21
-28.45159968861995
 31
0.0
  0
LINE
  8
0
  6
CONTINUOUS
 62
               4
  5
38F
 10
56.999999999999687
 20
-516.45159968862004
 30
0.0
 11
-57.000000000000298
 21
-516.45159968862004
 31
0.0
  0
LINE
  8
0
  6
CONTINUOUS
 62
               4
  5
390
 10
58.053042823173072
 20
-515.39855686544638
 30
0.0
 11
-58.053042823173641
 21
-515.39855686544638
 31
0.0
  0
LINE
  8
0
  6
CONTINUOUS
 62
               4
  5
391
 10
-32.833588112469883
 20
42.548400311379993
 30
0.0
 11
-32.833588112469883
 21
38.548400311380107
 31
0.0
  0
LINE
  8
0
  6
CONTINUOUS
 62
               4
  5
392
 10
-32.833588112469883
 20
38.548400311380107
 30
0.0
 11
-105.00000000000034
 21
38.548400311380107
 31
0.0
  0
LINE
  8
0
  6
CONTINUOUS
 62
               4
  5
393
 10
32.833588112469727
 20
38.548400311380107
 30
0.0
 11
105.00000000000016
 21
38.548400311380107
 31
0.0
  0
LINE
  8
0
  6
CONTINUOUS
 62
               4
  5
394
 10
32.833588112469727
 20
42.548400311379993
 30
0.0
 11
32.833588112469727
 21
38.548400311380107
 31
0.0
  0
LINE
  8
0
  6
CONTINUOUS
 62
               4
  5
395
 10
94.85880739699725
 20
38.548400311380107
 30
0.0
 11
94.85880739699725
 21
43.148400311380016
 31
0.0
  0
LINE
  8
0
  6
CONTINUOUS
 62
               4
  5
396
 10
91.908219931881391
 20
43.148400311380016
 30
0.0
 11
86.031745930519619
 21
46.548400311379993
 31
0.0
  0
LINE
  8
0
  6
CONTINUOUS
 62
               4
  5
397
 10
69.531745930519634
 20
46.548400311379993
 30
0.0
 11
86.031745930519619
 21
46.548400311379993
 31
0.0
  0
LINE
  8
0
  6
CONTINUOUS
 62
               4
  5
398
 10
69.531745930519634
 20
46.548400311379993
 30
0.0
 11
69.531745930519634
 21
38.548400311379879
 31
0.0
  0
LINE
  8
0
  6
CONTINUOUS
 62
               4
  5
399
 10
94.85880739699725
 20
43.148400311380016
 30
0.0
 11
91.90821993188132
 21
43.148400311380016
 31
0.0
  0
LINE
  8
0
  6
CONTINUOUS
 62
               4
  5
39A
 10
-60.704684464042245
 20
38.54840031138022
 30
0.0
 11
-60.704684464042245
 21
43.148400311380243
 31
0.0
  0
LINE
  8
0
  6
CONTINUOUS
 62
               4
  5
39B
 10
-63.655271929158104
 20
43.148400311380129
 30
0.0
 11
-69.531745930519889
 21
46.54840031138022
 31
0.0
  0
LINE
  8
0
  6
CONTINUOUS
 62
               4
  5
39C
 10
-86.031745930519946
 20
46.548400311380107
 30
0.0
 11
-69.531745930519889
 21
46.54840031138022
 31
0.0
  0
LINE
  8
0
  6
CONTINUOUS
 62
               4
  5
39D
 10
-72.725499744213721
 20
38.548400311380107
 30
0.0
 11
-72.725499744213721
 21
43.148400311380129
 31
0.0
  0
LINE
  8
0
  6
CONTINUOUS
 62
               4
  5
39E
 10
-60.704684464042245
 20
43.148400311380243
 30
0.0
 11
-75.67608720932958
 21
43.148400311380129
 31
0.0
  0
LINE
  8
0
  6
CONTINUOUS
 62
               4
  5
39F
 10
-83.188600180012372
 20
46.54840031138022
 30
0.0
 11
-75.67608720932958
 21
43.148400311380129
 31
0.0
  0
LINE
  8
0
  6
CONTINUOUS
 62
               4
  5
3A0
 10
-86.031745930519946
 20
46.548400311380107
 30
0.0
 11
-86.031745930519946
 21
38.548400311380107
 31
0.0
  0
LINE
  8
0
  6
CONTINUOUS
 62
               4
  5
3A1
 10
690.78174593052029
 20
0.24840031138055
 30
0.0
 11
690.78174593052029
 21
2.5484003113805045
 31
0.0
  0
LINE
  8
0
  6
CONTINUOUS
 62
               4
  5
3A2
 10
690.78174593052029
 20
2.5484003113805045
 30
0.0
 11
664.7817459305204
 21
2.5484003113805045
 31
0.0
  0
LINE
  8
0
  6
CONTINUOUS
 62
               4
  5
3A3
 10
-664.78174593052108
 20
2.5484003113805045
 30
0.0
 11
-664.78174593052108
 21
0.24840031138055
 31
0.0
  0
LINE
  8
0
  6
CONTINUOUS
 62
               4
  5
3A4
 10
664.7817459305204
 20
0.24840031138055
 30
0.0
 11
690.78174593052029
 21
0.24840031138055
 31
0.0
  0
LINE
  8
0
  6
CONTINUOUS
 62
               4
  5
3A5
 10
683.78174593051995
 20
-28.45159968861995
 30
0.0
 11
683.78174593051995
 21
-9.7515996886183132
 31
0.0
  0
LINE
  8
0
  6
CONTINUOUS
 62
               4
  5
3A6
 10
671.78174593051995
 20
-9.7515996886183132
 30
0.0
 11
671.78174593051983
 21
-28.45159968861995
 31
0.0
  0
LINE
  8
0
  6
CONTINUOUS
 62
               4
  5
3A7
 10
683.78174593051995
 20
-28.45159968861995
 30
0.0
 11
671.78174593051983
 21
-28.45159968861995
 31
0.0
  0
LINE
  8
0
  6
CONTINUOUS
 62
               4
  5
3A8
 10
509.21825406947937
 20
0.24840031138055
 30
0.0
 11
509.21825406947937
 21
2.5484003113805045
 31
0.0
  0
LINE
  8
0
  6
CONTINUOUS
 62
               4
  5
3A9
 10
509.21825406947937
 20
2.5484003113805045
 30
0.0
 11
535.21825406947926
 21
2.5484003113805045
 31
0.0
  0
LINE
  8
0
  6
CONTINUOUS
 62
               4
  5
3AA
 10
535.21825406947926
 20
2.5484003113805045
 30
0.0
 11
535.21825406947926
 21
0.24840031138055
 31
0.0
  0
LINE
  8
0
  6
CONTINUOUS
 62
               4
  5
3AB
 10
535.21825406947926
 20
0.24840031138055
 30
0.0
 11
509.21825406947937
 21
0.24840031138055
 31
0.0
  0
LINE
  8
0
  6
CONTINUOUS
 62
               4
  5
3AC
 10
516.21825406947971
 20
-28.45159968861995
 30
0.0
 11
516.21825406947971
 21
-9.7515996886183132
 31
0.0
  0
LINE
  8
0
  6
CONTINUOUS
 62
               4
  5
3AD
 10
528.21825406947971
 20
-9.7515996886183132
 30
0.0
 11
528.21825406947983
 21
-28.45159968861995
 31
0.0
  0
LINE
  8
0
  6
CONTINUOUS
 62
               4
  5
3AE
 10
516.21825406947971
 20
-28.45159968861995
 30
0.0
 11
528.21825406947983
 21
-28.45159968861995
 31
0.0
  0
LINE
  8
0
  6
CONTINUOUS
 62
               4
  5
3AF
 10
656.99999999999966
 20
-516.45159968862004
 30
0.0
 11
542.99999999999966
 21
-516.45159968862004
 31
0.0
  0
LINE
  8
0
  6
CONTINUOUS
 62
               4
  5
3B0
 10
658.05304282317309
 20
-515.39855686544661
 30
0.0
 11
541.94695717682634
 21
-515.39855686544661
 31
0.0
  0
LINE
  8
0
  6
CONTINUOUS
 62
               4
  5
3B1
 10
567.1664118875301
 20
42.548400311379993
 30
0.0
 11
567.1664118875301
 21
38.548400311380107
 31
0.0
  0
LINE
  8
0
  6
CONTINUOUS
 62
               4
  5
3B2
 10
567.1664118875301
 20
38.548400311380107
 30
0.0
 11
494.99999999999966
 21
38.548400311380107
 31
0.0
  0
LINE
  8
0
  6
CONTINUOUS
 62
               4
  5
3B3
 10
632.83358811246967
 20
38.548400311380107
 30
0.0
 11
705.00000000000011
 21
38.548400311380107
 31
0.0
  0
LINE
  8
0
  6
CONTINUOUS
 62
               4
  5
3B4
 10
632.83358811246967
 20
42.548400311379993
 30
0.0
 11
632.83358811246967
 21
38.548400311380107
 31
0.0
  0
LINE
  8
0
  6
CONTINUOUS
 62
               4
  5
3B5
 10
694.85880739699724
 20
38.548400311380107
 30
0.0
 11
694.85880739699724
 21
43.148400311380016
 31
0.0
  0
LINE
  8
0
  6
CONTINUOUS
 62
               4
  5
3B6
 10
691.90821993188138
 20
43.148400311380016
 30
0.0
 11
686.03174593051961
 21
46.548400311379993
 31
0.0
  0
LINE
  8
0
  6
CONTINUOUS
 62
               4
  5
3B7
 10
669.53174593051961
 20
46.548400311379993
 30
0.0
 11
686.03174593051961
 21
46.548400311379993
 31
0.0
  0
LINE
  8
0
  6
CONTINUOUS
 62
               4
  5
3B8
 10
669.53174593051961
 20
46.548400311379993
 30
0.0
 11
669.53174593051961
 21
38.548400311379879
 31
0.0
  0
LINE
  8
0
  6
CONTINUOUS
 62
               4
  5
3B9
 10
694.85880739699724
 20
43.148400311380016
 30
0.0
 11
691.90821993188126
 21
43.148400311380016
 31
0.0
  0
LINE
  8
0
  6
CONTINUOUS
 62
               4
  5
3BA
 10
539.29531553595768
 20
38.54840031138022
 30
0.0
 11
539.29531553595768
 21
43.148400311380243
 31
0.0
  0
LINE
  8
0
  6
CONTINUOUS
 62
               4
  5
3BB
 10
536.34472807084182
 20
43.148400311380129
 30
0.0
 11
530.46825406948017
 21
46.54840031138022
 31
0.0
  0
LINE
  8
0
  6
CONTINUOUS
 62
               4
  5
3BC
 10
513.96825406948005
 20
46.548400311380107
 30
0.0
 11
530.46825406948017
 21
46.54840031138022
 31
0.0
  0
LINE
  8
0
  6
CONTINUOUS
 62
               4
  5
3BD
 10
527.27450025578628
 20
38.548400311380107
 30
0.0
 11
527.27450025578628
 21
43.148400311380129
 31
0.0
  0
LINE
  8
0
  6
CONTINUOUS
 62
               4
  5
3BE
 10
539.29531553595768
 20
43.148400311380243
 30
0.0
 11
524.32391279067042
 21
43.148400311380129
 31
0.0
  0
LINE
  8
0
  6
CONTINUOUS
 62
               4
  5
3BF
 10
516.81139981998763
 20
46.54840031138022
 30
0.0
 11
524.32391279067042
 21
43.148400311380129
 31
0.0
  0
LINE
  8
0
  6
CONTINUOUS
 62
               4
  5
3C0
 10
513.96825406948005
 20
46.548400311380107
 30
0.0
 11
513.96825406948005
 21
38.548400311380107
 31
0.0
  0
LINE
  8
0
  6
CONTINUOUS
 62
               4
  5
3C1
 10
-509.21825406947949
 20
0.24840031138055
 30
0.0
 11
-509.21825406947949
 21
2.5484003113805045
 31
0.0
  0
LINE
  8
0
  6
CONTINUOUS
 62
               4
  5
3C2
 10
-509.21825406947949
 20
2.5484003113805045
 30
0.0
 11
-535.21825406947937
 21
2.5484003113805045
 31
0.0
  0
LINE
  8
0
  6
CONTINUOUS
 62
               4
  5
3C3
 10
-535.21825406947937
 20
2.5484003113805045
 30
0.0
 11
-535.21825406947937
 21
0.24840031138055
 31
0.0
  0
LINE
  8
0
  6
CONTINUOUS
 62
               4
  5
3C4
 10
-535.21825406947937
 20
0.24840031138055
 30
0.0
 11
-509.21825406947949
 21
0.24840031138055
 31
0.0
  0
LINE
  8
0
  6
CONTINUOUS
 62
               4
  5
3C5
 10
-516.21825406947983
 20
-28.451599688619979
 30
0.0
 11
-516.21825406947983
 21
-9.7515996886183416
 31
0.0
  0
LINE
  8
0
  6
CONTINUOUS
 62
               4
  5
3C6
 10
-528.21825406947983
 20
-9.7515996886183416
 30
0.0
 11
-528.21825406947994
 21
-28.451599688619979
 31
0.0
  0
LINE
  8
0
  6
CONTINUOUS
 62
               4
  5
3C7
 10
-516.21825406947983
 20
-28.451599688619979
 30
0.0
 11
-528.21825406947994
 21
-28.451599688619979
 31
0.0
  0
LINE
  8
0
  6
CONTINUOUS
 62
               4
  5
3C8
 10
-690.7817459305204
 20
0.24840031138055
 30
0.0
 11
-690.7817459305204
 21
2.5484003113805045
 31
0.0
  0
LINE
  8
0
  6
CONTINUOUS
 62
               4
  5
3C9
 10
-690.7817459305204
 20
2.5484003113805045
 30
0.0
 11
-664.78174593052051
 21
2.5484003113805045
 31
0.0
  0
LINE
  8
0
  6
CONTINUOUS
 62
               4
  5
3CA
 10
-664.78174593052051
 20
2.5484003113805045
 30
0.0
 11
-664.78174593052051
 21
0.24840031138055
 31
0.0
  0
LINE
  8
0
  6
CONTINUOUS
 62
               4
  5
3CB
 10
-664.78174593052051
 20
0.24840031138055
 30
0.0
 11
-690.7817459305204
 21
0.24840031138055
 31
0.0
  0
LINE
  8
0
  6
CONTINUOUS
 62
               4
  5
3CC
 10
-683.78174593052006
 20
-28.451599688619979
 30
0.0
 11
-683.78174593052006
 21
-9.7515996886183416
 31
0.0
  0
LINE
  8
0
  6
CONTINUOUS
 62
               4
  5
3CD
 10
-671.78174593052006
 20
-9.7515996886183416
 30
0.0
 11
-671.78174593051995
 21
-28.451599688619979
 31
0.0
  0
LINE
  8
0
  6
CONTINUOUS
 62
               4
  5
3CE
 10
-683.78174593052006
 20
-28.451599688619979
 30
0.0
 11
-671.78174593051995
 21
-28.451599688619979
 31
0.0
  0
LINE
  8
0
  6
CONTINUOUS
 62
               4
  5
3CF
 10
-543.00000000000011
 20
-516.45159968862004
 30
0.0
 11
-657.00000000000011
 21
-516.45159968862004
 31
0.0
  0
LINE
  8
0
  6
CONTINUOUS
 62
               4
  5
3D0
 10
-541.94695717682669
 20
-515.39855686544661
 30
0.0
 11
-658.05304282317343
 21
-515.39855686544661
 31
0.0
  0
LINE
  8
0
  6
CONTINUOUS
 62
               4
  5
3D1
 10
-632.83358811246967
 20
42.548400311379993
 30
0.0
 11
-632.83358811246967
 21
38.548400311380107
 31
0.0
  0
LINE
  8
0
  6
CONTINUOUS
 62
               4
  5
3D2
 10
-632.83358811246967
 20
38.548400311380107
 30
0.0
 11
-705.00000000000011
 21
38.548400311380107
 31
0.0
  0
LINE
  8
0
  6
CONTINUOUS
 62
               4
  5
3D3
 10
-567.1664118875301
 20
38.548400311380107
 30
0.0
 11
-494.9999999999996
 21
38.548400311380107
 31
0.0
  0
LINE
  8
0
  6
CONTINUOUS
 62
               4
  5
3D4
 10
-567.1664118875301
 20
42.548400311379993
 30
0.0
 11
-567.1664118875301
 21
38.548400311380107
 31
0.0
  0
LINE
  8
0
  6
CONTINUOUS
 62
               4
  5
3D5
 10
-505.14119260300254
 20
38.548400311380107
 30
0.0
 11
-505.14119260300254
 21
43.148400311380016
 31
0.0
  0
LINE
  8
0
  6
CONTINUOUS
 62
               4
  5
3D6
 10
-508.0917800681184
 20
43.148400311380016
 30
0.0
 11
-513.96825406948017
 21
46.548400311379993
 31
0.0
  0
LINE
  8
0
  6
CONTINUOUS
 62
               4
  5
3D7
 10
-530.46825406948017
 20
46.548400311379993
 30
0.0
 11
-513.96825406948017
 21
46.548400311379993
 31
0.0
  0
LINE
  8
0
  6
CONTINUOUS
 62
               4
  5
3D8
 10
-530.46825406948017
 20
46.548400311379993
 30
0.0
 11
-530.46825406948017
 21
38.548400311379879
 31
0.0
  0
LINE
  8
0
  6
CONTINUOUS
 62
               4
  5
3D9
 10
-505.14119260300254
 20
43.148400311380016
 30
0.0
 11
-508.09178006811845
 21
43.148400311380016
 31
0.0
  0
LINE
  8
0
  6
CONTINUOUS
 62
               4
  5
3DA
 10
-660.70468446404197
 20
38.54840031138022
 30
0.0
 11
-660.70468446404197
 21
43.148400311380243
 31
0.0
  0
LINE
  8
0
  6
CONTINUOUS
 62
               4
  5
3DB
 10
-663.65527192915783
 20
43.148400311380129
 30
0.0
 11
-669.53174593051972
 21
46.54840031138022
 31
0.0
  0
LINE
  8
0
  6
CONTINUOUS
 62
               4
  5
3DC
 10
-686.03174593051972
 20
46.548400311380107
 30
0.0
 11
-669.53174593051972
 21
46.54840031138022
 31
0.0
  0
LINE
  8
0
  6
CONTINUOUS
 62
               4
  5
3DD
 10
-672.72549974421349
 20
38.548400311380107
 30
0.0
 11
-672.72549974421349
 21
43.148400311380129
 31
0.0
  0
LINE
  8
0
  6
CONTINUOUS
 62
               4
  5
3DE
 10
-660.70468446404197
 20
43.148400311380243
 30
0.0
 11
-675.67608720932935
 21
43.148400311380129
 31
0.0
  0
LINE
  8
0
  6
CONTINUOUS
 62
               4
  5
3DF
 10
-683.18860018001214
 20
46.54840031138022
 30
0.0
 11
-675.67608720932935
 21
43.148400311380129
 31
0.0
  0
LINE
  8
0
  6
CONTINUOUS
 62
               4
  5
3E0
 10
-686.03174593051972
 20
46.548400311380107
 30
0.0
 11
-686.03174593051972
 21
38.548400311380107
 31
0.0
  0
LINE
  8
0
  6
CONTINUOUS
 62
               4
  5
3E1
 10
23.580847421121359
 20
-405.04883337493715
 30
0.0
 11
-39.704824739235384
 21
-295.43483380205265
 31
0.0
  0
ARC
  8
0
  6
CONTINUOUS
 62
               4
  5
3E2
 10
325.71848239240774
 20
-157.53358877669098
 30
0.0
 40
390.57770900881167
 50
200.6752012318793
 51
219.32479876803959
  0
ARC
  8
0
  6
CONTINUOUS
 62
               4
  5
3E3
 10
-935.13496319899855
 20
-885.4876649975547
 30
0.0
 40
1072.3607025921351
 50
26.616707427993422
 51
33.3832925719949
  0
ARC
  8
0
  6
CONTINUOUS
 62
               4
  5
3E4
 10
-622.48824559530715
 20
-309.858579953625
 30
0.0
 40
62.379470432471358
 50
153.87479529774379
 51
191.49340995895585
  0
ARC
  8
0
  6
CONTINUOUS
 62
               4
  5
3E5
 10
-657.36531552333793
 20
-325.40633739739354
 30
0.0
 40
10.0
 50
324.29736943372262
 51
398.20421175358553
  0
LINE
  8
0
  6
CONTINUOUS
 62
               4
  5
3E6
 10
-649.50720119844937
 20
-319.22167578522891
 30
0.0
 11
-689.79905196282141
 21
-268.02761060872427
 31
0.0
  0
ARC
  8
0
  6
CONTINUOUS
 62
               4
  5
3E7
 10
-664.70313470838335
 20
-320.13306855303478
 30
0.0
 40
19.036091782253322
 50
186.49999999996388
 51
324.29736943372268
  0
ARC
  8
0
  6
CONTINUOUS
 62
               4
  5
3E8
 10
-726.31870882350347
 20
-360.45041481796972
 30
0.0
 40
204.24864340422488
 50
353.49999999993162
 51
373.4368021674054
  0
ARC
  8
0
  6
CONTINUOUS
 62
               4
  5
3E9
 10
-688.62769905544246
 20
-358.16599774856201
 30
0.0
 40
167.18634723772169
 50
351.25933879886691
 51
375.67746336847057
  0
ARC
  8
0
  6
CONTINUOUS
 62
               4
  5
3EA
 10
30.156640953965734
 20
-534.24975965991075
 30
0.0
 40
687.72820158627314
 50
18.10848079046583
 51
28.098008730082476
  0
ARC
  8
0
  6
CONTINUOUS
 62
               4
  5
3EB
 10
618.51036771742247
 20
-277.63598511512333
 30
0.0
 40
69.74273142123306
 50
332.35940834662927
 51
434.76997683374913
  0
POINT
  8
0
  6
CONTINUOUS
 62
               4
  5
3EC
 10
-247.03776905046902
 20
-993.59979516981048
 30
0.0
  0
POINT
  8
0
  6
CONTINUOUS
 62
               4
  5
3ED
 10
-537.23776905046896
 20
-993.59979516981025
 30
0.0
  0
POINT
  8
0
  6
CONTINUOUS
 62
               4
  5
3EE
 10
-349.58372644623557
 20
-885.53191110077546
 30
0.0
  0
POINT
  8
0
  6
CONTINUOUS
 62
               4
  5
3EF
 10
242.83392368588068
 20
-993.59979516981048
 30
0.0
  0
POINT
  8
0
  6
CONTINUOUS
 62
               4
  5
3F0
 10
-1.0781087646051841
 20
-993.59979516981048
 30
0.0
  0
POINT
  8
0
  6
CONTINUOUS
 62
               4
  5
3F1
 10
165.37790746063786
 20
-905.64377894456766
 30
0.0
  0
LINE
  8
0
  6
CONTINUOUS
 62
               4
  5
3F2
 10
686.2865232163075
 20
-1385.3791395937512
 30
0.0
 11
681.2865232163075
 21
-1380.3791395937512
 31
0.0
  0
ARC
  8
0
  6
CONTINUOUS
 62
               4
  5
3F3
 10
663.7865232163075
 20
-1395.914793346604
 30
0.0
 40
19.999999999999996
 50
0.0
 51
31.78833061703342
  0
LINE
  8
0
  6
CONTINUOUS
 62
               4
  5
3F4
 10
680.78652321630796
 20
-1385.3791395937512
 30
0.0
 11
680.78652321630796
 21
-1380.3791395937508
 31
0.0
  0
LINE
  8
0
  6
CONTINUOUS
 62
               4
  5
3F5
 10
681.2865232163075
 20
-1380.3791395937512
 30
0.0
 11
680.78652321630796
 21
-1380.3791395937512
 31
0.0
  0
LINE
  8
0
  6
CONTINUOUS
 62
               4
  5
3F6
 10
686.03652321630773
 20
-1385.6291395937512
 30
0.0
 11
680.78652321630796
 21
-1380.3791395937512
 31
0.0
  0
LINE
  8
0
  6
CONTINUOUS
 62
               4
  5
3F7
 10
686.03652321630773
 20
-1385.6291395937512
 30
0.0
 11
686.2865232163075
 21
-1385.3791395937512
 31
0.0
  0
LINE
  8
0
  6
CONTINUOUS
 62
               4
  5
3F8
 10
686.2865232163075
 20
-1385.3791395937512
 30
0.0
 11
686.2865232163075
 21
-1516.0678169437208
 31
0.0
  0
LINE
  8
0
  6
CONTINUOUS
 62
               4
  5
3F9
 10
686.03652321630773
 20
-1385.6291395937512
 30
0.0
 11
686.03652321630773
 21
-1515.7824598365853
 31
0.0
  0
LINE
  8
0
  6
CONTINUOUS
 62
               4
  5
3FA
 10
683.7865232163075
 20
-1395.7617697494868
 30
0.0
 11
683.7865232163075
 21
-1514.914793346604
 31
0.0
  0
POINT
  8
0
  6
CONTINUOUS
 62
               4
  5
3FB
 10
653.7865232163075
 20
-1124.8153595980195
 30
0.0
  0
POINT
  8
0
  6
CONTINUOUS
 62
               4
  5
3FC
 10
464.88652321630752
 20
-1410.414793346604
 30
0.0
  0
POINT
  8
0
  6
CONTINUOUS
 62
               4
  5
3FD
 10
464.88652321630764
 20
-1024.9153595980192
 30
0.0
  0
LINE
  8
0
  6
DASHED2
 62
               4
  5
3FE
 10
552.28652321630773
 20
-1353.914793346604
 30
0.0
 11
666.2865232163075
 21
-1353.914793346604
 31
0.0
  0
LINE
  8
LAYER192
  6
CONTINUOUS
 62
               3
  5
3FF
 10
-68.253520777581457
 20
-495.98805813198231
 30
0.0
 11
-59.339745962155824
 21
-511.42716899952751
 31
0.0
  0
ARC
  8
LAYER192
  6
CONTINUOUS
 62
               3
  5
400
 10
-50.500000000000448
 20
-485.73805813198254
 30
0.0
 40
20.500000000000004
 50
179.99999999996513
 51
209.99999999995936
  0
LINE
  8
LAYER192
  6
CONTINUOUS
 62
               3
  5
401
 10
68.253520777580917
 20
-495.98805813198231
 30
0.0
 11
59.339745962155298
 21
-511.42716899952751
 31
0.0
  0
ARC
  8
LAYER192
  6
CONTINUOUS
 62
               3
  5
402
 10
50.499999999999922
 20
-485.73805813198254
 30
0.0
 40
20.500000000000004
 50
329.99999999993622
 51
359.99999999993037
  0
ARC
  8
LAYER192
  6
CONTINUOUS
 62
               3
  5
403
 10
67.999999999999631
 20
-516.42716899952757
 30
0.0
 40
10.0
 50
149.9999999999726
 51
174.09604415054125
  0
ARC
  8
LAYER192
  6
CONTINUOUS
 62
               3
  5
404
 10
-68.000000000000171
 20
-516.42716899952757
 30
0.0
 40
10.0
 50
5.9039558494236442
 51
29.999999999992458
  0
LINE
  8
LAYER192
  6
CONTINUOUS
 62
               3
  5
405
 10
-105.00000000000034
 20
40.549618657341881
 30
0.0
 11
-105.00000000000034
 21
28.54840031138022
 31
0.0
  0
LINE
  8
LAYER192
  6
CONTINUOUS
 62
               3
  5
406
 10
104.99999999999966
 20
40.549618657341881
 30
0.0
 11
104.99999999999966
 21
28.54840031138022
 31
0.0
  0
ARC
  8
LAYER192
  6
CONTINUOUS
 62
               3
  5
407
 10
-103.00000000000031
 20
40.549618657341881
 30
0.0
 40
2.0
 50
91.999999999981043
 51
179.99999999996541
  0
ARC
  8
LAYER192
  6
CONTINUOUS
 62
               3
  5
408
 10
102.99999999999977
 20
40.549618657341881
 30
0.0
 40
2.0
 50
0.0
 51
87.999999999983118
  0
LINE
  8
LAYER192
  6
CONTINUOUS
 62
               3
  5
409
 10
-105.00000000000034
 20
28.54840031138022
 30
0.0
 11
104.99999999999966
 21
28.54840031138022
 31
0.0
  0
LINE
  8
LAYER192
  6
CONTINUOUS
 62
               3
  5
40A
 10
-103.06979899340524
 20
42.548400311379993
 30
0.0
 11
-86.031745930519946
 21
42.548400311379993
 31
0.0
  0
LINE
  8
LAYER192
  6
CONTINUOUS
 62
               3
  5
40B
 10
-60.704684464042245
 20
42.548400311379993
 30
0.0
 11
69.531745930519634
 21
42.548400311379993
 31
0.0
  0
LINE
  8
LAYER192
  6
CONTINUOUS
 62
               3
  5
40C
 10
94.85880739699725
 20
42.548400311379993
 30
0.0
 11
103.0697989934047
 21
42.548400311379993
 31
0.0
  0
LINE
  8
LAYER192
  6
CONTINUOUS
 62
               3
  5
40D
 10
531.74647922241854
 20
-495.98805813198231
 30
0.0
 11
540.6602540378442
 21
-511.42716899952751
 31
0.0
  0
ARC
  8
LAYER192
  6
CONTINUOUS
 62
               3
  5
40E
 10
549.49999999999955
 20
-485.73805813198254
 30
0.0
 40
20.500000000000004
 50
179.99999999996513
 51
209.99999999995936
  0
LINE
  8
LAYER192
  6
CONTINUOUS
 62
               3
  5
40F
 10
668.25352077758089
 20
-495.98805813198231
 30
0.0
 11
659.33974596215523
 21
-511.42716899952751
 31
0.0
  0
ARC
  8
LAYER192
  6
CONTINUOUS
 62
               3
  5
410
 10
650.49999999999989
 20
-485.73805813198254
 30
0.0
 40
20.500000000000004
 50
329.99999999993622
 51
359.99999999993037
  0
ARC
  8
LAYER192
  6
CONTINUOUS
 62
               3
  5
411
 10
667.99999999999966
 20
-516.42716899952757
 30
0.0
 40
10.0
 50
149.99999999997263
 51
174.09604415054122
  0
ARC
  8
LAYER192
  6
CONTINUOUS
 62
               3
  5
412
 10
531.99999999999989
 20
-516.42716899952757
 30
0.0
 40
10.0
 50
5.9039558494236442
 51
29.999999999992557
  0
LINE
  8
LAYER192
  6
CONTINUOUS
 62
               3
  5
413
 10
494.99999999999966
 20
40.549618657341881
 30
0.0
 11
494.99999999999966
 21
28.54840031138022
 31
0.0
  0
LINE
  8
LAYER192
  6
CONTINUOUS
 62
               3
  5
414
 10
704.99999999999966
 20
40.549618657341881
 30
0.0
 11
704.99999999999966
 21
28.54840031138022
 31
0.0
  0
ARC
  8
LAYER192
  6
CONTINUOUS
 62
               3
  5
415
 10
496.99999999999966
 20
40.549618657341881
 30
0.0
 40
2.0
 50
91.999999999980631
 51
179.99999999996541
  0
ARC
  8
LAYER192
  6
CONTINUOUS
 62
               3
  5
416
 10
702.99999999999977
 20
40.549618657341881
 30
0.0
 40
2.0
 50
0.0
 51
87.999999999983118
  0
LINE
  8
LAYER192
  6
CONTINUOUS
 62
               3
  5
417
 10
494.99999999999966
 20
28.54840031138022
 30
0.0
 11
704.99999999999966
 21
28.54840031138022
 31
0.0
  0
LINE
  8
LAYER192
  6
CONTINUOUS
 62
               3
  5
418
 10
496.93020100659476
 20
42.548400311379993
 30
0.0
 11
513.96825406948005
 21
42.548400311379993
 31
0.0
  0
LINE
  8
LAYER192
  6
CONTINUOUS
 62
               3
  5
419
 10
539.29531553595768
 20
42.548400311379993
 30
0.0
 11
669.53174593051961
 21
42.548400311379993
 31
0.0
  0
LINE
  8
LAYER192
  6
CONTINUOUS
 62
               3
  5
41A
 10
694.85880739699724
 20
42.548400311379993
 30
0.0
 11
703.06979899340467
 21
42.548400311379993
 31
0.0
  0
LINE
  8
LAYER192
  6
CONTINUOUS
 62
               3
  5
41B
 10
-668.25352077758123
 20
-495.98805813198243
 30
0.0
 11
-659.33974596215558
 21
-511.42716899952762
 31
0.0
  0
ARC
  8
LAYER192
  6
CONTINUOUS
 62
               3
  5
41C
 10
-650.50000000000023
 20
-485.73805813198265
 30
0.0
 40
20.500000000000004
 50
179.99999999996513
 51
209.99999999995936
  0
LINE
  8
LAYER192
  6
CONTINUOUS
 62
               3
  5
41D
 10
-531.74647922241888
 20
-495.98805813198243
 30
0.0
 11
-540.66025403784442
 21
-511.42716899952762
 31
0.0
  0
ARC
  8
LAYER192
  6
CONTINUOUS
 62
               3
  5
41E
 10
-549.49999999999989
 20
-485.73805813198265
 30
0.0
 40
20.500000000000004
 50
329.99999999993622
 51
359.99999999993037
  0
ARC
  8
LAYER192
  6
CONTINUOUS
 62
               3
  5
41F
 10
-532.00000000000011
 20
-516.42716899952757
 30
0.0
 40
10.0
 50
149.99999999997263
 51
174.09604415054122
  0
ARC
  8
LAYER192
  6
CONTINUOUS
 62
               3
  5
420
 10
-668.0
 20
-516.42716899952757
 30
0.0
 40
10.0
 50
5.9039558494236442
 51
29.999999999992557
  0
LINE
  8
LAYER192
  6
CONTINUOUS
 62
               3
  5
421
 10
-705.00000000000011
 20
40.549618657341881
 30
0.0
 11
-705.00000000000011
 21
28.548400311380163
 31
0.0
  0
LINE
  8
LAYER192
  6
CONTINUOUS
 62
               3
  5
422
 10
-495.00000000000011
 20
40.549618657341881
 30
0.0
 11
-495.00000000000011
 21
28.548400311380163
 31
0.0
  0
ARC
  8
LAYER192
  6
CONTINUOUS
 62
               3
  5
423
 10
-703.00000000000011
 20
40.549618657341881
 30
0.0
 40
2.0
 50
91.999999999980631
 51
179.99999999996541
  0
ARC
  8
LAYER192
  6
CONTINUOUS
 62
               3
  5
424
 10
-497.0
 20
40.549618657341881
 30
0.0
 40
2.0
 50
0.0
 51
87.999999999983118
  0
LINE
  8
LAYER192
  6
CONTINUOUS
 62
               3
  5
425
 10
-705.00000000000011
 20
28.548400311380163
 30
0.0
 11
-495.00000000000011
 21
28.548400311380163
 31
0.0
  0
LINE
  8
LAYER192
  6
CONTINUOUS
 62
               3
  5
426
 10
-703.06979899340502
 20
42.548400311379993
 30
0.0
 11
-686.03174593051972
 21
42.548400311379993
 31
0.0
  0
LINE
  8
LAYER192
  6
CONTINUOUS
 62
               3
  5
427
 10
-660.70468446404197
 20
42.548400311379993
 30
0.0
 11
-530.46825406948017
 21
42.548400311379993
 31
0.0
  0
LINE
  8
LAYER192
  6
CONTINUOUS
 62
               3
  5
428
 10
-505.14119260300254
 20
42.548400311379993
 30
0.0
 11
-496.9302010065951
 21
42.548400311379993
 31
0.0
  0
INSERT
  8
0
  6
CONTINUOUS
  5
429
  2
GROUP_1
 10
0.0
 20
0.0
 30
0.0
  0
INSERT
  8
0
  6
CONTINUOUS
  5
42A
  2
GROUP_2
 10
0.0
 20
0.0
 30
0.0
  0
INSERT
  8
0
  6
CONTINUOUS
  5
42B
  2
GROUP_3
 10
0.0
 20
0.0
 30
0.0
  0
INSERT
  8
0
  6
CONTINUOUS
  5
42C
  2
GROUP_4
 10
0.0
 20
0.0
 30
0.0
  0
INSERT
  8
0
  6
CONTINUOUS
  5
42D
  2
GROUP_5
 10
0.0
 20
0.0
 30
0.0
  0
INSERT
  8
0
  6
CONTINUOUS
  5
42E
  2
GROUP_6
 10
0.0
 20
0.0
 30
0.0
  0
LINE
  8
LAYER192
  6
CONTINUOUS
 62
               4
  5
42F
 10
-32.833588112469897
 20
441.03169999840617
 30
0.0
 11
-101.51670031297448
 21
509.71481219891092
 31
0.0
  0
LINE
  8
LAYER192
  6
CONTINUOUS
 62
               4
  5
430
 10
-101.51670031297419
 20
575.38198842384963
 30
0.0
 11
-32.833588112469471
 21
644.06510062435427
 31
0.0
  0
LINE
  8
LAYER192
  6
CONTINUOUS
 62
               4
  5
431
 10
32.833588112469286
 20
644.06510062435382
 30
0.0
 11
101.5167003129738
 21
575.38198842384918
 31
0.0
  0
LINE
  8
LAYER192
  6
CONTINUOUS
 62
               4
  5
432
 10
101.51670031297351
 20
509.71481219891058
 30
0.0
 11
32.833588112468789
 21
441.03169999840594
 31
0.0
  0
POINT
  8
0
  6
CONTINUOUS
 62
               5
  5
433
 10
-392.13776905046905
 20
-1038.0997951698105
 30
0.0
  0
POINT
  8
0
  6
CONTINUOUS
 62
               5
  5
434
 10
-218.90769754050871
 20
-1039.3905892446994
 30
0.0
  0
POINT
  8
0
  6
CONTINUOUS
 62
               5
  5
435
 10
-565.36784056042927
 20
-1039.3905892446992
 30
0.0
  0
POINT
  8
0
  6
CONTINUOUS
 62
               5
  5
436
 10
-395.37452052112462
 20
-857.40183959081514
 30
0.0
  0
POINT
  8
0
  6
CONTINUOUS
 62
               5
  5
437
 10
493.01659472626784
 20
-1456.2055874214927
 30
0.0
  0
POINT
  8
0
  6
CONTINUOUS
 62
               5
  5
438
 10
493.01659472626795
 20
-979.12456552313029
 30
0.0
  0
CIRCLE
  8
0
  6
CONTINUOUS
 62
               7
  5
439
 10
-392.13776905046905
 20
-1044.5997951698105
 30
0.0
 40
38.0
  0
CIRCLE
  8
0
  6
CONTINUOUS
 62
               7
  5
43A
 10
-392.13776905046905
 20
-1044.5997951698105
 30
0.0
 40
33.5
  0
LINE
  8
0
  6
CONTINUOUS
 62
               7
  5
43B
 10
-247.63776905046905
 20
-993.59979516981048
 30
0.0
 11
-247.63776905046905
 21
-1082.594559049136
 31
0.0
  0
LINE
  8
0
  6
CONTINUOUS
 62
               7
  5
43C
 10
-247.03776905046902
 20
-993.59979516981048
 30
0.0
 11
-247.63776905046905
 21
-993.59979516981048
 31
0.0
  0
LINE
  8
0
  6
CONTINUOUS
 62
               7
  5
43D
 10
-282.63776905046905
 20
-1081.5997951698105
 30
0.0
 11
-282.63776905046905
 21
-1007.5997951698105
 31
0.0
  0
LINE
  8
0
  6
CONTINUOUS
 62
               7
  5
43E
 10
-189.63776905046905
 20
-1081.5997951698105
 30
0.0
 11
-189.63776905046905
 21
-994.59979516981048
 31
0.0
  0
LINE
  8
0
  6
CONTINUOUS
 62
               7
  5
43F
 10
-247.63776905046905
 20
-993.59979516981048
 30
0.0
 11
-190.63776905046905
 21
-993.59979516981048
 31
0.0
  0
LINE
  8
0
  6
CONTINUOUS
 62
               7
  5
440
 10
-281.63776905046905
 20
-1082.5997951698105
 30
0.0
 11
-190.63776905046905
 21
-1082.5997951698105
 31
0.0
  0
LINE
  8
0
  6
CONTINUOUS
 62
               7
  5
441
 10
-190.63776905046905
 20
-993.59979516981048
 30
0.0
 11
-189.63776905046905
 21
-994.59979516981048
 31
0.0
  0
LINE
  8
0
  6
CONTINUOUS
 62
               7
  5
442
 10
-189.63776905046905
 20
-1081.5997951698105
 30
0.0
 11
-190.63776905046905
 21
-1082.5997951698105
 31
0.0
  0
LINE
  8
0
  6
CONTINUOUS
 62
               7
  5
443
 10
-281.63776905046905
 20
-1006.5997951698105
 30
0.0
 11
-247.63776905046905
 21
-1006.5997951698105
 31
0.0
  0
CIRCLE
  8
0
  6
CONTINUOUS
 62
               7
  5
444
 10
-392.13776905046905
 20
-1038.0997951698105
 30
0.0
 40
44.5
  0
LINE
  8
0
  6
CONTINUOUS
 62
               7
  5
445
 10
-281.63776905046905
 20
-1006.5997951698105
 30
0.0
 11
-282.63776905046905
 21
-1007.5997951698105
 31
0.0
  0
LINE
  8
0
  6
CONTINUOUS
 62
               7
  5
446
 10
-282.63776905046905
 20
-1081.5997951698105
 30
0.0
 11
-281.63776905046905
 21
-1082.5997951698105
 31
0.0
  0
LINE
  8
0
  6
CONTINUOUS
 62
               7
  5
447
 10
-536.63776905046882
 20
-993.59979516981025
 30
0.0
 11
-536.63776905046905
 21
-1082.5945590491358
 31
0.0
  0
LINE
  8
0
  6
CONTINUOUS
 62
               7
  5
448
 10
-537.23776905046896
 20
-993.59979516981025
 30
0.0
 11
-536.63776905046882
 21
-993.59979516981025
 31
0.0
  0
LINE
  8
0
  6
CONTINUOUS
 62
               7
  5
449
 10
-501.6377690504691
 20
-1081.5997951698102
 30
0.0
 11
-501.63776905046888
 21
-1007.5997951698102
 31
0.0
  0
LINE
  8
0
  6
CONTINUOUS
 62
               7
  5
44A
 10
-594.63776905046905
 20
-1081.5997951698102
 30
0.0
 11
-594.63776905046882
 21
-994.59979516981025
 31
0.0
  0
LINE
  8
0
  6
CONTINUOUS
 62
               7
  5
44B
 10
-536.63776905046882
 20
-993.59979516981025
 30
0.0
 11
-593.63776905046882
 21
-993.59979516981025
 31
0.0
  0
LINE
  8
0
  6
CONTINUOUS
 62
               7
  5
44C
 10
-502.6377690504691
 20
-1082.5997951698102
 30
0.0
 11
-593.63776905046905
 21
-1082.5997951698102
 31
0.0
  0
LINE
  8
0
  6
CONTINUOUS
 62
               7
  5
44D
 10
-593.63776905046882
 20
-993.59979516981025
 30
0.0
 11
-594.63776905046882
 21
-994.59979516981025
 31
0.0
  0
LINE
  8
0
  6
CONTINUOUS
 62
               7
  5
44E
 10
-594.63776905046905
 20
-1081.5997951698102
 30
0.0
 11
-593.63776905046905
 21
-1082.5997951698102
 31
0.0
  0
LINE
  8
0
  6
CONTINUOUS
 62
               7
  5
44F
 10
-502.63776905046888
 20
-1006.5997951698102
 30
0.0
 11
-536.63776905046882
 21
-1006.5997951698102
 31
0.0
  0
LINE
  8
0
  6
CONTINUOUS
 62
               7
  5
450
 10
-502.63776905046888
 20
-1006.5997951698102
 30
0.0
 11
-501.63776905046888
 21
-1007.5997951698102
 31
0.0
  0
LINE
  8
0
  6
CONTINUOUS
 62
               7
  5
451
 10
-501.6377690504691
 20
-1081.5997951698102
 30
0.0
 11
-502.6377690504691
 21
-1082.5997951698102
 31
0.0
  0
LINE
  8
0
  6
CONTINUOUS
 62
               7
  5
452
 10
-349.58372644623557
 20
-886.1319111007756
 30
0.0
 11
-438.57849032556112
 21
-886.13191110077537
 31
0.0
  0
LINE
  8
0
  6
CONTINUOUS
 62
               7
  5
453
 10
-349.58372644623557
 20
-885.53191110077546
 30
0.0
 11
-349.58372644623557
 21
-886.1319111007756
 31
0.0
  0
LINE
  8
0
  6
CONTINUOUS
 62
               7
  5
454
 10
-431.08372644623557
 20
-921.13191110077537
 30
0.0
 11
-357.08372644623557
 21
-921.1319111007756
 31
0.0
  0
LINE
  8
0
  6
CONTINUOUS
 62
               7
  5
455
 10
-437.58372644623546
 20
-828.13191110077537
 30
0.0
 11
-350.58372644623557
 21
-828.1319111007756
 31
0.0
  0
LINE
  8
0
  6
CONTINUOUS
 62
               7
  5
456
 10
-349.58372644623557
 20
-886.1319111007756
 30
0.0
 11
-349.58372644623557
 21
-829.1319111007756
 31
0.0
  0
LINE
  8
0
  6
CONTINUOUS
 62
               7
  5
457
 10
-432.08372644623557
 20
-920.13191110077537
 30
0.0
 11
-432.08372644623557
 21
-886.13191110077537
 31
0.0
  0
LINE
  8
0
  6
CONTINUOUS
 62
               7
  5
458
 10
-349.58372644623557
 20
-829.1319111007756
 30
0.0
 11
-350.58372644623557
 21
-828.1319111007756
 31
0.0
  0
LINE
  8
0
  6
CONTINUOUS
 62
               7
  5
459
 10
-437.58372644623546
 20
-828.13191110077537
 30
0.0
 11
-438.58372644623546
 21
-829.13191110077537
 31
0.0
  0
LINE
  8
0
  6
CONTINUOUS
 62
               7
  5
45A
 10
-356.08372644623557
 20
-920.1319111007756
 30
0.0
 11
-356.08372644623557
 21
-886.13191110077537
 31
0.0
  0
LINE
  8
0
  6
CONTINUOUS
 62
               7
  5
45B
 10
-356.08372644623557
 20
-920.1319111007756
 30
0.0
 11
-357.08372644623557
 21
-921.1319111007756
 31
0.0
  0
LINE
  8
0
  6
CONTINUOUS
 62
               7
  5
45C
 10
-431.08372644623557
 20
-921.13191110077537
 30
0.0
 11
-432.08372644623557
 21
-920.13191110077537
 31
0.0
  0
LINE
  8
0
  6
CONTINUOUS
 62
               7
  5
45D
 10
-438.58372644623557
 20
-886.13191110077537
 30
0.0
 11
-438.58372644623557
 21
-829.13191110077537
 31
0.0
  0
LINE
  8
0
  6
CONTINUOUS
 62
               7
  5
45E
 10
216.63392368588063
 20
-1081.5997951698105
 30
0.0
 11
216.63392368588063
 21
-1023.5997951698105
 31
0.0
  0
LINE
  8
0
  6
CONTINUOUS
 62
               7
  5
45F
 10
242.23392368588054
 20
-993.59979516981048
 30
0.0
 11
242.23392368588054
 21
-1082.5997951698105
 31
0.0
  0
LINE
  8
0
  6
CONTINUOUS
 62
               7
  5
460
 10
242.83392368588068
 20
-993.59979516981048
 30
0.0
 11
242.23392368588054
 21
-993.59979516981048
 31
0.0
  0
LINE
  8
0
  6
CONTINUOUS
 62
               7
  5
461
 10
300.23392368588077
 20
-1081.5997951698105
 30
0.0
 11
300.23392368588077
 21
-994.59979516981048
 31
0.0
  0
CIRCLE
  8
0
  6
CONTINUOUS
 62
               7
  5
462
 10
120.87790746063763
 20
-1052.5997951698105
 30
0.0
 40
30.0
  0
CIRCLE
  8
0
  6
CONTINUOUS
 62
               7
  5
463
 10
120.87790746063763
 20
-1052.5997951698105
 30
0.0
 40
25.5
  0
CIRCLE
  8
0
  6
CONTINUOUS
 62
               7
  5
464
 10
120.87790746063763
 20
-1038.0997951698105
 30
0.0
 40
44.5
  0
LINE
  8
0
  6
CONTINUOUS
 62
               7
  5
465
 10
242.36837543136096
 20
-993.59979516981048
 30
0.0
 11
299.23392368588077
 21
-993.59979516981048
 31
0.0
  0
LINE
  8
0
  6
CONTINUOUS
 62
               7
  5
466
 10
217.63392368588063
 20
-1082.5997951698105
 30
0.0
 11
299.23392368588077
 21
-1082.5997951698105
 31
0.0
  0
LINE
  8
0
  6
CONTINUOUS
 62
               7
  5
467
 10
217.63392368588063
 20
-1022.5997951698105
 30
0.0
 11
242.23392368588054
 21
-1022.5997951698105
 31
0.0
  0
LINE
  8
0
  6
CONTINUOUS
 62
               7
  5
468
 10
217.63392368588063
 20
-1022.5997951698105
 30
0.0
 11
216.63392368588063
 21
-1023.5997951698105
 31
0.0
  0
LINE
  8
0
  6
CONTINUOUS
 62
               7
  5
469
 10
299.23392368588077
 20
-993.59979516981048
 30
0.0
 11
300.23392368588077
 21
-994.59979516981048
 31
0.0
  0
LINE
  8
0
  6
CONTINUOUS
 62
               7
  5
46A
 10
216.63392368588063
 20
-1081.5997951698105
 30
0.0
 11
217.63392368588063
 21
-1082.5997951698105
 31
0.0
  0
LINE
  8
0
  6
CONTINUOUS
 62
               7
  5
46B
 10
300.23392368588077
 20
-1081.5997951698105
 30
0.0
 11
299.23392368588077
 21
-1082.5997951698105
 31
0.0
  0
LINE
  8
0
  6
CONTINUOUS
 62
               7
  5
46C
 10
25.121891235394862
 20
-1081.5997951698105
 30
0.0
 11
25.121891235394862
 21
-1023.5997951698105
 31
0.0
  0
LINE
  8
0
  6
CONTINUOUS
 62
               7
  5
46D
 10
-0.4781087646051613
 20
-993.59979516981048
 30
0.0
 11
-0.4781087646051613
 21
-1082.5997951698105
 31
0.0
  0
LINE
  8
0
  6
CONTINUOUS
 62
               7
  5
46E
 10
-1.0781087646051841
 20
-993.59979516981048
 30
0.0
 11
-0.4781087646051613
 21
-993.59979516981048
 31
0.0
  0
LINE
  8
0
  6
CONTINUOUS
 62
               7
  5
46F
 10
-58.47810876460516
 20
-1081.5997951698105
 30
0.0
 11
-58.47810876460516
 21
-994.59979516981048
 31
0.0
  0
LINE
  8
0
  6
CONTINUOUS
 62
               7
  5
470
 10
-0.6125605100854666
 20
-993.59979516981048
 30
0.0
 11
-57.47810876460516
 21
-993.59979516981048
 31
0.0
  0
LINE
  8
0
  6
CONTINUOUS
 62
               7
  5
471
 10
24.121891235394862
 20
-1082.5997951698105
 30
0.0
 11
-57.47810876460516
 21
-1082.5997951698105
 31
0.0
  0
LINE
  8
0
  6
CONTINUOUS
 62
               7
  5
472
 10
24.121891235394862
 20
-1022.5997951698105
 30
0.0
 11
-0.4781087646051613
 21
-1022.5997951698105
 31
0.0
  0
LINE
  8
0
  6
CONTINUOUS
 62
               7
  5
473
 10
24.121891235394862
 20
-1022.5997951698105
 30
0.0
 11
25.121891235394862
 21
-1023.5997951698105
 31
0.0
  0
LINE
  8
0
  6
CONTINUOUS
 62
               7
  5
474
 10
-57.47810876460516
 20
-993.59979516981048
 30
0.0
 11
-58.47810876460516
 21
-994.59979516981048
 31
0.0
  0
LINE
  8
0
  6
CONTINUOUS
 62
               7
  5
475
 10
25.121891235394862
 20
-1081.5997951698105
 30
0.0
 11
24.121891235394862
 21
-1082.5997951698105
 31
0.0
  0
LINE
  8
0
  6
CONTINUOUS
 62
               7
  5
476
 10
-58.47810876460516
 20
-1081.5997951698105
 30
0.0
 11
-57.47810876460516
 21
-1082.5997951698105
 31
0.0
  0
LINE
  8
0
  6
CONTINUOUS
 62
               7
  5
477
 10
91.877907460637857
 20
-931.8437789445677
 30
0.0
 11
149.87790746063786
 21
-931.8437789445677
 31
0.0
  0
LINE
  8
0
  6
CONTINUOUS
 62
               7
  5
478
 10
165.37790746063786
 20
-906.24377894456757
 30
0.0
 11
76.377907460637857
 21
-906.24377894456757
 31
0.0
  0
LINE
  8
0
  6
CONTINUOUS
 62
               7
  5
479
 10
165.37790746063786
 20
-905.64377894456766
 30
0.0
 11
165.37790746063786
 21
-906.24377894456757
 31
0.0
  0
LINE
  8
0
  6
CONTINUOUS
 62
               7
  5
47A
 10
77.377907460637857
 20
-848.24377894456757
 30
0.0
 11
164.37790746063786
 21
-848.24377894456757
 31
0.0
  0
LINE
  8
0
  6
CONTINUOUS
 62
               7
  5
47B
 10
165.37790746063786
 20
-906.10932719908737
 30
0.0
 11
165.37790746063786
 21
-849.24377894456757
 31
0.0
  0
LINE
  8
0
  6
CONTINUOUS
 62
               7
  5
47C
 10
90.877907460637857
 20
-930.8437789445677
 30
0.0
 11
90.877907460637857
 21
-906.24377894456757
 31
0.0
  0
LINE
  8
0
  6
CONTINUOUS
 62
               7
  5
47D
 10
150.87790746063786
 20
-930.8437789445677
 30
0.0
 11
150.87790746063786
 21
-906.24377894456757
 31
0.0
  0
LINE
  8
0
  6
CONTINUOUS
 62
               7
  5
47E
 10
150.87790746063786
 20
-930.8437789445677
 30
0.0
 11
149.87790746063786
 21
-931.8437789445677
 31
0.0
  0
LINE
  8
0
  6
CONTINUOUS
 62
               7
  5
47F
 10
165.37790746063786
 20
-849.24377894456757
 30
0.0
 11
164.37790746063786
 21
-848.24377894456757
 31
0.0
  0
LINE
  8
0
  6
CONTINUOUS
 62
               7
  5
480
 10
91.877907460637857
 20
-931.8437789445677
 30
0.0
 11
90.877907460637857
 21
-930.8437789445677
 31
0.0
  0
LINE
  8
0
  6
CONTINUOUS
 62
               7
  5
481
 10
77.377907460637857
 20
-848.24377894456757
 30
0.0
 11
76.377907460637857
 21
-849.24377894456757
 31
0.0
  0
LINE
  8
0
  6
CONTINUOUS
 62
               7
  5
482
 10
76.377907460637857
 20
-906.10932719908715
 30
0.0
 11
76.377907460637857
 21
-849.24377894456757
 31
0.0
  0
CIRCLE
  8
0
  6
CONTINUOUS
 62
               7
  5
483
 10
609.2865232163075
 20
-1469.414793346604
 30
0.0
 40
25.5
  0
CIRCLE
  8
0
  6
CONTINUOUS
 62
               7
  5
484
 10
609.2865232163075
 20
-1454.914793346604
 30
0.0
 40
44.5
  0
CIRCLE
  8
0
  6
CONTINUOUS
 62
               7
  5
485
 10
609.2865232163075
 20
-1469.414793346604
 30
0.0
 40
30.0
  0
LINE
  8
0
  6
CONTINUOUS
 62
               7
  5
486
 10
580.2865232163075
 20
-1151.0153595980194
 30
0.0
 11
638.2865232163075
 21
-1151.0153595980194
 31
0.0
  0
LINE
  8
0
  6
CONTINUOUS
 62
               7
  5
487
 10
653.7865232163075
 20
-1125.4153595980194
 30
0.0
 11
564.7865232163075
 21
-1125.4153595980194
 31
0.0
  0
LINE
  8
0
  6
CONTINUOUS
 62
               7
  5
488
 10
653.7865232163075
 20
-1124.8153595980195
 30
0.0
 11
653.7865232163075
 21
-1125.4153595980194
 31
0.0
  0
LINE
  8
0
  6
CONTINUOUS
 62
               7
  5
489
 10
565.7865232163075
 20
-1067.4153595980194
 30
0.0
 11
652.7865232163075
 21
-1067.4153595980194
 31
0.0
  0
LINE
  8
0
  6
CONTINUOUS
 62
               7
  5
48A
 10
653.7865232163075
 20
-1125.280907852539
 30
0.0
 11
653.7865232163075
 21
-1068.4153595980194
 31
0.0
  0
LINE
  8
0
  6
CONTINUOUS
 62
               7
  5
48B
 10
579.2865232163075
 20
-1150.0153595980194
 30
0.0
 11
579.2865232163075
 21
-1125.4153595980194
 31
0.0
  0
LINE
  8
0
  6
CONTINUOUS
 62
               7
  5
48C
 10
639.2865232163075
 20
-1150.0153595980194
 30
0.0
 11
639.2865232163075
 21
-1125.4153595980194
 31
0.0
  0
LINE
  8
0
  6
CONTINUOUS
 62
               7
  5
48D
 10
639.2865232163075
 20
-1150.0153595980194
 30
0.0
 11
638.2865232163075
 21
-1151.0153595980194
 31
0.0
  0
LINE
  8
0
  6
CONTINUOUS
 62
               7
  5
48E
 10
653.7865232163075
 20
-1068.4153595980194
 30
0.0
 11
652.7865232163075
 21
-1067.4153595980194
 31
0.0
  0
LINE
  8
0
  6
CONTINUOUS
 62
               7
  5
48F
 10
580.2865232163075
 20
-1151.0153595980194
 30
0.0
 11
579.2865232163075
 21
-1150.0153595980194
 31
0.0
  0
LINE
  8
0
  6
CONTINUOUS
 62
               7
  5
490
 10
565.7865232163075
 20
-1067.4153595980194
 30
0.0
 11
564.7865232163075
 21
-1068.4153595980194
 31
0.0
  0
LINE
  8
0
  6
CONTINUOUS
 62
               7
  5
491
 10
564.7865232163075
 20
-1125.280907852539
 30
0.0
 11
564.7865232163075
 21
-1068.4153595980194
 31
0.0
  0
LINE
  8
0
  6
CONTINUOUS
 62
               7
  5
492
 10
464.2865232163075
 20
-1410.414793346604
 30
0.0
 11
464.2865232163075
 21
-1499.4095572259296
 31
0.0
  0
LINE
  8
0
  6
CONTINUOUS
 62
               7
  5
493
 10
464.88652321630752
 20
-1410.414793346604
 30
0.0
 11
464.2865232163075
 21
-1410.414793346604
 31
0.0
  0
LINE
  8
0
  6
CONTINUOUS
 62
               7
  5
494
 10
429.2865232163075
 20
-1498.414793346604
 30
0.0
 11
429.2865232163075
 21
-1424.414793346604
 31
0.0
  0
LINE
  8
0
  6
CONTINUOUS
 62
               7
  5
495
 10
522.2865232163075
 20
-1498.414793346604
 30
0.0
 11
522.2865232163075
 21
-1411.414793346604
 31
0.0
  0
LINE
  8
0
  6
CONTINUOUS
 62
               7
  5
496
 10
464.2865232163075
 20
-1410.414793346604
 30
0.0
 11
521.2865232163075
 21
-1410.414793346604
 31
0.0
  0
LINE
  8
0
  6
CONTINUOUS
 62
               7
  5
497
 10
430.2865232163075
 20
-1499.414793346604
 30
0.0
 11
521.2865232163075
 21
-1499.414793346604
 31
0.0
  0
LINE
  8
0
  6
CONTINUOUS
 62
               7
  5
498
 10
521.2865232163075
 20
-1410.414793346604
 30
0.0
 11
522.2865232163075
 21
-1411.414793346604
 31
0.0
  0
LINE
  8
0
  6
CONTINUOUS
 62
               7
  5
499
 10
522.2865232163075
 20
-1498.414793346604
 30
0.0
 11
521.2865232163075
 21
-1499.414793346604
 31
0.0
  0
LINE
  8
0
  6
CONTINUOUS
 62
               7
  5
49A
 10
430.2865232163075
 20
-1423.414793346604
 30
0.0
 11
464.2865232163075
 21
-1423.414793346604
 31
0.0
  0
LINE
  8
0
  6
CONTINUOUS
 62
               7
  5
49B
 10
430.2865232163075
 20
-1423.414793346604
 30
0.0
 11
429.2865232163075
 21
-1424.414793346604
 31
0.0
  0
LINE
  8
0
  6
CONTINUOUS
 62
               7
  5
49C
 10
429.2865232163075
 20
-1498.414793346604
 30
0.0
 11
430.2865232163075
 21
-1499.414793346604
 31
0.0
  0
LINE
  8
0
  6
CONTINUOUS
 62
               7
  5
49D
 10
464.2865232163075
 20
-1024.9153595980192
 30
0.0
 11
464.28652321630773
 21
-935.92059571869368
 31
0.0
  0
LINE
  8
0
  6
CONTINUOUS
 62
               7
  5
49E
 10
464.88652321630764
 20
-1024.9153595980192
 30
0.0
 11
464.2865232163075
 21
-1024.9153595980192
 31
0.0
  0
LINE
  8
0
  6
CONTINUOUS
 62
               7
  5
49F
 10
429.28652321630773
 20
-943.41535959801922
 30
0.0
 11
429.2865232163075
 21
-1017.4153595980192
 31
0.0
  0
LINE
  8
0
  6
CONTINUOUS
 62
               7
  5
4A0
 10
522.28652321630773
 20
-936.91535959801945
 30
0.0
 11
522.2865232163075
 21
-1023.9153595980192
 31
0.0
  0
LINE
  8
0
  6
CONTINUOUS
 62
               7
  5
4A1
 10
464.2865232163075
 20
-1024.9153595980192
 30
0.0
 11
521.2865232163075
 21
-1024.9153595980192
 31
0.0
  0
LINE
  8
0
  6
CONTINUOUS
 62
               7
  5
4A2
 10
430.28652321630773
 20
-942.41535959801922
 30
0.0
 11
464.28652321630773
 21
-942.41535959801922
 31
0.0
  0
LINE
  8
0
  6
CONTINUOUS
 62
               7
  5
4A3
 10
521.2865232163075
 20
-1024.9153595980192
 30
0.0
 11
522.2865232163075
 21
-1023.9153595980192
 31
0.0
  0
LINE
  8
0
  6
CONTINUOUS
 62
               7
  5
4A4
 10
522.28652321630773
 20
-936.91535959801945
 30
0.0
 11
521.28652321630773
 21
-935.91535959801945
 31
0.0
  0
LINE
  8
0
  6
CONTINUOUS
 62
               7
  5
4A5
 10
430.2865232163075
 20
-1018.4153595980192
 30
0.0
 11
464.28652321630773
 21
-1018.4153595980192
 31
0.0
  0
LINE
  8
0
  6
CONTINUOUS
 62
               7
  5
4A6
 10
430.2865232163075
 20
-1018.4153595980192
 30
0.0
 11
429.2865232163075
 21
-1017.4153595980192
 31
0.0
  0
LINE
  8
0
  6
CONTINUOUS
 62
               7
  5
4A7
 10
429.28652321630773
 20
-943.41535959801922
 30
0.0
 11
430.28652321630773
 21
-942.41535959801922
 31
0.0
  0
LINE
  8
0
  6
CONTINUOUS
 62
               7
  5
4A8
 10
464.28652321630773
 20
-935.91535959801922
 30
0.0
 11
521.28652321630773
 21
-935.91535959801922
 31
0.0
  0
CIRCLE
  8
0
  6
DASHED
 62
               7
  5
4A9
 10
-392.13776905046905
 20
-1038.0997951698105
 30
0.0
 40
40.0
  0
CIRCLE
  8
0
  6
DASHED
 62
               7
  5
4AA
 10
120.87790746063763
 20
-1038.0997951698105
 30
0.0
 40
40.0
  0
CIRCLE
  8
0
  6
DASHED
 62
               7
  5
4AB
 10
609.2865232163075
 20
-1454.914793346604
 30
0.0
 40
40.0
  0
TEXT
  8
0
 62
               3
  5
4AC
 10
-392.13776905046905
 20
-1122.5997951698102
 30
0.0
 40
40.0
  1
EMB_80×65
 41
0.8
 72
               1
 11
-392.13776905046905
 21
-1122.5997951698102
 31
0.0
 73
               3
  0
TEXT
  8
0
 62
               3
  5
4AD
 10
120.87790746063763
 20
-1122.5997951698107
 30
0.0
 40
40.0
  1
EMB_80×50
 41
0.8
 72
               1
 11
120.87790746063763
 21
-1122.5997951698107
 31
0.0
 73
               3
  0
TEXT
  8
0
 62
               3
  5
4AE
 10
605.58911923866719
 20
-800.96899109280014
 30
0.0
 40
40.0
  1
EMB使用例
 41
0.8
 72
               1
 11
605.58911923866719
 21
-800.96899109280014
 31
0.0
 73
               3
  0
TEXT
  8
0
 62
               3
  5
4AF
 10
-123.74270409089124
 20
-746.60885519246062
 30
0.0
 40
35.0
  1
横枝管に呼び６５、５０の管を接続するときは、EMBをご使用ください。
 41
0.8
 72
               1
 11
-123.74270409089124
 21
-746.60885519246062
 31
0.0
 73
               3
  0
ENDSEC
  0
EOF
