  0
SECTION
  2
HEADER
  9
$ACADVER
  1
AC1009
  9
$INSBASE
 10
0.0
 20
0.0
 30
0.0
  9
$EXTMIN
 10
-733.45573046432662
 20
-1542.3358253300071
 30
0.0
  9
$EXTMAX
 10
746.24225368063412
 20
645.06540833980409
 30
0.0
  9
$LIMMIN
 10
-779.69629246885665
 20
-1610.6921138821888
  9
$LIMMAX
 10
792.48281568516416
 20
713.42169689198568
  9
$ORTHOMODE
 70
               0
  9
$REGENMODE
 70
               1
  9
$FILLMODE
 70
               1
  9
$QTEXTMODE
 70
               0
  9
$MIRRTEXT
 70
               1
  9
$DRAGMODE
 70
               2
  9
$LTSCALE
 40
1.0
  9
$OSMODE
 70
               0
  9
$ATTMODE
 70
               1
  9
$TEXTSIZE
 40
0.2
  9
$TRACEWID
 40
0.05
  9
$TEXTSTYLE
  7
STANDARD
  9
$CLAYER
  8
0
  9
$CELTYPE
  6
CONTINUOUS
  9
$CECOLOR
 62
             256
  9
$DIMSCALE
 40
1.0
  9
$DIMASZ
 40
0.18
  9
$DIMEXO
 40
0.0625
  9
$DIMDLI
 40
0.38
  9
$DIMRND
 40
0.0
  9
$DIMDLE
 40
0.0
  9
$DIMEXE
 40
0.18
  9
$DIMTP
 40
0.0
  9
$DIMTM
 40
0.0
  9
$DIMTXT
 40
0.18
  9
$DIMCEN
 40
0.09
  9
$DIMTSZ
 40
0.0
  9
$DIMTOL
 70
               0
  9
$DIMLIM
 70
               0
  9
$DIMTIH
 70
               1
  9
$DIMTOH
 70
               1
  9
$DIMSE1
 70
               0
  9
$DIMSE2
 70
               0
  9
$DIMTAD
 70
               0
  9
$DIMZIN
 70
               0
  9
$DIMBLK
  1

  9
$DIMASO
 70
               1
  9
$DIMSHO
 70
               1
  9
$DIMPOST
  1

  9
$DIMAPOST
  1

  9
$DIMALT
 70
               0
  9
$DIMALTD
 70
               2
  9
$DIMALTF
 40
25.399999999999999
  9
$DIMLFAC
 40
1.0
  9
$DIMTOFL
 70
               0
  9
$DIMTVP
 40
0.0
  9
$DIMTIX
 70
               0
  9
$DIMSOXD
 70
               0
  9
$DIMSAH
 70
               0
  9
$DIMBLK1
  1

  9
$DIMBLK2
  1

  9
$DIMSTYLE
  2
STANDARD
  9
$DIMCLRD
 70
               0
  9
$DIMCLRE
 70
               0
  9
$DIMCLRT
 70
               0
  9
$DIMTFAC
 40
1.0
  9
$DIMGAP
 40
0.09
  9
$LUNITS
 70
               2
  9
$LUPREC
 70
               4
  9
$AXISMODE
 70
               0
  9
$AXISUNIT
 10
0.0
 20
0.0
  9
$SKETCHINC
 40
0.1
  9
$FILLETRAD
 40
0.0
  9
$AUNITS
 70
               0
  9
$AUPREC
 70
               0
  9
$MENU
  1
acad
  9
$ELEVATION
 40
0.0
  9
$PELEVATION
 40
0.0
  9
$THICKNESS
 40
0.0
  9
$LIMCHECK
 70
               0
  9
$BLIPMODE
 70
               1
  9
$CHAMFERA
 40
0.0
  9
$CHAMFERB
 40
0.0
  9
$SKPOLY
 70
               0
  9
$TDCREATE
 40
0.000000000
  9
$TDUPDATE
 40
0.000000000
  9
$TDINDWG
 40
0.0000000000
  9
$TDUSRTIMER
 40
0.0000000000
  9
$USRTIMER
 70
               1
  9
$ANGBASE
 50
0.0
  9
$ANGDIR
 70
               0
  9
$PDMODE
 70
               0
  9
$PDSIZE
 40
1.0
  9
$PLINEWID
 40
0.0
  9
$COORDS
 70
               1
  9
$SPLFRAME
 70
               0
  9
$SPLINETYPE
 70
               6
  9
$SPLINESEGS
 70
               8
  9
$ATTDIA
 70
               0
  9
$ATTREQ
 70
               1
  9
$HANDLING
 70
               1
  9
$HANDSEED
  5
476
  9
$SURFTAB1
 70
               6
  9
$SURFTAB2
 70
               6
  9
$SURFTYPE
 70
               6
  9
$SURFU
 70
               6
  9
$SURFV
 70
               6
  9
$UCSNAME
  2

  9
$UCSORG
 10
0.0
 20
0.0
 30
0.0
  9
$UCSXDIR
 10
1.0
 20
0.0
 30
0.0
  9
$UCSYDIR
 10
0.0
 20
1.0
 30
0.0
  9
$PUCSNAME
  2

  9
$PUCSORG
 10
0.0
 20
0.0
 30
0.0
  9
$PUCSXDIR
 10
1.0
 20
0.0
 30
0.0
  9
$PUCSYDIR
 10
0.0
 20
1.0
 30
0.0
  9
$USERI1
 70
               0
  9
$USERI2
 70
               0
  9
$USERI3
 70
               0
  9
$USERI4
 70
               0
  9
$USERI5
 70
               0
  9
$USERR1
 40
0.0
  9
$USERR2
 40
0.0
  9
$USERR3
 40
0.0
  9
$USERR4
 40
0.0
  9
$USERR5
 40
0.0
  9
$WORLDVIEW
 70
               1
  9
$SHADEDGE
 70
               3
  9
$SHADEDIF
 70
              70
  9
$TILEMODE
 70
               1
  9
$MAXACTVP
 70
              16
  9
$PINSBASE
 10
0.0
 20
0.0
 30
0.0
  9
$PLIMCHECK
 70
               0
  9
$PEXTMIN
 10
1.0000000000000000E+20
 20
1.0000000000000000E+20
 30
1.0000000000000000E+20
  9
$PEXTMAX
 10
-1.0000000000000000E+20
 20
-1.0000000000000000E+20
 30
-1.0000000000000000E+20
  9
$PLIMMIN
 10
0.0
 20
0.0
  9
$PLIMMAX
 10
12.0
 20
9.0
  9
$UNITMODE
 70
               0
  9
$VISRETAIN
 70
               0
  9
$PLINEGEN
 70
               1
  9
$PSLTSCALE
 70
               0
  9
$TREEDEPTH
 70
            3020
  9
$DWGCODEPAGE
  3
dos932
  0
ENDSEC
  0
SECTION
  2
TABLES
  0
TABLE
  2
VPORT
 70
               1
  0
VPORT
  2
*ACTIVE
 70
               0
 10
0.0
 20
0.0
 11
1.0
 21
1.0
 12
6.3932616081537503
 22
-448.63520849510155
 13
0.0
 23
0.0
 14
1.0
 24
1.0
 15
0.0
 25
0.0
 16
0.0
 26
0.0
 36
1.0
 17
0.0
 27
0.0
 37
0.0
 40
2324.1138107741745
 41
0.676463906744016
 42
50.0
 43
0.0
 44
0.0
 50
0.0
 51
0.0
 71
               0
 72
             100
 73
               1
 74
               1
 75
               0
 76
               0
 77
               0
 78
               0
  0
ENDTAB
  0
TABLE
  2
LTYPE
 70
              26
  0
LTYPE
  2
CONTINUOUS
 70
               0
  3
Solid line
 72
              65
 73
               0
 40
0.0
  0
LTYPE
  2
HIDDENX2
 70
               0
  3
CADPAC FUSION LINETYPE
 72
              65
 73
               2
 40
47.560000000000002
 49
35.670000000000002
 49
-11.890000000000001
  0
LTYPE
  2
HIDDEN
 70
               0
  3
CADPAC FUSION LINETYPE
 72
              65
 73
               2
 40
35.670000000000002
 49
23.780000000000001
 49
-11.890000000000001
  0
LTYPE
  2
HIDDEN2
 70
               0
  3
CADPAC FUSION LINETYPE
 72
              65
 73
               2
 40
29.725000000000001
 49
17.835000000000001
 49
-11.890000000000001
  0
LTYPE
  2
DASHED
 70
               0
  3
CADPAC FUSION LINETYPE
 72
              65
 73
               2
 40
35.670000000000002
 49
23.780000000000001
 49
-11.890000000000001
  0
LTYPE
  2
DASHED2
 70
               0
  3
CADPAC FUSION LINETYPE
 72
              65
 73
               2
 40
26.752500000000001
 49
17.835000000000001
 49
-8.9175000000000004
  0
LTYPE
  2
DASHEDX2
 70
               0
  3
CADPAC FUSION LINETYPE
 72
              65
 73
               2
 40
53.505000000000003
 49
35.670000000000002
 49
-17.835000000000001
  0
LTYPE
  2
DOTX2
 70
               0
  3
CADPAC FUSION LINETYPE
 72
              65
 73
               2
 40
14.862500000000001
 49
0.0
 49
-14.862500000000001
  0
LTYPE
  2
DOT
 70
               0
  3
CADPAC FUSION LINETYPE
 72
              65
 73
               2
 40
11.890000000000001
 49
0.0
 49
-11.890000000000001
  0
LTYPE
  2
DOTS
 70
               0
  3
CADPAC FUSION LINETYPE
 72
              65
 73
               2
 40
11.890000000000001
 49
0.0
 49
-11.890000000000001
  0
LTYPE
  2
DOT2
 70
               0
  3
CADPAC FUSION LINETYPE
 72
              65
 73
               2
 40
8.9175000000000004
 49
0.0
 49
-8.9175000000000004
  0
LTYPE
  2
CENTERX2
 70
               0
  3
CADPAC FUSION LINETYPE
 72
              65
 73
               4
 40
71.340000000000003
 49
29.725000000000001
 49
-14.862500000000001
 49
11.890000000000001
 49
-14.862500000000001
  0
LTYPE
  2
CENTER
 70
               0
  3
CADPAC FUSION LINETYPE
 72
              65
 73
               4
 40
54.694000000000003
 49
23.780000000000001
 49
-11.890000000000001
 49
7.1340000000000003
 49
-11.890000000000001
  0
LTYPE
  2
CENTER2
 70
               0
  3
CADPAC FUSION LINETYPE
 72
              65
 73
               4
 40
38.048000000000002
 49
17.835000000000001
 49
-8.9175000000000004
 49
2.3780000000000001
 49
-8.9175000000000004
  0
LTYPE
  2
DASHDOTX2
 70
               0
  3
CADPAC FUSION LINETYPE
 72
              65
 73
               4
 40
59.450000000000003
 49
29.725000000000001
 49
-14.862500000000001
 49
0.0
 49
-14.862500000000001
  0
LTYPE
  2
DASHDOT
 70
               0
  3
CADPAC FUSION LINETYPE
 72
              65
 73
               4
 40
47.560000000000002
 49
23.780000000000001
 49
-11.890000000000001
 49
0.0
 49
-11.890000000000001
  0
LTYPE
  2
DASHDOT2
 70
               0
  3
CADPAC FUSION LINETYPE
 72
              65
 73
               4
 40
35.670000000000002
 49
17.835000000000001
 49
-8.9175000000000004
 49
0.0
 49
-8.9175000000000004
  0
LTYPE
  2
DIVIDEX2
 70
               0
  3
CADPAC FUSION LINETYPE
 72
              65
 73
               6
 40
74.3125
 49
29.725000000000001
 49
-14.862500000000001
 49
0.0
 49
-14.862500000000001
 49
0.0
 49
-14.862500000000001
  0
LTYPE
  2
DIVIDE
 70
               0
  3
CADPAC FUSION LINETYPE
 72
              65
 73
               6
 40
59.450000000000003
 49
23.780000000000001
 49
-11.890000000000001
 49
0.0
 49
-11.890000000000001
 49
0.0
 49
-11.890000000000001
  0
LTYPE
  2
DIVIDE2
 70
               0
  3
CADPAC FUSION LINETYPE
 72
              65
 73
               6
 40
44.587500000000006
 49
17.835000000000001
 49
-8.9175000000000004
 49
0.0
 49
-8.9175000000000004
 49
0.0
 49
-8.9175000000000004
  0
LTYPE
  2
BORDERX2
 70
               0
  3
CADPAC FUSION LINETYPE
 72
              65
 73
               6
 40
104.03750000000001
 49
29.725000000000001
 49
-14.862500000000001
 49
29.725000000000001
 49
-14.862500000000001
 49
0.0
 49
-14.862500000000001
  0
LTYPE
  2
BORDER
 70
               0
  3
CADPAC FUSION LINETYPE
 72
              65
 73
               6
 40
83.230000000000004
 49
23.780000000000001
 49
-11.890000000000001
 49
23.780000000000001
 49
-11.890000000000001
 49
0.0
 49
-11.890000000000001
  0
LTYPE
  2
BORDER2
 70
               0
  3
CADPAC FUSION LINETYPE
 72
              65
 73
               6
 40
62.422499999999999
 49
17.835000000000001
 49
-8.9175000000000004
 49
17.835000000000001
 49
-8.9175000000000004
 49
0.0
 49
-8.9175000000000004
  0
LTYPE
  2
PHANTOMX2
 70
               0
  3
CADPAC FUSION LINETYPE
 72
              65
 73
               6
 40
89.175000000000011
 49
29.725000000000001
 49
-11.890000000000001
 49
11.890000000000001
 49
-11.890000000000001
 49
11.890000000000001
 49
-11.890000000000001
  0
LTYPE
  2
PHANTOM
 70
               0
  3
CADPAC FUSION LINETYPE
 72
              65
 73
               6
 40
73.718000000000004
 49
23.780000000000001
 49
-11.890000000000001
 49
7.1340000000000003
 49
-11.890000000000001
 49
7.1340000000000003
 49
-11.890000000000001
  0
LTYPE
  2
PHANTOM2
 70
               0
  3
CADPAC FUSION LINETYPE
 72
              65
 73
               6
 40
63.017000000000003
 49
17.835000000000001
 49
-11.890000000000001
 49
4.7560000000000002
 49
-11.890000000000001
 49
4.7560000000000002
 49
-11.890000000000001
  0
ENDTAB
  0
TABLE
  2
LAYER
 70
             256
  0
LAYER
  2
0
 70
               0
 62
               7
  6
CONTINUOUS
  0
LAYER
  2
LAYER001
 70
               0
 62
               7
  6
CONTINUOUS
  0
LAYER
  2
LAYER002
 70
               0
 62
               7
  6
CONTINUOUS
  0
LAYER
  2
LAYER003
 70
               0
 62
               7
  6
CONTINUOUS
  0
LAYER
  2
LAYER004
 70
               0
 62
               7
  6
CONTINUOUS
  0
LAYER
  2
LAYER005
 70
               0
 62
               7
  6
CONTINUOUS
  0
LAYER
  2
LAYER006
 70
               0
 62
               7
  6
CONTINUOUS
  0
LAYER
  2
LAYER007
 70
               0
 62
               7
  6
CONTINUOUS
  0
LAYER
  2
LAYER008
 70
               0
 62
               7
  6
CONTINUOUS
  0
LAYER
  2
LAYER009
 70
               0
 62
               7
  6
CONTINUOUS
  0
LAYER
  2
LAYER010
 70
               0
 62
               7
  6
CONTINUOUS
  0
LAYER
  2
LAYER011
 70
               0
 62
               7
  6
CONTINUOUS
  0
LAYER
  2
LAYER012
 70
               0
 62
               7
  6
CONTINUOUS
  0
LAYER
  2
LAYER013
 70
               0
 62
               7
  6
CONTINUOUS
  0
LAYER
  2
LAYER014
 70
               0
 62
               7
  6
CONTINUOUS
  0
LAYER
  2
LAYER015
 70
               0
 62
               7
  6
CONTINUOUS
  0
LAYER
  2
LAYER016
 70
               0
 62
               7
  6
CONTINUOUS
  0
LAYER
  2
LAYER017
 70
               0
 62
               7
  6
CONTINUOUS
  0
LAYER
  2
LAYER018
 70
               0
 62
               7
  6
CONTINUOUS
  0
LAYER
  2
LAYER019
 70
               0
 62
               7
  6
CONTINUOUS
  0
LAYER
  2
LAYER020
 70
               0
 62
               7
  6
CONTINUOUS
  0
LAYER
  2
LAYER021
 70
               0
 62
               7
  6
CONTINUOUS
  0
LAYER
  2
LAYER022
 70
               0
 62
               7
  6
CONTINUOUS
  0
LAYER
  2
LAYER023
 70
               0
 62
               7
  6
CONTINUOUS
  0
LAYER
  2
LAYER024
 70
               0
 62
               7
  6
CONTINUOUS
  0
LAYER
  2
LAYER025
 70
               0
 62
               7
  6
CONTINUOUS
  0
LAYER
  2
LAYER026
 70
               0
 62
               7
  6
CONTINUOUS
  0
LAYER
  2
LAYER027
 70
               0
 62
               7
  6
CONTINUOUS
  0
LAYER
  2
LAYER028
 70
               0
 62
               7
  6
CONTINUOUS
  0
LAYER
  2
LAYER029
 70
               0
 62
               7
  6
CONTINUOUS
  0
LAYER
  2
LAYER030
 70
               0
 62
               7
  6
CONTINUOUS
  0
LAYER
  2
LAYER031
 70
               0
 62
               7
  6
CONTINUOUS
  0
LAYER
  2
LAYER032
 70
               0
 62
               7
  6
CONTINUOUS
  0
LAYER
  2
LAYER033
 70
               0
 62
               7
  6
CONTINUOUS
  0
LAYER
  2
LAYER034
 70
               0
 62
               7
  6
CONTINUOUS
  0
LAYER
  2
LAYER035
 70
               0
 62
               7
  6
CONTINUOUS
  0
LAYER
  2
LAYER036
 70
               0
 62
               7
  6
CONTINUOUS
  0
LAYER
  2
LAYER037
 70
               0
 62
               7
  6
CONTINUOUS
  0
LAYER
  2
LAYER038
 70
               0
 62
               7
  6
CONTINUOUS
  0
LAYER
  2
LAYER039
 70
               0
 62
               7
  6
CONTINUOUS
  0
LAYER
  2
LAYER040
 70
               0
 62
               7
  6
CONTINUOUS
  0
LAYER
  2
LAYER041
 70
               0
 62
               7
  6
CONTINUOUS
  0
LAYER
  2
LAYER042
 70
               0
 62
               7
  6
CONTINUOUS
  0
LAYER
  2
LAYER043
 70
               0
 62
               7
  6
CONTINUOUS
  0
LAYER
  2
LAYER044
 70
               0
 62
               7
  6
CONTINUOUS
  0
LAYER
  2
LAYER045
 70
               0
 62
               7
  6
CONTINUOUS
  0
LAYER
  2
LAYER046
 70
               0
 62
               7
  6
CONTINUOUS
  0
LAYER
  2
LAYER047
 70
               0
 62
               7
  6
CONTINUOUS
  0
LAYER
  2
LAYER048
 70
               0
 62
               7
  6
CONTINUOUS
  0
LAYER
  2
LAYER049
 70
               0
 62
               7
  6
CONTINUOUS
  0
LAYER
  2
LAYER050
 70
               0
 62
               7
  6
CONTINUOUS
  0
LAYER
  2
LAYER051
 70
               0
 62
               7
  6
CONTINUOUS
  0
LAYER
  2
LAYER052
 70
               0
 62
               7
  6
CONTINUOUS
  0
LAYER
  2
LAYER053
 70
               0
 62
               7
  6
CONTINUOUS
  0
LAYER
  2
LAYER054
 70
               0
 62
               7
  6
CONTINUOUS
  0
LAYER
  2
LAYER055
 70
               0
 62
               7
  6
CONTINUOUS
  0
LAYER
  2
LAYER056
 70
               0
 62
               7
  6
CONTINUOUS
  0
LAYER
  2
LAYER057
 70
               0
 62
               7
  6
CONTINUOUS
  0
LAYER
  2
LAYER058
 70
               0
 62
               7
  6
CONTINUOUS
  0
LAYER
  2
LAYER059
 70
               0
 62
               7
  6
CONTINUOUS
  0
LAYER
  2
LAYER060
 70
               0
 62
               7
  6
CONTINUOUS
  0
LAYER
  2
LAYER061
 70
               0
 62
               7
  6
CONTINUOUS
  0
LAYER
  2
LAYER062
 70
               0
 62
               7
  6
CONTINUOUS
  0
LAYER
  2
LAYER063
 70
               0
 62
               7
  6
CONTINUOUS
  0
LAYER
  2
LAYER064
 70
               0
 62
               7
  6
CONTINUOUS
  0
LAYER
  2
LAYER065
 70
               0
 62
               7
  6
CONTINUOUS
  0
LAYER
  2
LAYER066
 70
               0
 62
               7
  6
CONTINUOUS
  0
LAYER
  2
LAYER067
 70
               0
 62
               7
  6
CONTINUOUS
  0
LAYER
  2
LAYER068
 70
               0
 62
               7
  6
CONTINUOUS
  0
LAYER
  2
LAYER069
 70
               0
 62
               7
  6
CONTINUOUS
  0
LAYER
  2
LAYER070
 70
               0
 62
               7
  6
CONTINUOUS
  0
LAYER
  2
LAYER071
 70
               0
 62
               7
  6
CONTINUOUS
  0
LAYER
  2
LAYER072
 70
               0
 62
               7
  6
CONTINUOUS
  0
LAYER
  2
LAYER073
 70
               0
 62
               7
  6
CONTINUOUS
  0
LAYER
  2
LAYER074
 70
               0
 62
               7
  6
CONTINUOUS
  0
LAYER
  2
LAYER075
 70
               0
 62
               7
  6
CONTINUOUS
  0
LAYER
  2
LAYER076
 70
               0
 62
               7
  6
CONTINUOUS
  0
LAYER
  2
LAYER077
 70
               0
 62
               7
  6
CONTINUOUS
  0
LAYER
  2
LAYER078
 70
               0
 62
               7
  6
CONTINUOUS
  0
LAYER
  2
LAYER079
 70
               0
 62
               7
  6
CONTINUOUS
  0
LAYER
  2
LAYER080
 70
               0
 62
               7
  6
CONTINUOUS
  0
LAYER
  2
LAYER081
 70
               0
 62
               7
  6
CONTINUOUS
  0
LAYER
  2
LAYER082
 70
               0
 62
               7
  6
CONTINUOUS
  0
LAYER
  2
LAYER083
 70
               0
 62
               7
  6
CONTINUOUS
  0
LAYER
  2
LAYER084
 70
               0
 62
               7
  6
CONTINUOUS
  0
LAYER
  2
LAYER085
 70
               0
 62
               7
  6
CONTINUOUS
  0
LAYER
  2
LAYER086
 70
               0
 62
               7
  6
CONTINUOUS
  0
LAYER
  2
LAYER087
 70
               0
 62
               7
  6
CONTINUOUS
  0
LAYER
  2
LAYER088
 70
               0
 62
               7
  6
CONTINUOUS
  0
LAYER
  2
LAYER089
 70
               0
 62
               7
  6
CONTINUOUS
  0
LAYER
  2
LAYER090
 70
               0
 62
               7
  6
CONTINUOUS
  0
LAYER
  2
LAYER091
 70
               0
 62
               7
  6
CONTINUOUS
  0
LAYER
  2
LAYER092
 70
               0
 62
               7
  6
CONTINUOUS
  0
LAYER
  2
LAYER093
 70
               0
 62
               7
  6
CONTINUOUS
  0
LAYER
  2
LAYER094
 70
               0
 62
               7
  6
CONTINUOUS
  0
LAYER
  2
LAYER095
 70
               0
 62
               7
  6
CONTINUOUS
  0
LAYER
  2
LAYER096
 70
               0
 62
               7
  6
CONTINUOUS
  0
LAYER
  2
LAYER097
 70
               0
 62
               7
  6
CONTINUOUS
  0
LAYER
  2
LAYER098
 70
               0
 62
               7
  6
CONTINUOUS
  0
LAYER
  2
LAYER099
 70
               0
 62
               7
  6
CONTINUOUS
  0
LAYER
  2
LAYER100
 70
               0
 62
               7
  6
CONTINUOUS
  0
LAYER
  2
LAYER101
 70
               0
 62
               7
  6
CONTINUOUS
  0
LAYER
  2
LAYER102
 70
               0
 62
               7
  6
CONTINUOUS
  0
LAYER
  2
LAYER103
 70
               0
 62
               7
  6
CONTINUOUS
  0
LAYER
  2
LAYER104
 70
               0
 62
               7
  6
CONTINUOUS
  0
LAYER
  2
LAYER105
 70
               0
 62
               7
  6
CONTINUOUS
  0
LAYER
  2
LAYER106
 70
               0
 62
               7
  6
CONTINUOUS
  0
LAYER
  2
LAYER107
 70
               0
 62
               7
  6
CONTINUOUS
  0
LAYER
  2
LAYER108
 70
               0
 62
               7
  6
CONTINUOUS
  0
LAYER
  2
LAYER109
 70
               0
 62
               7
  6
CONTINUOUS
  0
LAYER
  2
LAYER110
 70
               0
 62
               7
  6
CONTINUOUS
  0
LAYER
  2
LAYER111
 70
               0
 62
               7
  6
CONTINUOUS
  0
LAYER
  2
LAYER112
 70
               0
 62
               7
  6
CONTINUOUS
  0
LAYER
  2
LAYER113
 70
               0
 62
               7
  6
CONTINUOUS
  0
LAYER
  2
LAYER114
 70
               0
 62
               7
  6
CONTINUOUS
  0
LAYER
  2
LAYER115
 70
               0
 62
               7
  6
CONTINUOUS
  0
LAYER
  2
LAYER116
 70
               0
 62
               7
  6
CONTINUOUS
  0
LAYER
  2
LAYER117
 70
               0
 62
               7
  6
CONTINUOUS
  0
LAYER
  2
LAYER118
 70
               0
 62
               7
  6
CONTINUOUS
  0
LAYER
  2
LAYER119
 70
               0
 62
               7
  6
CONTINUOUS
  0
LAYER
  2
LAYER120
 70
               0
 62
               7
  6
CONTINUOUS
  0
LAYER
  2
LAYER121
 70
               0
 62
               7
  6
CONTINUOUS
  0
LAYER
  2
LAYER122
 70
               0
 62
               7
  6
CONTINUOUS
  0
LAYER
  2
LAYER123
 70
               0
 62
               7
  6
CONTINUOUS
  0
LAYER
  2
LAYER124
 70
               0
 62
               7
  6
CONTINUOUS
  0
LAYER
  2
LAYER125
 70
               0
 62
               7
  6
CONTINUOUS
  0
LAYER
  2
LAYER126
 70
               0
 62
               7
  6
CONTINUOUS
  0
LAYER
  2
LAYER127
 70
               0
 62
               7
  6
CONTINUOUS
  0
LAYER
  2
LAYER128
 70
               0
 62
               7
  6
CONTINUOUS
  0
LAYER
  2
LAYER129
 70
               0
 62
               7
  6
CONTINUOUS
  0
LAYER
  2
LAYER130
 70
               0
 62
               7
  6
CONTINUOUS
  0
LAYER
  2
LAYER131
 70
               0
 62
               7
  6
CONTINUOUS
  0
LAYER
  2
LAYER132
 70
               0
 62
               7
  6
CONTINUOUS
  0
LAYER
  2
LAYER133
 70
               0
 62
               7
  6
CONTINUOUS
  0
LAYER
  2
LAYER134
 70
               0
 62
               7
  6
CONTINUOUS
  0
LAYER
  2
LAYER135
 70
               0
 62
               7
  6
CONTINUOUS
  0
LAYER
  2
LAYER136
 70
               0
 62
               7
  6
CONTINUOUS
  0
LAYER
  2
LAYER137
 70
               0
 62
               7
  6
CONTINUOUS
  0
LAYER
  2
LAYER138
 70
               0
 62
               7
  6
CONTINUOUS
  0
LAYER
  2
LAYER139
 70
               0
 62
               7
  6
CONTINUOUS
  0
LAYER
  2
LAYER140
 70
               0
 62
               7
  6
CONTINUOUS
  0
LAYER
  2
LAYER141
 70
               0
 62
               7
  6
CONTINUOUS
  0
LAYER
  2
LAYER142
 70
               0
 62
               7
  6
CONTINUOUS
  0
LAYER
  2
LAYER143
 70
               0
 62
               7
  6
CONTINUOUS
  0
LAYER
  2
LAYER144
 70
               0
 62
               7
  6
CONTINUOUS
  0
LAYER
  2
LAYER145
 70
               0
 62
               7
  6
CONTINUOUS
  0
LAYER
  2
LAYER146
 70
               0
 62
               7
  6
CONTINUOUS
  0
LAYER
  2
LAYER147
 70
               0
 62
               7
  6
CONTINUOUS
  0
LAYER
  2
LAYER148
 70
               0
 62
               7
  6
CONTINUOUS
  0
LAYER
  2
LAYER149
 70
               0
 62
               7
  6
CONTINUOUS
  0
LAYER
  2
LAYER150
 70
               0
 62
               7
  6
CONTINUOUS
  0
LAYER
  2
LAYER151
 70
               0
 62
               7
  6
CONTINUOUS
  0
LAYER
  2
LAYER152
 70
               0
 62
               7
  6
CONTINUOUS
  0
LAYER
  2
LAYER153
 70
               0
 62
               7
  6
CONTINUOUS
  0
LAYER
  2
LAYER154
 70
               0
 62
               7
  6
CONTINUOUS
  0
LAYER
  2
LAYER155
 70
               0
 62
               7
  6
CONTINUOUS
  0
LAYER
  2
LAYER156
 70
               0
 62
               7
  6
CONTINUOUS
  0
LAYER
  2
LAYER157
 70
               0
 62
               7
  6
CONTINUOUS
  0
LAYER
  2
LAYER158
 70
               0
 62
               7
  6
CONTINUOUS
  0
LAYER
  2
LAYER159
 70
               0
 62
               7
  6
CONTINUOUS
  0
LAYER
  2
LAYER160
 70
               0
 62
               7
  6
CONTINUOUS
  0
LAYER
  2
LAYER161
 70
               0
 62
               7
  6
CONTINUOUS
  0
LAYER
  2
LAYER162
 70
               0
 62
               7
  6
CONTINUOUS
  0
LAYER
  2
LAYER163
 70
               0
 62
               7
  6
CONTINUOUS
  0
LAYER
  2
LAYER164
 70
               0
 62
               7
  6
CONTINUOUS
  0
LAYER
  2
LAYER165
 70
               0
 62
               7
  6
CONTINUOUS
  0
LAYER
  2
LAYER166
 70
               0
 62
               7
  6
CONTINUOUS
  0
LAYER
  2
LAYER167
 70
               0
 62
               7
  6
CONTINUOUS
  0
LAYER
  2
LAYER168
 70
               0
 62
               7
  6
CONTINUOUS
  0
LAYER
  2
LAYER169
 70
               0
 62
               7
  6
CONTINUOUS
  0
LAYER
  2
LAYER170
 70
               0
 62
               7
  6
CONTINUOUS
  0
LAYER
  2
LAYER171
 70
               0
 62
               7
  6
CONTINUOUS
  0
LAYER
  2
LAYER172
 70
               0
 62
               7
  6
CONTINUOUS
  0
LAYER
  2
LAYER173
 70
               0
 62
               7
  6
CONTINUOUS
  0
LAYER
  2
LAYER174
 70
               0
 62
               7
  6
CONTINUOUS
  0
LAYER
  2
LAYER175
 70
               0
 62
               7
  6
CONTINUOUS
  0
LAYER
  2
LAYER176
 70
               0
 62
               7
  6
CONTINUOUS
  0
LAYER
  2
LAYER177
 70
               0
 62
               7
  6
CONTINUOUS
  0
LAYER
  2
LAYER178
 70
               0
 62
               7
  6
CONTINUOUS
  0
LAYER
  2
LAYER179
 70
               0
 62
               7
  6
CONTINUOUS
  0
LAYER
  2
LAYER180
 70
               0
 62
               7
  6
CONTINUOUS
  0
LAYER
  2
LAYER181
 70
               0
 62
               7
  6
CONTINUOUS
  0
LAYER
  2
LAYER182
 70
               0
 62
               7
  6
CONTINUOUS
  0
LAYER
  2
LAYER183
 70
               0
 62
               7
  6
CONTINUOUS
  0
LAYER
  2
LAYER184
 70
               0
 62
               7
  6
CONTINUOUS
  0
LAYER
  2
LAYER185
 70
               0
 62
               7
  6
CONTINUOUS
  0
LAYER
  2
LAYER186
 70
               0
 62
               7
  6
CONTINUOUS
  0
LAYER
  2
LAYER187
 70
               0
 62
               7
  6
CONTINUOUS
  0
LAYER
  2
LAYER188
 70
               0
 62
               7
  6
CONTINUOUS
  0
LAYER
  2
LAYER189
 70
               0
 62
               7
  6
CONTINUOUS
  0
LAYER
  2
LAYER190
 70
               0
 62
               7
  6
CONTINUOUS
  0
LAYER
  2
LAYER191
 70
               0
 62
               7
  6
CONTINUOUS
  0
LAYER
  2
LAYER192
 70
               0
 62
               7
  6
CONTINUOUS
  0
LAYER
  2
LAYER193
 70
               0
 62
               7
  6
CONTINUOUS
  0
LAYER
  2
LAYER194
 70
               0
 62
               7
  6
CONTINUOUS
  0
LAYER
  2
LAYER195
 70
               0
 62
               7
  6
CONTINUOUS
  0
LAYER
  2
LAYER196
 70
               0
 62
               7
  6
CONTINUOUS
  0
LAYER
  2
LAYER197
 70
               0
 62
               7
  6
CONTINUOUS
  0
LAYER
  2
LAYER198
 70
               0
 62
               7
  6
CONTINUOUS
  0
LAYER
  2
LAYER199
 70
               0
 62
               7
  6
CONTINUOUS
  0
LAYER
  2
LAYER200
 70
               0
 62
               7
  6
CONTINUOUS
  0
LAYER
  2
LAYER201
 70
               0
 62
               7
  6
CONTINUOUS
  0
LAYER
  2
LAYER202
 70
               0
 62
               7
  6
CONTINUOUS
  0
LAYER
  2
LAYER203
 70
               0
 62
               7
  6
CONTINUOUS
  0
LAYER
  2
LAYER204
 70
               0
 62
               7
  6
CONTINUOUS
  0
LAYER
  2
LAYER205
 70
               0
 62
               7
  6
CONTINUOUS
  0
LAYER
  2
LAYER206
 70
               0
 62
               7
  6
CONTINUOUS
  0
LAYER
  2
LAYER207
 70
               0
 62
               7
  6
CONTINUOUS
  0
LAYER
  2
LAYER208
 70
               0
 62
               7
  6
CONTINUOUS
  0
LAYER
  2
LAYER209
 70
               0
 62
               7
  6
CONTINUOUS
  0
LAYER
  2
LAYER210
 70
               0
 62
               7
  6
CONTINUOUS
  0
LAYER
  2
LAYER211
 70
               0
 62
               7
  6
CONTINUOUS
  0
LAYER
  2
LAYER212
 70
               0
 62
               7
  6
CONTINUOUS
  0
LAYER
  2
LAYER213
 70
               0
 62
               7
  6
CONTINUOUS
  0
LAYER
  2
LAYER214
 70
               0
 62
               7
  6
CONTINUOUS
  0
LAYER
  2
LAYER215
 70
               0
 62
               7
  6
CONTINUOUS
  0
LAYER
  2
LAYER216
 70
               0
 62
               7
  6
CONTINUOUS
  0
LAYER
  2
LAYER217
 70
               0
 62
               7
  6
CONTINUOUS
  0
LAYER
  2
LAYER218
 70
               0
 62
               7
  6
CONTINUOUS
  0
LAYER
  2
LAYER219
 70
               0
 62
               7
  6
CONTINUOUS
  0
LAYER
  2
LAYER220
 70
               0
 62
               7
  6
CONTINUOUS
  0
LAYER
  2
LAYER221
 70
               0
 62
               7
  6
CONTINUOUS
  0
LAYER
  2
LAYER222
 70
               0
 62
               7
  6
CONTINUOUS
  0
LAYER
  2
LAYER223
 70
               0
 62
               7
  6
CONTINUOUS
  0
LAYER
  2
LAYER224
 70
               0
 62
               7
  6
CONTINUOUS
  0
LAYER
  2
LAYER225
 70
               0
 62
               7
  6
CONTINUOUS
  0
LAYER
  2
LAYER226
 70
               0
 62
               7
  6
CONTINUOUS
  0
LAYER
  2
LAYER227
 70
               0
 62
               7
  6
CONTINUOUS
  0
LAYER
  2
LAYER228
 70
               0
 62
               7
  6
CONTINUOUS
  0
LAYER
  2
LAYER229
 70
               0
 62
               7
  6
CONTINUOUS
  0
LAYER
  2
LAYER230
 70
               0
 62
               7
  6
CONTINUOUS
  0
LAYER
  2
LAYER231
 70
               0
 62
               7
  6
CONTINUOUS
  0
LAYER
  2
LAYER232
 70
               0
 62
               7
  6
CONTINUOUS
  0
LAYER
  2
LAYER233
 70
               0
 62
               7
  6
CONTINUOUS
  0
LAYER
  2
LAYER234
 70
               0
 62
               7
  6
CONTINUOUS
  0
LAYER
  2
LAYER235
 70
               0
 62
               7
  6
CONTINUOUS
  0
LAYER
  2
LAYER236
 70
               0
 62
               7
  6
CONTINUOUS
  0
LAYER
  2
LAYER237
 70
               0
 62
               7
  6
CONTINUOUS
  0
LAYER
  2
LAYER238
 70
               0
 62
               7
  6
CONTINUOUS
  0
LAYER
  2
LAYER239
 70
               0
 62
               7
  6
CONTINUOUS
  0
LAYER
  2
LAYER240
 70
               0
 62
               7
  6
CONTINUOUS
  0
LAYER
  2
LAYER241
 70
               0
 62
               7
  6
CONTINUOUS
  0
LAYER
  2
LAYER242
 70
               0
 62
               7
  6
CONTINUOUS
  0
LAYER
  2
LAYER243
 70
               0
 62
               7
  6
CONTINUOUS
  0
LAYER
  2
LAYER244
 70
               0
 62
               7
  6
CONTINUOUS
  0
LAYER
  2
LAYER245
 70
               0
 62
               7
  6
CONTINUOUS
  0
LAYER
  2
LAYER246
 70
               0
 62
               7
  6
CONTINUOUS
  0
LAYER
  2
LAYER247
 70
               0
 62
               7
  6
CONTINUOUS
  0
LAYER
  2
LAYER248
 70
               0
 62
               7
  6
CONTINUOUS
  0
LAYER
  2
LAYER249
 70
               0
 62
               7
  6
CONTINUOUS
  0
LAYER
  2
LAYER250
 70
               0
 62
               7
  6
CONTINUOUS
  0
LAYER
  2
LAYER251
 70
               0
 62
               7
  6
CONTINUOUS
  0
LAYER
  2
LAYER252
 70
               0
 62
               7
  6
CONTINUOUS
  0
LAYER
  2
LAYER253
 70
               0
 62
               7
  6
CONTINUOUS
  0
LAYER
  2
LAYER254
 70
               0
 62
               7
  6
CONTINUOUS
  0
LAYER
  2
LAYER255
 70
               0
 62
               7
  6
CONTINUOUS
  0
ENDTAB
  0
TABLE
  2
STYLE
 70
               1
  0
STYLE
  2
STANDARD
 70
               0
 40
0.0
 41
0.8
 50
0.0
 71
               0
 42
40.0
  3
MS PGothic.ttf
  4

  0
ENDTAB
  0
TABLE
  2
VIEW
 70
               0
  0
VIEW
  2
QQQQ
 70
               0
 40
2324.1138107741745
 10
6.3932616081537503
 20
-448.63520849510155
 41
1572.1791081540209
 11
0.0
 21
0.0
 31
1.0
 12
100.0
 22
100.0
 32
0.0
 42
50.0
 43
0.0
 44
0.0
 50
0.0
 71
               0
  0
ENDTAB
  0
TABLE
  2
UCS
 70
               0
  0
ENDTAB
  0
TABLE
  2
APPID
 70
               1
  0
APPID
  2
ACAD
 70
               0
  0
ENDTAB
  0
TABLE
  2
DIMSTYLE
 70
               1
  0
DIMSTYLE
  2
STANDARD
 70
               0
  3

  4

  5

  6

  7

 40
1.0
 41
0.18
 42
0.0625
 43
0.38
 44
0.18
 45
0.0
 46
0.0
 47
0.0
 48
0.0
140
0.18
141
0.09
142
0.0
143
25.399999999999999
144
1.0
145
0.0
146
1.0
147
0.09
 71
               0
 72
               0
 73
               1
 74
               1
 75
               0
 76
               0
 77
               0
 78
               0
170
               0
171
               2
172
               0
173
               0
174
               0
175
               0
176
               0
177
               0
178
               0
  0
ENDTAB
  0
ENDSEC
  0
SECTION
  2
BLOCKS
  0
BLOCK
  8
0
  5
13C
  2
GROUP_1
 70
               0
 10
0.0
 20
0.0
 30
0.0
  3
GROUP_1
  0
LINE
  8
0
  6
CONTINUOUS
 62
               4
  5
13D
 10
-666.83174593052104
 20
35.700000000001779
 30
0.0
 11
-666.83174593052104
 21
26.825833024921508
 31
0.0
  0
LINE
  8
0
  6
CONTINUOUS
 62
               4
  5
13E
 10
-672.31657348782232
 20
35.700000000001779
 30
0.0
 11
-672.31657348782232
 21
26.825833024921508
 31
0.0
  0
LINE
  8
0
  6
CONTINUOUS
 62
               4
  5
13F
 10
-666.83174593052104
 20
35.700000000001779
 30
0.0
 11
-688.73174593052067
 21
35.700000000001779
 31
0.0
  0
LINE
  8
0
  6
CONTINUOUS
 62
               4
  5
140
 10
-669.57415970917145
 20
25.700000000001751
 30
0.0
 11
-685.9893321518698
 21
25.700000000001751
 31
0.0
  0
LINE
  8
0
  6
CONTINUOUS
 62
               4
  5
141
 10
-688.73174593052067
 20
35.700000000001779
 30
0.0
 11
-688.73174593052067
 21
26.825833024921508
 31
0.0
  0
LINE
  8
0
  6
CONTINUOUS
 62
               4
  5
142
 10
-683.24691837321939
 20
35.700000000001779
 30
0.0
 11
-683.24691837321939
 21
26.825833024921508
 31
0.0
  0
ARC
  8
0
  6
CONTINUOUS
 62
               4
  5
143
 10
-669.57415970917145
 20
29.603035858253975
 30
0.0
 40
3.9030358582523994
 50
225.36111921400777
 51
314.63888078589008
  0
ARC
  8
0
  6
CONTINUOUS
 62
               4
  5
144
 10
-685.9893321518698
 20
29.603035858253975
 30
0.0
 40
3.9030358582525593
 50
225.36111921400541
 51
314.63888078588775
  0
ARC
  8
0
  6
CONTINUOUS
 62
               4
  5
145
 10
-677.78174593052063
 20
39.527809781407683
 30
0.0
 40
13.827809781406303
 50
246.71964825748168
 51
293.28035174241398
  0
ENDBLK
  8
0
  5
146
  0
BLOCK
  8
0
  5
147
  2
GROUP_2
 70
               0
 10
0.0
 20
0.0
 30
0.0
  3
GROUP_2
  0
LINE
  8
0
  6
CONTINUOUS
 62
               4
  5
148
 10
-533.16825406947896
 20
35.700000000001779
 30
0.0
 11
-533.16825406947896
 21
26.825833024921508
 31
0.0
  0
LINE
  8
0
  6
CONTINUOUS
 62
               4
  5
149
 10
-527.68342651217768
 20
35.700000000001779
 30
0.0
 11
-527.68342651217768
 21
26.825833024921508
 31
0.0
  0
LINE
  8
0
  6
CONTINUOUS
 62
               4
  5
14A
 10
-533.16825406947896
 20
35.700000000001779
 30
0.0
 11
-511.26825406947927
 21
35.700000000001779
 31
0.0
  0
LINE
  8
0
  6
CONTINUOUS
 62
               4
  5
14B
 10
-530.42584029082855
 20
25.700000000001751
 30
0.0
 11
-514.0106678481302
 21
25.700000000001751
 31
0.0
  0
LINE
  8
0
  6
CONTINUOUS
 62
               4
  5
14C
 10
-511.26825406947927
 20
35.700000000001779
 30
0.0
 11
-511.26825406947927
 21
26.825833024921508
 31
0.0
  0
LINE
  8
0
  6
CONTINUOUS
 62
               4
  5
14D
 10
-516.75308162678061
 20
35.700000000001779
 30
0.0
 11
-516.75308162678061
 21
26.825833024921508
 31
0.0
  0
ARC
  8
0
  6
CONTINUOUS
 62
               4
  5
14E
 10
-530.42584029082855
 20
29.603035858253975
 30
0.0
 40
3.9030358582523994
 50
225.3611192140055
 51
314.63888078588769
  0
ARC
  8
0
  6
CONTINUOUS
 62
               4
  5
14F
 10
-514.0106678481302
 20
29.603035858253975
 30
0.0
 40
3.9030358582525593
 50
225.36111921400786
 51
314.63888078589071
  0
ARC
  8
0
  6
CONTINUOUS
 62
               4
  5
150
 10
-522.21825406947937
 20
39.527809781407683
 30
0.0
 40
13.827809781406303
 50
246.71964825748168
 51
293.28035174241398
  0
ENDBLK
  8
0
  5
151
  0
BLOCK
  8
0
  5
152
  2
GROUP_3
 70
               0
 10
0.0
 20
0.0
 30
0.0
  3
GROUP_3
  0
LINE
  8
0
  6
CONTINUOUS
 62
               4
  5
153
 10
-66.831745930520981
 20
35.700000000001779
 30
0.0
 11
-66.831745930520981
 21
26.825833024921508
 31
0.0
  0
LINE
  8
0
  6
CONTINUOUS
 62
               4
  5
154
 10
-72.316573487822268
 20
35.700000000001779
 30
0.0
 11
-72.316573487822268
 21
26.825833024921508
 31
0.0
  0
LINE
  8
0
  6
CONTINUOUS
 62
               4
  5
155
 10
-66.831745930520981
 20
35.700000000001779
 30
0.0
 11
-88.731745930520617
 21
35.700000000001779
 31
0.0
  0
LINE
  8
0
  6
CONTINUOUS
 62
               4
  5
156
 10
-69.574159709171511
 20
25.700000000001751
 30
0.0
 11
-85.98933215186986
 21
25.700000000001751
 31
0.0
  0
LINE
  8
0
  6
CONTINUOUS
 62
               4
  5
157
 10
-88.731745930520617
 20
35.700000000001779
 30
0.0
 11
-88.731745930520617
 21
26.825833024921508
 31
0.0
  0
LINE
  8
0
  6
CONTINUOUS
 62
               4
  5
158
 10
-83.24691837321933
 20
35.700000000001779
 30
0.0
 11
-83.24691837321933
 21
26.825833024921508
 31
0.0
  0
ARC
  8
0
  6
CONTINUOUS
 62
               4
  5
159
 10
-69.574159709171511
 20
29.603035858253975
 30
0.0
 40
3.9030358582523994
 50
225.36111921400735
 51
314.63888078589054
  0
ARC
  8
0
  6
CONTINUOUS
 62
               4
  5
15A
 10
-85.98933215186986
 20
29.603035858253975
 30
0.0
 40
3.9030358582525593
 50
225.36111921400499
 51
314.6388807858882
  0
ARC
  8
0
  6
CONTINUOUS
 62
               4
  5
15B
 10
-77.781745930520685
 20
39.527809781407683
 30
0.0
 40
13.827809781406303
 50
246.71964825748174
 51
293.28035174241387
  0
ENDBLK
  8
0
  5
15C
  0
BLOCK
  8
0
  5
15D
  2
GROUP_4
 70
               0
 10
0.0
 20
0.0
 30
0.0
  3
GROUP_4
  0
LINE
  8
0
  6
CONTINUOUS
 62
               4
  5
15E
 10
66.831745930520981
 20
35.700000000001779
 30
0.0
 11
66.831745930520981
 21
26.825833024921508
 31
0.0
  0
LINE
  8
0
  6
CONTINUOUS
 62
               4
  5
15F
 10
72.316573487822382
 20
35.700000000001779
 30
0.0
 11
72.316573487822382
 21
26.825833024921508
 31
0.0
  0
LINE
  8
0
  6
CONTINUOUS
 62
               4
  5
160
 10
66.831745930520981
 20
35.700000000001779
 30
0.0
 11
88.731745930520731
 21
35.700000000001779
 31
0.0
  0
LINE
  8
0
  6
CONTINUOUS
 62
               4
  5
161
 10
69.574159709171511
 20
25.700000000001751
 30
0.0
 11
85.98933215186986
 21
25.700000000001751
 31
0.0
  0
LINE
  8
0
  6
CONTINUOUS
 62
               4
  5
162
 10
88.731745930520731
 20
35.700000000001779
 30
0.0
 11
88.731745930520731
 21
26.825833024921508
 31
0.0
  0
LINE
  8
0
  6
CONTINUOUS
 62
               4
  5
163
 10
83.24691837321933
 20
35.700000000001779
 30
0.0
 11
83.24691837321933
 21
26.825833024921508
 31
0.0
  0
ARC
  8
0
  6
CONTINUOUS
 62
               4
  5
164
 10
69.574159709171511
 20
29.603035858253975
 30
0.0
 40
3.9030358582523994
 50
225.36111921400504
 51
314.63888078588815
  0
ARC
  8
0
  6
CONTINUOUS
 62
               4
  5
165
 10
85.98933215186986
 20
29.603035858253975
 30
0.0
 40
3.9030358582525593
 50
225.3611192140074
 51
314.63888078589054
  0
ARC
  8
0
  6
CONTINUOUS
 62
               4
  5
166
 10
77.781745930520685
 20
39.527809781407683
 30
0.0
 40
13.827809781406303
 50
246.71964825748174
 51
293.28035174241393
  0
ENDBLK
  8
0
  5
167
  0
BLOCK
  8
0
  5
168
  2
GROUP_5
 70
               0
 10
0.0
 20
0.0
 30
0.0
  3
GROUP_5
  0
LINE
  8
0
  6
CONTINUOUS
 62
               4
  5
169
 10
533.16825406947896
 20
35.700000000001779
 30
0.0
 11
533.16825406947896
 21
26.825833024921508
 31
0.0
  0
LINE
  8
0
  6
CONTINUOUS
 62
               4
  5
16A
 10
527.68342651217768
 20
35.700000000001779
 30
0.0
 11
527.68342651217768
 21
26.825833024921508
 31
0.0
  0
LINE
  8
0
  6
CONTINUOUS
 62
               4
  5
16B
 10
533.16825406947896
 20
35.700000000001779
 30
0.0
 11
511.26825406947938
 21
35.700000000001779
 31
0.0
  0
LINE
  8
0
  6
CONTINUOUS
 62
               4
  5
16C
 10
530.42584029082855
 20
25.700000000001751
 30
0.0
 11
514.0106678481302
 21
25.700000000001751
 31
0.0
  0
LINE
  8
0
  6
CONTINUOUS
 62
               4
  5
16D
 10
511.26825406947938
 20
35.700000000001779
 30
0.0
 11
511.26825406947938
 21
26.825833024921508
 31
0.0
  0
LINE
  8
0
  6
CONTINUOUS
 62
               4
  5
16E
 10
516.75308162678061
 20
35.700000000001779
 30
0.0
 11
516.75308162678061
 21
26.825833024921508
 31
0.0
  0
ARC
  8
0
  6
CONTINUOUS
 62
               4
  5
16F
 10
530.42584029082855
 20
29.603035858253975
 30
0.0
 40
3.9030358582523994
 50
225.36111921400777
 51
314.63888078589008
  0
ARC
  8
0
  6
CONTINUOUS
 62
               4
  5
170
 10
514.0106678481302
 20
29.603035858253975
 30
0.0
 40
3.9030358582525593
 50
225.36111921400482
 51
314.63888078588775
  0
ARC
  8
0
  6
CONTINUOUS
 62
               4
  5
171
 10
522.21825406947937
 20
39.527809781407683
 30
0.0
 40
13.827809781406303
 50
246.71964825748168
 51
293.28035174241398
  0
ENDBLK
  8
0
  5
172
  0
BLOCK
  8
0
  5
173
  2
GROUP_6
 70
               0
 10
0.0
 20
0.0
 30
0.0
  3
GROUP_6
  0
LINE
  8
0
  6
CONTINUOUS
 62
               4
  5
174
 10
666.83174593052104
 20
35.700000000001779
 30
0.0
 11
666.83174593052104
 21
26.825833024921508
 31
0.0
  0
LINE
  8
0
  6
CONTINUOUS
 62
               4
  5
175
 10
672.31657348782232
 20
35.700000000001779
 30
0.0
 11
672.31657348782232
 21
26.825833024921508
 31
0.0
  0
LINE
  8
0
  6
CONTINUOUS
 62
               4
  5
176
 10
666.83174593052104
 20
35.700000000001779
 30
0.0
 11
688.73174593052067
 21
35.700000000001779
 31
0.0
  0
LINE
  8
0
  6
CONTINUOUS
 62
               4
  5
177
 10
669.57415970917145
 20
25.700000000001751
 30
0.0
 11
685.9893321518698
 21
25.700000000001751
 31
0.0
  0
LINE
  8
0
  6
CONTINUOUS
 62
               4
  5
178
 10
688.73174593052067
 20
35.700000000001779
 30
0.0
 11
688.73174593052067
 21
26.825833024921508
 31
0.0
  0
LINE
  8
0
  6
CONTINUOUS
 62
               4
  5
179
 10
683.24691837321939
 20
35.700000000001779
 30
0.0
 11
683.24691837321939
 21
26.825833024921508
 31
0.0
  0
ARC
  8
0
  6
CONTINUOUS
 62
               4
  5
17A
 10
669.57415970917145
 20
29.603035858253975
 30
0.0
 40
3.9030358582523994
 50
225.3611192140055
 51
314.63888078588769
  0
ARC
  8
0
  6
CONTINUOUS
 62
               4
  5
17B
 10
685.9893321518698
 20
29.603035858253975
 30
0.0
 40
3.9030358582525593
 50
225.36111921400786
 51
314.63888078589008
  0
ARC
  8
0
  6
CONTINUOUS
 62
               4
  5
17C
 10
677.78174593052063
 20
39.527809781407683
 30
0.0
 40
13.827809781406303
 50
246.71964825748168
 51
293.28035174241398
  0
ENDBLK
  8
0
  5
17D
  0
ENDSEC
  0
SECTION
  2
ENTITIES
  0
LINE
  8
0
  6
CONTINUOUS
 62
               3
  5
17E
 10
-151.98374363275872
 20
548.0
 30
0.0
 11
-151.98374363275872
 21
407.99943231514681
 31
0.0
  0
LINE
  8
0
  6
CONTINUOUS
 62
               3
  5
17F
 10
-155.00000000000006
 20
545.67155612596412
 30
0.0
 11
-154.3121875067946
 21
545.67155612596412
 31
0.0
  0
LINE
  8
0
  6
CONTINUOUS
 62
               3
  5
180
 10
-151.98374363275872
 20
548.0
 30
0.0
 11
-154.3121875067946
 21
545.67155612596412
 31
0.0
  0
LINE
  8
0
  6
CONTINUOUS
 62
               3
  5
181
 10
-155.00000000000006
 20
548.0
 30
0.0
 11
-157.50000000000006
 21
548.0
 31
0.0
  0
ARC
  8
0
  6
CONTINUOUS
 62
               3
  5
182
 10
-157.50000000000006
 20
545.5
 30
0.0
 40
2.5
 50
89.999999999982862
 51
179.99999999996572
  0
LINE
  8
0
  6
CONTINUOUS
 62
               3
  5
183
 10
-155.00000000000006
 20
410.32844387403577
 30
0.0
 11
-154.3121875067946
 21
410.32844387403577
 31
0.0
  0
LINE
  8
0
  6
CONTINUOUS
 62
               3
  5
184
 10
-151.98374363275872
 20
407.99999999999989
 30
0.0
 11
-154.3121875067946
 21
410.32844387403577
 31
0.0
  0
LINE
  8
0
  6
CONTINUOUS
 62
               3
  5
185
 10
-155.00000000000006
 20
407.99999999999989
 30
0.0
 11
-157.50000000000006
 21
407.99999999999989
 31
0.0
  0
ARC
  8
0
  6
CONTINUOUS
 62
               3
  5
186
 10
-157.50000000000006
 20
410.49999999999989
 30
0.0
 40
2.5
 50
179.99999999996572
 51
269.99999999994793
  0
LINE
  8
0
  6
CONTINUOUS
 62
               3
  5
187
 10
-160.00000000000006
 20
545.5
 30
0.0
 11
-160.00000000000006
 21
410.49999999999989
 31
0.0
  0
LINE
  8
0
  6
CONTINUOUS
 62
               3
  5
188
 10
-155.00000000000006
 20
407.99999999999989
 30
0.0
 11
-155.00000000000006
 21
548.0
 31
0.0
  0
LINE
  8
0
  6
CONTINUOUS
 62
               3
  5
189
 10
-154.3121875067946
 20
545.67155612596412
 30
0.0
 11
-154.3121875067946
 21
410.32844387403577
 31
0.0
  0
LINE
  8
0
  6
CONTINUOUS
 62
               3
  5
18A
 10
-151.98374363275872
 20
548.0
 30
0.0
 11
-96.229607097849794
 21
549.94697735014688
 31
0.0
  0
LINE
  8
0
  6
CONTINUOUS
 62
               3
  5
18B
 10
-151.99999999999994
 20
407.99999999999989
 30
0.0
 11
-96.229529997968996
 21
406.0524522726119
 31
0.0
  0
LINE
  8
0
  6
CONTINUOUS
 62
               3
  5
18C
 10
-54.999999999999673
 20
322.99999999999994
 30
0.0
 11
-54.999999999999673
 21
323.67155612596417
 31
0.0
  0
LINE
  8
0
  6
CONTINUOUS
 62
               3
  5
18D
 10
-57.328443874034761
 20
326.00000000000006
 30
0.0
 11
-54.999999999999673
 21
323.67155612596417
 31
0.0
  0
LINE
  8
0
  6
CONTINUOUS
 62
               3
  5
18E
 10
54.999999999999986
 20
322.99999999999994
 30
0.0
 11
54.999999999999986
 21
323.67155612596417
 31
0.0
  0
LINE
  8
0
  6
CONTINUOUS
 62
               3
  5
18F
 10
57.328443874035869
 20
326.00000000000006
 30
0.0
 11
54.999999999999986
 21
323.67155612596417
 31
0.0
  0
LINE
  8
0
  6
CONTINUOUS
 62
               3
  5
190
 10
54.999999999999986
 20
323.67155612596417
 30
0.0
 11
-54.999999999999673
 21
323.67155612596417
 31
0.0
  0
LINE
  8
0
  6
CONTINUOUS
 62
               3
  5
191
 10
-57.328443874034761
 20
326.00000000000006
 30
0.0
 11
57.328443874035869
 21
326.00000000000006
 31
0.0
  0
LINE
  8
0
  6
CONTINUOUS
 62
               3
  5
192
 10
-57.328443874035329
 20
322.99999999999994
 30
0.0
 11
57.328443874035869
 21
322.99999999999994
 31
0.0
  0
LINE
  8
0
  6
CONTINUOUS
 62
               3
  5
193
 10
57.328443874035869
 20
322.99999999999994
 30
0.0
 11
57.328443874035869
 21
320.49999999999994
 31
0.0
  0
ARC
  8
0
  6
CONTINUOUS
 62
               3
  5
194
 10
54.828443874035869
 20
320.49999999999994
 30
0.0
 40
2.5
 50
269.99999999994782
 51
359.99999999993014
  0
LINE
  8
0
  6
CONTINUOUS
 62
               3
  5
195
 10
54.828443874035877
 20
317.99999999999994
 30
0.0
 11
-54.828443874035322
 21
317.99999999999994
 31
0.0
  0
LINE
  8
0
  6
CONTINUOUS
 62
               3
  5
196
 10
-57.328443874035329
 20
322.99999999999994
 30
0.0
 11
-57.328443874035329
 21
320.49999999999994
 31
0.0
  0
ARC
  8
0
  6
CONTINUOUS
 62
               3
  5
197
 10
-54.828443874035329
 20
320.49999999999994
 30
0.0
 40
2.5
 50
179.99999999996572
 51
269.99999999994782
  0
LINE
  8
0
  6
CONTINUOUS
 62
               3
  5
198
 10
-57.328443874034761
 20
326.00000000000006
 30
0.0
 11
-59.215893582657749
 21
380.0494879148776
 31
0.0
  0
LINE
  8
0
  6
CONTINUOUS
 62
               3
  5
199
 10
57.328443874035869
 20
326.00000000000006
 30
0.0
 11
59.215893582658929
 21
380.0494879148776
 31
0.0
  0
LINE
  8
0
  6
CONTINUOUS
 62
               3
  5
19A
 10
-512.27871216603307
 20
-250.81231263320393
 30
0.0
 11
-526.72128783396715
 21
-377.57317241373113
 31
0.0
  0
LINE
  8
0
  6
CONTINUOUS
 62
               3
  5
19B
 10
-671.00000000000023
 20
-397.57317241373056
 30
0.0
 11
-529.00000000000023
 21
-397.57317241373204
 31
0.0
  0
LINE
  8
0
  6
CONTINUOUS
 62
               3
  5
19C
 10
-673.27871216603307
 20
-377.57317241373113
 30
0.0
 11
-526.72128783396715
 21
-377.57317241373113
 31
0.0
  0
LINE
  8
0
  6
CONTINUOUS
 62
               3
  5
19D
 10
-509.51750236146898
 20
-248.66166388985465
 30
0.0
 11
-507.79907839522838
 21
-233.57925030681525
 31
0.0
  0
ARC
  8
0
  6
CONTINUOUS
 62
               3
  5
19E
 10
-510.28300803441982
 20
-233.29624227239532
 30
0.0
 40
2.5
 50
353.49999999993179
 51
443.49999999991383
  0
ARC
  8
0
  6
CONTINUOUS
 62
               3
  5
19F
 10
-511.99570413161314
 20
-248.32838299401243
 30
0.0
 40
2.5
 50
263.49999999994697
 51
353.49999999993179
  0
LINE
  8
0
  6
CONTINUOUS
 62
               3
  5
1A0
 10
-526.2387901954362
 20
-395.42252367038299
 30
0.0
 11
-524.52036622919559
 21
-380.34011008734336
 31
0.0
  0
ARC
  8
0
  6
CONTINUOUS
 62
               3
  5
1A1
 10
-527.00429586838709
 20
-380.05710205292343
 30
0.0
 40
2.5
 50
353.49999999993111
 51
443.49999999991383
  0
ARC
  8
0
  6
CONTINUOUS
 62
               3
  5
1A2
 10
-528.71699196558029
 20
-395.08924277454054
 30
0.0
 40
2.5
 50
263.49999999994833
 51
353.49999999993111
  0
LINE
  8
0
  6
CONTINUOUS
 62
               3
  5
1A3
 10
-690.48249763853119
 20
-248.66166388985465
 30
0.0
 11
-692.20092160477202
 21
-233.57925030681525
 31
0.0
  0
ARC
  8
0
  6
CONTINUOUS
 62
               3
  5
1A4
 10
-689.71699196558029
 20
-233.29624227239532
 30
0.0
 40
2.5
 50
96.499999999980105
 51
186.49999999996422
  0
ARC
  8
0
  6
CONTINUOUS
 62
               3
  5
1A5
 10
-688.00429586838709
 20
-248.32838299401243
 30
0.0
 40
2.5
 50
186.49999999996422
 51
276.49999999994822
  0
LINE
  8
0
  6
CONTINUOUS
 62
               3
  5
1A6
 10
-673.76120980456403
 20
-395.42252367038299
 30
0.0
 11
-675.47963377080487
 21
-380.34011008734336
 31
0.0
  0
ARC
  8
0
  6
CONTINUOUS
 62
               3
  5
1A7
 10
-672.99570413161314
 20
-380.05710205292343
 30
0.0
 40
2.5
 50
96.499999999980105
 51
186.49999999996422
  0
ARC
  8
0
  6
CONTINUOUS
 62
               3
  5
1A8
 10
-671.28300803441994
 20
-395.08924277454054
 30
0.0
 40
2.5
 50
186.49999999996422
 51
276.49999999994822
  0
LINE
  8
0
  6
CONTINUOUS
 62
               3
  5
1A9
 10
-687.72128783396715
 20
-250.81231263320393
 30
0.0
 11
-673.27871216603307
 21
-377.57317241373113
 31
0.0
  0
LINE
  8
0
  6
CONTINUOUS
 62
               3
  5
1AA
 10
-687.72128783396693
 20
-250.81231263320393
 30
0.0
 11
-512.27871216603307
 21
-250.81231263320404
 31
0.0
  0
LINE
  8
0
  6
CONTINUOUS
 62
               3
  5
1AB
 10
-690.0
 20
-230.81231263320393
 30
0.0
 11
-510.00000000000045
 21
-230.81231263320393
 31
0.0
  0
ARC
  8
0
  6
CONTINUOUS
 62
               3
  5
1AC
 10
-556.7159815542841
 20
-105.49999999999983
 30
0.0
 40
2.5
 50
89.999999999981569
 51
269.99999999994731
  0
LINE
  8
0
  6
CONTINUOUS
 62
               3
  5
1AD
 10
-510.00000000000063
 20
-116.63234306858797
 30
0.0
 11
-510.00000000000006
 21
-230.81231263320279
 31
0.0
  0
LINE
  8
0
  6
CONTINUOUS
 62
               3
  5
1AE
 10
-531.74647922241888
 20
-462.53645844336216
 30
0.0
 11
-540.66025403784442
 21
-477.97556931090736
 31
0.0
  0
ARC
  8
0
  6
CONTINUOUS
 62
               3
  5
1AF
 10
-532.00000000000023
 20
-482.97556931090736
 30
0.0
 40
10.0
 50
149.99999999997263
 51
174.09604415054122
  0
ARC
  8
0
  6
CONTINUOUS
 62
               3
  5
1B0
 10
-549.49999999999977
 20
-452.28645844336239
 30
0.0
 40
20.500000000000004
 50
329.99999999993622
 51
359.99999999993037
  0
LINE
  8
0
  6
CONTINUOUS
 62
               3
  5
1B1
 10
-668.25352077758134
 20
-462.53645844336216
 30
0.0
 11
-659.33974596215558
 21
-477.97556931090736
 31
0.0
  0
ARC
  8
0
  6
CONTINUOUS
 62
               3
  5
1B2
 10
-668.0
 20
-482.97556931090736
 30
0.0
 40
10.0
 50
5.9039558494236442
 51
29.999999999992557
  0
ARC
  8
0
  6
CONTINUOUS
 62
               3
  5
1B3
 10
-650.50000000000023
 20
-452.28645844336239
 30
0.0
 40
20.500000000000004
 50
179.99999999996513
 51
209.99999999995936
  0
LINE
  8
0
  6
CONTINUOUS
 62
               3
  5
1B4
 10
-655.00000000000023
 20
-583.0
 30
0.0
 11
-545.00000000000023
 21
-583.0
 31
0.0
  0
LINE
  8
0
  6
CONTINUOUS
 62
               3
  5
1B5
 10
-543.0
 20
-580.99999999999977
 30
0.0
 11
-543.0
 21
-482.99999999999989
 31
0.0
  0
LINE
  8
0
  6
CONTINUOUS
 62
               3
  5
1B6
 10
-657.0
 20
-580.99999999999977
 30
0.0
 11
-657.0
 21
-482.99999999999989
 31
0.0
  0
LINE
  8
0
  6
CONTINUOUS
 62
               3
  5
1B7
 10
-543.0
 20
-482.99999999999989
 30
0.0
 11
-541.94695717682657
 21
-481.94695717682629
 31
0.0
  0
LINE
  8
0
  6
CONTINUOUS
 62
               3
  5
1B8
 10
-657.0
 20
-482.99999999999989
 30
0.0
 11
-658.0530428231732
 21
-481.94695717682634
 31
0.0
  0
LINE
  8
0
  6
CONTINUOUS
 62
               3
  5
1B9
 10
-655.00000000000023
 20
-583.0
 30
0.0
 11
-657.0
 21
-580.99999999999977
 31
0.0
  0
LINE
  8
0
  6
CONTINUOUS
 62
               3
  5
1BA
 10
-545.00000000000023
 20
-583.0
 30
0.0
 11
-543.0
 21
-580.99999999999977
 31
0.0
  0
LINE
  8
0
  6
CONTINUOUS
 62
               3
  5
1BB
 10
-670.99999999999977
 20
-397.57317241373204
 30
0.0
 11
-670.99999999999977
 21
-452.28645844336239
 31
0.0
  0
LINE
  8
0
  6
CONTINUOUS
 62
               3
  5
1BC
 10
-529.00000000000023
 20
-397.57317241373204
 30
0.0
 11
-529.00000000000023
 21
-452.28645844336239
 31
0.0
  0
ARC
  8
0
  6
CONTINUOUS
 62
               3
  5
1BD
 10
-702.00000000000045
 20
41.000000000000057
 30
0.0
 40
3.0000000000000004
 50
179.99999999996527
 51
269.99999999994731
  0
LINE
  8
0
  6
CONTINUOUS
 62
               3
  5
1BE
 10
-705.00000000000045
 20
56.000000000000057
 30
0.0
 11
-705.00000000000023
 21
41.000000000000057
 31
0.0
  0
ARC
  8
0
  6
CONTINUOUS
 62
               3
  5
1BF
 10
-498.00000000000017
 20
41.000000000000057
 30
0.0
 40
3.0000000000000004
 50
269.99999999994731
 51
359.99999999993037
  0
LINE
  8
0
  6
CONTINUOUS
 62
               3
  5
1C0
 10
-701.98374363275911
 20
37.999999999999943
 30
0.0
 11
-616.6733320005344
 21
37.999999999999943
 31
0.0
  0
LINE
  8
0
  6
CONTINUOUS
 62
               3
  5
1C1
 10
-583.32666799946583
 20
37.999999999999943
 30
0.0
 11
-498.0
 21
37.999999999999943
 31
0.0
  0
LINE
  8
0
  6
CONTINUOUS
 62
               3
  5
1C2
 10
-495.00000000000006
 20
56.000000000000057
 30
0.0
 11
-495.00000000000006
 21
41.000000000000057
 31
0.0
  0
LINE
  8
0
  6
CONTINUOUS
 62
               3
  5
1C3
 10
-151.98374363275877
 20
39.500000000000057
 30
0.0
 11
-107.89530150989282
 21
41.039602324622876
 31
0.0
  0
LINE
  8
0
  6
CONTINUOUS
 62
               3
  5
1C4
 10
-151.99999999999994
 20
-100.49999999999994
 30
0.0
 11
-104.29499600175365
 21
-102.16589544822585
 31
0.0
  0
LINE
  8
0
  6
CONTINUOUS
 62
               3
  5
1C5
 10
-100.93395957933342
 20
-103.62731567738837
 30
0.0
 11
-91.46446609406695
 21
-113.09680916265523
 31
0.0
  0
ARC
  8
0
  6
CONTINUOUS
 62
               3
  5
1C6
 10
-104.46949348526618
 20
-107.16284958332113
 30
0.0
 40
5.0
 50
44.999999999991381
 51
87.99999999998262
  0
ARC
  8
0
  6
CONTINUOUS
 62
               3
  5
1C7
 10
-94.999999999999886
 20
-116.63234306858766
 30
0.0
 40
5.0
 50
0.0
 51
44.999999999990919
  0
LINE
  8
0
  6
CONTINUOUS
 62
               3
  5
1C8
 10
-151.98374363275877
 20
39.500000000000057
 30
0.0
 11
-151.98374363275877
 21
-100.50056768485302
 31
0.0
  0
ARC
  8
0
  6
CONTINUOUS
 62
               3
  5
1C9
 10
-108.00000000000028
 20
44.037774805680272
 30
0.0
 40
3.0000000000000004
 50
271.99999999994657
 51
359.99999999993054
  0
LINE
  8
0
  6
CONTINUOUS
 62
               3
  5
1CA
 10
-89.999999999999886
 20
-116.63234306858766
 30
0.0
 11
-89.999999999999886
 21
-230.81231263320393
 31
0.0
  0
ARC
  8
0
  6
CONTINUOUS
 62
               3
  5
1CB
 10
-82.000000000000057
 20
-105.49999999999994
 30
0.0
 40
2.5
 50
89.999999999982535
 51
269.99999999994793
  0
LINE
  8
0
  6
CONTINUOUS
 62
               3
  5
1CC
 10
-87.72128783396721
 20
-250.81231263320393
 30
0.0
 11
-73.278712166033131
 21
-377.57317241373113
 31
0.0
  0
LINE
  8
0
  6
CONTINUOUS
 62
               3
  5
1CD
 10
70.999999999999829
 20
-397.57317241373056
 30
0.0
 11
-71.000000000000057
 21
-397.57317241373204
 31
0.0
  0
LINE
  8
0
  6
CONTINUOUS
 62
               3
  5
1CE
 10
-155.00000000000006
 20
37.171556125964173
 30
0.0
 11
-154.31218750679466
 21
37.171556125964173
 31
0.0
  0
LINE
  8
0
  6
CONTINUOUS
 62
               3
  5
1CF
 10
-151.98374363275877
 20
39.500000000000057
 30
0.0
 11
-154.31218750679466
 21
37.171556125964173
 31
0.0
  0
LINE
  8
0
  6
CONTINUOUS
 62
               3
  5
1D0
 10
-155.00000000000006
 20
39.500000000000057
 30
0.0
 11
-157.50000000000006
 21
39.500000000000057
 31
0.0
  0
ARC
  8
0
  6
CONTINUOUS
 62
               3
  5
1D1
 10
-157.50000000000006
 20
37.000000000000057
 30
0.0
 40
2.5
 50
89.999999999982862
 51
179.99999999996524
  0
LINE
  8
0
  6
CONTINUOUS
 62
               3
  5
1D2
 10
-155.00000000000006
 20
-98.171556125964059
 30
0.0
 11
-154.31218750679466
 21
-98.171556125964059
 31
0.0
  0
LINE
  8
0
  6
CONTINUOUS
 62
               3
  5
1D3
 10
-151.98374363275877
 20
-100.49999999999994
 30
0.0
 11
-154.31218750679466
 21
-98.171556125964059
 31
0.0
  0
LINE
  8
0
  6
CONTINUOUS
 62
               3
  5
1D4
 10
-155.00000000000006
 20
-100.49999999999972
 30
0.0
 11
-157.50000000000006
 21
-100.49999999999972
 31
0.0
  0
ARC
  8
0
  6
CONTINUOUS
 62
               3
  5
1D5
 10
-157.50000000000006
 20
-97.999999999999716
 30
0.0
 40
2.5
 50
179.99999999996507
 51
269.99999999994793
  0
LINE
  8
0
  6
CONTINUOUS
 62
               3
  5
1D6
 10
-160.00000000000006
 20
37.000000000000057
 30
0.0
 11
-160.00000000000006
 21
-97.999999999999716
 31
0.0
  0
LINE
  8
0
  6
CONTINUOUS
 62
               3
  5
1D7
 10
-155.00000000000006
 20
-100.49999999999972
 30
0.0
 11
-155.00000000000006
 21
39.500000000000057
 31
0.0
  0
LINE
  8
0
  6
CONTINUOUS
 62
               3
  5
1D8
 10
-154.31218750679466
 20
37.171556125964173
 30
0.0
 11
-154.31218750679466
 21
-98.171556125964059
 31
0.0
  0
LINE
  8
0
  6
CONTINUOUS
 62
               3
  5
1D9
 10
73.278712166032676
 20
-377.57317241373113
 30
0.0
 11
-73.278712166033131
 21
-377.57317241373113
 31
0.0
  0
LINE
  8
0
  6
CONTINUOUS
 62
               3
  5
1DA
 10
-90.482497638531356
 20
-248.66166388985465
 30
0.0
 11
-92.200921604771963
 21
-233.57925030681525
 31
0.0
  0
ARC
  8
0
  6
CONTINUOUS
 62
               3
  5
1DB
 10
-89.716991965580519
 20
-233.29624227239532
 30
0.0
 40
2.5
 50
96.499999999981398
 51
186.49999999996413
  0
ARC
  8
0
  6
CONTINUOUS
 62
               3
  5
1DC
 10
-88.004295868387203
 20
-248.32838299401243
 30
0.0
 40
2.5
 50
186.49999999996413
 51
276.49999999994787
  0
LINE
  8
0
  6
CONTINUOUS
 62
               3
  5
1DD
 10
-73.761209804564203
 20
-395.42252367038299
 30
0.0
 11
-75.47963377080481
 21
-380.34011008734336
 31
0.0
  0
ARC
  8
0
  6
CONTINUOUS
 62
               3
  5
1DE
 10
-72.995704131613309
 20
-380.05710205292343
 30
0.0
 40
2.5
 50
96.499999999981398
 51
186.49999999996413
  0
ARC
  8
0
  6
CONTINUOUS
 62
               3
  5
1DF
 10
-71.283008034419993
 20
-395.08924277454054
 30
0.0
 40
2.5
 50
186.49999999996413
 51
276.49999999994787
  0
LINE
  8
0
  6
CONTINUOUS
 62
               3
  5
1E0
 10
90.482497638530901
 20
-248.66166388985465
 30
0.0
 11
92.200921604771622
 21
-233.57925030681525
 31
0.0
  0
ARC
  8
0
  6
CONTINUOUS
 62
               3
  5
1E1
 10
89.716991965580007
 20
-233.29624227239532
 30
0.0
 40
2.5
 50
353.49999999993173
 51
443.49999999991411
  0
ARC
  8
0
  6
CONTINUOUS
 62
               3
  5
1E2
 10
88.004295868386691
 20
-248.32838299401243
 30
0.0
 40
2.5
 50
263.49999999994765
 51
353.49999999993173
  0
LINE
  8
0
  6
CONTINUOUS
 62
               3
  5
1E3
 10
73.761209804563748
 20
-395.42252367038299
 30
0.0
 11
75.479633770804469
 21
-380.34011008734336
 31
0.0
  0
ARC
  8
0
  6
CONTINUOUS
 62
               3
  5
1E4
 10
72.995704131612854
 20
-380.05710205292343
 30
0.0
 40
2.5
 50
353.49999999993105
 51
443.49999999991411
  0
ARC
  8
0
  6
CONTINUOUS
 62
               3
  5
1E5
 10
71.283008034419538
 20
-395.08924277454054
 30
0.0
 40
2.5
 50
263.49999999994765
 51
353.49999999993105
  0
LINE
  8
0
  6
CONTINUOUS
 62
               3
  5
1E6
 10
87.721287833966755
 20
-250.81231263320393
 30
0.0
 11
73.278712166032676
 21
-377.57317241373113
 31
0.0
  0
LINE
  8
0
  6
CONTINUOUS
 62
               3
  5
1E7
 10
87.721287833966642
 20
-250.81231263320393
 30
0.0
 11
-87.72128783396721
 21
-250.81231263320404
 31
0.0
  0
LINE
  8
0
  6
CONTINUOUS
 62
               3
  5
1E8
 10
89.999999999999602
 20
-230.81231263320393
 30
0.0
 11
-89.999999999999886
 21
-230.81231263320393
 31
0.0
  0
LINE
  8
0
  6
CONTINUOUS
 62
               3
  5
1E9
 10
89.999999999998465
 20
32.858471105004753
 30
0.0
 11
89.99999999999892
 21
-102.99999999999994
 31
0.0
  0
ARC
  8
0
  6
CONTINUOUS
 62
               3
  5
1EA
 10
89.999999999999375
 20
-105.49999999999989
 30
0.0
 40
2.5
 50
269.99999999994793
 51
449.99999999991297
  0
LINE
  8
0
  6
CONTINUOUS
 62
               3
  5
1EB
 10
89.999999999999375
 20
-107.99999999999989
 30
0.0
 11
89.999999999999943
 21
-230.81231263320279
 31
0.0
  0
ARC
  8
0
  6
CONTINUOUS
 62
               3
  5
1EC
 10
94.732670528588471
 20
33.251073104170416
 30
0.0
 40
4.7489268958295181
 50
148.9570781687753
 51
184.74215347444627
  0
ARC
  8
0
  6
CONTINUOUS
 62
               3
  5
1ED
 10
94.732670528588471
 20
33.251073104170416
 30
0.0
 40
4.7489268958295181
 50
89.999999999982663
 51
146.30076741269949
  0
LINE
  8
0
  6
CONTINUOUS
 62
               3
  5
1EE
 10
-68.253520777581514
 20
-462.53645844336216
 30
0.0
 11
-59.33974596215586
 21
-477.97556931090736
 31
0.0
  0
ARC
  8
0
  6
CONTINUOUS
 62
               3
  5
1EF
 10
-68.000000000000171
 20
-482.97556931090736
 30
0.0
 40
10.0
 50
5.9039558494239719
 51
29.999999999992756
  0
ARC
  8
0
  6
CONTINUOUS
 62
               3
  5
1F0
 10
-50.500000000000512
 20
-452.28645844336239
 30
0.0
 40
20.500000000000004
 50
179.99999999996513
 51
209.99999999995936
  0
LINE
  8
0
  6
CONTINUOUS
 62
               3
  5
1F1
 10
68.253520777580945
 20
-462.53645844336216
 30
0.0
 11
59.339745962155177
 21
-477.97556931090736
 31
0.0
  0
ARC
  8
0
  6
CONTINUOUS
 62
               3
  5
1F2
 10
67.999999999999716
 20
-482.97556931090736
 30
0.0
 40
10.0
 50
149.9999999999726
 51
174.09604415054159
  0
ARC
  8
0
  6
CONTINUOUS
 62
               3
  5
1F3
 10
50.499999999999943
 20
-452.28645844336239
 30
0.0
 40
20.500000000000004
 50
329.99999999993634
 51
359.99999999993037
  0
LINE
  8
0
  6
CONTINUOUS
 62
               3
  5
1F4
 10
54.999999999999829
 20
-583.0
 30
0.0
 11
-55.000000000000171
 21
-583.0
 31
0.0
  0
LINE
  8
0
  6
CONTINUOUS
 62
               3
  5
1F5
 10
-57.000000000000284
 20
-580.99999999999977
 30
0.0
 11
-57.000000000000284
 21
-482.99999999999989
 31
0.0
  0
LINE
  8
0
  6
CONTINUOUS
 62
               3
  5
1F6
 10
56.999999999999716
 20
-580.99999999999977
 30
0.0
 11
56.999999999999716
 21
-482.99999999999989
 31
0.0
  0
LINE
  8
0
  6
CONTINUOUS
 62
               3
  5
1F7
 10
-57.000000000000284
 20
-482.99999999999989
 30
0.0
 11
-58.053042823173712
 21
-481.94695717682629
 31
0.0
  0
LINE
  8
0
  6
CONTINUOUS
 62
               3
  5
1F8
 10
56.999999999999716
 20
-482.99999999999989
 30
0.0
 11
58.053042823172916
 21
-481.94695717682634
 31
0.0
  0
LINE
  8
0
  6
CONTINUOUS
 62
               3
  5
1F9
 10
54.999999999999829
 20
-583.0
 30
0.0
 11
56.999999999999716
 21
-580.99999999999977
 31
0.0
  0
LINE
  8
0
  6
CONTINUOUS
 62
               3
  5
1FA
 10
-55.000000000000171
 20
-583.0
 30
0.0
 11
-57.000000000000284
 21
-580.99999999999977
 31
0.0
  0
LINE
  8
0
  6
CONTINUOUS
 62
               3
  5
1FB
 10
70.999999999999488
 20
-397.57317241373204
 30
0.0
 11
70.999999999999488
 21
-452.28645844336239
 31
0.0
  0
LINE
  8
0
  6
CONTINUOUS
 62
               3
  5
1FC
 10
-71.000000000000171
 20
-397.57317241373204
 30
0.0
 11
-71.000000000000171
 21
-452.28645844336239
 31
0.0
  0
ARC
  8
0
  6
CONTINUOUS
 62
               3
  5
1FD
 10
-102.00000000000034
 20
41.000000000000057
 30
0.0
 40
3.0000000000000004
 50
179.99999999996527
 51
269.99999999994782
  0
LINE
  8
0
  6
CONTINUOUS
 62
               3
  5
1FE
 10
-105.00000000000034
 20
56.000000000000057
 30
0.0
 11
-105.00000000000017
 21
41.000000000000057
 31
0.0
  0
ARC
  8
0
  6
CONTINUOUS
 62
               3
  5
1FF
 10
101.99999999999983
 20
41.000000000000057
 30
0.0
 40
3.0000000000000004
 50
269.99999999994782
 51
359.99999999993037
  0
LINE
  8
0
  6
CONTINUOUS
 62
               3
  5
200
 10
104.99999999999994
 20
56.000000000000057
 30
0.0
 11
104.99999999999994
 21
41.000000000000057
 31
0.0
  0
CIRCLE
  8
0
  6
CONTINUOUS
 62
               3
  5
201
 10
-600.00000000000023
 20
-30.499999999999773
 30
0.0
 40
70.5
  0
ARC
  8
0
  6
CONTINUOUS
 62
               3
  5
202
 10
-694.73267052858887
 20
33.251073104170416
 30
0.0
 40
4.7489268958295181
 50
33.699232587266025
 51
89.999999999981981
  0
ARC
  8
0
  6
CONTINUOUS
 62
               3
  5
203
 10
-694.73267052858887
 20
33.251073104170416
 30
0.0
 40
4.7489268958295181
 50
355.25784652544939
 51
391.04292183112045
  0
LINE
  8
0
  6
CONTINUOUS
 62
               3
  5
204
 10
-643.28401844571636
 20
-107.99999999999983
 30
0.0
 11
-689.99999999999977
 21
-107.99999999999989
 31
0.0
  0
LINE
  8
0
  6
CONTINUOUS
 62
               3
  5
205
 10
-643.28401844571636
 20
-102.99999999999983
 30
0.0
 11
-689.99999999999977
 21
-102.99999999999989
 31
0.0
  0
ARC
  8
0
  6
CONTINUOUS
 62
               3
  5
206
 10
-643.28401844571636
 20
-105.49999999999983
 30
0.0
 40
2.5
 50
269.99999999994731
 51
449.99999999991297
  0
ARC
  8
0
  6
CONTINUOUS
 62
               3
  5
207
 10
-689.99999999999977
 20
-105.49999999999989
 30
0.0
 40
2.5
 50
89.999999999981569
 51
269.99999999994731
  0
LINE
  8
0
  6
CONTINUOUS
 62
               3
  5
208
 10
-689.99999999999886
 20
32.858471105004725
 30
0.0
 11
-689.99999999999977
 21
-102.99999999999989
 31
0.0
  0
LINE
  8
0
  6
CONTINUOUS
 62
               3
  5
209
 10
-689.99999999999977
 20
-107.99999999999989
 30
0.0
 11
-690.0
 21
-230.81231263320393
 31
0.0
  0
LINE
  8
0
  6
CONTINUOUS
 62
               3
  5
20A
 10
-445.00000000000142
 20
12.000000000000085
 30
0.0
 11
-445.67155612596565
 21
12.000000000000085
 31
0.0
  0
LINE
  8
0
  6
CONTINUOUS
 62
               3
  5
20B
 10
-448.00000000000153
 20
14.328443874035969
 30
0.0
 11
-445.67155612596565
 21
12.000000000000085
 31
0.0
  0
LINE
  8
0
  6
CONTINUOUS
 62
               3
  5
20C
 10
-445.00000000000142
 20
14.328443874035912
 30
0.0
 11
-442.50000000000142
 21
14.328443874035912
 31
0.0
  0
ARC
  8
0
  6
CONTINUOUS
 62
               3
  5
20D
 10
-442.50000000000142
 20
11.828443874035912
 30
0.0
 40
2.5
 50
0.0
 51
89.999999999982862
  0
LINE
  8
0
  6
CONTINUOUS
 62
               3
  5
20E
 10
-448.00000000000153
 20
14.328443874035969
 30
0.0
 11
-505.17449748351368
 21
16.325021321464163
 31
0.0
  0
ARC
  8
0
  6
CONTINUOUS
 62
               3
  5
20F
 10
-505.00000000000131
 20
21.321975456559642
 30
0.0
 40
5.0
 50
179.99999999996524
 51
267.99999999994816
  0
LINE
  8
0
  6
CONTINUOUS
 62
               3
  5
210
 10
-445.00000000000131
 20
-97.999999999999744
 30
0.0
 11
-445.67155612596565
 21
-97.999999999999744
 31
0.0
  0
LINE
  8
0
  6
CONTINUOUS
 62
               3
  5
211
 10
-448.00000000000153
 20
-100.32844387403478
 30
0.0
 11
-445.67155612596565
 21
-97.999999999999744
 31
0.0
  0
LINE
  8
0
  6
CONTINUOUS
 62
               3
  5
212
 10
-445.00000000000131
 20
-100.32844387403529
 30
0.0
 11
-442.50000000000131
 21
-100.32844387403529
 31
0.0
  0
ARC
  8
0
  6
CONTINUOUS
 62
               3
  5
213
 10
-442.50000000000131
 20
-97.828443874035287
 30
0.0
 40
2.5
 50
269.99999999994731
 51
359.99999999993048
  0
LINE
  8
0
  6
CONTINUOUS
 62
               3
  5
214
 10
-448.00000000000153
 20
-100.32844387403478
 30
0.0
 11
-495.52724022451633
 21
-101.98813167449447
 31
0.0
  0
LINE
  8
0
  6
CONTINUOUS
 62
               3
  5
215
 10
-498.8882766469365
 20
-103.44955190365727
 30
0.0
 11
-508.53553390593441
 21
-113.09680916265535
 31
0.0
  0
ARC
  8
0
  6
CONTINUOUS
 62
               3
  5
216
 10
-505.00000000000142
 20
-116.63234306858794
 30
0.0
 40
5.0
 50
134.99999999997439
 51
179.99999999996524
  0
ARC
  8
0
  6
CONTINUOUS
 62
               3
  5
217
 10
-495.35274274100374
 20
-106.98508580958998
 30
0.0
 40
5.0
 50
91.999999999982577
 51
134.99999999997448
  0
LINE
  8
0
  6
CONTINUOUS
 62
               3
  5
218
 10
-445.67155612596565
 20
12.000000000000085
 30
0.0
 11
-445.67155612596565
 21
-97.999999999999744
 31
0.0
  0
LINE
  8
0
  6
CONTINUOUS
 62
               3
  5
219
 10
-448.00000000000153
 20
-100.32844387403478
 30
0.0
 11
-448.00000000000153
 21
14.328443874035969
 31
0.0
  0
LINE
  8
0
  6
CONTINUOUS
 62
               3
  5
21A
 10
-445.00000000000131
 20
-100.32844387403529
 30
0.0
 11
-445.00000000000142
 21
14.328443874035912
 31
0.0
  0
LINE
  8
0
  6
CONTINUOUS
 62
               3
  5
21B
 10
-440.00000000000142
 20
11.828443874035912
 30
0.0
 11
-440.00000000000131
 21
-97.828443874035287
 31
0.0
  0
LINE
  8
0
  6
CONTINUOUS
 62
               3
  5
21C
 10
-510.00000000000131
 20
33.251073104170189
 30
0.0
 11
-510.00000000000131
 21
21.321975456559642
 31
0.0
  0
ARC
  8
0
  6
CONTINUOUS
 62
               3
  5
21D
 10
-505.26732947141278
 20
33.251073104170189
 30
0.0
 40
4.7489268958295181
 50
89.999999999982663
 51
146.30076741269204
  0
ARC
  8
0
  6
CONTINUOUS
 62
               3
  5
21E
 10
-505.26732947141278
 20
33.251073104170189
 30
0.0
 40
4.7489268958295181
 50
148.95707816877291
 51
179.99999999996521
  0
LINE
  8
0
  6
CONTINUOUS
 62
               3
  5
21F
 10
-556.7159815542841
 20
-107.99999999999983
 30
0.0
 11
-518.00000000000023
 21
-107.99999999999983
 31
0.0
  0
LINE
  8
0
  6
CONTINUOUS
 62
               3
  5
220
 10
-556.7159815542841
 20
-102.99999999999983
 30
0.0
 11
-518.00000000000023
 21
-102.99999999999983
 31
0.0
  0
ARC
  8
0
  6
CONTINUOUS
 62
               3
  5
221
 10
-518.00000000000023
 20
-105.49999999999983
 30
0.0
 40
2.5
 50
269.99999999994731
 51
449.99999999991297
  0
LINE
  8
0
  6
CONTINUOUS
 62
               3
  5
222
 10
512.27871216603285
 20
-250.81231263320393
 30
0.0
 11
526.72128783396693
 21
-377.57317241373113
 31
0.0
  0
LINE
  8
0
  6
CONTINUOUS
 62
               3
  5
223
 10
670.99999999999977
 20
-397.57317241373056
 30
0.0
 11
529.0
 21
-397.57317241373204
 31
0.0
  0
LINE
  8
0
  6
CONTINUOUS
 62
               3
  5
224
 10
673.27871216603262
 20
-377.57317241373113
 30
0.0
 11
526.72128783396693
 21
-377.57317241373113
 31
0.0
  0
LINE
  8
0
  6
CONTINUOUS
 62
               3
  5
225
 10
509.51750236146864
 20
-248.66166388985465
 30
0.0
 11
507.79907839522804
 21
-233.57925030681525
 31
0.0
  0
ARC
  8
0
  6
CONTINUOUS
 62
               3
  5
226
 10
510.28300803441948
 20
-233.29624227239532
 30
0.0
 40
2.5
 50
96.499999999981398
 51
186.49999999996407
  0
ARC
  8
0
  6
CONTINUOUS
 62
               3
  5
227
 10
511.9957041316128
 20
-248.32838299401243
 30
0.0
 40
2.5
 50
186.49999999996407
 51
276.49999999994685
  0
LINE
  8
0
  6
CONTINUOUS
 62
               3
  5
228
 10
526.23879019543574
 20
-395.42252367038299
 30
0.0
 11
524.52036622919513
 21
-380.34011008734336
 31
0.0
  0
ARC
  8
0
  6
CONTINUOUS
 62
               3
  5
229
 10
527.00429586838663
 20
-380.05710205292343
 30
0.0
 40
2.5
 50
96.499999999980105
 51
186.49999999996422
  0
ARC
  8
0
  6
CONTINUOUS
 62
               3
  5
22A
 10
528.71699196558006
 20
-395.08924277454054
 30
0.0
 40
2.5
 50
186.49999999996422
 51
276.49999999994822
  0
LINE
  8
0
  6
CONTINUOUS
 62
               3
  5
22B
 10
690.48249763853096
 20
-248.66166388985465
 30
0.0
 11
692.20092160477157
 21
-233.57925030681525
 31
0.0
  0
ARC
  8
0
  6
CONTINUOUS
 62
               3
  5
22C
 10
689.71699196558006
 20
-233.29624227239532
 30
0.0
 40
2.5
 50
353.49999999993179
 51
443.49999999991383
  0
ARC
  8
0
  6
CONTINUOUS
 62
               3
  5
22D
 10
688.00429586838663
 20
-248.32838299401243
 30
0.0
 40
2.5
 50
263.49999999994833
 51
353.49999999993179
  0
LINE
  8
0
  6
CONTINUOUS
 62
               3
  5
22E
 10
673.7612098045638
 20
-395.42252367038299
 30
0.0
 11
675.47963377080441
 21
-380.34011008734336
 31
0.0
  0
ARC
  8
0
  6
CONTINUOUS
 62
               3
  5
22F
 10
672.99570413161291
 20
-380.05710205292343
 30
0.0
 40
2.5
 50
353.49999999993111
 51
443.49999999991383
  0
ARC
  8
0
  6
CONTINUOUS
 62
               3
  5
230
 10
671.28300803441948
 20
-395.08924277454054
 30
0.0
 40
2.5
 50
263.49999999994833
 51
353.49999999993111
  0
LINE
  8
0
  6
CONTINUOUS
 62
               3
  5
231
 10
687.7212878339667
 20
-250.81231263320393
 30
0.0
 11
673.27871216603262
 21
-377.57317241373113
 31
0.0
  0
LINE
  8
0
  6
CONTINUOUS
 62
               3
  5
232
 10
687.7212878339667
 20
-250.81231263320393
 30
0.0
 11
512.27871216603285
 21
-250.81231263320404
 31
0.0
  0
LINE
  8
0
  6
CONTINUOUS
 62
               3
  5
233
 10
689.99999999999955
 20
-230.81231263320393
 30
0.0
 11
510.00000000000011
 21
-230.81231263320393
 31
0.0
  0
LINE
  8
0
  6
CONTINUOUS
 62
               3
  5
234
 10
510.00000000000028
 20
-116.63234306858797
 30
0.0
 11
509.99999999999972
 21
-230.81231263320279
 31
0.0
  0
LINE
  8
0
  6
CONTINUOUS
 62
               3
  5
235
 10
531.74647922241843
 20
-462.53645844336216
 30
0.0
 11
540.6602540378442
 21
-477.97556931090736
 31
0.0
  0
ARC
  8
0
  6
CONTINUOUS
 62
               3
  5
236
 10
531.99999999999977
 20
-482.97556931090736
 30
0.0
 40
10.0
 50
5.9039558494239683
 51
29.999999999992838
  0
ARC
  8
0
  6
CONTINUOUS
 62
               3
  5
237
 10
549.49999999999955
 20
-452.28645844336239
 30
0.0
 40
20.500000000000004
 50
179.99999999996513
 51
209.99999999995936
  0
LINE
  8
0
  6
CONTINUOUS
 62
               3
  5
238
 10
668.25352077758089
 20
-462.53645844336216
 30
0.0
 11
659.33974596215512
 21
-477.97556931090736
 31
0.0
  0
ARC
  8
0
  6
CONTINUOUS
 62
               3
  5
239
 10
667.99999999999977
 20
-482.97556931090736
 30
0.0
 40
10.0
 50
149.99999999997263
 51
174.09604415054162
  0
ARC
  8
0
  6
CONTINUOUS
 62
               3
  5
23A
 10
650.5
 20
-452.28645844336239
 30
0.0
 40
20.500000000000004
 50
329.99999999993634
 51
359.99999999993037
  0
LINE
  8
0
  6
CONTINUOUS
 62
               3
  5
23B
 10
654.99999999999977
 20
-583.0
 30
0.0
 11
544.99999999999977
 21
-583.0
 31
0.0
  0
LINE
  8
0
  6
CONTINUOUS
 62
               3
  5
23C
 10
542.99999999999977
 20
-580.99999999999977
 30
0.0
 11
542.99999999999977
 21
-482.99999999999989
 31
0.0
  0
LINE
  8
0
  6
CONTINUOUS
 62
               3
  5
23D
 10
656.99999999999977
 20
-580.99999999999977
 30
0.0
 11
656.99999999999977
 21
-482.99999999999989
 31
0.0
  0
LINE
  8
0
  6
CONTINUOUS
 62
               3
  5
23E
 10
542.99999999999977
 20
-482.99999999999989
 30
0.0
 11
541.94695717682634
 21
-481.94695717682629
 31
0.0
  0
LINE
  8
0
  6
CONTINUOUS
 62
               3
  5
23F
 10
656.99999999999977
 20
-482.99999999999989
 30
0.0
 11
658.05304282317297
 21
-481.94695717682634
 31
0.0
  0
LINE
  8
0
  6
CONTINUOUS
 62
               3
  5
240
 10
654.99999999999977
 20
-583.0
 30
0.0
 11
656.99999999999977
 21
-580.99999999999977
 31
0.0
  0
LINE
  8
0
  6
CONTINUOUS
 62
               3
  5
241
 10
544.99999999999977
 20
-583.0
 30
0.0
 11
542.99999999999977
 21
-580.99999999999977
 31
0.0
  0
LINE
  8
0
  6
CONTINUOUS
 62
               3
  5
242
 10
670.99999999999955
 20
-397.57317241373204
 30
0.0
 11
670.99999999999955
 21
-452.28645844336239
 31
0.0
  0
LINE
  8
0
  6
CONTINUOUS
 62
               3
  5
243
 10
528.99999999999977
 20
-397.57317241373204
 30
0.0
 11
528.99999999999977
 21
-452.28645844336239
 31
0.0
  0
ARC
  8
0
  6
CONTINUOUS
 62
               3
  5
244
 10
702.0
 20
41.000000000000057
 30
0.0
 40
3.0000000000000004
 50
269.99999999994731
 51
359.99999999993037
  0
LINE
  8
0
  6
CONTINUOUS
 62
               3
  5
245
 10
705.0
 20
56.000000000000057
 30
0.0
 11
704.99999999999977
 21
41.000000000000057
 31
0.0
  0
ARC
  8
0
  6
CONTINUOUS
 62
               3
  5
246
 10
497.99999999999983
 20
41.000000000000057
 30
0.0
 40
3.0000000000000004
 50
179.99999999996527
 51
269.99999999994731
  0
LINE
  8
0
  6
CONTINUOUS
 62
               3
  5
247
 10
701.98374363275866
 20
37.999999999999943
 30
0.0
 11
497.99999999999983
 21
38.000000000000057
 31
0.0
  0
LINE
  8
0
  6
CONTINUOUS
 62
               3
  5
248
 10
494.99999999999972
 20
56.000000000000057
 30
0.0
 11
494.99999999999972
 21
41.000000000000057
 31
0.0
  0
ARC
  8
0
  6
CONTINUOUS
 62
               3
  5
249
 10
694.73267052858841
 20
33.251073104170416
 30
0.0
 40
4.7489268958295181
 50
89.999999999981981
 51
146.30076741269909
  0
ARC
  8
0
  6
CONTINUOUS
 62
               3
  5
24A
 10
694.73267052858841
 20
33.251073104170416
 30
0.0
 40
4.7489268958295181
 50
148.95707816877501
 51
184.74215347444624
  0
LINE
  8
0
  6
CONTINUOUS
 62
               3
  5
24B
 10
517.99999999999977
 20
-107.99999999999967
 30
0.0
 11
689.99999999999932
 21
-107.99999999999989
 31
0.0
  0
LINE
  8
0
  6
CONTINUOUS
 62
               3
  5
24C
 10
517.99999999999977
 20
-102.99999999999967
 30
0.0
 11
689.99999999999932
 21
-102.99999999999989
 31
0.0
  0
ARC
  8
0
  6
CONTINUOUS
 62
               3
  5
24D
 10
689.99999999999932
 20
-105.49999999999989
 30
0.0
 40
2.5
 50
269.99999999994731
 51
449.99999999991297
  0
LINE
  8
0
  6
CONTINUOUS
 62
               3
  5
24E
 10
689.99999999999841
 20
32.858471105004725
 30
0.0
 11
689.99999999999932
 21
-102.99999999999989
 31
0.0
  0
LINE
  8
0
  6
CONTINUOUS
 62
               3
  5
24F
 10
689.99999999999932
 20
-107.99999999999989
 30
0.0
 11
689.99999999999955
 21
-230.81231263320393
 31
0.0
  0
LINE
  8
0
  6
CONTINUOUS
 62
               3
  5
250
 10
445.00000000000108
 20
12.000000000000085
 30
0.0
 11
445.67155612596531
 21
12.000000000000085
 31
0.0
  0
LINE
  8
0
  6
CONTINUOUS
 62
               3
  5
251
 10
448.00000000000119
 20
14.328443874035969
 30
0.0
 11
445.67155612596531
 21
12.000000000000085
 31
0.0
  0
LINE
  8
0
  6
CONTINUOUS
 62
               3
  5
252
 10
445.00000000000108
 20
14.328443874035912
 30
0.0
 11
442.50000000000108
 21
14.328443874035912
 31
0.0
  0
ARC
  8
0
  6
CONTINUOUS
 62
               3
  5
253
 10
442.50000000000108
 20
11.828443874035912
 30
0.0
 40
2.5
 50
89.999999999982862
 51
179.99999999996524
  0
LINE
  8
0
  6
CONTINUOUS
 62
               3
  5
254
 10
448.00000000000119
 20
14.328443874035969
 30
0.0
 11
505.17449748351333
 21
16.325021321464163
 31
0.0
  0
ARC
  8
0
  6
CONTINUOUS
 62
               3
  5
255
 10
505.00000000000097
 20
21.321975456559642
 30
0.0
 40
5.0
 50
271.99999999994765
 51
359.99999999993031
  0
LINE
  8
0
  6
CONTINUOUS
 62
               3
  5
256
 10
445.00000000000097
 20
-97.999999999999744
 30
0.0
 11
445.67155612596531
 21
-97.999999999999744
 31
0.0
  0
LINE
  8
0
  6
CONTINUOUS
 62
               3
  5
257
 10
448.00000000000119
 20
-100.32844387403478
 30
0.0
 11
445.67155612596531
 21
-97.999999999999744
 31
0.0
  0
LINE
  8
0
  6
CONTINUOUS
 62
               3
  5
258
 10
445.00000000000097
 20
-100.32844387403529
 30
0.0
 11
442.50000000000097
 21
-100.32844387403529
 31
0.0
  0
ARC
  8
0
  6
CONTINUOUS
 62
               3
  5
259
 10
442.50000000000097
 20
-97.828443874035287
 30
0.0
 40
2.5
 50
179.99999999996507
 51
269.99999999994731
  0
LINE
  8
0
  6
CONTINUOUS
 62
               3
  5
25A
 10
448.00000000000119
 20
-100.32844387403478
 30
0.0
 11
495.52724022451599
 21
-101.98813167449447
 31
0.0
  0
LINE
  8
0
  6
CONTINUOUS
 62
               3
  5
25B
 10
498.88827664693616
 20
-103.44955190365727
 30
0.0
 11
508.53553390593407
 21
-113.09680916265535
 31
0.0
  0
ARC
  8
0
  6
CONTINUOUS
 62
               3
  5
25C
 10
505.00000000000108
 20
-116.63234306858794
 30
0.0
 40
5.0
 50
359.99999999993031
 51
404.99999999992122
  0
ARC
  8
0
  6
CONTINUOUS
 62
               3
  5
25D
 10
495.3527427410034
 20
-106.98508580958998
 30
0.0
 40
5.0
 50
44.999999999990457
 51
87.999999999982478
  0
LINE
  8
0
  6
CONTINUOUS
 62
               3
  5
25E
 10
445.67155612596531
 20
12.000000000000085
 30
0.0
 11
445.67155612596531
 21
-97.999999999999744
 31
0.0
  0
LINE
  8
0
  6
CONTINUOUS
 62
               3
  5
25F
 10
448.00000000000119
 20
-100.32844387403478
 30
0.0
 11
448.00000000000119
 21
14.328443874035969
 31
0.0
  0
LINE
  8
0
  6
CONTINUOUS
 62
               3
  5
260
 10
445.00000000000097
 20
-100.32844387403529
 30
0.0
 11
445.00000000000108
 21
14.328443874035912
 31
0.0
  0
LINE
  8
0
  6
CONTINUOUS
 62
               3
  5
261
 10
440.00000000000108
 20
11.828443874035912
 30
0.0
 11
440.00000000000097
 21
-97.828443874035287
 31
0.0
  0
LINE
  8
0
  6
CONTINUOUS
 62
               3
  5
262
 10
510.00000000000097
 20
33.251073104170189
 30
0.0
 11
510.00000000000097
 21
21.321975456559642
 31
0.0
  0
ARC
  8
0
  6
CONTINUOUS
 62
               3
  5
263
 10
505.26732947141244
 20
33.251073104170189
 30
0.0
 40
4.7489268958295181
 50
33.699232587273137
 51
89.999999999982663
  0
ARC
  8
0
  6
CONTINUOUS
 62
               3
  5
264
 10
505.26732947141244
 20
33.251073104170189
 30
0.0
 40
4.7489268958295181
 50
359.99999999993042
 51
391.0429218311229
  0
ARC
  8
0
  6
CONTINUOUS
 62
               3
  5
265
 10
517.99999999999977
 20
-105.49999999999983
 30
0.0
 40
2.5
 50
89.999999999981569
 51
269.99999999994731
  0
CIRCLE
  8
0
  6
CONTINUOUS
 62
               3
  5
266
 10
-0.0000000000001705
 20
-42.999999999999943
 30
0.0
 40
57.5
  0
LINE
  8
0
  6
CONTINUOUS
 62
               3
  5
267
 10
-10.000000000000171
 20
20.666252333193313
 30
0.0
 11
-10.000000000000171
 21
32.999999999999943
 31
0.0
  0
LINE
  8
0
  6
CONTINUOUS
 62
               3
  5
268
 10
9.9999999999998295
 20
32.999999999999943
 30
0.0
 11
9.9999999999998295
 21
20.666252333193313
 31
0.0
  0
ARC
  8
0
  6
CONTINUOUS
 62
               3
  5
269
 10
-15.000000000000171
 20
20.666252333193313
 30
0.0
 40
5.0
 50
283.34236379703344
 51
359.99999999993037
  0
ARC
  8
0
  6
CONTINUOUS
 62
               3
  5
26A
 10
14.999999999999829
 20
20.666252333193313
 30
0.0
 40
5.0
 50
179.99999999996524
 51
256.65763620286214
  0
ARC
  8
0
  6
CONTINUOUS
 62
               3
  5
26B
 10
-15.000000000000171
 20
32.999999999999943
 30
0.0
 40
5.0
 50
0.0
 51
89.999999999982592
  0
ARC
  8
0
  6
CONTINUOUS
 62
               3
  5
26C
 10
14.999999999999829
 20
32.999999999999943
 30
0.0
 40
5.0
 50
89.999999999982592
 51
179.99999999996524
  0
LINE
  8
0
  6
CONTINUOUS
 62
               3
  5
26D
 10
-15.000000000000171
 20
37.999999999999993
 30
0.0
 11
-102.00000000000034
 21
37.999999999999943
 31
0.0
  0
LINE
  8
0
  6
CONTINUOUS
 62
               3
  5
26E
 10
101.99999999999983
 20
38.000000000000057
 30
0.0
 11
14.999999999999829
 21
38.000000000000007
 31
0.0
  0
LINE
  8
0
  6
CONTINUOUS
 62
               3
  5
26F
 10
-43.284018445716299
 20
-102.5
 30
0.0
 11
-82.000000000000171
 21
-102.5
 31
0.0
  0
LINE
  8
0
  6
CONTINUOUS
 62
               3
  5
270
 10
-43.284018445716299
 20
-107.5
 30
0.0
 11
-82.000000000000171
 21
-107.5
 31
0.0
  0
ARC
  8
0
  6
CONTINUOUS
 62
               3
  5
271
 10
-43.284018445716299
 20
-105.0
 30
0.0
 40
2.5
 50
269.99999999994782
 51
449.99999999991297
  0
ARC
  8
0
  6
CONTINUOUS
 62
               3
  5
272
 10
43.284018445715958
 20
-105.0
 30
0.0
 40
2.5
 50
89.999999999982535
 51
269.99999999994782
  0
LINE
  8
0
  6
CONTINUOUS
 62
               3
  5
273
 10
43.284018445715958
 20
-107.5
 30
0.0
 11
89.999999999999375
 21
-107.50000000000006
 31
0.0
  0
LINE
  8
0
  6
CONTINUOUS
 62
               3
  5
274
 10
43.284018445715958
 20
-102.5
 30
0.0
 11
89.999999999999375
 21
-102.50000000000006
 31
0.0
  0
LINE
  8
0
  6
CONTINUOUS
 62
               3
  5
275
 10
-499.49999999999983
 20
64.000000000000142
 30
0.0
 11
-499.49999999999983
 21
56.000000000000199
 31
0.0
  0
LINE
  8
0
  6
CONTINUOUS
 62
               3
  5
276
 10
-700.49999999999977
 20
56.000000000000313
 30
0.0
 11
-700.49999999999977
 21
64.000000000000313
 31
0.0
  0
LINE
  8
0
  6
CONTINUOUS
 62
               3
  5
277
 10
-696.99999999999977
 20
57.500000000000142
 30
0.0
 11
-666.99999999999977
 21
57.500000000000142
 31
0.0
  0
LINE
  8
0
  6
CONTINUOUS
 62
               3
  5
278
 10
-696.99999999999977
 20
57.500000000000142
 30
0.0
 11
-697.49999999999977
 21
56.000000000000199
 31
0.0
  0
LINE
  8
0
  6
CONTINUOUS
 62
               3
  5
279
 10
-666.99999999999977
 20
57.500000000000142
 30
0.0
 11
-665.49999999999977
 21
56.000000000000199
 31
0.0
  0
LINE
  8
0
  6
CONTINUOUS
 62
               3
  5
27A
 10
-697.49999999999977
 20
56.000000000000199
 30
0.0
 11
-705.0
 21
56.000000000000199
 31
0.0
  0
LINE
  8
0
  6
CONTINUOUS
 62
               3
  5
27B
 10
-502.99999999999972
 20
57.500000000000028
 30
0.0
 11
-532.99999999999977
 21
57.500000000000028
 31
0.0
  0
LINE
  8
0
  6
CONTINUOUS
 62
               3
  5
27C
 10
-502.99999999999972
 20
57.500000000000028
 30
0.0
 11
-502.49999999999994
 21
56.000000000000028
 31
0.0
  0
LINE
  8
0
  6
CONTINUOUS
 62
               3
  5
27D
 10
-532.99999999999977
 20
57.500000000000028
 30
0.0
 11
-534.49999999999977
 21
56.000000000000142
 31
0.0
  0
LINE
  8
0
  6
CONTINUOUS
 62
               3
  5
27E
 10
-502.49999999999994
 20
56.000000000000028
 30
0.0
 11
-494.9999999999996
 21
56.000000000000028
 31
0.0
  0
LINE
  8
0
  6
CONTINUOUS
 62
               3
  5
27F
 10
-534.49999999999977
 20
56.000000000000142
 30
0.0
 11
-665.49999999999977
 21
56.000000000000199
 31
0.0
  0
LINE
  8
0
  6
CONTINUOUS
 62
               3
  5
280
 10
100.50000000000017
 20
64.000000000000142
 30
0.0
 11
100.50000000000017
 21
56.000000000000199
 31
0.0
  0
LINE
  8
0
  6
CONTINUOUS
 62
               3
  5
281
 10
-100.49999999999983
 20
56.000000000000313
 30
0.0
 11
-100.49999999999983
 21
64.000000000000313
 31
0.0
  0
LINE
  8
0
  6
CONTINUOUS
 62
               3
  5
282
 10
-96.999999999999829
 20
57.500000000000142
 30
0.0
 11
-66.999999999999829
 21
57.500000000000142
 31
0.0
  0
LINE
  8
0
  6
CONTINUOUS
 62
               3
  5
283
 10
-96.999999999999829
 20
57.500000000000142
 30
0.0
 11
-97.499999999999829
 21
56.000000000000199
 31
0.0
  0
LINE
  8
0
  6
CONTINUOUS
 62
               3
  5
284
 10
-66.999999999999829
 20
57.500000000000142
 30
0.0
 11
-65.499999999999829
 21
56.000000000000199
 31
0.0
  0
LINE
  8
0
  6
CONTINUOUS
 62
               3
  5
285
 10
-97.499999999999829
 20
56.000000000000199
 30
0.0
 11
-105.00000000000006
 21
56.000000000000199
 31
0.0
  0
LINE
  8
0
  6
CONTINUOUS
 62
               3
  5
286
 10
97.000000000000284
 20
57.500000000000028
 30
0.0
 11
67.000000000000284
 21
57.500000000000028
 31
0.0
  0
LINE
  8
0
  6
CONTINUOUS
 62
               3
  5
287
 10
97.000000000000284
 20
57.500000000000028
 30
0.0
 11
97.500000000000057
 21
56.000000000000028
 31
0.0
  0
LINE
  8
0
  6
CONTINUOUS
 62
               3
  5
288
 10
67.000000000000284
 20
57.500000000000028
 30
0.0
 11
65.500000000000171
 21
56.000000000000142
 31
0.0
  0
LINE
  8
0
  6
CONTINUOUS
 62
               3
  5
289
 10
97.500000000000057
 20
56.000000000000028
 30
0.0
 11
105.0000000000004
 21
56.000000000000028
 31
0.0
  0
LINE
  8
0
  6
CONTINUOUS
 62
               3
  5
28A
 10
65.500000000000171
 20
56.000000000000142
 30
0.0
 11
-65.499999999999829
 21
56.000000000000199
 31
0.0
  0
LINE
  8
0
  6
CONTINUOUS
 62
               3
  5
28B
 10
700.50000000000023
 20
64.000000000000142
 30
0.0
 11
700.50000000000023
 21
56.000000000000199
 31
0.0
  0
LINE
  8
0
  6
CONTINUOUS
 62
               3
  5
28C
 10
499.50000000000017
 20
56.000000000000313
 30
0.0
 11
499.50000000000017
 21
64.000000000000313
 31
0.0
  0
LINE
  8
0
  6
CONTINUOUS
 62
               3
  5
28D
 10
503.00000000000017
 20
57.500000000000142
 30
0.0
 11
533.00000000000023
 21
57.500000000000142
 31
0.0
  0
LINE
  8
0
  6
CONTINUOUS
 62
               3
  5
28E
 10
503.00000000000017
 20
57.500000000000142
 30
0.0
 11
502.50000000000017
 21
56.000000000000199
 31
0.0
  0
LINE
  8
0
  6
CONTINUOUS
 62
               3
  5
28F
 10
533.00000000000023
 20
57.500000000000142
 30
0.0
 11
534.50000000000023
 21
56.000000000000199
 31
0.0
  0
LINE
  8
0
  6
CONTINUOUS
 62
               3
  5
290
 10
502.50000000000017
 20
56.000000000000199
 30
0.0
 11
494.99999999999994
 21
56.000000000000199
 31
0.0
  0
LINE
  8
0
  6
CONTINUOUS
 62
               3
  5
291
 10
697.00000000000023
 20
57.500000000000028
 30
0.0
 11
667.00000000000023
 21
57.500000000000028
 31
0.0
  0
LINE
  8
0
  6
CONTINUOUS
 62
               3
  5
292
 10
697.00000000000023
 20
57.500000000000028
 30
0.0
 11
697.5
 21
56.000000000000028
 31
0.0
  0
LINE
  8
0
  6
CONTINUOUS
 62
               3
  5
293
 10
667.00000000000023
 20
57.500000000000028
 30
0.0
 11
665.50000000000023
 21
56.000000000000142
 31
0.0
  0
LINE
  8
0
  6
CONTINUOUS
 62
               3
  5
294
 10
697.5
 20
56.000000000000028
 30
0.0
 11
705.00000000000045
 21
56.000000000000028
 31
0.0
  0
LINE
  8
0
  6
CONTINUOUS
 62
               3
  5
295
 10
665.50000000000023
 20
56.000000000000142
 30
0.0
 11
534.50000000000023
 21
56.000000000000199
 31
0.0
  0
ARC
  8
0
  6
CONTINUOUS
 62
               3
  5
296
 10
-77.781745930520259
 20
555.78174593051995
 30
0.0
 40
17.5
 50
97.698209707834295
 51
172.30179029211342
  0
ARC
  8
0
  6
CONTINUOUS
 62
               3
  5
297
 10
77.781745930520103
 20
555.78174593051995
 30
0.0
 40
17.5
 50
7.6982097078516123
 51
82.30179029213096
  0
LINE
  8
0
  6
CONTINUOUS
 62
               3
  5
298
 10
104.05367551208772
 20
492.06529816339224
 30
0.0
 11
95.124025182534695
 21
558.12596229108522
 31
0.0
  0
ARC
  8
0
  6
CONTINUOUS
 62
               3
  5
299
 10
-77.781745930520259
 20
400.21825406947966
 30
0.0
 40
17.5
 50
187.69820970781683
 51
262.3017902920962
  0
LINE
  8
0
  6
CONTINUOUS
 62
               3
  5
29A
 10
-80.125962291085642
 20
382.87597481746508
 30
0.0
 11
-14.065298163392406
 21
373.94632448791225
 31
0.0
  0
ARC
  8
0
  6
CONTINUOUS
 62
               3
  5
29B
 10
77.781745930520103
 20
400.21825406947966
 30
0.0
 40
17.5
 50
277.69820970779944
 51
352.30179029207886
  0
LINE
  8
0
  6
CONTINUOUS
 62
               3
  5
29C
 10
80.125962291085344
 20
382.87597481746508
 30
0.0
 11
14.065298163392121
 21
373.94632448791225
 31
0.0
  0
LINE
  8
0
  6
CONTINUOUS
 62
               3
  5
29D
 10
104.05367551208772
 20
463.9347018366073
 30
0.0
 11
95.124025182534695
 21
397.87403770891427
 31
0.0
  0
ARC
  8
0
  6
CONTINUOUS
 62
               3
  5
29E
 10
-0.0000000000001067
 20
477.99999999999994
 30
0.0
 40
105.0
 50
262.30179029209626
 51
277.69820970779938
  0
ARC
  8
0
  6
CONTINUOUS
 62
               3
  5
29F
 10
-0.0000000000001067
 20
477.99999999999994
 30
0.0
 40
105.0
 50
352.30179029207875
 51
367.69820970778204
  0
LINE
  8
0
  6
CONTINUOUS
 62
               3
  5
2A0
 10
-96.229529997969195
 20
549.94754772738747
 30
0.0
 11
-95.124025182534922
 21
558.12596229108522
 31
0.0
  0
LINE
  8
0
  6
CONTINUOUS
 62
               3
  5
2A1
 10
-96.229529997969195
 20
549.94754772738747
 30
0.0
 11
-104.05367551208795
 21
492.06529816339224
 31
0.0
  0
ARC
  8
0
  6
CONTINUOUS
 62
               3
  5
2A2
 10
-0.0000000000001067
 20
477.99999999999994
 30
0.0
 40
105.0
 50
172.30179029211342
 51
187.69820970781697
  0
LINE
  8
0
  6
CONTINUOUS
 62
               3
  5
2A3
 10
-96.229607097849595
 20
406.05302264985261
 30
0.0
 11
-95.124025182534922
 21
397.87403770891427
 31
0.0
  0
LINE
  8
0
  6
CONTINUOUS
 62
               3
  5
2A4
 10
-104.05367551208795
 20
463.9347018366073
 30
0.0
 11
-96.229607097849595
 21
406.05302264985261
 31
0.0
  0
LINE
  8
0
  6
CONTINUOUS
 62
               3
  5
2A5
 10
-59.388263356383639
 20
575.92721226173921
 30
0.0
 11
-14.065298163392406
 21
582.05367551208769
 31
0.0
  0
LINE
  8
0
  6
CONTINUOUS
 62
               3
  5
2A6
 10
-80.125962291085642
 20
573.12402518253475
 30
0.0
 11
-59.388263356383639
 21
575.92721226173921
 31
0.0
  0
ARC
  8
0
  6
CONTINUOUS
 62
               3
  5
2A7
 10
-0.0000000000001067
 20
477.99999999999994
 30
0.0
 40
105.0
 50
82.30179029213096
 51
97.698209707834224
  0
LINE
  8
0
  6
CONTINUOUS
 62
               3
  5
2A8
 10
14.065298163392121
 20
582.05367551208769
 30
0.0
 11
59.278057624589913
 21
575.94210915480289
 31
0.0
  0
LINE
  8
0
  6
CONTINUOUS
 62
               3
  5
2A9
 10
80.125962291085344
 20
573.12402518253475
 30
0.0
 11
59.278057624589913
 21
575.94210915480289
 31
0.0
  0
LINE
  8
0
  6
CONTINUOUS
 62
               3
  5
2AA
 10
-83.792153570605706
 20
561.79215357060525
 30
0.0
 11
-93.377298326945748
 21
552.20700881426524
 31
0.0
  0
CIRCLE
  8
0
  6
CONTINUOUS
 62
               3
  5
2AB
 10
-77.781745930520259
 20
555.78174593051995
 30
0.0
 40
8.5
  0
ARC
  8
0
  6
CONTINUOUS
 62
               3
  5
2AC
 10
-77.781745930519691
 20
555.78174593052063
 30
0.0
 40
16.000000000000014
 50
192.91004874368397
 51
257.08995125623147
  0
LINE
  8
0
  6
CONTINUOUS
 62
               3
  5
2AD
 10
-81.356483046774144
 20
540.1861935340944
 30
0.0
 11
-71.771338290434457
 21
549.77133829043396
 31
0.0
  0
LINE
  8
0
  6
CONTINUOUS
 62
               3
  5
2AE
 10
74.207008814266374
 20
571.37729832694549
 30
0.0
 11
83.792153570606061
 21
561.79215357060593
 31
0.0
  0
CIRCLE
  8
0
  6
CONTINUOUS
 62
               3
  5
2AF
 10
77.781745930520259
 20
555.78174593051995
 30
0.0
 40
8.5
  0
ARC
  8
0
  6
CONTINUOUS
 62
               3
  5
2B0
 10
77.781745930520827
 20
555.78174593051926
 30
0.0
 40
16.000000000000014
 50
102.91004874369884
 51
167.08995125624668
  0
LINE
  8
0
  6
CONTINUOUS
 62
               3
  5
2B1
 10
71.771338290434812
 20
549.77133829043464
 30
0.0
 11
62.18619353409477
 21
559.35648304677466
 31
0.0
  0
LINE
  8
0
  6
CONTINUOUS
 62
               3
  5
2B2
 10
81.356483046773988
 20
415.81380646590509
 30
0.0
 11
71.771338290434301
 21
406.22866170956542
 31
0.0
  0
LINE
  8
0
  6
CONTINUOUS
 62
               3
  5
2B3
 10
83.792153570605549
 20
394.20784642939412
 30
0.0
 11
93.377298326945592
 21
403.79299118573414
 31
0.0
  0
CIRCLE
  8
0
  6
CONTINUOUS
 62
               3
  5
2B4
 10
77.781745930520103
 20
400.21825406947966
 30
0.0
 40
8.5
  0
ARC
  8
0
  6
CONTINUOUS
 62
               3
  5
2B5
 10
77.781745930519534
 20
400.21825406947886
 30
0.0
 40
16.000000000000014
 50
12.910048743718656
 51
77.08995125626636
  0
LINE
  8
0
  6
CONTINUOUS
 62
               3
  5
2B6
 10
-74.207008814266601
 20
384.62270167305445
 30
0.0
 11
-83.792153570606288
 21
394.20784642939412
 31
0.0
  0
LINE
  8
0
  6
CONTINUOUS
 62
               3
  5
2B7
 10
-71.77133829043504
 20
406.22866170956542
 30
0.0
 11
-62.18619353409499
 21
396.6435169532254
 31
0.0
  0
CIRCLE
  8
0
  6
CONTINUOUS
 62
               3
  5
2B8
 10
-77.781745930520486
 20
400.21825406947988
 30
0.0
 40
8.5
  0
ARC
  8
0
  6
CONTINUOUS
 62
               3
  5
2B9
 10
-77.781745930521055
 20
400.21825406948068
 30
0.0
 40
16.000000000000014
 50
282.91004874366399
 51
347.0899512562118
  0
CIRCLE
  8
0
  6
CONTINUOUS
 62
               3
  5
2BA
 10
609.28652321630773
 20
-946.96375990939941
 30
0.0
 40
75.0
  0
CIRCLE
  8
0
  6
CONTINUOUS
 62
               3
  5
2BB
 10
609.28652321630773
 20
-946.96375990939941
 30
0.0
 40
52.5
  0
LINE
  8
0
  6
CONTINUOUS
 62
               3
  5
2BC
 10
523.07602501568249
 20
-926.96375990939941
 30
0.0
 11
537.00236174230247
 21
-926.96375990939941
 31
0.0
  0
LINE
  8
0
  6
CONTINUOUS
 62
               3
  5
2BD
 10
537.00236174230247
 20
-966.96375990939941
 30
0.0
 11
523.07602501568249
 21
-966.96375990939941
 31
0.0
  0
ARC
  8
0
  6
CONTINUOUS
 62
               3
  5
2BE
 10
609.28652321630773
 20
-946.96375990939941
 30
0.0
 40
88.5
 50
166.93897588510336
 51
193.06102411468945
  0
LINE
  8
0
  6
CONTINUOUS
 62
               3
  5
2BF
 10
589.28652321630773
 20
-1033.1742581100243
 30
0.0
 11
589.28652321630773
 21
-1019.2479213834044
 31
0.0
  0
LINE
  8
0
  6
CONTINUOUS
 62
               3
  5
2C0
 10
629.28652321630773
 20
-1019.2479213834044
 30
0.0
 11
629.28652321630773
 21
-1033.1742581100243
 31
0.0
  0
ARC
  8
0
  6
CONTINUOUS
 62
               3
  5
2C1
 10
609.28652321630773
 20
-946.96375990939941
 30
0.0
 40
88.5
 50
256.93897588505166
 51
283.06102411463769
  0
LINE
  8
0
  6
CONTINUOUS
 62
               3
  5
2C2
 10
695.4970214169324
 20
-966.96375990939941
 30
0.0
 11
681.57068469031208
 21
-966.96375990939941
 31
0.0
  0
LINE
  8
0
  6
CONTINUOUS
 62
               3
  5
2C3
 10
681.57068469031208
 20
-926.96375990939941
 30
0.0
 11
695.4970214169324
 21
-926.96375990939941
 31
0.0
  0
ARC
  8
0
  6
CONTINUOUS
 62
               3
  5
2C4
 10
609.28652321630773
 20
-946.96375990939941
 30
0.0
 40
88.5
 50
346.93897588499982
 51
373.06102411458585
  0
LINE
  8
0
  6
CONTINUOUS
 62
               3
  5
2C5
 10
629.28652321630773
 20
-860.75326170877383
 30
0.0
 11
629.28652321630773
 21
-874.67959843539438
 31
0.0
  0
LINE
  8
0
  6
CONTINUOUS
 62
               3
  5
2C6
 10
589.28652321630773
 20
-874.67959843539438
 30
0.0
 11
589.28652321630773
 21
-860.75326170877383
 31
0.0
  0
ARC
  8
0
  6
CONTINUOUS
 62
               3
  5
2C7
 10
609.28652321630773
 20
-946.96375990939941
 30
0.0
 40
88.5
 50
76.938975885155216
 51
103.06102411474124
  0
LINE
  8
0
  6
CONTINUOUS
 62
               3
  5
2C8
 10
561.61839969544678
 20
-968.96375990939987
 30
0.0
 11
656.95464673716776
 21
-968.96375990939987
 31
0.0
  0
ARC
  8
0
  6
CONTINUOUS
 62
               3
  5
2C9
 10
621.79013486568886
 20
-938.25736228178039
 30
0.0
 40
54.763804151667173
 50
141.3859176367566
 51
145.15009542087031
  0
ARC
  8
0
  6
CONTINUOUS
 62
               3
  5
2CA
 10
609.28652321630773
 20
-946.96375990939941
 30
0.0
 40
51.5
 50
334.71098847326505
 51
410.95932736340404
  0
ARC
  8
0
  6
CONTINUOUS
 62
               3
  5
2CB
 10
609.28652321630773
 20
-946.96375990939941
 30
0.0
 40
51.5
 50
129.04067263628559
 51
205.28901152642416
  0
ARC
  8
0
  6
CONTINUOUS
 62
               3
  5
2CC
 10
609.28652321630773
 20
-946.96375990939941
 30
0.0
 40
77.5
 50
104.95524831658298
 51
128.57288309095932
  0
ARC
  8
0
  6
CONTINUOUS
 62
               3
  5
2CD
 10
609.28652321630773
 20
-946.96375990939941
 30
0.0
 40
77.5
 50
14.9552483166347
 51
75.044751683313535
  0
ARC
  8
0
  6
CONTINUOUS
 62
               3
  5
2CE
 10
609.28652321630773
 20
-946.96375990939941
 30
0.0
 40
77.5
 50
321.42711690878122
 51
345.04475168315804
  0
LINE
  8
0
  6
CONTINUOUS
 62
               3
  5
2CF
 10
469.28652321630767
 20
-1001.9637599093994
 30
0.0
 11
469.9580793422719
 21
-1001.9637599093994
 31
0.0
  0
LINE
  8
0
  6
CONTINUOUS
 62
               3
  5
2D0
 10
472.45807934227236
 20
-1004.4637599093994
 30
0.0
 11
469.9580793422719
 21
-1001.9637599093994
 31
0.0
  0
LINE
  8
0
  6
CONTINUOUS
 62
               3
  5
2D1
 10
469.28652321630767
 20
-891.96375990939941
 30
0.0
 11
469.9580793422719
 21
-891.96375990939941
 31
0.0
  0
LINE
  8
0
  6
CONTINUOUS
 62
               3
  5
2D2
 10
472.4580793422719
 20
-889.46375990939941
 30
0.0
 11
469.9580793422719
 21
-891.96375990939941
 31
0.0
  0
LINE
  8
0
  6
CONTINUOUS
 62
               3
  5
2D3
 10
469.9580793422719
 20
-891.96375990939941
 30
0.0
 11
469.9580793422719
 21
-1001.9637599093994
 31
0.0
  0
LINE
  8
0
  6
CONTINUOUS
 62
               3
  5
2D4
 10
563.79618742992977
 20
-886.27416289105781
 30
0.0
 11
472.4580793422719
 21
-889.46375990939941
 31
0.0
  0
LINE
  8
0
  6
CONTINUOUS
 62
               3
  5
2D5
 10
544.4500514997568
 20
-1006.9777749743671
 30
0.0
 11
472.45807934227247
 21
-1004.4637599093994
 31
0.0
  0
LINE
  8
0
  6
CONTINUOUS
 62
               3
  5
2D6
 10
464.28652321630767
 20
-892.13531603536353
 30
0.0
 11
464.28652321630767
 21
-1002.0637599093993
 31
0.0
  0
LINE
  8
0
  6
CONTINUOUS
 62
               3
  5
2D7
 10
469.28652321630767
 20
-1004.5637599093993
 30
0.0
 11
469.28652321630767
 21
-889.36375990939939
 31
0.0
  0
LINE
  8
0
  6
CONTINUOUS
 62
               3
  5
2D8
 10
469.28652321630767
 20
-889.36375990939939
 30
0.0
 11
466.78652321630767
 21
-889.36375990939939
 31
0.0
  0
LINE
  8
0
  6
CONTINUOUS
 62
               3
  5
2D9
 10
469.28652321630767
 20
-1004.5637599093993
 30
0.0
 11
466.78652321630767
 21
-1004.5637599093993
 31
0.0
  0
ARC
  8
0
  6
CONTINUOUS
 62
               3
  5
2DA
 10
466.78652321630767
 20
-1002.0637599093993
 30
0.0
 40
2.5
 50
179.99999999989538
 51
269.99999999984436
  0
ARC
  8
0
  6
CONTINUOUS
 62
               3
  5
2DB
 10
466.78652321630767
 20
-891.86375990939939
 30
0.0
 40
2.5
 50
89.999999999948997
 51
179.99999999989538
  0
LINE
  8
0
  6
CONTINUOUS
 62
               3
  5
2DC
 10
576.84812004969024
 20
-906.96375990939964
 30
0.0
 11
609.28652321630773
 21
-906.96375990939964
 31
0.0
  0
LINE
  8
0
  6
CONTINUOUS
 62
               3
  5
2DD
 10
609.28652321630773
 20
-906.96375990939964
 30
0.0
 11
643.29019948814641
 21
-906.96375990939964
 31
0.0
  0
LINE
  8
0
  6
CONTINUOUS
 62
               3
  5
2DE
 10
472.45807934227236
 20
-1004.4637599093994
 30
0.0
 11
472.4580793422719
 21
-889.46375990939941
 31
0.0
  0
ARC
  8
0
  6
CONTINUOUS
 62
               3
  5
2DF
 10
563.6216899464174
 20
-881.27720875596231
 30
0.0
 40
5.0
 50
271.99999999984402
 51
304.806757870252
  0
LINE
  8
0
  6
CONTINUOUS
 62
               3
  5
2E0
 10
664.28652321630773
 20
-1086.9637599093994
 30
0.0
 11
664.28652321630773
 21
-1086.2922037834351
 31
0.0
  0
LINE
  8
0
  6
CONTINUOUS
 62
               3
  5
2E1
 10
666.78652321630773
 20
-1083.7922037834346
 30
0.0
 11
664.28652321630773
 21
-1086.2922037834351
 31
0.0
  0
LINE
  8
0
  6
CONTINUOUS
 62
               3
  5
2E2
 10
554.28652321630773
 20
-1086.9637599093994
 30
0.0
 11
554.28652321630773
 21
-1086.2922037834351
 31
0.0
  0
LINE
  8
0
  6
CONTINUOUS
 62
               3
  5
2E3
 10
551.78652321630773
 20
-1083.7922037834351
 30
0.0
 11
554.28652321630773
 21
-1086.2922037834351
 31
0.0
  0
LINE
  8
0
  6
CONTINUOUS
 62
               3
  5
2E4
 10
554.28652321630773
 20
-1086.2922037834351
 30
0.0
 11
664.28652321630773
 21
-1086.2922037834351
 31
0.0
  0
LINE
  8
0
  6
CONTINUOUS
 62
               3
  5
2E5
 10
554.45807934227184
 20
-1091.9637599093994
 30
0.0
 11
664.38652321630764
 21
-1091.9637599093994
 31
0.0
  0
LINE
  8
0
  6
CONTINUOUS
 62
               3
  5
2E6
 10
666.88652321630764
 20
-1086.9637599093994
 30
0.0
 11
551.68652321630759
 21
-1086.9637599093994
 31
0.0
  0
LINE
  8
0
  6
CONTINUOUS
 62
               3
  5
2E7
 10
551.68652321630759
 20
-1086.9637599093994
 30
0.0
 11
551.68652321630759
 21
-1089.4637599093994
 31
0.0
  0
LINE
  8
0
  6
CONTINUOUS
 62
               3
  5
2E8
 10
666.88652321630764
 20
-1086.9637599093994
 30
0.0
 11
666.88652321630764
 21
-1089.4637599093994
 31
0.0
  0
ARC
  8
0
  6
CONTINUOUS
 62
               3
  5
2E9
 10
664.38652321630764
 20
-1089.4637599093994
 30
0.0
 40
2.5
 50
269.99999999984567
 51
359.99999999979076
  0
ARC
  8
0
  6
CONTINUOUS
 62
               3
  5
2EA
 10
554.18652321630759
 20
-1089.4637599093994
 30
0.0
 40
2.5
 50
179.99999999989538
 51
269.99999999984567
  0
LINE
  8
0
  6
CONTINUOUS
 62
               3
  5
2EB
 10
666.78652321630773
 20
-1083.7922037834346
 30
0.0
 11
551.78652321630773
 21
-1083.7922037834351
 31
0.0
  0
LINE
  8
0
  6
CONTINUOUS
 62
               3
  5
2EC
 10
669.97612023464887
 20
-992.45409569577805
 30
0.0
 11
666.78652321630773
 21
-1083.7922037834346
 31
0.0
  0
ARC
  8
0
  6
CONTINUOUS
 62
               3
  5
2ED
 10
674.97307436974427
 20
-992.62859317929042
 30
0.0
 40
5.0
 50
145.19324212948862
 51
177.99999999989819
  0
LINE
  8
0
  6
CONTINUOUS
 62
               3
  5
2EE
 10
549.27250815133959
 20
-1011.8002316259503
 30
0.0
 11
551.78652321630773
 21
-1083.7922037834351
 31
0.0
  0
ARC
  8
0
  6
CONTINUOUS
 62
               3
  5
2EF
 10
544.2755540162442
 20
-1011.9747291094627
 30
0.0
 40
5.0
 50
1.9999999999958187
 51
87.99999999994921
  0
LINE
  8
0
  6
CONTINUOUS
 62
               3
  5
2F0
 10
534.28652321630773
 20
-1255.463193657984
 30
0.0
 11
684.28652321630773
 21
-1255.463193657984
 31
0.0
  0
LINE
  8
0
  6
CONTINUOUS
 62
               3
  5
2F1
 10
520.7865232163075
 20
-1265.463193657984
 30
0.0
 11
520.7865232163075
 21
-1272.4631936579835
 31
0.0
  0
LINE
  8
0
  6
CONTINUOUS
 62
               3
  5
2F2
 10
520.7865232163075
 20
-1265.463193657984
 30
0.0
 11
534.28652321630773
 21
-1255.463193657984
 31
0.0
  0
ARC
  8
0
  6
CONTINUOUS
 62
               3
  5
2F3
 10
532.28652321630796
 20
-1277.0457693529393
 30
0.0
 40
4.9999999999999991
 50
0.0
 51
66.421821521760023
  0
LINE
  8
0
  6
CONTINUOUS
 62
               3
  5
2F4
 10
520.7865232163075
 20
-1272.4631936579835
 30
0.0
 11
697.7865232163075
 21
-1272.4631936579835
 31
0.0
  0
ARC
  8
0
  6
CONTINUOUS
 62
               3
  5
2F5
 10
554.28652321630773
 20
-1362.463193657984
 30
0.0
 40
19.999999999999996
 50
148.21166938286279
 51
167.26981986159123
  0
LINE
  8
0
  6
CONTINUOUS
 62
               3
  5
2F6
 10
537.28652321630796
 20
-1277.0457693529393
 30
0.0
 11
537.28652321630796
 21
-1351.9275399051312
 31
0.0
  0
LINE
  8
0
  6
CONTINUOUS
 62
               3
  5
2F7
 10
681.28652321630773
 20
-1346.9275399051307
 30
0.0
 11
681.28652321630773
 21
-1277.0457693529393
 31
0.0
  0
LINE
  8
0
  6
CONTINUOUS
 62
               3
  5
2F8
 10
537.28652321630796
 20
-1351.9275399051312
 30
0.0
 11
680.78652321630818
 21
-1351.9275399051312
 31
0.0
  0
LINE
  8
0
  6
CONTINUOUS
 62
               3
  5
2F9
 10
589.28652321630773
 20
-1272.4631936579835
 30
0.0
 11
589.28652321630773
 21
-1255.463193657984
 31
0.0
  0
LINE
  8
0
  6
CONTINUOUS
 62
               3
  5
2FA
 10
629.28652321630773
 20
-1255.463193657984
 30
0.0
 11
629.28652321630773
 21
-1272.4631936579835
 31
0.0
  0
LINE
  8
0
  6
CONTINUOUS
 62
               3
  5
2FB
 10
589.28652321630773
 20
-1265.463193657984
 30
0.0
 11
629.28652321630773
 21
-1265.463193657984
 31
0.0
  0
LINE
  8
0
  6
CONTINUOUS
 62
               3
  5
2FC
 10
537.00236174230247
 20
-1255.463193657984
 30
0.0
 11
537.00236174230247
 21
-1272.4631936579835
 31
0.0
  0
LINE
  8
0
  6
CONTINUOUS
 62
               3
  5
2FD
 10
523.07602501568249
 20
-1265.463193657984
 30
0.0
 11
523.07602501568249
 21
-1272.4631936579835
 31
0.0
  0
LINE
  8
0
  6
CONTINUOUS
 62
               3
  5
2FE
 10
520.7865232163075
 20
-1265.463193657984
 30
0.0
 11
523.07602501568249
 21
-1265.463193657984
 31
0.0
  0
LINE
  8
0
  6
CONTINUOUS
 62
               3
  5
2FF
 10
523.07602501568249
 20
-1265.463193657984
 30
0.0
 11
537.00236174230247
 21
-1255.463193657984
 31
0.0
  0
LINE
  8
0
  6
CONTINUOUS
 62
               3
  5
300
 10
697.7865232163075
 20
-1265.463193657984
 30
0.0
 11
697.7865232163075
 21
-1272.4631936579835
 31
0.0
  0
LINE
  8
0
  6
CONTINUOUS
 62
               3
  5
301
 10
697.7865232163075
 20
-1265.463193657984
 30
0.0
 11
684.28652321630773
 21
-1255.463193657984
 31
0.0
  0
ARC
  8
0
  6
CONTINUOUS
 62
               3
  5
302
 10
686.28652321630773
 20
-1277.0457693529393
 30
0.0
 40
4.9999999999999991
 50
113.57817847813573
 51
179.99999999989538
  0
LINE
  8
0
  6
CONTINUOUS
 62
               3
  5
303
 10
681.57068469031208
 20
-1255.463193657984
 30
0.0
 11
681.57068469031208
 21
-1272.4631936579835
 31
0.0
  0
LINE
  8
0
  6
CONTINUOUS
 62
               3
  5
304
 10
695.49702141693308
 20
-1265.463193657984
 30
0.0
 11
695.49702141693308
 21
-1272.4631936579835
 31
0.0
  0
LINE
  8
0
  6
CONTINUOUS
 62
               3
  5
305
 10
697.7865232163075
 20
-1265.463193657984
 30
0.0
 11
695.49702141693308
 21
-1265.463193657984
 31
0.0
  0
LINE
  8
0
  6
CONTINUOUS
 62
               3
  5
306
 10
695.49702141693308
 20
-1265.463193657984
 30
0.0
 11
681.57068469031208
 21
-1255.463193657984
 31
0.0
  0
ARC
  8
0
  6
CONTINUOUS
 62
               3
  5
307
 10
544.28652321630773
 20
-1483.963193657984
 30
0.0
 40
2.4999999999999996
 50
89.99999999994769
 51
269.99999999984567
  0
ARC
  8
0
  6
CONTINUOUS
 62
               3
  5
308
 10
684.28652321630773
 20
-1483.963193657984
 30
0.0
 40
2.4999999999999996
 50
269.99999999984567
 51
449.99999999974102
  0
LINE
  8
0
  6
CONTINUOUS
 62
               3
  5
309
 10
469.28652321630767
 20
-1476.463193657984
 30
0.0
 11
469.95807934227201
 21
-1476.463193657984
 31
0.0
  0
LINE
  8
0
  6
CONTINUOUS
 62
               3
  5
30A
 10
472.45807934227213
 20
-1478.9631936579831
 30
0.0
 11
469.95807934227201
 21
-1476.463193657984
 31
0.0
  0
LINE
  8
0
  6
CONTINUOUS
 62
               3
  5
30B
 10
472.45807934227292
 20
-1478.963193657984
 30
0.0
 11
514.62318959855031
 21
-1480.4356317538382
 31
0.0
  0
LINE
  8
0
  6
CONTINUOUS
 62
               3
  5
30C
 10
532.82205712224038
 20
-1496.7348830842698
 30
0.0
 11
517.98422602097048
 21
-1481.8970519830004
 31
0.0
  0
ARC
  8
0
  6
CONTINUOUS
 62
               3
  5
30D
 10
529.28652321630773
 20
-1500.2704169902031
 30
0.0
 40
4.9999999999999991
 50
0.0
 51
44.999999999973191
  0
LINE
  8
0
  6
CONTINUOUS
 62
               3
  5
30E
 10
469.28652321630767
 20
-1366.463193657984
 30
0.0
 11
469.95807934227201
 21
-1366.463193657984
 31
0.0
  0
LINE
  8
0
  6
CONTINUOUS
 62
               3
  5
30F
 10
472.45807934227213
 20
-1363.963193657984
 30
0.0
 11
469.95807934227201
 21
-1366.463193657984
 31
0.0
  0
LINE
  8
0
  6
CONTINUOUS
 62
               3
  5
310
 10
472.45807934227201
 20
-1363.963193657984
 30
0.0
 11
530.0755555444465
 21
-1361.9511470528314
 31
0.0
  0
LINE
  8
0
  6
CONTINUOUS
 62
               3
  5
311
 10
469.95807934227201
 20
-1366.463193657984
 30
0.0
 11
469.95807934227201
 21
-1476.463193657984
 31
0.0
  0
LINE
  8
0
  6
CONTINUOUS
 62
               3
  5
312
 10
469.28652321630767
 20
-1479.0631936579839
 30
0.0
 11
469.28652321630767
 21
-1363.8631936579841
 31
0.0
  0
LINE
  8
0
  6
CONTINUOUS
 62
               3
  5
313
 10
469.28652321630767
 20
-1363.8631936579841
 30
0.0
 11
466.78652321630767
 21
-1363.8631936579841
 31
0.0
  0
ARC
  8
0
  6
CONTINUOUS
 62
               3
  5
314
 10
466.78652321630767
 20
-1366.3631936579841
 30
0.0
 40
2.5
 50
89.999999999948997
 51
179.99999999989538
  0
LINE
  8
0
  6
CONTINUOUS
 62
               3
  5
315
 10
464.28652321630767
 20
-1366.3631936579841
 30
0.0
 11
464.28652321630767
 21
-1476.5631936579839
 31
0.0
  0
LINE
  8
0
  6
CONTINUOUS
 62
               3
  5
316
 10
469.28652321630767
 20
-1479.0631936579839
 30
0.0
 11
466.78652321630767
 21
-1479.0631936579839
 31
0.0
  0
ARC
  8
0
  6
CONTINUOUS
 62
               3
  5
317
 10
466.78652321630767
 20
-1476.5631936579839
 30
0.0
 40
2.5
 50
179.99999999989538
 51
269.99999999984436
  0
LINE
  8
0
  6
CONTINUOUS
 62
               3
  5
318
 10
472.45807934227213
 20
-1363.963193657984
 30
0.0
 11
472.45807934227292
 21
-1478.963193657984
 31
0.0
  0
ARC
  8
0
  6
CONTINUOUS
 62
               3
  5
319
 10
514.44869211503783
 20
-1485.4325858889333
 30
0.0
 40
5.0
 50
44.999999999975948
 51
87.999999999949253
  0
ARC
  8
0
  6
CONTINUOUS
 62
               3
  5
31A
 10
529.90105806093391
 20
-1356.9541929177362
 30
0.0
 40
5.0
 50
271.99999999984408
 51
347.26981986148661
  0
CIRCLE
  8
0
  6
CONTINUOUS
 62
               3
  5
31B
 10
609.28652321630773
 20
-1421.463193657984
 30
0.0
 40
48.5
  0
CIRCLE
  8
0
  6
CONTINUOUS
 62
               3
  5
31C
 10
609.28652321630773
 20
-1421.463193657984
 30
0.0
 40
47.299999999999997
  0
LINE
  8
0
  6
CONTINUOUS
 62
               3
  5
31D
 10
577.46671806291317
 20
-1453.2829988113785
 30
0.0
 11
575.84037246618402
 21
-1454.9093444081077
 31
0.0
  0
LINE
  8
0
  6
CONTINUOUS
 62
               3
  5
31E
 10
641.10632836970251
 20
-1453.2829988113785
 30
0.0
 11
642.73267396643143
 21
-1454.9093444081077
 31
0.0
  0
ARC
  8
0
  6
CONTINUOUS
 62
               3
  5
31F
 10
609.28652321630773
 20
-1421.463193657984
 30
0.0
 40
45.0
 50
224.99999999987043
 51
314.99999999981884
  0
CIRCLE
  8
0
  6
CONTINUOUS
 62
               3
  5
320
 10
609.28652321630773
 20
-1421.463193657984
 30
0.0
 40
57.600000000000001
  0
ARC
  8
0
  6
CONTINUOUS
 62
               3
  5
321
 10
586.78652321630841
 20
-1483.963193657984
 30
0.0
 40
2.4999999999999996
 50
269.99999999984567
 51
449.99999999974102
  0
ARC
  8
0
  6
CONTINUOUS
 62
               3
  5
322
 10
631.78652321630841
 20
-1483.963193657984
 30
0.0
 40
2.4999999999999996
 50
89.99999999994769
 51
269.99999999984567
  0
LINE
  8
0
  6
CONTINUOUS
 62
               3
  5
323
 10
544.28652321630773
 20
-1486.463193657984
 30
0.0
 11
586.78652321630841
 21
-1486.463193657984
 31
0.0
  0
LINE
  8
0
  6
CONTINUOUS
 62
               3
  5
324
 10
544.28652321630773
 20
-1481.463193657984
 30
0.0
 11
586.78652321630841
 21
-1481.463193657984
 31
0.0
  0
LINE
  8
0
  6
CONTINUOUS
 62
               3
  5
325
 10
631.78652321630841
 20
-1481.463193657984
 30
0.0
 11
684.28652321630773
 21
-1481.463193657984
 31
0.0
  0
LINE
  8
0
  6
CONTINUOUS
 62
               3
  5
326
 10
631.78652321630841
 20
-1486.463193657984
 30
0.0
 11
684.28652321630773
 21
-1486.463193657984
 31
0.0
  0
CIRCLE
  8
0
  6
CONTINUOUS
 62
               3
  5
327
 10
609.28652321630773
 20
-946.96375990939941
 30
0.0
 40
59.0
  0
LINE
  8
0
  6
DASHDOT
 62
               4
  5
328
 10
-180.00000000000006
 20
477.99999999999989
 30
0.0
 11
124.99999999999983
 21
477.99999999999994
 31
0.0
  0
LINE
  8
0
  6
DASHDOT
 62
               4
  5
329
 10
-600.00000000000023
 20
-603.0
 30
0.0
 11
-600.00000000000023
 21
98.000000000000085
 31
0.0
  0
LINE
  8
0
  6
DASHDOT
 62
               4
  5
32A
 10
-180.00000000000006
 20
-30.499999999999943
 30
0.0
 11
-79.999999999999829
 21
-30.499999999999943
 31
0.0
  0
LINE
  8
0
  6
DASHDOT
 62
               4
  5
32B
 10
-0.0000000000001705
 20
-603.0
 30
0.0
 11
-0.0000000000001693
 21
98.000000000000085
 31
0.0
  0
LINE
  8
0
  6
DASHDOT
 62
               4
  5
32C
 10
-675.50000000000023
 20
-30.499999999999773
 30
0.0
 11
-524.50000000000023
 21
-30.499999999999773
 31
0.0
  0
LINE
  8
0
  6
DASHDOT
 62
               4
  5
32D
 10
-0.0000000000001067
 20
273.00000000000006
 30
0.0
 11
-0.0000000000002297
 21
603.0
 31
0.0
  0
LINE
  8
0
  6
DASHDOT
 62
               4
  5
32E
 10
599.99999999999977
 20
-603.0
 30
0.0
 11
599.99999999999977
 21
98.000000000000085
 31
0.0
  0
LINE
  8
0
  6
DASHDOT
 62
               4
  5
32F
 10
-67.46084289950403
 20
-42.999999999999659
 30
0.0
 11
67.46084289950403
 21
-43.000000000000213
 31
0.0
  0
LINE
  8
0
  6
DASHDOT
 62
               4
  5
330
 10
420.00000000000108
 20
-42.999999999999687
 30
0.0
 11
510.00000000000108
 21
-42.999999999999687
 31
0.0
  0
LINE
  8
0
  6
DASHDOT
 62
               4
  5
331
 10
-420.00000000000142
 20
-42.999999999999687
 30
0.0
 11
-510.00000000000142
 21
-42.999999999999687
 31
0.0
  0
LINE
  8
0
  6
DASHDOT
 62
               4
  5
332
 10
-392.13776905046888
 20
-1069.1481954811907
 30
0.0
 11
-392.13776905046876
 21
-940.14819548119044
 31
0.0
  0
LINE
  8
0
  6
DASHDOT
 62
               4
  5
333
 10
-450.13776905046888
 20
-1011.1481954811904
 30
0.0
 11
-334.13776905046888
 21
-1011.1481954811904
 31
0.0
  0
LINE
  8
0
  6
DASHDOT
 62
               4
  5
334
 10
-461.94094753457631
 20
-1004.6481954811904
 30
0.0
 11
-327.63776905046888
 21
-1004.6481954811904
 31
0.0
  0
LINE
  8
0
  6
DASHDOT
 62
               4
  5
335
 10
-268.23776905046878
 20
-1004.6481954811904
 30
0.0
 11
-169.63776905046888
 21
-1004.6481954811904
 31
0.0
  0
LINE
  8
0
  6
DASHDOT
 62
               4
  5
336
 10
-302.63776905046888
 20
-1011.1481954811904
 30
0.0
 11
-228.2377690504689
 21
-1011.1481954811904
 31
0.0
  0
LINE
  8
0
  6
DASHDOT
 62
               4
  5
337
 10
-516.03776905046868
 20
-1004.6481954811902
 30
0.0
 11
-614.63776905046882
 21
-1004.64819548119
 31
0.0
  0
LINE
  8
0
  6
DASHDOT
 62
               4
  5
338
 10
-481.63776905046888
 20
-1011.1481954811902
 30
0.0
 11
-556.03776905046868
 21
-1011.1481954811902
 31
0.0
  0
LINE
  8
0
  6
DASHDOT
 62
               4
  5
339
 10
-394.0837264462354
 20
-907.68031141215533
 30
0.0
 11
-394.0837264462354
 21
-774.68031141215533
 31
0.0
  0
LINE
  8
0
  6
DASHDOT
 62
               4
  5
33A
 10
221.6339236858808
 20
-1004.6481954811904
 30
0.0
 11
320.23392368588094
 21
-1004.6481954811904
 31
0.0
  0
LINE
  8
0
  6
DASHDOT
 62
               4
  5
33B
 10
196.6339236858808
 20
-1019.1481954811904
 30
0.0
 11
261.6339236858808
 21
-1019.1481954811904
 31
0.0
  0
LINE
  8
0
  6
DASHDOT
 62
               4
  5
33C
 10
70.8779074606378
 20
-1019.1481954811904
 30
0.0
 11
170.87790746063803
 21
-1019.1481954811904
 31
0.0
  0
LINE
  8
0
  6
DASHDOT
 62
               4
  5
33D
 10
120.8779074606378
 20
-1069.1481954811907
 30
0.0
 11
120.87790746063803
 21
-940.14819548119044
 31
0.0
  0
LINE
  8
0
  6
DASHDOT
 62
               4
  5
33E
 10
56.3779074606378
 20
-1004.6481954811904
 30
0.0
 11
190.92191724058904
 21
-1004.6481954811904
 31
0.0
  0
LINE
  8
0
  6
DASHDOT
 62
               4
  5
33F
 10
20.121891235395026
 20
-1004.6481954811904
 30
0.0
 11
-78.478108764604997
 21
-1004.6481954811904
 31
0.0
  0
LINE
  8
0
  6
DASHDOT
 62
               4
  5
340
 10
45.121891235395026
 20
-1019.1481954811904
 30
0.0
 11
-19.878108764604974
 21
-1019.1481954811904
 31
0.0
  0
LINE
  8
0
  6
DASHDOT
 62
               4
  5
341
 10
120.87790746063803
 20
-918.39217925594767
 30
0.0
 11
120.87790746063803
 21
-794.79217925594753
 31
0.0
  0
LINE
  8
0
  6
DASHDOT
 62
               4
  5
342
 10
609.28652321630773
 20
-838.46375990939941
 30
0.0
 11
609.28652321630773
 21
-1109.0105467092258
 31
0.0
  0
LINE
  8
0
  6
DASHDOT
 62
               4
  5
343
 10
447.28652321630778
 20
-946.96375990939941
 30
0.0
 11
717.78652321630796
 21
-946.96375990939941
 31
0.0
  0
LINE
  8
0
  6
DASHDOT
 62
               4
  5
344
 10
677.81174799153257
 20
-1421.463193657984
 30
0.0
 11
447.55790992287945
 21
-1421.463193657984
 31
0.0
  0
LINE
  8
0
  6
DASHDOT
 62
               4
  5
345
 10
609.28652321630773
 20
-1235.463193657984
 30
0.0
 11
609.28652321630773
 21
-1486.463193657984
 31
0.0
  0
LINE
  8
0
  6
DASHDOT
 62
               4
  5
346
 10
559.28652321630773
 20
-1435.963193657984
 30
0.0
 11
659.28652321630796
 21
-1435.963193657984
 31
0.0
  0
LINE
  8
0
  6
DASHDOT
 62
               4
  5
347
 10
609.28652321630773
 20
-1137.5637599093998
 30
0.0
 11
609.28652321630773
 21
-1013.9637599093994
 31
0.0
  0
LINE
  8
0
  6
DASHDOT
 62
               4
  5
348
 10
409.28652321630767
 20
-1427.963193657984
 30
0.0
 11
483.68652321630765
 21
-1427.963193657984
 31
0.0
  0
LINE
  8
0
  6
DASHDOT
 62
               4
  5
349
 10
409.2865232163079
 20
-946.96375990939919
 30
0.0
 11
542.28652321630796
 21
-946.96375990939919
 31
0.0
  0
LINE
  8
0
  6
CONTINUOUS
 62
               4
  5
34A
 10
-543.0
 20
-482.99999999999989
 30
0.0
 11
-657.0
 21
-482.99999999999989
 31
0.0
  0
LINE
  8
0
  6
CONTINUOUS
 62
               4
  5
34B
 10
-541.94695717682657
 20
-481.94695717682634
 30
0.0
 11
-658.05304282317343
 21
-481.94695717682634
 31
0.0
  0
LINE
  8
0
  6
CONTINUOUS
 62
               4
  5
34C
 10
-57.000000000000284
 20
-482.99999999999989
 30
0.0
 11
56.999999999999716
 21
-482.99999999999989
 31
0.0
  0
LINE
  8
0
  6
CONTINUOUS
 62
               4
  5
34D
 10
-58.053042823173712
 20
-481.94695717682634
 30
0.0
 11
58.05304282317303
 21
-481.94695717682634
 31
0.0
  0
LINE
  8
0
  6
CONTINUOUS
 62
               4
  5
34E
 10
-640.65863991822653
 20
-71.158639918226157
 30
0.0
 11
-642.28498551495568
 21
-72.784985514955224
 31
0.0
  0
CIRCLE
  8
0
  6
CONTINUOUS
 62
               4
  5
34F
 10
-600.00000000000023
 20
-30.499999999999773
 30
0.0
 40
60.999999999999879
  0
CIRCLE
  8
0
  6
CONTINUOUS
 62
               4
  5
350
 10
-600.00000000000023
 20
-30.499999999999773
 30
0.0
 40
59.799999999999862
  0
CIRCLE
  8
0
  6
CONTINUOUS
 62
               4
  5
351
 10
-600.00000000000023
 20
-30.499999999999773
 30
0.0
 40
55.499999999999865
  0
CIRCLE
  8
0
  6
CONTINUOUS
 62
               4
  5
352
 10
-600.00000000000023
 20
-30.499999999999773
 30
0.0
 40
51.249999999999865
  0
ARC
  8
0
  6
CONTINUOUS
 62
               4
  5
353
 10
-600.00000000000023
 20
-30.499999999999773
 30
0.0
 40
57.499999999999865
 50
224.99999999995649
 51
314.99999999993912
  0
LINE
  8
0
  6
CONTINUOUS
 62
               4
  5
354
 10
542.99999999999977
 20
-482.99999999999989
 30
0.0
 11
656.99999999999977
 21
-482.99999999999989
 31
0.0
  0
LINE
  8
0
  6
CONTINUOUS
 62
               4
  5
355
 10
541.94695717682634
 20
-481.94695717682634
 30
0.0
 11
658.05304282317297
 21
-481.94695717682634
 31
0.0
  0
LINE
  8
0
  6
CONTINUOUS
 62
               4
  5
356
 10
31.780648052898471
 20
-74.819805153395009
 30
0.0
 11
33.406993649627623
 21
-76.44615075012382
 31
0.0
  0
LINE
  8
0
  6
CONTINUOUS
 62
               4
  5
357
 10
-31.858962253890638
 20
-74.819805153395009
 30
0.0
 11
-33.48530785061979
 21
-76.44615075012382
 31
0.0
  0
ARC
  8
0
  6
CONTINUOUS
 62
               4
  5
358
 10
-0.0391571004960838
 20
-43.000000000000171
 30
0.0
 40
45.0
 50
224.99999999995643
 51
314.99999999993912
  0
CIRCLE
  8
0
  6
CONTINUOUS
 62
               4
  5
359
 10
-0.0391571004960838
 20
-43.000000000000171
 30
0.0
 40
43.0
  0
CIRCLE
  8
0
  6
CONTINUOUS
 62
               4
  5
35A
 10
-0.0391571004960838
 20
-43.000000000000171
 30
0.0
 40
38.75
  0
CIRCLE
  8
0
  6
CONTINUOUS
 62
               4
  5
35B
 10
-0.0391571004960838
 20
-43.000000000000171
 30
0.0
 40
47.299999999999997
  0
LINE
  8
0
  6
CONTINUOUS
 62
               4
  5
35C
 10
-26.826514192975253
 20
-15.000000000001137
 30
0.0
 11
26.74819999198354
 21
-15.000000000001137
 31
0.0
  0
LINE
  8
0
  6
CONTINUOUS
 62
               4
  5
35D
 10
-632.83358811246967
 20
78.000000000000085
 30
0.0
 11
-632.83358811246967
 21
74.000000000000199
 31
0.0
  0
LINE
  8
0
  6
CONTINUOUS
 62
               4
  5
35E
 10
-632.83358811246967
 20
74.000000000000199
 30
0.0
 11
-705.00000000000023
 21
74.000000000000199
 31
0.0
  0
LINE
  8
0
  6
CONTINUOUS
 62
               4
  5
35F
 10
-567.1664118875301
 20
74.000000000000199
 30
0.0
 11
-494.99999999999966
 21
74.000000000000199
 31
0.0
  0
LINE
  8
0
  6
CONTINUOUS
 62
               4
  5
360
 10
-567.1664118875301
 20
78.000000000000085
 30
0.0
 11
-567.1664118875301
 21
74.000000000000199
 31
0.0
  0
LINE
  8
0
  6
CONTINUOUS
 62
               4
  5
361
 10
-505.14119260300259
 20
74.000000000000199
 30
0.0
 11
-505.14119260300259
 21
78.600000000000108
 31
0.0
  0
LINE
  8
0
  6
CONTINUOUS
 62
               4
  5
362
 10
-508.09178006811845
 20
78.600000000000108
 30
0.0
 11
-513.96825406948028
 21
82.000000000000085
 31
0.0
  0
LINE
  8
0
  6
CONTINUOUS
 62
               4
  5
363
 10
-530.46825406948028
 20
82.000000000000085
 30
0.0
 11
-513.96825406948028
 21
82.000000000000085
 31
0.0
  0
LINE
  8
0
  6
CONTINUOUS
 62
               4
  5
364
 10
-530.46825406948028
 20
82.000000000000085
 30
0.0
 11
-530.46825406948028
 21
73.999999999999972
 31
0.0
  0
LINE
  8
0
  6
CONTINUOUS
 62
               4
  5
365
 10
-505.14119260300259
 20
78.600000000000108
 30
0.0
 11
-508.09178006811851
 21
78.600000000000108
 31
0.0
  0
LINE
  8
0
  6
CONTINUOUS
 62
               4
  5
366
 10
-660.70468446404197
 20
74.000000000000313
 30
0.0
 11
-660.70468446404197
 21
78.600000000000335
 31
0.0
  0
LINE
  8
0
  6
CONTINUOUS
 62
               4
  5
367
 10
-663.65527192915783
 20
78.600000000000222
 30
0.0
 11
-669.53174593051972
 21
82.000000000000313
 31
0.0
  0
LINE
  8
0
  6
CONTINUOUS
 62
               4
  5
368
 10
-686.03174593051972
 20
82.000000000000199
 30
0.0
 11
-669.53174593051972
 21
82.000000000000313
 31
0.0
  0
LINE
  8
0
  6
CONTINUOUS
 62
               4
  5
369
 10
-672.72549974421349
 20
74.000000000000199
 30
0.0
 11
-672.72549974421349
 21
78.600000000000222
 31
0.0
  0
LINE
  8
0
  6
CONTINUOUS
 62
               4
  5
36A
 10
-660.70468446404197
 20
78.600000000000335
 30
0.0
 11
-675.67608720932935
 21
78.600000000000222
 31
0.0
  0
LINE
  8
0
  6
CONTINUOUS
 62
               4
  5
36B
 10
-683.18860018001214
 20
82.000000000000313
 30
0.0
 11
-675.67608720932935
 21
78.600000000000222
 31
0.0
  0
LINE
  8
0
  6
CONTINUOUS
 62
               4
  5
36C
 10
-686.03174593051972
 20
82.000000000000199
 30
0.0
 11
-686.03174593051972
 21
74.000000000000199
 31
0.0
  0
LINE
  8
0
  6
CONTINUOUS
 62
               4
  5
36D
 10
-690.7817459305204
 20
35.700000000000642
 30
0.0
 11
-690.7817459305204
 21
38.000000000000597
 31
0.0
  0
LINE
  8
0
  6
CONTINUOUS
 62
               4
  5
36E
 10
-683.78174593052017
 20
7.0000000000001137
 30
0.0
 11
-683.78174593052017
 21
25.700000000001751
 31
0.0
  0
LINE
  8
0
  6
CONTINUOUS
 62
               4
  5
36F
 10
-671.78174593052017
 20
25.700000000001751
 30
0.0
 11
-671.78174593051995
 21
7.0000000000001137
 31
0.0
  0
LINE
  8
0
  6
CONTINUOUS
 62
               4
  5
370
 10
-683.78174593052017
 20
7.0000000000001137
 30
0.0
 11
-671.78174593051995
 21
7.0000000000001137
 31
0.0
  0
LINE
  8
0
  6
CONTINUOUS
 62
               4
  5
371
 10
-664.78174593052108
 20
38.000000000000597
 30
0.0
 11
-664.78174593052108
 21
35.700000000000642
 31
0.0
  0
LINE
  8
0
  6
CONTINUOUS
 62
               4
  5
372
 10
-690.7817459305204
 20
38.000000000000597
 30
0.0
 11
-664.78174593052063
 21
38.000000000000597
 31
0.0
  0
LINE
  8
0
  6
CONTINUOUS
 62
               4
  5
373
 10
-664.78174593052063
 20
38.000000000000597
 30
0.0
 11
-664.78174593052063
 21
35.700000000000642
 31
0.0
  0
LINE
  8
0
  6
CONTINUOUS
 62
               4
  5
374
 10
-664.78174593052063
 20
35.700000000000642
 30
0.0
 11
-690.7817459305204
 21
35.700000000000642
 31
0.0
  0
LINE
  8
0
  6
CONTINUOUS
 62
               4
  5
375
 10
-509.21825406947954
 20
35.700000000000642
 30
0.0
 11
-509.21825406947954
 21
38.000000000000597
 31
0.0
  0
LINE
  8
0
  6
CONTINUOUS
 62
               4
  5
376
 10
-509.21825406947954
 20
38.000000000000597
 30
0.0
 11
-535.21825406947937
 21
38.000000000000597
 31
0.0
  0
LINE
  8
0
  6
CONTINUOUS
 62
               4
  5
377
 10
-535.21825406947937
 20
38.000000000000597
 30
0.0
 11
-535.21825406947937
 21
35.700000000000642
 31
0.0
  0
LINE
  8
0
  6
CONTINUOUS
 62
               4
  5
378
 10
-535.21825406947937
 20
35.700000000000642
 30
0.0
 11
-509.21825406947954
 21
35.700000000000642
 31
0.0
  0
LINE
  8
0
  6
CONTINUOUS
 62
               4
  5
379
 10
-516.21825406947983
 20
7.0000000000001137
 30
0.0
 11
-516.21825406947983
 21
25.700000000001751
 31
0.0
  0
LINE
  8
0
  6
CONTINUOUS
 62
               4
  5
37A
 10
-528.21825406947983
 20
25.700000000001751
 30
0.0
 11
-528.21825406948005
 21
7.0000000000001137
 31
0.0
  0
LINE
  8
0
  6
CONTINUOUS
 62
               4
  5
37B
 10
-516.21825406947983
 20
7.0000000000001137
 30
0.0
 11
-528.21825406948005
 21
7.0000000000001137
 31
0.0
  0
LINE
  8
0
  6
CONTINUOUS
 62
               4
  5
37C
 10
-32.833588112469727
 20
78.000000000000085
 30
0.0
 11
-32.833588112469727
 21
74.000000000000199
 31
0.0
  0
LINE
  8
0
  6
CONTINUOUS
 62
               4
  5
37D
 10
-32.833588112469727
 20
74.000000000000199
 30
0.0
 11
-105.00000000000017
 21
74.000000000000199
 31
0.0
  0
LINE
  8
0
  6
CONTINUOUS
 62
               4
  5
37E
 10
32.83358811246984
 20
74.000000000000199
 30
0.0
 11
105.00000000000034
 21
74.000000000000199
 31
0.0
  0
LINE
  8
0
  6
CONTINUOUS
 62
               4
  5
37F
 10
32.83358811246984
 20
78.000000000000085
 30
0.0
 11
32.83358811246984
 21
74.000000000000199
 31
0.0
  0
LINE
  8
0
  6
CONTINUOUS
 62
               4
  5
380
 10
94.858807396997406
 20
74.000000000000199
 30
0.0
 11
94.858807396997406
 21
78.600000000000108
 31
0.0
  0
LINE
  8
0
  6
CONTINUOUS
 62
               4
  5
381
 10
91.908219931881547
 20
78.600000000000108
 30
0.0
 11
86.031745930519776
 21
82.000000000000085
 31
0.0
  0
LINE
  8
0
  6
CONTINUOUS
 62
               4
  5
382
 10
69.531745930519776
 20
82.000000000000085
 30
0.0
 11
86.031745930519776
 21
82.000000000000085
 31
0.0
  0
LINE
  8
0
  6
CONTINUOUS
 62
               4
  5
383
 10
69.531745930519776
 20
82.000000000000085
 30
0.0
 11
69.531745930519776
 21
73.999999999999972
 31
0.0
  0
LINE
  8
0
  6
CONTINUOUS
 62
               4
  5
384
 10
94.858807396997406
 20
78.600000000000108
 30
0.0
 11
91.90821993188149
 21
78.600000000000108
 31
0.0
  0
LINE
  8
0
  6
CONTINUOUS
 62
               4
  5
385
 10
-60.704684464042032
 20
74.000000000000313
 30
0.0
 11
-60.704684464042032
 21
78.600000000000335
 31
0.0
  0
LINE
  8
0
  6
CONTINUOUS
 62
               4
  5
386
 10
-63.655271929157891
 20
78.600000000000222
 30
0.0
 11
-69.531745930519776
 21
82.000000000000313
 31
0.0
  0
LINE
  8
0
  6
CONTINUOUS
 62
               4
  5
387
 10
-86.031745930519776
 20
82.000000000000199
 30
0.0
 11
-69.531745930519776
 21
82.000000000000313
 31
0.0
  0
LINE
  8
0
  6
CONTINUOUS
 62
               4
  5
388
 10
-72.72549974421355
 20
74.000000000000199
 30
0.0
 11
-72.72549974421355
 21
78.600000000000222
 31
0.0
  0
LINE
  8
0
  6
CONTINUOUS
 62
               4
  5
389
 10
-60.704684464042032
 20
78.600000000000335
 30
0.0
 11
-75.67608720932941
 21
78.600000000000222
 31
0.0
  0
LINE
  8
0
  6
CONTINUOUS
 62
               4
  5
38A
 10
-83.188600180012202
 20
82.000000000000313
 30
0.0
 11
-75.67608720932941
 21
78.600000000000222
 31
0.0
  0
LINE
  8
0
  6
CONTINUOUS
 62
               4
  5
38B
 10
-86.031745930519776
 20
82.000000000000199
 30
0.0
 11
-86.031745930519776
 21
74.000000000000199
 31
0.0
  0
LINE
  8
0
  6
CONTINUOUS
 62
               4
  5
38C
 10
-90.781745930520458
 20
35.700000000000642
 30
0.0
 11
-90.781745930520458
 21
38.000000000000597
 31
0.0
  0
LINE
  8
0
  6
CONTINUOUS
 62
               4
  5
38D
 10
-83.781745930520117
 20
7.0000000000001137
 30
0.0
 11
-83.781745930520117
 21
25.700000000001751
 31
0.0
  0
LINE
  8
0
  6
CONTINUOUS
 62
               4
  5
38E
 10
-71.781745930520117
 20
25.700000000001751
 30
0.0
 11
-71.781745930520003
 21
7.0000000000001137
 31
0.0
  0
LINE
  8
0
  6
CONTINUOUS
 62
               4
  5
38F
 10
-83.781745930520117
 20
7.0000000000001137
 30
0.0
 11
-71.781745930520003
 21
7.0000000000001137
 31
0.0
  0
LINE
  8
0
  6
CONTINUOUS
 62
               4
  5
390
 10
-64.78174593052114
 20
38.000000000000597
 30
0.0
 11
-64.78174593052114
 21
35.700000000000642
 31
0.0
  0
LINE
  8
0
  6
CONTINUOUS
 62
               4
  5
391
 10
-90.781745930520458
 20
38.000000000000597
 30
0.0
 11
-64.781745930520572
 21
38.000000000000597
 31
0.0
  0
LINE
  8
0
  6
CONTINUOUS
 62
               4
  5
392
 10
-64.781745930520572
 20
38.000000000000597
 30
0.0
 11
-64.781745930520572
 21
35.700000000000642
 31
0.0
  0
LINE
  8
0
  6
CONTINUOUS
 62
               4
  5
393
 10
-64.781745930520572
 20
35.700000000000642
 30
0.0
 11
-90.781745930520458
 21
35.700000000000642
 31
0.0
  0
LINE
  8
0
  6
CONTINUOUS
 62
               4
  5
394
 10
90.781745930520458
 20
35.700000000000642
 30
0.0
 11
90.781745930520458
 21
38.000000000000597
 31
0.0
  0
LINE
  8
0
  6
CONTINUOUS
 62
               4
  5
395
 10
90.781745930520458
 20
38.000000000000597
 30
0.0
 11
64.781745930520572
 21
38.000000000000597
 31
0.0
  0
LINE
  8
0
  6
CONTINUOUS
 62
               4
  5
396
 10
64.781745930520572
 20
38.000000000000597
 30
0.0
 11
64.781745930520572
 21
35.700000000000642
 31
0.0
  0
LINE
  8
0
  6
CONTINUOUS
 62
               4
  5
397
 10
64.781745930520572
 20
35.700000000000642
 30
0.0
 11
90.781745930520458
 21
35.700000000000642
 31
0.0
  0
LINE
  8
0
  6
CONTINUOUS
 62
               4
  5
398
 10
83.781745930520117
 20
7.0000000000001137
 30
0.0
 11
83.781745930520117
 21
25.700000000001751
 31
0.0
  0
LINE
  8
0
  6
CONTINUOUS
 62
               4
  5
399
 10
71.781745930520117
 20
25.700000000001751
 30
0.0
 11
71.781745930520003
 21
7.0000000000001137
 31
0.0
  0
LINE
  8
0
  6
CONTINUOUS
 62
               4
  5
39A
 10
83.781745930520117
 20
7.0000000000001137
 30
0.0
 11
71.781745930520003
 21
7.0000000000001137
 31
0.0
  0
LINE
  8
0
  6
CONTINUOUS
 62
               4
  5
39B
 10
567.16641188753033
 20
78.000000000000085
 30
0.0
 11
567.16641188753033
 21
74.000000000000199
 31
0.0
  0
LINE
  8
0
  6
CONTINUOUS
 62
               4
  5
39C
 10
567.16641188753033
 20
74.000000000000199
 30
0.0
 11
494.99999999999983
 21
74.000000000000199
 31
0.0
  0
LINE
  8
0
  6
CONTINUOUS
 62
               4
  5
39D
 10
632.8335881124699
 20
74.000000000000199
 30
0.0
 11
705.00000000000023
 21
74.000000000000199
 31
0.0
  0
LINE
  8
0
  6
CONTINUOUS
 62
               4
  5
39E
 10
632.8335881124699
 20
78.000000000000085
 30
0.0
 11
632.8335881124699
 21
74.000000000000199
 31
0.0
  0
LINE
  8
0
  6
CONTINUOUS
 62
               4
  5
39F
 10
694.85880739699746
 20
74.000000000000199
 30
0.0
 11
694.85880739699746
 21
78.600000000000108
 31
0.0
  0
LINE
  8
0
  6
CONTINUOUS
 62
               4
  5
3A0
 10
691.9082199318816
 20
78.600000000000108
 30
0.0
 11
686.03174593051972
 21
82.000000000000085
 31
0.0
  0
LINE
  8
0
  6
CONTINUOUS
 62
               4
  5
3A1
 10
669.53174593051972
 20
82.000000000000085
 30
0.0
 11
686.03174593051972
 21
82.000000000000085
 31
0.0
  0
LINE
  8
0
  6
CONTINUOUS
 62
               4
  5
3A2
 10
669.53174593051972
 20
82.000000000000085
 30
0.0
 11
669.53174593051972
 21
73.999999999999972
 31
0.0
  0
LINE
  8
0
  6
CONTINUOUS
 62
               4
  5
3A3
 10
694.85880739699746
 20
78.600000000000108
 30
0.0
 11
691.90821993188138
 21
78.600000000000108
 31
0.0
  0
LINE
  8
0
  6
CONTINUOUS
 62
               4
  5
3A4
 10
539.29531553595803
 20
74.000000000000313
 30
0.0
 11
539.29531553595803
 21
78.600000000000335
 31
0.0
  0
LINE
  8
0
  6
CONTINUOUS
 62
               4
  5
3A5
 10
536.34472807084217
 20
78.600000000000222
 30
0.0
 11
530.46825406948028
 21
82.000000000000313
 31
0.0
  0
LINE
  8
0
  6
CONTINUOUS
 62
               4
  5
3A6
 10
513.96825406948028
 20
82.000000000000199
 30
0.0
 11
530.46825406948028
 21
82.000000000000313
 31
0.0
  0
LINE
  8
0
  6
CONTINUOUS
 62
               4
  5
3A7
 10
527.27450025578651
 20
74.000000000000199
 30
0.0
 11
527.27450025578651
 21
78.600000000000222
 31
0.0
  0
LINE
  8
0
  6
CONTINUOUS
 62
               4
  5
3A8
 10
539.29531553595803
 20
78.600000000000335
 30
0.0
 11
524.32391279067065
 21
78.600000000000222
 31
0.0
  0
LINE
  8
0
  6
CONTINUOUS
 62
               4
  5
3A9
 10
516.81139981998786
 20
82.000000000000313
 30
0.0
 11
524.32391279067065
 21
78.600000000000222
 31
0.0
  0
LINE
  8
0
  6
CONTINUOUS
 62
               4
  5
3AA
 10
513.96825406948028
 20
82.000000000000199
 30
0.0
 11
513.96825406948028
 21
74.000000000000199
 31
0.0
  0
LINE
  8
0
  6
CONTINUOUS
 62
               4
  5
3AB
 10
509.21825406947954
 20
35.700000000000642
 30
0.0
 11
509.21825406947954
 21
38.000000000000597
 31
0.0
  0
LINE
  8
0
  6
CONTINUOUS
 62
               4
  5
3AC
 10
516.21825406947983
 20
7.0000000000001137
 30
0.0
 11
516.21825406947983
 21
25.700000000001751
 31
0.0
  0
LINE
  8
0
  6
CONTINUOUS
 62
               4
  5
3AD
 10
528.21825406947983
 20
25.700000000001751
 30
0.0
 11
528.21825406948005
 21
7.0000000000001137
 31
0.0
  0
LINE
  8
0
  6
CONTINUOUS
 62
               4
  5
3AE
 10
516.21825406947983
 20
7.0000000000001137
 30
0.0
 11
528.21825406948005
 21
7.0000000000001137
 31
0.0
  0
LINE
  8
0
  6
CONTINUOUS
 62
               4
  5
3AF
 10
535.21825406947892
 20
38.000000000000597
 30
0.0
 11
535.21825406947892
 21
35.700000000000642
 31
0.0
  0
LINE
  8
0
  6
CONTINUOUS
 62
               4
  5
3B0
 10
509.21825406947954
 20
38.000000000000597
 30
0.0
 11
535.21825406947937
 21
38.000000000000597
 31
0.0
  0
LINE
  8
0
  6
CONTINUOUS
 62
               4
  5
3B1
 10
535.21825406947937
 20
38.000000000000597
 30
0.0
 11
535.21825406947937
 21
35.700000000000642
 31
0.0
  0
LINE
  8
0
  6
CONTINUOUS
 62
               4
  5
3B2
 10
535.21825406947937
 20
35.700000000000642
 30
0.0
 11
509.21825406947954
 21
35.700000000000642
 31
0.0
  0
LINE
  8
0
  6
CONTINUOUS
 62
               4
  5
3B3
 10
690.7817459305204
 20
35.700000000000642
 30
0.0
 11
690.7817459305204
 21
38.000000000000597
 31
0.0
  0
LINE
  8
0
  6
CONTINUOUS
 62
               4
  5
3B4
 10
690.7817459305204
 20
38.000000000000597
 30
0.0
 11
664.78174593052063
 21
38.000000000000597
 31
0.0
  0
LINE
  8
0
  6
CONTINUOUS
 62
               4
  5
3B5
 10
664.78174593052063
 20
38.000000000000597
 30
0.0
 11
664.78174593052063
 21
35.700000000000642
 31
0.0
  0
LINE
  8
0
  6
CONTINUOUS
 62
               4
  5
3B6
 10
664.78174593052063
 20
35.700000000000642
 30
0.0
 11
690.7817459305204
 21
35.700000000000642
 31
0.0
  0
LINE
  8
0
  6
CONTINUOUS
 62
               4
  5
3B7
 10
683.78174593052017
 20
7.0000000000001137
 30
0.0
 11
683.78174593052017
 21
25.700000000001751
 31
0.0
  0
LINE
  8
0
  6
CONTINUOUS
 62
               4
  5
3B8
 10
671.78174593052017
 20
25.700000000001751
 30
0.0
 11
671.78174593051995
 21
7.0000000000001137
 31
0.0
  0
LINE
  8
0
  6
CONTINUOUS
 62
               4
  5
3B9
 10
683.78174593052017
 20
7.0000000000001137
 30
0.0
 11
671.78174593051995
 21
7.0000000000001137
 31
0.0
  0
POINT
  8
0
  6
CONTINUOUS
 62
               4
  5
3BA
 10
-247.03776905046885
 20
-960.14819548119044
 30
0.0
  0
POINT
  8
0
  6
CONTINUOUS
 62
               4
  5
3BB
 10
-537.23776905046873
 20
-960.14819548119021
 30
0.0
  0
POINT
  8
0
  6
CONTINUOUS
 62
               4
  5
3BC
 10
-349.5837264462354
 20
-852.08031141215542
 30
0.0
  0
POINT
  8
0
  6
CONTINUOUS
 62
               4
  5
3BD
 10
242.83392368588085
 20
-960.14819548119044
 30
0.0
  0
POINT
  8
0
  6
CONTINUOUS
 62
               4
  5
3BE
 10
-1.0781087646050196
 20
-960.14819548119044
 30
0.0
  0
POINT
  8
0
  6
CONTINUOUS
 62
               4
  5
3BF
 10
165.37790746063803
 20
-872.19217925594762
 30
0.0
  0
LINE
  8
0
  6
CONTINUOUS
 62
               4
  5
3C0
 10
686.28652321630773
 20
-1351.9275399051312
 30
0.0
 11
681.28652321630773
 21
-1346.9275399051312
 31
0.0
  0
ARC
  8
0
  6
CONTINUOUS
 62
               4
  5
3C1
 10
663.78652321630773
 20
-1362.463193657984
 30
0.0
 40
19.999999999999996
 50
0.0
 51
31.78833061703342
  0
LINE
  8
0
  6
CONTINUOUS
 62
               4
  5
3C2
 10
680.78652321630818
 20
-1351.9275399051312
 30
0.0
 11
680.78652321630818
 21
-1346.9275399051307
 31
0.0
  0
LINE
  8
0
  6
CONTINUOUS
 62
               4
  5
3C3
 10
681.28652321630773
 20
-1346.9275399051312
 30
0.0
 11
680.78652321630818
 21
-1346.9275399051312
 31
0.0
  0
LINE
  8
0
  6
CONTINUOUS
 62
               4
  5
3C4
 10
686.03652321630796
 20
-1352.1775399051312
 30
0.0
 11
680.78652321630818
 21
-1346.9275399051312
 31
0.0
  0
LINE
  8
0
  6
CONTINUOUS
 62
               4
  5
3C5
 10
686.03652321630796
 20
-1352.1775399051312
 30
0.0
 11
686.28652321630773
 21
-1351.9275399051312
 31
0.0
  0
LINE
  8
0
  6
CONTINUOUS
 62
               4
  5
3C6
 10
686.28652321630773
 20
-1351.9275399051312
 30
0.0
 11
686.28652321630773
 21
-1482.6162172551008
 31
0.0
  0
LINE
  8
0
  6
CONTINUOUS
 62
               4
  5
3C7
 10
686.03652321630796
 20
-1352.1775399051312
 30
0.0
 11
686.03652321630796
 21
-1482.3308601479653
 31
0.0
  0
LINE
  8
0
  6
CONTINUOUS
 62
               4
  5
3C8
 10
683.78652321630773
 20
-1362.3101700608668
 30
0.0
 11
683.78652321630773
 21
-1481.463193657984
 31
0.0
  0
POINT
  8
0
  6
CONTINUOUS
 62
               4
  5
3C9
 10
653.78652321630773
 20
-1091.3637599093995
 30
0.0
  0
POINT
  8
0
  6
CONTINUOUS
 62
               4
  5
3CA
 10
464.88652321630769
 20
-1376.963193657984
 30
0.0
  0
POINT
  8
0
  6
CONTINUOUS
 62
               4
  5
3CB
 10
464.88652321630781
 20
-991.46375990939919
 30
0.0
  0
LINE
  8
0
  6
DASHED2
 62
               4
  5
3CC
 10
-651.50000000000023
 20
-583.0
 30
0.0
 11
-651.50000000000023
 21
-502.99999999999989
 31
0.0
  0
LINE
  8
0
  6
DASHED2
 62
               4
  5
3CD
 10
-548.50000000000045
 20
-583.0
 30
0.0
 11
-548.50000000000045
 21
-502.99999999999989
 31
0.0
  0
LINE
  8
0
  6
DASHED2
 62
               4
  5
3CE
 10
51.499999999999943
 20
-583.0
 30
0.0
 11
51.499999999999943
 21
-502.99999999999989
 31
0.0
  0
LINE
  8
0
  6
DASHED2
 62
               4
  5
3CF
 10
-51.499999999999943
 20
-583.0
 30
0.0
 11
-51.499999999999943
 21
-502.99999999999989
 31
0.0
  0
LINE
  8
0
  6
DASHED2
 62
               4
  5
3D0
 10
651.5
 20
-583.0
 30
0.0
 11
651.5
 21
-502.99999999999989
 31
0.0
  0
LINE
  8
0
  6
DASHED2
 62
               4
  5
3D1
 10
548.5
 20
-583.0
 30
0.0
 11
548.5
 21
-502.99999999999989
 31
0.0
  0
LINE
  8
0
  6
DASHED2
 62
               4
  5
3D2
 10
552.28652321630796
 20
-1320.463193657984
 30
0.0
 11
666.28652321630773
 21
-1320.463193657984
 31
0.0
  0
LINE
  8
LAYER192
  6
CONTINUOUS
 62
               6
  5
3D3
 10
-599.99999994521681
 20
-76.000000000000171
 30
0.0
 11
-599.87078429982535
 21
-76.000000000000171
 31
0.0
  0
LINE
  8
LAYER192
  6
CONTINUOUS
 62
               6
  5
3D4
 10
599.99999994521659
 20
-76.000000000000171
 30
0.0
 11
599.87078429982489
 21
-76.000000000000171
 31
0.0
  0
LINE
  8
LAYER192
  6
CONTINUOUS
 62
               3
  5
3D5
 10
-705.00000000000023
 20
76.001218345961973
 30
0.0
 11
-705.00000000000023
 21
64.000000000000256
 31
0.0
  0
LINE
  8
LAYER192
  6
CONTINUOUS
 62
               3
  5
3D6
 10
-495.00000000000017
 20
76.001218345961973
 30
0.0
 11
-495.00000000000017
 21
64.000000000000256
 31
0.0
  0
ARC
  8
LAYER192
  6
CONTINUOUS
 62
               3
  5
3D7
 10
-703.00000000000023
 20
76.001218345961973
 30
0.0
 40
2.0
 50
91.999999999980631
 51
179.99999999996541
  0
ARC
  8
LAYER192
  6
CONTINUOUS
 62
               3
  5
3D8
 10
-497.00000000000006
 20
76.001218345961973
 30
0.0
 40
2.0
 50
0.0
 51
87.999999999983118
  0
LINE
  8
LAYER192
  6
CONTINUOUS
 62
               3
  5
3D9
 10
-705.00000000000023
 20
64.000000000000256
 30
0.0
 11
-495.00000000000017
 21
64.000000000000256
 31
0.0
  0
LINE
  8
LAYER192
  6
CONTINUOUS
 62
               3
  5
3DA
 10
-703.06979899340513
 20
78.000000000000085
 30
0.0
 11
-686.03174593051972
 21
78.000000000000085
 31
0.0
  0
LINE
  8
LAYER192
  6
CONTINUOUS
 62
               3
  5
3DB
 10
-660.70468446404197
 20
78.000000000000085
 30
0.0
 11
-530.46825406948028
 21
78.000000000000085
 31
0.0
  0
LINE
  8
LAYER192
  6
CONTINUOUS
 62
               3
  5
3DC
 10
-505.14119260300259
 20
78.000000000000085
 30
0.0
 11
-496.93020100659515
 21
78.000000000000085
 31
0.0
  0
LINE
  8
LAYER192
  6
CONTINUOUS
 62
               3
  5
3DD
 10
-105.00000000000017
 20
76.001218345961973
 30
0.0
 11
-105.00000000000017
 21
64.000000000000256
 31
0.0
  0
LINE
  8
LAYER192
  6
CONTINUOUS
 62
               3
  5
3DE
 10
104.99999999999983
 20
76.001218345961973
 30
0.0
 11
104.99999999999983
 21
64.000000000000256
 31
0.0
  0
ARC
  8
LAYER192
  6
CONTINUOUS
 62
               3
  5
3DF
 10
-103.00000000000017
 20
76.001218345961973
 30
0.0
 40
2.0
 50
91.999999999981043
 51
179.99999999996541
  0
ARC
  8
LAYER192
  6
CONTINUOUS
 62
               3
  5
3E0
 10
102.99999999999994
 20
76.001218345961973
 30
0.0
 40
2.0
 50
0.0
 51
87.999999999983118
  0
LINE
  8
LAYER192
  6
CONTINUOUS
 62
               3
  5
3E1
 10
-105.00000000000017
 20
64.000000000000256
 30
0.0
 11
104.99999999999983
 21
64.000000000000256
 31
0.0
  0
LINE
  8
LAYER192
  6
CONTINUOUS
 62
               3
  5
3E2
 10
-103.06979899340507
 20
78.000000000000085
 30
0.0
 11
-86.031745930519776
 21
78.000000000000085
 31
0.0
  0
LINE
  8
LAYER192
  6
CONTINUOUS
 62
               3
  5
3E3
 10
-60.704684464042032
 20
78.000000000000085
 30
0.0
 11
69.531745930519776
 21
78.000000000000085
 31
0.0
  0
LINE
  8
LAYER192
  6
CONTINUOUS
 62
               3
  5
3E4
 10
94.858807396997406
 20
78.000000000000085
 30
0.0
 11
103.06979899340485
 21
78.000000000000085
 31
0.0
  0
LINE
  8
LAYER192
  6
CONTINUOUS
 62
               3
  5
3E5
 10
494.99999999999983
 20
76.001218345961973
 30
0.0
 11
494.99999999999983
 21
64.000000000000256
 31
0.0
  0
LINE
  8
LAYER192
  6
CONTINUOUS
 62
               3
  5
3E6
 10
704.99999999999977
 20
76.001218345961973
 30
0.0
 11
704.99999999999977
 21
64.000000000000256
 31
0.0
  0
ARC
  8
LAYER192
  6
CONTINUOUS
 62
               3
  5
3E7
 10
496.99999999999983
 20
76.001218345961973
 30
0.0
 40
2.0
 50
91.999999999980631
 51
179.99999999996541
  0
ARC
  8
LAYER192
  6
CONTINUOUS
 62
               3
  5
3E8
 10
703.0
 20
76.001218345961973
 30
0.0
 40
2.0
 50
0.0
 51
87.999999999983118
  0
LINE
  8
LAYER192
  6
CONTINUOUS
 62
               3
  5
3E9
 10
494.99999999999983
 20
64.000000000000256
 30
0.0
 11
704.99999999999977
 21
64.000000000000256
 31
0.0
  0
LINE
  8
LAYER192
  6
CONTINUOUS
 62
               3
  5
3EA
 10
496.93020100659493
 20
78.000000000000085
 30
0.0
 11
513.96825406948028
 21
78.000000000000085
 31
0.0
  0
LINE
  8
LAYER192
  6
CONTINUOUS
 62
               3
  5
3EB
 10
539.29531553595803
 20
78.000000000000085
 30
0.0
 11
669.53174593051972
 21
78.000000000000085
 31
0.0
  0
LINE
  8
LAYER192
  6
CONTINUOUS
 62
               3
  5
3EC
 10
694.85880739699746
 20
78.000000000000085
 30
0.0
 11
703.0697989934049
 21
78.000000000000085
 31
0.0
  0
INSERT
  8
0
  6
CONTINUOUS
  5
3ED
  2
GROUP_1
 10
0.0
 20
0.0
 30
0.0
  0
INSERT
  8
0
  6
CONTINUOUS
  5
3EE
  2
GROUP_2
 10
0.0
 20
0.0
 30
0.0
  0
INSERT
  8
0
  6
CONTINUOUS
  5
3EF
  2
GROUP_3
 10
0.0
 20
0.0
 30
0.0
  0
INSERT
  8
0
  6
CONTINUOUS
  5
3F0
  2
GROUP_4
 10
0.0
 20
0.0
 30
0.0
  0
INSERT
  8
0
  6
CONTINUOUS
  5
3F1
  2
GROUP_5
 10
0.0
 20
0.0
 30
0.0
  0
INSERT
  8
0
  6
CONTINUOUS
  5
3F2
  2
GROUP_6
 10
0.0
 20
0.0
 30
0.0
  0
LINE
  8
LAYER192
  6
CONTINUOUS
 62
               4
  5
3F3
 10
-32.833588112469663
 20
376.48329968702609
 30
0.0
 11
-101.51670031297425
 21
445.16641188753084
 31
0.0
  0
LINE
  8
LAYER192
  6
CONTINUOUS
 62
               4
  5
3F4
 10
-101.51670031297397
 20
510.83358811246961
 30
0.0
 11
-32.833588112469236
 21
579.51670031297408
 31
0.0
  0
LINE
  8
LAYER192
  6
CONTINUOUS
 62
               4
  5
3F5
 10
32.833588112469521
 20
579.51670031297385
 30
0.0
 11
101.51670031297402
 21
510.83358811246916
 31
0.0
  0
LINE
  8
LAYER192
  6
CONTINUOUS
 62
               4
  5
3F6
 10
101.51670031297374
 20
445.1664118875305
 30
0.0
 11
32.833588112469023
 21
376.48329968702586
 31
0.0
  0
POINT
  8
0
  6
CONTINUOUS
 62
               5
  5
3F7
 10
-392.13776905046888
 20
-1004.6481954811904
 30
0.0
  0
POINT
  8
0
  6
CONTINUOUS
 62
               5
  5
3F8
 10
-218.90769754050854
 20
-1005.9389895560794
 30
0.0
  0
POINT
  8
0
  6
CONTINUOUS
 62
               5
  5
3F9
 10
-565.36784056042904
 20
-1005.9389895560792
 30
0.0
  0
POINT
  8
0
  6
CONTINUOUS
 62
               5
  5
3FA
 10
-395.37452052112445
 20
-823.95023990219511
 30
0.0
  0
POINT
  8
0
  6
CONTINUOUS
 62
               5
  5
3FB
 10
493.01659472626801
 20
-1422.7539877328727
 30
0.0
  0
POINT
  8
0
  6
CONTINUOUS
 62
               5
  5
3FC
 10
493.01659472626812
 20
-945.67296583451025
 30
0.0
  0
CIRCLE
  8
0
  6
CONTINUOUS
 62
               7
  5
3FD
 10
-392.13776905046888
 20
-1011.1481954811904
 30
0.0
 40
38.0
  0
CIRCLE
  8
0
  6
CONTINUOUS
 62
               7
  5
3FE
 10
-392.13776905046888
 20
-1011.1481954811904
 30
0.0
 40
33.5
  0
LINE
  8
0
  6
CONTINUOUS
 62
               7
  5
3FF
 10
-247.63776905046888
 20
-960.14819548119044
 30
0.0
 11
-247.63776905046888
 21
-1049.142959360516
 31
0.0
  0
LINE
  8
0
  6
CONTINUOUS
 62
               7
  5
400
 10
-247.03776905046885
 20
-960.14819548119044
 30
0.0
 11
-247.63776905046888
 21
-960.14819548119044
 31
0.0
  0
LINE
  8
0
  6
CONTINUOUS
 62
               7
  5
401
 10
-282.63776905046888
 20
-1048.1481954811904
 30
0.0
 11
-282.63776905046888
 21
-974.14819548119044
 31
0.0
  0
LINE
  8
0
  6
CONTINUOUS
 62
               7
  5
402
 10
-189.63776905046888
 20
-1048.1481954811904
 30
0.0
 11
-189.63776905046888
 21
-961.14819548119044
 31
0.0
  0
LINE
  8
0
  6
CONTINUOUS
 62
               7
  5
403
 10
-247.63776905046888
 20
-960.14819548119044
 30
0.0
 11
-190.63776905046888
 21
-960.14819548119044
 31
0.0
  0
LINE
  8
0
  6
CONTINUOUS
 62
               7
  5
404
 10
-281.63776905046888
 20
-1049.1481954811904
 30
0.0
 11
-190.63776905046888
 21
-1049.1481954811904
 31
0.0
  0
LINE
  8
0
  6
CONTINUOUS
 62
               7
  5
405
 10
-190.63776905046888
 20
-960.14819548119044
 30
0.0
 11
-189.63776905046888
 21
-961.14819548119044
 31
0.0
  0
LINE
  8
0
  6
CONTINUOUS
 62
               7
  5
406
 10
-189.63776905046888
 20
-1048.1481954811904
 30
0.0
 11
-190.63776905046888
 21
-1049.1481954811904
 31
0.0
  0
LINE
  8
0
  6
CONTINUOUS
 62
               7
  5
407
 10
-281.63776905046888
 20
-973.14819548119044
 30
0.0
 11
-247.63776905046888
 21
-973.14819548119044
 31
0.0
  0
CIRCLE
  8
0
  6
CONTINUOUS
 62
               7
  5
408
 10
-392.13776905046888
 20
-1004.6481954811904
 30
0.0
 40
44.5
  0
LINE
  8
0
  6
CONTINUOUS
 62
               7
  5
409
 10
-281.63776905046888
 20
-973.14819548119044
 30
0.0
 11
-282.63776905046888
 21
-974.14819548119044
 31
0.0
  0
LINE
  8
0
  6
CONTINUOUS
 62
               7
  5
40A
 10
-282.63776905046888
 20
-1048.1481954811904
 30
0.0
 11
-281.63776905046888
 21
-1049.1481954811904
 31
0.0
  0
LINE
  8
0
  6
CONTINUOUS
 62
               7
  5
40B
 10
-536.63776905046859
 20
-960.14819548119021
 30
0.0
 11
-536.63776905046882
 21
-1049.1429593605158
 31
0.0
  0
LINE
  8
0
  6
CONTINUOUS
 62
               7
  5
40C
 10
-537.23776905046873
 20
-960.14819548119021
 30
0.0
 11
-536.63776905046859
 21
-960.14819548119021
 31
0.0
  0
LINE
  8
0
  6
CONTINUOUS
 62
               7
  5
40D
 10
-501.63776905046893
 20
-1048.1481954811902
 30
0.0
 11
-501.63776905046871
 21
-974.14819548119021
 31
0.0
  0
LINE
  8
0
  6
CONTINUOUS
 62
               7
  5
40E
 10
-594.63776905046882
 20
-1048.1481954811902
 30
0.0
 11
-594.63776905046859
 21
-961.14819548119021
 31
0.0
  0
LINE
  8
0
  6
CONTINUOUS
 62
               7
  5
40F
 10
-536.63776905046859
 20
-960.14819548119021
 30
0.0
 11
-593.63776905046859
 21
-960.14819548119021
 31
0.0
  0
LINE
  8
0
  6
CONTINUOUS
 62
               7
  5
410
 10
-502.63776905046893
 20
-1049.1481954811902
 30
0.0
 11
-593.63776905046882
 21
-1049.1481954811902
 31
0.0
  0
LINE
  8
0
  6
CONTINUOUS
 62
               7
  5
411
 10
-593.63776905046859
 20
-960.14819548119021
 30
0.0
 11
-594.63776905046859
 21
-961.14819548119021
 31
0.0
  0
LINE
  8
0
  6
CONTINUOUS
 62
               7
  5
412
 10
-594.63776905046882
 20
-1048.1481954811902
 30
0.0
 11
-593.63776905046882
 21
-1049.1481954811902
 31
0.0
  0
LINE
  8
0
  6
CONTINUOUS
 62
               7
  5
413
 10
-502.63776905046871
 20
-973.14819548119021
 30
0.0
 11
-536.63776905046859
 21
-973.14819548119021
 31
0.0
  0
LINE
  8
0
  6
CONTINUOUS
 62
               7
  5
414
 10
-502.63776905046871
 20
-973.14819548119021
 30
0.0
 11
-501.63776905046871
 21
-974.14819548119021
 31
0.0
  0
LINE
  8
0
  6
CONTINUOUS
 62
               7
  5
415
 10
-501.63776905046893
 20
-1048.1481954811902
 30
0.0
 11
-502.63776905046893
 21
-1049.1481954811902
 31
0.0
  0
LINE
  8
0
  6
CONTINUOUS
 62
               7
  5
416
 10
-349.5837264462354
 20
-852.68031141215556
 30
0.0
 11
-438.57849032556095
 21
-852.68031141215533
 31
0.0
  0
LINE
  8
0
  6
CONTINUOUS
 62
               7
  5
417
 10
-349.5837264462354
 20
-852.08031141215542
 30
0.0
 11
-349.5837264462354
 21
-852.68031141215556
 31
0.0
  0
LINE
  8
0
  6
CONTINUOUS
 62
               7
  5
418
 10
-431.0837264462354
 20
-887.68031141215533
 30
0.0
 11
-357.0837264462354
 21
-887.68031141215556
 31
0.0
  0
LINE
  8
0
  6
CONTINUOUS
 62
               7
  5
419
 10
-437.58372644623529
 20
-794.68031141215533
 30
0.0
 11
-350.5837264462354
 21
-794.68031141215556
 31
0.0
  0
LINE
  8
0
  6
CONTINUOUS
 62
               7
  5
41A
 10
-349.5837264462354
 20
-852.68031141215556
 30
0.0
 11
-349.5837264462354
 21
-795.68031141215556
 31
0.0
  0
LINE
  8
0
  6
CONTINUOUS
 62
               7
  5
41B
 10
-432.0837264462354
 20
-886.68031141215533
 30
0.0
 11
-432.0837264462354
 21
-852.68031141215533
 31
0.0
  0
LINE
  8
0
  6
CONTINUOUS
 62
               7
  5
41C
 10
-349.5837264462354
 20
-795.68031141215556
 30
0.0
 11
-350.5837264462354
 21
-794.68031141215556
 31
0.0
  0
LINE
  8
0
  6
CONTINUOUS
 62
               7
  5
41D
 10
-437.58372644623529
 20
-794.68031141215533
 30
0.0
 11
-438.58372644623529
 21
-795.68031141215533
 31
0.0
  0
LINE
  8
0
  6
CONTINUOUS
 62
               7
  5
41E
 10
-356.0837264462354
 20
-886.68031141215556
 30
0.0
 11
-356.0837264462354
 21
-852.68031141215533
 31
0.0
  0
LINE
  8
0
  6
CONTINUOUS
 62
               7
  5
41F
 10
-356.0837264462354
 20
-886.68031141215556
 30
0.0
 11
-357.0837264462354
 21
-887.68031141215556
 31
0.0
  0
LINE
  8
0
  6
CONTINUOUS
 62
               7
  5
420
 10
-431.0837264462354
 20
-887.68031141215533
 30
0.0
 11
-432.0837264462354
 21
-886.68031141215533
 31
0.0
  0
LINE
  8
0
  6
CONTINUOUS
 62
               7
  5
421
 10
-438.5837264462354
 20
-852.68031141215533
 30
0.0
 11
-438.5837264462354
 21
-795.68031141215533
 31
0.0
  0
LINE
  8
0
  6
CONTINUOUS
 62
               7
  5
422
 10
216.6339236858808
 20
-1048.1481954811904
 30
0.0
 11
216.6339236858808
 21
-990.14819548119044
 31
0.0
  0
LINE
  8
0
  6
CONTINUOUS
 62
               7
  5
423
 10
242.23392368588071
 20
-960.14819548119044
 30
0.0
 11
242.23392368588071
 21
-1049.1481954811904
 31
0.0
  0
LINE
  8
0
  6
CONTINUOUS
 62
               7
  5
424
 10
242.83392368588085
 20
-960.14819548119044
 30
0.0
 11
242.23392368588071
 21
-960.14819548119044
 31
0.0
  0
LINE
  8
0
  6
CONTINUOUS
 62
               7
  5
425
 10
300.23392368588094
 20
-1048.1481954811904
 30
0.0
 11
300.23392368588094
 21
-961.14819548119044
 31
0.0
  0
CIRCLE
  8
0
  6
CONTINUOUS
 62
               7
  5
426
 10
120.8779074606378
 20
-1019.1481954811904
 30
0.0
 40
30.0
  0
CIRCLE
  8
0
  6
CONTINUOUS
 62
               7
  5
427
 10
120.8779074606378
 20
-1019.1481954811904
 30
0.0
 40
25.5
  0
CIRCLE
  8
0
  6
CONTINUOUS
 62
               7
  5
428
 10
120.8779074606378
 20
-1004.6481954811904
 30
0.0
 40
44.5
  0
LINE
  8
0
  6
CONTINUOUS
 62
               7
  5
429
 10
242.36837543136113
 20
-960.14819548119044
 30
0.0
 11
299.23392368588094
 21
-960.14819548119044
 31
0.0
  0
LINE
  8
0
  6
CONTINUOUS
 62
               7
  5
42A
 10
217.6339236858808
 20
-1049.1481954811904
 30
0.0
 11
299.23392368588094
 21
-1049.1481954811904
 31
0.0
  0
LINE
  8
0
  6
CONTINUOUS
 62
               7
  5
42B
 10
217.6339236858808
 20
-989.14819548119044
 30
0.0
 11
242.23392368588071
 21
-989.14819548119044
 31
0.0
  0
LINE
  8
0
  6
CONTINUOUS
 62
               7
  5
42C
 10
217.6339236858808
 20
-989.14819548119044
 30
0.0
 11
216.6339236858808
 21
-990.14819548119044
 31
0.0
  0
LINE
  8
0
  6
CONTINUOUS
 62
               7
  5
42D
 10
299.23392368588094
 20
-960.14819548119044
 30
0.0
 11
300.23392368588094
 21
-961.14819548119044
 31
0.0
  0
LINE
  8
0
  6
CONTINUOUS
 62
               7
  5
42E
 10
216.6339236858808
 20
-1048.1481954811904
 30
0.0
 11
217.6339236858808
 21
-1049.1481954811904
 31
0.0
  0
LINE
  8
0
  6
CONTINUOUS
 62
               7
  5
42F
 10
300.23392368588094
 20
-1048.1481954811904
 30
0.0
 11
299.23392368588094
 21
-1049.1481954811904
 31
0.0
  0
LINE
  8
0
  6
CONTINUOUS
 62
               7
  5
430
 10
25.121891235395026
 20
-1048.1481954811904
 30
0.0
 11
25.121891235395026
 21
-990.14819548119044
 31
0.0
  0
LINE
  8
0
  6
CONTINUOUS
 62
               7
  5
431
 10
-0.4781087646049969
 20
-960.14819548119044
 30
0.0
 11
-0.4781087646049969
 21
-1049.1481954811904
 31
0.0
  0
LINE
  8
0
  6
CONTINUOUS
 62
               7
  5
432
 10
-1.0781087646050196
 20
-960.14819548119044
 30
0.0
 11
-0.4781087646049969
 21
-960.14819548119044
 31
0.0
  0
LINE
  8
0
  6
CONTINUOUS
 62
               7
  5
433
 10
-58.478108764604997
 20
-1048.1481954811904
 30
0.0
 11
-58.478108764604997
 21
-961.14819548119044
 31
0.0
  0
LINE
  8
0
  6
CONTINUOUS
 62
               7
  5
434
 10
-0.6125605100853022
 20
-960.14819548119044
 30
0.0
 11
-57.478108764604997
 21
-960.14819548119044
 31
0.0
  0
LINE
  8
0
  6
CONTINUOUS
 62
               7
  5
435
 10
24.121891235395026
 20
-1049.1481954811904
 30
0.0
 11
-57.478108764604997
 21
-1049.1481954811904
 31
0.0
  0
LINE
  8
0
  6
CONTINUOUS
 62
               7
  5
436
 10
24.121891235395026
 20
-989.14819548119044
 30
0.0
 11
-0.4781087646049969
 21
-989.14819548119044
 31
0.0
  0
LINE
  8
0
  6
CONTINUOUS
 62
               7
  5
437
 10
24.121891235395026
 20
-989.14819548119044
 30
0.0
 11
25.121891235395026
 21
-990.14819548119044
 31
0.0
  0
LINE
  8
0
  6
CONTINUOUS
 62
               7
  5
438
 10
-57.478108764604997
 20
-960.14819548119044
 30
0.0
 11
-58.478108764604997
 21
-961.14819548119044
 31
0.0
  0
LINE
  8
0
  6
CONTINUOUS
 62
               7
  5
439
 10
25.121891235395026
 20
-1048.1481954811904
 30
0.0
 11
24.121891235395026
 21
-1049.1481954811904
 31
0.0
  0
LINE
  8
0
  6
CONTINUOUS
 62
               7
  5
43A
 10
-58.478108764604997
 20
-1048.1481954811904
 30
0.0
 11
-57.478108764604997
 21
-1049.1481954811904
 31
0.0
  0
LINE
  8
0
  6
CONTINUOUS
 62
               7
  5
43B
 10
91.877907460638028
 20
-898.39217925594767
 30
0.0
 11
149.87790746063803
 21
-898.39217925594767
 31
0.0
  0
LINE
  8
0
  6
CONTINUOUS
 62
               7
  5
43C
 10
165.37790746063803
 20
-872.79217925594753
 30
0.0
 11
76.377907460638028
 21
-872.79217925594753
 31
0.0
  0
LINE
  8
0
  6
CONTINUOUS
 62
               7
  5
43D
 10
165.37790746063803
 20
-872.19217925594762
 30
0.0
 11
165.37790746063803
 21
-872.79217925594753
 31
0.0
  0
LINE
  8
0
  6
CONTINUOUS
 62
               7
  5
43E
 10
77.377907460638028
 20
-814.79217925594753
 30
0.0
 11
164.37790746063803
 21
-814.79217925594753
 31
0.0
  0
LINE
  8
0
  6
CONTINUOUS
 62
               7
  5
43F
 10
165.37790746063803
 20
-872.65772751046734
 30
0.0
 11
165.37790746063803
 21
-815.79217925594753
 31
0.0
  0
LINE
  8
0
  6
CONTINUOUS
 62
               7
  5
440
 10
90.877907460638028
 20
-897.39217925594767
 30
0.0
 11
90.877907460638028
 21
-872.79217925594753
 31
0.0
  0
LINE
  8
0
  6
CONTINUOUS
 62
               7
  5
441
 10
150.87790746063803
 20
-897.39217925594767
 30
0.0
 11
150.87790746063803
 21
-872.79217925594753
 31
0.0
  0
LINE
  8
0
  6
CONTINUOUS
 62
               7
  5
442
 10
150.87790746063803
 20
-897.39217925594767
 30
0.0
 11
149.87790746063803
 21
-898.39217925594767
 31
0.0
  0
LINE
  8
0
  6
CONTINUOUS
 62
               7
  5
443
 10
165.37790746063803
 20
-815.79217925594753
 30
0.0
 11
164.37790746063803
 21
-814.79217925594753
 31
0.0
  0
LINE
  8
0
  6
CONTINUOUS
 62
               7
  5
444
 10
91.877907460638028
 20
-898.39217925594767
 30
0.0
 11
90.877907460638028
 21
-897.39217925594767
 31
0.0
  0
LINE
  8
0
  6
CONTINUOUS
 62
               7
  5
445
 10
77.377907460638028
 20
-814.79217925594753
 30
0.0
 11
76.377907460638028
 21
-815.79217925594753
 31
0.0
  0
LINE
  8
0
  6
CONTINUOUS
 62
               7
  5
446
 10
76.377907460638028
 20
-872.65772751046711
 30
0.0
 11
76.377907460638028
 21
-815.79217925594753
 31
0.0
  0
CIRCLE
  8
0
  6
CONTINUOUS
 62
               7
  5
447
 10
609.28652321630773
 20
-1435.963193657984
 30
0.0
 40
25.5
  0
CIRCLE
  8
0
  6
CONTINUOUS
 62
               7
  5
448
 10
609.28652321630773
 20
-1421.463193657984
 30
0.0
 40
44.5
  0
CIRCLE
  8
0
  6
CONTINUOUS
 62
               7
  5
449
 10
609.28652321630773
 20
-1435.963193657984
 30
0.0
 40
30.0
  0
LINE
  8
0
  6
CONTINUOUS
 62
               7
  5
44A
 10
580.28652321630773
 20
-1117.5637599093993
 30
0.0
 11
638.28652321630773
 21
-1117.5637599093993
 31
0.0
  0
LINE
  8
0
  6
CONTINUOUS
 62
               7
  5
44B
 10
653.78652321630773
 20
-1091.9637599093994
 30
0.0
 11
564.78652321630773
 21
-1091.9637599093994
 31
0.0
  0
LINE
  8
0
  6
CONTINUOUS
 62
               7
  5
44C
 10
653.78652321630773
 20
-1091.3637599093995
 30
0.0
 11
653.78652321630773
 21
-1091.9637599093994
 31
0.0
  0
LINE
  8
0
  6
CONTINUOUS
 62
               7
  5
44D
 10
565.78652321630773
 20
-1033.9637599093994
 30
0.0
 11
652.78652321630773
 21
-1033.9637599093994
 31
0.0
  0
LINE
  8
0
  6
CONTINUOUS
 62
               7
  5
44E
 10
653.78652321630773
 20
-1091.829308163919
 30
0.0
 11
653.78652321630773
 21
-1034.9637599093994
 31
0.0
  0
LINE
  8
0
  6
CONTINUOUS
 62
               7
  5
44F
 10
579.28652321630773
 20
-1116.5637599093993
 30
0.0
 11
579.28652321630773
 21
-1091.9637599093994
 31
0.0
  0
LINE
  8
0
  6
CONTINUOUS
 62
               7
  5
450
 10
639.28652321630773
 20
-1116.5637599093993
 30
0.0
 11
639.28652321630773
 21
-1091.9637599093994
 31
0.0
  0
LINE
  8
0
  6
CONTINUOUS
 62
               7
  5
451
 10
639.28652321630773
 20
-1116.5637599093993
 30
0.0
 11
638.28652321630773
 21
-1117.5637599093993
 31
0.0
  0
LINE
  8
0
  6
CONTINUOUS
 62
               7
  5
452
 10
653.78652321630773
 20
-1034.9637599093994
 30
0.0
 11
652.78652321630773
 21
-1033.9637599093994
 31
0.0
  0
LINE
  8
0
  6
CONTINUOUS
 62
               7
  5
453
 10
580.28652321630773
 20
-1117.5637599093993
 30
0.0
 11
579.28652321630773
 21
-1116.5637599093993
 31
0.0
  0
LINE
  8
0
  6
CONTINUOUS
 62
               7
  5
454
 10
565.78652321630773
 20
-1033.9637599093994
 30
0.0
 11
564.78652321630773
 21
-1034.9637599093994
 31
0.0
  0
LINE
  8
0
  6
CONTINUOUS
 62
               7
  5
455
 10
564.78652321630773
 20
-1091.829308163919
 30
0.0
 11
564.78652321630773
 21
-1034.9637599093994
 31
0.0
  0
LINE
  8
0
  6
CONTINUOUS
 62
               7
  5
456
 10
464.28652321630767
 20
-1376.963193657984
 30
0.0
 11
464.28652321630767
 21
-1465.9579575373095
 31
0.0
  0
LINE
  8
0
  6
CONTINUOUS
 62
               7
  5
457
 10
464.88652321630769
 20
-1376.963193657984
 30
0.0
 11
464.28652321630767
 21
-1376.963193657984
 31
0.0
  0
LINE
  8
0
  6
CONTINUOUS
 62
               7
  5
458
 10
429.28652321630767
 20
-1464.963193657984
 30
0.0
 11
429.28652321630767
 21
-1390.963193657984
 31
0.0
  0
LINE
  8
0
  6
CONTINUOUS
 62
               7
  5
459
 10
522.28652321630773
 20
-1464.963193657984
 30
0.0
 11
522.28652321630773
 21
-1377.963193657984
 31
0.0
  0
LINE
  8
0
  6
CONTINUOUS
 62
               7
  5
45A
 10
464.28652321630767
 20
-1376.963193657984
 30
0.0
 11
521.28652321630773
 21
-1376.963193657984
 31
0.0
  0
LINE
  8
0
  6
CONTINUOUS
 62
               7
  5
45B
 10
430.28652321630767
 20
-1465.963193657984
 30
0.0
 11
521.28652321630773
 21
-1465.963193657984
 31
0.0
  0
LINE
  8
0
  6
CONTINUOUS
 62
               7
  5
45C
 10
521.28652321630773
 20
-1376.963193657984
 30
0.0
 11
522.28652321630773
 21
-1377.963193657984
 31
0.0
  0
LINE
  8
0
  6
CONTINUOUS
 62
               7
  5
45D
 10
522.28652321630773
 20
-1464.963193657984
 30
0.0
 11
521.28652321630773
 21
-1465.963193657984
 31
0.0
  0
LINE
  8
0
  6
CONTINUOUS
 62
               7
  5
45E
 10
430.28652321630767
 20
-1389.963193657984
 30
0.0
 11
464.28652321630767
 21
-1389.963193657984
 31
0.0
  0
LINE
  8
0
  6
CONTINUOUS
 62
               7
  5
45F
 10
430.28652321630767
 20
-1389.963193657984
 30
0.0
 11
429.28652321630767
 21
-1390.963193657984
 31
0.0
  0
LINE
  8
0
  6
CONTINUOUS
 62
               7
  5
460
 10
429.28652321630767
 20
-1464.963193657984
 30
0.0
 11
430.28652321630767
 21
-1465.963193657984
 31
0.0
  0
LINE
  8
0
  6
CONTINUOUS
 62
               7
  5
461
 10
464.28652321630767
 20
-991.46375990939919
 30
0.0
 11
464.2865232163079
 21
-902.46899603007364
 31
0.0
  0
LINE
  8
0
  6
CONTINUOUS
 62
               7
  5
462
 10
464.88652321630781
 20
-991.46375990939919
 30
0.0
 11
464.28652321630767
 21
-991.46375990939919
 31
0.0
  0
LINE
  8
0
  6
CONTINUOUS
 62
               7
  5
463
 10
429.2865232163079
 20
-909.96375990939919
 30
0.0
 11
429.28652321630767
 21
-983.96375990939919
 31
0.0
  0
LINE
  8
0
  6
CONTINUOUS
 62
               7
  5
464
 10
522.28652321630796
 20
-903.46375990939941
 30
0.0
 11
522.28652321630773
 21
-990.46375990939919
 31
0.0
  0
LINE
  8
0
  6
CONTINUOUS
 62
               7
  5
465
 10
464.28652321630767
 20
-991.46375990939919
 30
0.0
 11
521.28652321630773
 21
-991.46375990939919
 31
0.0
  0
LINE
  8
0
  6
CONTINUOUS
 62
               7
  5
466
 10
430.2865232163079
 20
-908.96375990939919
 30
0.0
 11
464.2865232163079
 21
-908.96375990939919
 31
0.0
  0
LINE
  8
0
  6
CONTINUOUS
 62
               7
  5
467
 10
521.28652321630773
 20
-991.46375990939919
 30
0.0
 11
522.28652321630773
 21
-990.46375990939919
 31
0.0
  0
LINE
  8
0
  6
CONTINUOUS
 62
               7
  5
468
 10
522.28652321630796
 20
-903.46375990939941
 30
0.0
 11
521.28652321630796
 21
-902.46375990939941
 31
0.0
  0
LINE
  8
0
  6
CONTINUOUS
 62
               7
  5
469
 10
430.28652321630767
 20
-984.96375990939919
 30
0.0
 11
464.2865232163079
 21
-984.96375990939919
 31
0.0
  0
LINE
  8
0
  6
CONTINUOUS
 62
               7
  5
46A
 10
430.28652321630767
 20
-984.96375990939919
 30
0.0
 11
429.28652321630767
 21
-983.96375990939919
 31
0.0
  0
LINE
  8
0
  6
CONTINUOUS
 62
               7
  5
46B
 10
429.2865232163079
 20
-909.96375990939919
 30
0.0
 11
430.2865232163079
 21
-908.96375990939919
 31
0.0
  0
LINE
  8
0
  6
CONTINUOUS
 62
               7
  5
46C
 10
464.2865232163079
 20
-902.46375990939919
 30
0.0
 11
521.28652321630796
 21
-902.46375990939919
 31
0.0
  0
CIRCLE
  8
0
  6
DASHED
 62
               7
  5
46D
 10
-392.13776905046888
 20
-1004.6481954811904
 30
0.0
 40
40.0
  0
CIRCLE
  8
0
  6
DASHED
 62
               7
  5
46E
 10
120.8779074606378
 20
-1004.6481954811904
 30
0.0
 40
40.0
  0
CIRCLE
  8
0
  6
DASHED
 62
               7
  5
46F
 10
609.28652321630773
 20
-1421.463193657984
 30
0.0
 40
40.0
  0
TEXT
  8
0
 62
               3
  5
470
 10
-392.13776905046888
 20
-1089.1481954811902
 30
0.0
 40
40.0
  1
EMB_80×65
 41
0.8
 72
               1
 11
-392.13776905046888
 21
-1089.1481954811902
 31
0.0
 73
               3
  0
TEXT
  8
0
 62
               3
  5
471
 10
120.8779074606378
 20
-1089.1481954811907
 30
0.0
 40
40.0
  1
EMB_80×50
 41
0.8
 72
               1
 11
120.8779074606378
 21
-1089.1481954811907
 31
0.0
 73
               3
  0
TEXT
  8
0
 62
               3
  5
472
 10
605.58911923866742
 20
-767.5173914041801
 30
0.0
 40
40.0
  1
EMB使用例
 41
0.8
 72
               1
 11
605.58911923866742
 21
-767.5173914041801
 31
0.0
 73
               3
  0
TEXT
  8
0
 62
               3
  5
473
 10
-123.74270409089107
 20
-713.15725550384059
 30
0.0
 40
35.0
  1
横枝管に呼び６５、５０の管を接続するときは、EMBをご使用ください。
 41
0.8
 72
               1
 11
-123.74270409089107
 21
-713.15725550384059
 31
0.0
 73
               3
  0
ENDSEC
  0
EOF
