  0
SECTION
  2
HEADER
  9
$ACADVER
  1
AC1009
  9
$INSBASE
 10
0.0
 20
0.0
 30
0.0
  9
$EXTMIN
 10
-738.60051192420565
 20
-1557.57170407741
 30
0.0
  9
$EXTMAX
 10
746.34313174847466
 20
700.18924603567325
 30
0.0
  9
$LIMMIN
 10
-785.00500078897687
 20
-1628.126733768444
  9
$LIMMAX
 10
792.74762061324589
 20
770.74427572670709
  9
$ORTHOMODE
 70
               0
  9
$REGENMODE
 70
               1
  9
$FILLMODE
 70
               1
  9
$QTEXTMODE
 70
               0
  9
$MIRRTEXT
 70
               1
  9
$DRAGMODE
 70
               2
  9
$LTSCALE
 40
1.0
  9
$OSMODE
 70
               0
  9
$ATTMODE
 70
               1
  9
$TEXTSIZE
 40
0.2
  9
$TRACEWID
 40
0.05
  9
$TEXTSTYLE
  7
STANDARD
  9
$CLAYER
  8
0
  9
$CELTYPE
  6
CONTINUOUS
  9
$CECOLOR
 62
             256
  9
$DIMSCALE
 40
1.0
  9
$DIMASZ
 40
0.18
  9
$DIMEXO
 40
0.0625
  9
$DIMDLI
 40
0.38
  9
$DIMRND
 40
0.0
  9
$DIMDLE
 40
0.0
  9
$DIMEXE
 40
0.18
  9
$DIMTP
 40
0.0
  9
$DIMTM
 40
0.0
  9
$DIMTXT
 40
0.18
  9
$DIMCEN
 40
0.09
  9
$DIMTSZ
 40
0.0
  9
$DIMTOL
 70
               0
  9
$DIMLIM
 70
               0
  9
$DIMTIH
 70
               1
  9
$DIMTOH
 70
               1
  9
$DIMSE1
 70
               0
  9
$DIMSE2
 70
               0
  9
$DIMTAD
 70
               0
  9
$DIMZIN
 70
               0
  9
$DIMBLK
  1

  9
$DIMASO
 70
               1
  9
$DIMSHO
 70
               1
  9
$DIMPOST
  1

  9
$DIMAPOST
  1

  9
$DIMALT
 70
               0
  9
$DIMALTD
 70
               2
  9
$DIMALTF
 40
25.399999999999999
  9
$DIMLFAC
 40
1.0
  9
$DIMTOFL
 70
               0
  9
$DIMTVP
 40
0.0
  9
$DIMTIX
 70
               0
  9
$DIMSOXD
 70
               0
  9
$DIMSAH
 70
               0
  9
$DIMBLK1
  1

  9
$DIMBLK2
  1

  9
$DIMSTYLE
  2
STANDARD
  9
$DIMCLRD
 70
               0
  9
$DIMCLRE
 70
               0
  9
$DIMCLRT
 70
               0
  9
$DIMTFAC
 40
1.0
  9
$DIMGAP
 40
0.09
  9
$LUNITS
 70
               2
  9
$LUPREC
 70
               4
  9
$AXISMODE
 70
               0
  9
$AXISUNIT
 10
0.0
 20
0.0
  9
$SKETCHINC
 40
0.1
  9
$FILLETRAD
 40
0.0
  9
$AUNITS
 70
               0
  9
$AUPREC
 70
               0
  9
$MENU
  1
acad
  9
$ELEVATION
 40
0.0
  9
$PELEVATION
 40
0.0
  9
$THICKNESS
 40
0.0
  9
$LIMCHECK
 70
               0
  9
$BLIPMODE
 70
               1
  9
$CHAMFERA
 40
0.0
  9
$CHAMFERB
 40
0.0
  9
$SKPOLY
 70
               0
  9
$TDCREATE
 40
0.000000000
  9
$TDUPDATE
 40
0.000000000
  9
$TDINDWG
 40
0.0000000000
  9
$TDUSRTIMER
 40
0.0000000000
  9
$USRTIMER
 70
               1
  9
$ANGBASE
 50
0.0
  9
$ANGDIR
 70
               0
  9
$PDMODE
 70
               0
  9
$PDSIZE
 40
1.0
  9
$PLINEWID
 40
0.0
  9
$COORDS
 70
               1
  9
$SPLFRAME
 70
               0
  9
$SPLINETYPE
 70
               6
  9
$SPLINESEGS
 70
               8
  9
$ATTDIA
 70
               0
  9
$ATTREQ
 70
               1
  9
$HANDLING
 70
               1
  9
$HANDSEED
  5
564
  9
$SURFTAB1
 70
               6
  9
$SURFTAB2
 70
               6
  9
$SURFTYPE
 70
               6
  9
$SURFU
 70
               6
  9
$SURFV
 70
               6
  9
$UCSNAME
  2

  9
$UCSORG
 10
0.0
 20
0.0
 30
0.0
  9
$UCSXDIR
 10
1.0
 20
0.0
 30
0.0
  9
$UCSYDIR
 10
0.0
 20
1.0
 30
0.0
  9
$PUCSNAME
  2

  9
$PUCSORG
 10
0.0
 20
0.0
 30
0.0
  9
$PUCSXDIR
 10
1.0
 20
0.0
 30
0.0
  9
$PUCSYDIR
 10
0.0
 20
1.0
 30
0.0
  9
$USERI1
 70
               0
  9
$USERI2
 70
               0
  9
$USERI3
 70
               0
  9
$USERI4
 70
               0
  9
$USERI5
 70
               0
  9
$USERR1
 40
0.0
  9
$USERR2
 40
0.0
  9
$USERR3
 40
0.0
  9
$USERR4
 40
0.0
  9
$USERR5
 40
0.0
  9
$WORLDVIEW
 70
               1
  9
$SHADEDGE
 70
               3
  9
$SHADEDIF
 70
              70
  9
$TILEMODE
 70
               1
  9
$MAXACTVP
 70
              16
  9
$PINSBASE
 10
0.0
 20
0.0
 30
0.0
  9
$PLIMCHECK
 70
               0
  9
$PEXTMIN
 10
1.0000000000000000E+20
 20
1.0000000000000000E+20
 30
1.0000000000000000E+20
  9
$PEXTMAX
 10
-1.0000000000000000E+20
 20
-1.0000000000000000E+20
 30
-1.0000000000000000E+20
  9
$PLIMMIN
 10
0.0
 20
0.0
  9
$PLIMMAX
 10
12.0
 20
9.0
  9
$UNITMODE
 70
               0
  9
$VISRETAIN
 70
               0
  9
$PLINEGEN
 70
               1
  9
$PSLTSCALE
 70
               0
  9
$TREEDEPTH
 70
            3020
  9
$DWGCODEPAGE
  3
dos932
  0
ENDSEC
  0
SECTION
  2
TABLES
  0
TABLE
  2
VPORT
 70
               1
  0
VPORT
  2
*ACTIVE
 70
               0
 10
0.0
 20
0.0
 11
1.0
 21
1.0
 12
3.8713099121345067
 22
-428.69122902086843
 13
0.0
 23
0.0
 14
1.0
 24
1.0
 15
0.0
 25
0.0
 16
0.0
 26
0.0
 36
1.0
 17
0.0
 27
0.0
 37
0.0
 40
2398.8710094951512
 41
0.6577063189963953
 42
50.0
 43
0.0
 44
0.0
 50
0.0
 51
0.0
 71
               0
 72
             100
 73
               1
 74
               1
 75
               0
 76
               0
 77
               0
 78
               0
  0
ENDTAB
  0
TABLE
  2
LTYPE
 70
              26
  0
LTYPE
  2
CONTINUOUS
 70
               0
  3
Solid line
 72
              65
 73
               0
 40
0.0
  0
LTYPE
  2
HIDDENX2
 70
               0
  3
CADPAC FUSION LINETYPE
 72
              65
 73
               2
 40
47.560000000000002
 49
35.670000000000002
 49
-11.890000000000001
  0
LTYPE
  2
HIDDEN
 70
               0
  3
CADPAC FUSION LINETYPE
 72
              65
 73
               2
 40
35.670000000000002
 49
23.780000000000001
 49
-11.890000000000001
  0
LTYPE
  2
HIDDEN2
 70
               0
  3
CADPAC FUSION LINETYPE
 72
              65
 73
               2
 40
29.725000000000001
 49
17.835000000000001
 49
-11.890000000000001
  0
LTYPE
  2
DASHED
 70
               0
  3
CADPAC FUSION LINETYPE
 72
              65
 73
               2
 40
35.670000000000002
 49
23.780000000000001
 49
-11.890000000000001
  0
LTYPE
  2
DASHED2
 70
               0
  3
CADPAC FUSION LINETYPE
 72
              65
 73
               2
 40
26.752500000000001
 49
17.835000000000001
 49
-8.9175000000000004
  0
LTYPE
  2
DASHEDX2
 70
               0
  3
CADPAC FUSION LINETYPE
 72
              65
 73
               2
 40
53.505000000000003
 49
35.670000000000002
 49
-17.835000000000001
  0
LTYPE
  2
DOTX2
 70
               0
  3
CADPAC FUSION LINETYPE
 72
              65
 73
               2
 40
14.862500000000001
 49
0.0
 49
-14.862500000000001
  0
LTYPE
  2
DOT
 70
               0
  3
CADPAC FUSION LINETYPE
 72
              65
 73
               2
 40
11.890000000000001
 49
0.0
 49
-11.890000000000001
  0
LTYPE
  2
DOTS
 70
               0
  3
CADPAC FUSION LINETYPE
 72
              65
 73
               2
 40
11.890000000000001
 49
0.0
 49
-11.890000000000001
  0
LTYPE
  2
DOT2
 70
               0
  3
CADPAC FUSION LINETYPE
 72
              65
 73
               2
 40
8.9175000000000004
 49
0.0
 49
-8.9175000000000004
  0
LTYPE
  2
CENTERX2
 70
               0
  3
CADPAC FUSION LINETYPE
 72
              65
 73
               4
 40
71.340000000000003
 49
29.725000000000001
 49
-14.862500000000001
 49
11.890000000000001
 49
-14.862500000000001
  0
LTYPE
  2
CENTER
 70
               0
  3
CADPAC FUSION LINETYPE
 72
              65
 73
               4
 40
54.694000000000003
 49
23.780000000000001
 49
-11.890000000000001
 49
7.1340000000000003
 49
-11.890000000000001
  0
LTYPE
  2
CENTER2
 70
               0
  3
CADPAC FUSION LINETYPE
 72
              65
 73
               4
 40
38.048000000000002
 49
17.835000000000001
 49
-8.9175000000000004
 49
2.3780000000000001
 49
-8.9175000000000004
  0
LTYPE
  2
DASHDOTX2
 70
               0
  3
CADPAC FUSION LINETYPE
 72
              65
 73
               4
 40
59.450000000000003
 49
29.725000000000001
 49
-14.862500000000001
 49
0.0
 49
-14.862500000000001
  0
LTYPE
  2
DASHDOT
 70
               0
  3
CADPAC FUSION LINETYPE
 72
              65
 73
               4
 40
47.560000000000002
 49
23.780000000000001
 49
-11.890000000000001
 49
0.0
 49
-11.890000000000001
  0
LTYPE
  2
DASHDOT2
 70
               0
  3
CADPAC FUSION LINETYPE
 72
              65
 73
               4
 40
35.670000000000002
 49
17.835000000000001
 49
-8.9175000000000004
 49
0.0
 49
-8.9175000000000004
  0
LTYPE
  2
DIVIDEX2
 70
               0
  3
CADPAC FUSION LINETYPE
 72
              65
 73
               6
 40
74.3125
 49
29.725000000000001
 49
-14.862500000000001
 49
0.0
 49
-14.862500000000001
 49
0.0
 49
-14.862500000000001
  0
LTYPE
  2
DIVIDE
 70
               0
  3
CADPAC FUSION LINETYPE
 72
              65
 73
               6
 40
59.450000000000003
 49
23.780000000000001
 49
-11.890000000000001
 49
0.0
 49
-11.890000000000001
 49
0.0
 49
-11.890000000000001
  0
LTYPE
  2
DIVIDE2
 70
               0
  3
CADPAC FUSION LINETYPE
 72
              65
 73
               6
 40
44.587500000000006
 49
17.835000000000001
 49
-8.9175000000000004
 49
0.0
 49
-8.9175000000000004
 49
0.0
 49
-8.9175000000000004
  0
LTYPE
  2
BORDERX2
 70
               0
  3
CADPAC FUSION LINETYPE
 72
              65
 73
               6
 40
104.03750000000001
 49
29.725000000000001
 49
-14.862500000000001
 49
29.725000000000001
 49
-14.862500000000001
 49
0.0
 49
-14.862500000000001
  0
LTYPE
  2
BORDER
 70
               0
  3
CADPAC FUSION LINETYPE
 72
              65
 73
               6
 40
83.230000000000004
 49
23.780000000000001
 49
-11.890000000000001
 49
23.780000000000001
 49
-11.890000000000001
 49
0.0
 49
-11.890000000000001
  0
LTYPE
  2
BORDER2
 70
               0
  3
CADPAC FUSION LINETYPE
 72
              65
 73
               6
 40
62.422499999999999
 49
17.835000000000001
 49
-8.9175000000000004
 49
17.835000000000001
 49
-8.9175000000000004
 49
0.0
 49
-8.9175000000000004
  0
LTYPE
  2
PHANTOMX2
 70
               0
  3
CADPAC FUSION LINETYPE
 72
              65
 73
               6
 40
89.175000000000011
 49
29.725000000000001
 49
-11.890000000000001
 49
11.890000000000001
 49
-11.890000000000001
 49
11.890000000000001
 49
-11.890000000000001
  0
LTYPE
  2
PHANTOM
 70
               0
  3
CADPAC FUSION LINETYPE
 72
              65
 73
               6
 40
73.718000000000004
 49
23.780000000000001
 49
-11.890000000000001
 49
7.1340000000000003
 49
-11.890000000000001
 49
7.1340000000000003
 49
-11.890000000000001
  0
LTYPE
  2
PHANTOM2
 70
               0
  3
CADPAC FUSION LINETYPE
 72
              65
 73
               6
 40
63.017000000000003
 49
17.835000000000001
 49
-11.890000000000001
 49
4.7560000000000002
 49
-11.890000000000001
 49
4.7560000000000002
 49
-11.890000000000001
  0
ENDTAB
  0
TABLE
  2
LAYER
 70
             256
  0
LAYER
  2
0
 70
               0
 62
               7
  6
CONTINUOUS
  0
LAYER
  2
LAYER001
 70
               0
 62
               7
  6
CONTINUOUS
  0
LAYER
  2
LAYER002
 70
               0
 62
               7
  6
CONTINUOUS
  0
LAYER
  2
LAYER003
 70
               0
 62
               7
  6
CONTINUOUS
  0
LAYER
  2
LAYER004
 70
               0
 62
               7
  6
CONTINUOUS
  0
LAYER
  2
LAYER005
 70
               0
 62
               7
  6
CONTINUOUS
  0
LAYER
  2
LAYER006
 70
               0
 62
               7
  6
CONTINUOUS
  0
LAYER
  2
LAYER007
 70
               0
 62
               7
  6
CONTINUOUS
  0
LAYER
  2
LAYER008
 70
               0
 62
               7
  6
CONTINUOUS
  0
LAYER
  2
LAYER009
 70
               0
 62
               7
  6
CONTINUOUS
  0
LAYER
  2
LAYER010
 70
               0
 62
               7
  6
CONTINUOUS
  0
LAYER
  2
LAYER011
 70
               0
 62
               7
  6
CONTINUOUS
  0
LAYER
  2
LAYER012
 70
               0
 62
               7
  6
CONTINUOUS
  0
LAYER
  2
LAYER013
 70
               0
 62
               7
  6
CONTINUOUS
  0
LAYER
  2
LAYER014
 70
               0
 62
               7
  6
CONTINUOUS
  0
LAYER
  2
LAYER015
 70
               0
 62
               7
  6
CONTINUOUS
  0
LAYER
  2
LAYER016
 70
               0
 62
               7
  6
CONTINUOUS
  0
LAYER
  2
LAYER017
 70
               0
 62
               7
  6
CONTINUOUS
  0
LAYER
  2
LAYER018
 70
               0
 62
               7
  6
CONTINUOUS
  0
LAYER
  2
LAYER019
 70
               0
 62
               7
  6
CONTINUOUS
  0
LAYER
  2
LAYER020
 70
               0
 62
               7
  6
CONTINUOUS
  0
LAYER
  2
LAYER021
 70
               0
 62
               7
  6
CONTINUOUS
  0
LAYER
  2
LAYER022
 70
               0
 62
               7
  6
CONTINUOUS
  0
LAYER
  2
LAYER023
 70
               0
 62
               7
  6
CONTINUOUS
  0
LAYER
  2
LAYER024
 70
               0
 62
               7
  6
CONTINUOUS
  0
LAYER
  2
LAYER025
 70
               0
 62
               7
  6
CONTINUOUS
  0
LAYER
  2
LAYER026
 70
               0
 62
               7
  6
CONTINUOUS
  0
LAYER
  2
LAYER027
 70
               0
 62
               7
  6
CONTINUOUS
  0
LAYER
  2
LAYER028
 70
               0
 62
               7
  6
CONTINUOUS
  0
LAYER
  2
LAYER029
 70
               0
 62
               7
  6
CONTINUOUS
  0
LAYER
  2
LAYER030
 70
               0
 62
               7
  6
CONTINUOUS
  0
LAYER
  2
LAYER031
 70
               0
 62
               7
  6
CONTINUOUS
  0
LAYER
  2
LAYER032
 70
               0
 62
               7
  6
CONTINUOUS
  0
LAYER
  2
LAYER033
 70
               0
 62
               7
  6
CONTINUOUS
  0
LAYER
  2
LAYER034
 70
               0
 62
               7
  6
CONTINUOUS
  0
LAYER
  2
LAYER035
 70
               0
 62
               7
  6
CONTINUOUS
  0
LAYER
  2
LAYER036
 70
               0
 62
               7
  6
CONTINUOUS
  0
LAYER
  2
LAYER037
 70
               0
 62
               7
  6
CONTINUOUS
  0
LAYER
  2
LAYER038
 70
               0
 62
               7
  6
CONTINUOUS
  0
LAYER
  2
LAYER039
 70
               0
 62
               7
  6
CONTINUOUS
  0
LAYER
  2
LAYER040
 70
               0
 62
               7
  6
CONTINUOUS
  0
LAYER
  2
LAYER041
 70
               0
 62
               7
  6
CONTINUOUS
  0
LAYER
  2
LAYER042
 70
               0
 62
               7
  6
CONTINUOUS
  0
LAYER
  2
LAYER043
 70
               0
 62
               7
  6
CONTINUOUS
  0
LAYER
  2
LAYER044
 70
               0
 62
               7
  6
CONTINUOUS
  0
LAYER
  2
LAYER045
 70
               0
 62
               7
  6
CONTINUOUS
  0
LAYER
  2
LAYER046
 70
               0
 62
               7
  6
CONTINUOUS
  0
LAYER
  2
LAYER047
 70
               0
 62
               7
  6
CONTINUOUS
  0
LAYER
  2
LAYER048
 70
               0
 62
               7
  6
CONTINUOUS
  0
LAYER
  2
LAYER049
 70
               0
 62
               7
  6
CONTINUOUS
  0
LAYER
  2
LAYER050
 70
               0
 62
               7
  6
CONTINUOUS
  0
LAYER
  2
LAYER051
 70
               0
 62
               7
  6
CONTINUOUS
  0
LAYER
  2
LAYER052
 70
               0
 62
               7
  6
CONTINUOUS
  0
LAYER
  2
LAYER053
 70
               0
 62
               7
  6
CONTINUOUS
  0
LAYER
  2
LAYER054
 70
               0
 62
               7
  6
CONTINUOUS
  0
LAYER
  2
LAYER055
 70
               0
 62
               7
  6
CONTINUOUS
  0
LAYER
  2
LAYER056
 70
               0
 62
               7
  6
CONTINUOUS
  0
LAYER
  2
LAYER057
 70
               0
 62
               7
  6
CONTINUOUS
  0
LAYER
  2
LAYER058
 70
               0
 62
               7
  6
CONTINUOUS
  0
LAYER
  2
LAYER059
 70
               0
 62
               7
  6
CONTINUOUS
  0
LAYER
  2
LAYER060
 70
               0
 62
               7
  6
CONTINUOUS
  0
LAYER
  2
LAYER061
 70
               0
 62
               7
  6
CONTINUOUS
  0
LAYER
  2
LAYER062
 70
               0
 62
               7
  6
CONTINUOUS
  0
LAYER
  2
LAYER063
 70
               0
 62
               7
  6
CONTINUOUS
  0
LAYER
  2
LAYER064
 70
               0
 62
               7
  6
CONTINUOUS
  0
LAYER
  2
LAYER065
 70
               0
 62
               7
  6
CONTINUOUS
  0
LAYER
  2
LAYER066
 70
               0
 62
               7
  6
CONTINUOUS
  0
LAYER
  2
LAYER067
 70
               0
 62
               7
  6
CONTINUOUS
  0
LAYER
  2
LAYER068
 70
               0
 62
               7
  6
CONTINUOUS
  0
LAYER
  2
LAYER069
 70
               0
 62
               7
  6
CONTINUOUS
  0
LAYER
  2
LAYER070
 70
               0
 62
               7
  6
CONTINUOUS
  0
LAYER
  2
LAYER071
 70
               0
 62
               7
  6
CONTINUOUS
  0
LAYER
  2
LAYER072
 70
               0
 62
               7
  6
CONTINUOUS
  0
LAYER
  2
LAYER073
 70
               0
 62
               7
  6
CONTINUOUS
  0
LAYER
  2
LAYER074
 70
               0
 62
               7
  6
CONTINUOUS
  0
LAYER
  2
LAYER075
 70
               0
 62
               7
  6
CONTINUOUS
  0
LAYER
  2
LAYER076
 70
               0
 62
               7
  6
CONTINUOUS
  0
LAYER
  2
LAYER077
 70
               0
 62
               7
  6
CONTINUOUS
  0
LAYER
  2
LAYER078
 70
               0
 62
               7
  6
CONTINUOUS
  0
LAYER
  2
LAYER079
 70
               0
 62
               7
  6
CONTINUOUS
  0
LAYER
  2
LAYER080
 70
               0
 62
               7
  6
CONTINUOUS
  0
LAYER
  2
LAYER081
 70
               0
 62
               7
  6
CONTINUOUS
  0
LAYER
  2
LAYER082
 70
               0
 62
               7
  6
CONTINUOUS
  0
LAYER
  2
LAYER083
 70
               0
 62
               7
  6
CONTINUOUS
  0
LAYER
  2
LAYER084
 70
               0
 62
               7
  6
CONTINUOUS
  0
LAYER
  2
LAYER085
 70
               0
 62
               7
  6
CONTINUOUS
  0
LAYER
  2
LAYER086
 70
               0
 62
               7
  6
CONTINUOUS
  0
LAYER
  2
LAYER087
 70
               0
 62
               7
  6
CONTINUOUS
  0
LAYER
  2
LAYER088
 70
               0
 62
               7
  6
CONTINUOUS
  0
LAYER
  2
LAYER089
 70
               0
 62
               7
  6
CONTINUOUS
  0
LAYER
  2
LAYER090
 70
               0
 62
               7
  6
CONTINUOUS
  0
LAYER
  2
LAYER091
 70
               0
 62
               7
  6
CONTINUOUS
  0
LAYER
  2
LAYER092
 70
               0
 62
               7
  6
CONTINUOUS
  0
LAYER
  2
LAYER093
 70
               0
 62
               7
  6
CONTINUOUS
  0
LAYER
  2
LAYER094
 70
               0
 62
               7
  6
CONTINUOUS
  0
LAYER
  2
LAYER095
 70
               0
 62
               7
  6
CONTINUOUS
  0
LAYER
  2
LAYER096
 70
               0
 62
               7
  6
CONTINUOUS
  0
LAYER
  2
LAYER097
 70
               0
 62
               7
  6
CONTINUOUS
  0
LAYER
  2
LAYER098
 70
               0
 62
               7
  6
CONTINUOUS
  0
LAYER
  2
LAYER099
 70
               0
 62
               7
  6
CONTINUOUS
  0
LAYER
  2
LAYER100
 70
               0
 62
               7
  6
CONTINUOUS
  0
LAYER
  2
LAYER101
 70
               0
 62
               7
  6
CONTINUOUS
  0
LAYER
  2
LAYER102
 70
               0
 62
               7
  6
CONTINUOUS
  0
LAYER
  2
LAYER103
 70
               0
 62
               7
  6
CONTINUOUS
  0
LAYER
  2
LAYER104
 70
               0
 62
               7
  6
CONTINUOUS
  0
LAYER
  2
LAYER105
 70
               0
 62
               7
  6
CONTINUOUS
  0
LAYER
  2
LAYER106
 70
               0
 62
               7
  6
CONTINUOUS
  0
LAYER
  2
LAYER107
 70
               0
 62
               7
  6
CONTINUOUS
  0
LAYER
  2
LAYER108
 70
               0
 62
               7
  6
CONTINUOUS
  0
LAYER
  2
LAYER109
 70
               0
 62
               7
  6
CONTINUOUS
  0
LAYER
  2
LAYER110
 70
               0
 62
               7
  6
CONTINUOUS
  0
LAYER
  2
LAYER111
 70
               0
 62
               7
  6
CONTINUOUS
  0
LAYER
  2
LAYER112
 70
               0
 62
               7
  6
CONTINUOUS
  0
LAYER
  2
LAYER113
 70
               0
 62
               7
  6
CONTINUOUS
  0
LAYER
  2
LAYER114
 70
               0
 62
               7
  6
CONTINUOUS
  0
LAYER
  2
LAYER115
 70
               0
 62
               7
  6
CONTINUOUS
  0
LAYER
  2
LAYER116
 70
               0
 62
               7
  6
CONTINUOUS
  0
LAYER
  2
LAYER117
 70
               0
 62
               7
  6
CONTINUOUS
  0
LAYER
  2
LAYER118
 70
               0
 62
               7
  6
CONTINUOUS
  0
LAYER
  2
LAYER119
 70
               0
 62
               7
  6
CONTINUOUS
  0
LAYER
  2
LAYER120
 70
               0
 62
               7
  6
CONTINUOUS
  0
LAYER
  2
LAYER121
 70
               0
 62
               7
  6
CONTINUOUS
  0
LAYER
  2
LAYER122
 70
               0
 62
               7
  6
CONTINUOUS
  0
LAYER
  2
LAYER123
 70
               0
 62
               7
  6
CONTINUOUS
  0
LAYER
  2
LAYER124
 70
               0
 62
               7
  6
CONTINUOUS
  0
LAYER
  2
LAYER125
 70
               0
 62
               7
  6
CONTINUOUS
  0
LAYER
  2
LAYER126
 70
               0
 62
               7
  6
CONTINUOUS
  0
LAYER
  2
LAYER127
 70
               0
 62
               7
  6
CONTINUOUS
  0
LAYER
  2
LAYER128
 70
               0
 62
               7
  6
CONTINUOUS
  0
LAYER
  2
LAYER129
 70
               0
 62
               7
  6
CONTINUOUS
  0
LAYER
  2
LAYER130
 70
               0
 62
               7
  6
CONTINUOUS
  0
LAYER
  2
LAYER131
 70
               0
 62
               7
  6
CONTINUOUS
  0
LAYER
  2
LAYER132
 70
               0
 62
               7
  6
CONTINUOUS
  0
LAYER
  2
LAYER133
 70
               0
 62
               7
  6
CONTINUOUS
  0
LAYER
  2
LAYER134
 70
               0
 62
               7
  6
CONTINUOUS
  0
LAYER
  2
LAYER135
 70
               0
 62
               7
  6
CONTINUOUS
  0
LAYER
  2
LAYER136
 70
               0
 62
               7
  6
CONTINUOUS
  0
LAYER
  2
LAYER137
 70
               0
 62
               7
  6
CONTINUOUS
  0
LAYER
  2
LAYER138
 70
               0
 62
               7
  6
CONTINUOUS
  0
LAYER
  2
LAYER139
 70
               0
 62
               7
  6
CONTINUOUS
  0
LAYER
  2
LAYER140
 70
               0
 62
               7
  6
CONTINUOUS
  0
LAYER
  2
LAYER141
 70
               0
 62
               7
  6
CONTINUOUS
  0
LAYER
  2
LAYER142
 70
               0
 62
               7
  6
CONTINUOUS
  0
LAYER
  2
LAYER143
 70
               0
 62
               7
  6
CONTINUOUS
  0
LAYER
  2
LAYER144
 70
               0
 62
               7
  6
CONTINUOUS
  0
LAYER
  2
LAYER145
 70
               0
 62
               7
  6
CONTINUOUS
  0
LAYER
  2
LAYER146
 70
               0
 62
               7
  6
CONTINUOUS
  0
LAYER
  2
LAYER147
 70
               0
 62
               7
  6
CONTINUOUS
  0
LAYER
  2
LAYER148
 70
               0
 62
               7
  6
CONTINUOUS
  0
LAYER
  2
LAYER149
 70
               0
 62
               7
  6
CONTINUOUS
  0
LAYER
  2
LAYER150
 70
               0
 62
               7
  6
CONTINUOUS
  0
LAYER
  2
LAYER151
 70
               0
 62
               7
  6
CONTINUOUS
  0
LAYER
  2
LAYER152
 70
               0
 62
               7
  6
CONTINUOUS
  0
LAYER
  2
LAYER153
 70
               0
 62
               7
  6
CONTINUOUS
  0
LAYER
  2
LAYER154
 70
               0
 62
               7
  6
CONTINUOUS
  0
LAYER
  2
LAYER155
 70
               0
 62
               7
  6
CONTINUOUS
  0
LAYER
  2
LAYER156
 70
               0
 62
               7
  6
CONTINUOUS
  0
LAYER
  2
LAYER157
 70
               0
 62
               7
  6
CONTINUOUS
  0
LAYER
  2
LAYER158
 70
               0
 62
               7
  6
CONTINUOUS
  0
LAYER
  2
LAYER159
 70
               0
 62
               7
  6
CONTINUOUS
  0
LAYER
  2
LAYER160
 70
               0
 62
               7
  6
CONTINUOUS
  0
LAYER
  2
LAYER161
 70
               0
 62
               7
  6
CONTINUOUS
  0
LAYER
  2
LAYER162
 70
               0
 62
               7
  6
CONTINUOUS
  0
LAYER
  2
LAYER163
 70
               0
 62
               7
  6
CONTINUOUS
  0
LAYER
  2
LAYER164
 70
               0
 62
               7
  6
CONTINUOUS
  0
LAYER
  2
LAYER165
 70
               0
 62
               7
  6
CONTINUOUS
  0
LAYER
  2
LAYER166
 70
               0
 62
               7
  6
CONTINUOUS
  0
LAYER
  2
LAYER167
 70
               0
 62
               7
  6
CONTINUOUS
  0
LAYER
  2
LAYER168
 70
               0
 62
               7
  6
CONTINUOUS
  0
LAYER
  2
LAYER169
 70
               0
 62
               7
  6
CONTINUOUS
  0
LAYER
  2
LAYER170
 70
               0
 62
               7
  6
CONTINUOUS
  0
LAYER
  2
LAYER171
 70
               0
 62
               7
  6
CONTINUOUS
  0
LAYER
  2
LAYER172
 70
               0
 62
               7
  6
CONTINUOUS
  0
LAYER
  2
LAYER173
 70
               0
 62
               7
  6
CONTINUOUS
  0
LAYER
  2
LAYER174
 70
               0
 62
               7
  6
CONTINUOUS
  0
LAYER
  2
LAYER175
 70
               0
 62
               7
  6
CONTINUOUS
  0
LAYER
  2
LAYER176
 70
               0
 62
               7
  6
CONTINUOUS
  0
LAYER
  2
LAYER177
 70
               0
 62
               7
  6
CONTINUOUS
  0
LAYER
  2
LAYER178
 70
               0
 62
               7
  6
CONTINUOUS
  0
LAYER
  2
LAYER179
 70
               0
 62
               7
  6
CONTINUOUS
  0
LAYER
  2
LAYER180
 70
               0
 62
               7
  6
CONTINUOUS
  0
LAYER
  2
LAYER181
 70
               0
 62
               7
  6
CONTINUOUS
  0
LAYER
  2
LAYER182
 70
               0
 62
               7
  6
CONTINUOUS
  0
LAYER
  2
LAYER183
 70
               0
 62
               7
  6
CONTINUOUS
  0
LAYER
  2
LAYER184
 70
               0
 62
               7
  6
CONTINUOUS
  0
LAYER
  2
LAYER185
 70
               0
 62
               7
  6
CONTINUOUS
  0
LAYER
  2
LAYER186
 70
               0
 62
               7
  6
CONTINUOUS
  0
LAYER
  2
LAYER187
 70
               0
 62
               7
  6
CONTINUOUS
  0
LAYER
  2
LAYER188
 70
               0
 62
               7
  6
CONTINUOUS
  0
LAYER
  2
LAYER189
 70
               0
 62
               7
  6
CONTINUOUS
  0
LAYER
  2
LAYER190
 70
               0
 62
               7
  6
CONTINUOUS
  0
LAYER
  2
LAYER191
 70
               0
 62
               7
  6
CONTINUOUS
  0
LAYER
  2
LAYER192
 70
               0
 62
               7
  6
CONTINUOUS
  0
LAYER
  2
LAYER193
 70
               0
 62
               7
  6
CONTINUOUS
  0
LAYER
  2
LAYER194
 70
               0
 62
               7
  6
CONTINUOUS
  0
LAYER
  2
LAYER195
 70
               0
 62
               7
  6
CONTINUOUS
  0
LAYER
  2
LAYER196
 70
               0
 62
               7
  6
CONTINUOUS
  0
LAYER
  2
LAYER197
 70
               0
 62
               7
  6
CONTINUOUS
  0
LAYER
  2
LAYER198
 70
               0
 62
               7
  6
CONTINUOUS
  0
LAYER
  2
LAYER199
 70
               0
 62
               7
  6
CONTINUOUS
  0
LAYER
  2
LAYER200
 70
               0
 62
               7
  6
CONTINUOUS
  0
LAYER
  2
LAYER201
 70
               0
 62
               7
  6
CONTINUOUS
  0
LAYER
  2
LAYER202
 70
               0
 62
               7
  6
CONTINUOUS
  0
LAYER
  2
LAYER203
 70
               0
 62
               7
  6
CONTINUOUS
  0
LAYER
  2
LAYER204
 70
               0
 62
               7
  6
CONTINUOUS
  0
LAYER
  2
LAYER205
 70
               0
 62
               7
  6
CONTINUOUS
  0
LAYER
  2
LAYER206
 70
               0
 62
               7
  6
CONTINUOUS
  0
LAYER
  2
LAYER207
 70
               0
 62
               7
  6
CONTINUOUS
  0
LAYER
  2
LAYER208
 70
               0
 62
               7
  6
CONTINUOUS
  0
LAYER
  2
LAYER209
 70
               0
 62
               7
  6
CONTINUOUS
  0
LAYER
  2
LAYER210
 70
               0
 62
               7
  6
CONTINUOUS
  0
LAYER
  2
LAYER211
 70
               0
 62
               7
  6
CONTINUOUS
  0
LAYER
  2
LAYER212
 70
               0
 62
               7
  6
CONTINUOUS
  0
LAYER
  2
LAYER213
 70
               0
 62
               7
  6
CONTINUOUS
  0
LAYER
  2
LAYER214
 70
               0
 62
               7
  6
CONTINUOUS
  0
LAYER
  2
LAYER215
 70
               0
 62
               7
  6
CONTINUOUS
  0
LAYER
  2
LAYER216
 70
               0
 62
               7
  6
CONTINUOUS
  0
LAYER
  2
LAYER217
 70
               0
 62
               7
  6
CONTINUOUS
  0
LAYER
  2
LAYER218
 70
               0
 62
               7
  6
CONTINUOUS
  0
LAYER
  2
LAYER219
 70
               0
 62
               7
  6
CONTINUOUS
  0
LAYER
  2
LAYER220
 70
               0
 62
               7
  6
CONTINUOUS
  0
LAYER
  2
LAYER221
 70
               0
 62
               7
  6
CONTINUOUS
  0
LAYER
  2
LAYER222
 70
               0
 62
               7
  6
CONTINUOUS
  0
LAYER
  2
LAYER223
 70
               0
 62
               7
  6
CONTINUOUS
  0
LAYER
  2
LAYER224
 70
               0
 62
               7
  6
CONTINUOUS
  0
LAYER
  2
LAYER225
 70
               0
 62
               7
  6
CONTINUOUS
  0
LAYER
  2
LAYER226
 70
               0
 62
               7
  6
CONTINUOUS
  0
LAYER
  2
LAYER227
 70
               0
 62
               7
  6
CONTINUOUS
  0
LAYER
  2
LAYER228
 70
               0
 62
               7
  6
CONTINUOUS
  0
LAYER
  2
LAYER229
 70
               0
 62
               7
  6
CONTINUOUS
  0
LAYER
  2
LAYER230
 70
               0
 62
               7
  6
CONTINUOUS
  0
LAYER
  2
LAYER231
 70
               0
 62
               7
  6
CONTINUOUS
  0
LAYER
  2
LAYER232
 70
               0
 62
               7
  6
CONTINUOUS
  0
LAYER
  2
LAYER233
 70
               0
 62
               7
  6
CONTINUOUS
  0
LAYER
  2
LAYER234
 70
               0
 62
               7
  6
CONTINUOUS
  0
LAYER
  2
LAYER235
 70
               0
 62
               7
  6
CONTINUOUS
  0
LAYER
  2
LAYER236
 70
               0
 62
               7
  6
CONTINUOUS
  0
LAYER
  2
LAYER237
 70
               0
 62
               7
  6
CONTINUOUS
  0
LAYER
  2
LAYER238
 70
               0
 62
               7
  6
CONTINUOUS
  0
LAYER
  2
LAYER239
 70
               0
 62
               7
  6
CONTINUOUS
  0
LAYER
  2
LAYER240
 70
               0
 62
               7
  6
CONTINUOUS
  0
LAYER
  2
LAYER241
 70
               0
 62
               7
  6
CONTINUOUS
  0
LAYER
  2
LAYER242
 70
               0
 62
               7
  6
CONTINUOUS
  0
LAYER
  2
LAYER243
 70
               0
 62
               7
  6
CONTINUOUS
  0
LAYER
  2
LAYER244
 70
               0
 62
               7
  6
CONTINUOUS
  0
LAYER
  2
LAYER245
 70
               0
 62
               7
  6
CONTINUOUS
  0
LAYER
  2
LAYER246
 70
               0
 62
               7
  6
CONTINUOUS
  0
LAYER
  2
LAYER247
 70
               0
 62
               7
  6
CONTINUOUS
  0
LAYER
  2
LAYER248
 70
               0
 62
               7
  6
CONTINUOUS
  0
LAYER
  2
LAYER249
 70
               0
 62
               7
  6
CONTINUOUS
  0
LAYER
  2
LAYER250
 70
               0
 62
               7
  6
CONTINUOUS
  0
LAYER
  2
LAYER251
 70
               0
 62
               7
  6
CONTINUOUS
  0
LAYER
  2
LAYER252
 70
               0
 62
               7
  6
CONTINUOUS
  0
LAYER
  2
LAYER253
 70
               0
 62
               7
  6
CONTINUOUS
  0
LAYER
  2
LAYER254
 70
               0
 62
               7
  6
CONTINUOUS
  0
LAYER
  2
LAYER255
 70
               0
 62
               7
  6
CONTINUOUS
  0
ENDTAB
  0
TABLE
  2
STYLE
 70
               1
  0
STYLE
  2
STANDARD
 70
               0
 40
0.0
 41
0.8
 50
0.0
 71
               0
 42
40.0
  3
MS PGothic.ttf
  4

  0
ENDTAB
  0
TABLE
  2
VIEW
 70
               0
  0
VIEW
  2
QQQQ
 70
               0
 40
2398.8710094951512
 10
3.8713099121345067
 20
-428.69122902086843
 41
1577.7526214022228
 11
0.0
 21
0.0
 31
1.0
 12
100.0
 22
100.0
 32
0.0
 42
50.0
 43
0.0
 44
0.0
 50
0.0
 71
               0
  0
ENDTAB
  0
TABLE
  2
UCS
 70
               0
  0
ENDTAB
  0
TABLE
  2
APPID
 70
               1
  0
APPID
  2
ACAD
 70
               0
  0
ENDTAB
  0
TABLE
  2
DIMSTYLE
 70
               1
  0
DIMSTYLE
  2
STANDARD
 70
               0
  3

  4

  5

  6

  7

 40
1.0
 41
0.18
 42
0.0625
 43
0.38
 44
0.18
 45
0.0
 46
0.0
 47
0.0
 48
0.0
140
0.18
141
0.09
142
0.0
143
25.399999999999999
144
1.0
145
0.0
146
1.0
147
0.09
 71
               0
 72
               0
 73
               1
 74
               1
 75
               0
 76
               0
 77
               0
 78
               0
170
               0
171
               2
172
               0
173
               0
174
               0
175
               0
176
               0
177
               0
178
               0
  0
ENDTAB
  0
ENDSEC
  0
SECTION
  2
BLOCKS
  0
BLOCK
  8
0
  5
13E
  2
GROUP_1
 70
               0
 10
0.0
 20
0.0
 30
0.0
  3
GROUP_1
  0
LINE
  8
0
  6
CONTINUOUS
 62
               4
  5
13F
 10
-72.753934824881327
 20
-190.77389756274465
 30
0.0
 11
-71.386324971861001
 21
-191.64809654712494
 31
0.0
  0
LINE
  8
0
  6
CONTINUOUS
 62
               4
  5
140
 10
-71.386324971861001
 20
-191.64809654712494
 30
0.0
 11
-70.018715118838259
 21
-192.52718601626887
 31
0.0
  0
LINE
  8
0
  6
CONTINUOUS
 62
               4
  5
141
 10
-70.018715118838259
 20
-192.52718601626887
 30
0.0
 11
-68.651105265813811
 21
-193.41605645485592
 31
0.0
  0
LINE
  8
0
  6
CONTINUOUS
 62
               4
  5
142
 10
-68.651105265813811
 20
-193.41605645485592
 30
0.0
 11
-67.283495412788582
 21
-194.31959834756552
 31
0.0
  0
LINE
  8
0
  6
CONTINUOUS
 62
               4
  5
143
 10
-67.283495412788582
 20
-194.31959834756552
 30
0.0
 11
-65.915885559763495
 21
-195.24270217907707
 31
0.0
  0
LINE
  8
0
  6
CONTINUOUS
 62
               4
  5
144
 10
-65.915885559763495
 20
-195.24270217907707
 30
0.0
 11
-64.548275706739119
 21
-196.18882394937376
 31
0.0
  0
LINE
  8
0
  6
CONTINUOUS
 62
               4
  5
145
 10
-64.548275706739119
 20
-196.18882394937376
 30
0.0
 11
-63.180665853715318
 21
-197.15568171965359
 31
0.0
  0
LINE
  8
0
  6
CONTINUOUS
 62
               4
  5
146
 10
-63.180665853715318
 20
-197.15568171965359
 30
0.0
 11
-61.813056000691937
 21
-198.13955906641829
 31
0.0
  0
LINE
  8
0
  6
CONTINUOUS
 62
               4
  5
147
 10
-61.813056000691937
 20
-198.13955906641829
 30
0.0
 11
-60.445446147668768
 21
-199.13673956616969
 31
0.0
  0
LINE
  8
0
  6
CONTINUOUS
 62
               4
  5
148
 10
-60.445446147668768
 20
-199.13673956616969
 30
0.0
 11
-59.077836294645671
 21
-200.14350679540956
 31
0.0
  0
LINE
  8
0
  6
CONTINUOUS
 62
               4
  5
149
 10
-59.077836294645671
 20
-200.14350679540956
 30
0.0
 11
-57.71022644162236
 21
-201.15677026944161
 31
0.0
  0
LINE
  8
0
  6
CONTINUOUS
 62
               4
  5
14A
 10
-57.71022644162236
 20
-201.15677026944161
 30
0.0
 11
-56.342616588598766
 21
-202.17594325877738
 31
0.0
  0
LINE
  8
0
  6
CONTINUOUS
 62
               4
  5
14B
 10
-56.342616588598766
 20
-202.17594325877738
 30
0.0
 11
-54.975006735575171
 21
-203.20106497273036
 31
0.0
  0
LINE
  8
0
  6
CONTINUOUS
 62
               4
  5
14C
 10
-54.975006735575171
 20
-203.20106497273036
 30
0.0
 11
-53.607396882551576
 21
-204.23217462061407
 31
0.0
  0
LINE
  8
0
  6
CONTINUOUS
 62
               4
  5
14D
 10
-53.607396882551576
 20
-204.23217462061407
 30
0.0
 11
-52.239787029527697
 21
-205.269311411742
 31
0.0
  0
LINE
  8
0
  6
CONTINUOUS
 62
               4
  5
14E
 10
-52.239787029527697
 20
-205.269311411742
 30
0.0
 11
-50.872177176504103
 21
-206.31245328491619
 31
0.0
  0
LINE
  8
0
  6
CONTINUOUS
 62
               4
  5
14F
 10
-50.872177176504103
 20
-206.31245328491619
 30
0.0
 11
-49.504567323480579
 21
-207.36133309689225
 31
0.0
  0
LINE
  8
0
  6
CONTINUOUS
 62
               4
  5
150
 10
-49.504567323480579
 20
-207.36133309689225
 30
0.0
 11
-48.136957470457055
 21
-208.41562243391456
 31
0.0
  0
LINE
  8
0
  6
CONTINUOUS
 62
               4
  5
151
 10
-48.136957470457055
 20
-208.41562243391456
 30
0.0
 11
-46.769347617433532
 21
-209.47499288222721
 31
0.0
  0
LINE
  8
0
  6
CONTINUOUS
 62
               4
  5
152
 10
-46.769347617433532
 20
-209.47499288222721
 30
0.0
 11
-45.401737764410008
 21
-210.53911602807449
 31
0.0
  0
LINE
  8
0
  6
CONTINUOUS
 62
               4
  5
153
 10
-45.401737764410008
 20
-210.53911602807449
 30
0.0
 11
-44.034127911386342
 21
-211.60764260094479
 31
0.0
  0
LINE
  8
0
  6
CONTINUOUS
 62
               4
  5
154
 10
-44.034127911386342
 20
-211.60764260094479
 30
0.0
 11
-42.66651805836289
 21
-212.68013990330363
 31
0.0
  0
LINE
  8
0
  6
CONTINUOUS
 62
               4
  5
155
 10
-42.66651805836289
 20
-212.68013990330363
 30
0.0
 11
-41.298908205339366
 21
-213.75615438086049
 31
0.0
  0
LINE
  8
0
  6
CONTINUOUS
 62
               4
  5
156
 10
-41.298908205339366
 20
-213.75615438086049
 30
0.0
 11
-39.931298352315771
 21
-214.83523247932501
 31
0.0
  0
LINE
  8
0
  6
CONTINUOUS
 62
               4
  5
157
 10
-39.931298352315771
 20
-214.83523247932501
 30
0.0
 11
-38.563688499292176
 21
-215.91692064440696
 31
0.0
  0
LINE
  8
0
  6
CONTINUOUS
 62
               4
  5
158
 10
-38.563688499292176
 20
-215.91692064440696
 30
0.0
 11
-37.196078646268653
 21
-217.00091001935033
 31
0.0
  0
LINE
  8
0
  6
CONTINUOUS
 62
               4
  5
159
 10
-37.196078646268653
 20
-217.00091001935033
 30
0.0
 11
-35.828468793245058
 21
-218.08747053753797
 31
0.0
  0
LINE
  8
0
  6
CONTINUOUS
 62
               4
  5
15A
 10
-35.828468793245058
 20
-218.08747053753797
 30
0.0
 11
-34.460858940221463
 21
-219.17701682988724
 31
0.0
  0
LINE
  8
0
  6
CONTINUOUS
 62
               4
  5
15B
 10
-34.460858940221463
 20
-219.17701682988724
 30
0.0
 11
-33.093249087197798
 21
-220.26996352731516
 31
0.0
  0
LINE
  8
0
  6
CONTINUOUS
 62
               4
  5
15C
 10
-33.093249087197798
 20
-220.26996352731516
 30
0.0
 11
-31.725639234174345
 21
-221.36672526073943
 31
0.0
  0
LINE
  8
0
  6
CONTINUOUS
 62
               4
  5
15D
 10
-31.725639234174345
 20
-221.36672526073943
 30
0.0
 11
-30.35802938115075
 21
-222.46751872769431
 31
0.0
  0
LINE
  8
0
  6
CONTINUOUS
 62
               4
  5
15E
 10
-30.35802938115075
 20
-222.46751872769431
 30
0.0
 11
-28.990419528127084
 21
-223.5717688921838
 31
0.0
  0
LINE
  8
0
  6
CONTINUOUS
 62
               4
  5
15F
 10
-28.990419528127084
 20
-223.5717688921838
 30
0.0
 11
-27.622809675103632
 21
-224.67870278482911
 31
0.0
  0
LINE
  8
0
  6
CONTINUOUS
 62
               4
  5
160
 10
-27.622809675103632
 20
-224.67870278482911
 30
0.0
 11
-26.255199822080037
 21
-225.78754743625137
 31
0.0
  0
LINE
  8
0
  6
CONTINUOUS
 62
               4
  5
161
 10
-26.255199822080037
 20
-225.78754743625137
 30
0.0
 11
-24.887589969056442
 21
-226.8975298770718
 31
0.0
  0
LINE
  8
0
  6
CONTINUOUS
 62
               4
  5
162
 10
-24.887589969056442
 20
-226.8975298770718
 30
0.0
 11
-23.51998011603299
 21
-228.0081641739078
 31
0.0
  0
LINE
  8
0
  6
CONTINUOUS
 62
               4
  5
163
 10
-23.51998011603299
 20
-228.0081641739078
 30
0.0
 11
-22.152370263009395
 21
-229.12011253736097
 31
0.0
  0
LINE
  8
0
  6
CONTINUOUS
 62
               4
  5
164
 10
-22.152370263009395
 20
-229.12011253736097
 30
0.0
 11
-20.784760409985729
 21
-230.23432421402953
 31
0.0
  0
LINE
  8
0
  6
CONTINUOUS
 62
               4
  5
165
 10
-20.784760409985729
 20
-230.23432421402953
 30
0.0
 11
-19.417150556962135
 21
-231.35174845051137
 31
0.0
  0
LINE
  8
0
  6
CONTINUOUS
 62
               4
  5
166
 10
-19.417150556962135
 20
-231.35174845051137
 30
0.0
 11
-18.049540703938611
 21
-232.47333449340437
 31
0.0
  0
LINE
  8
0
  6
CONTINUOUS
 62
               4
  5
167
 10
-18.049540703938611
 20
-232.47333449340437
 30
0.0
 11
-16.681930850914945
 21
-233.59972937870458
 31
0.0
  0
LINE
  8
0
  6
CONTINUOUS
 62
               4
  5
168
 10
-16.681930850914945
 20
-233.59972937870458
 30
0.0
 11
-15.314320997891421
 21
-234.73037130000108
 31
0.0
  0
LINE
  8
0
  6
CONTINUOUS
 62
               4
  5
169
 10
-15.314320997891421
 20
-234.73037130000108
 30
0.0
 11
-13.946711144867898
 21
-235.86439624028054
 31
0.0
  0
LINE
  8
0
  6
CONTINUOUS
 62
               4
  5
16A
 10
-13.946711144867898
 20
-235.86439624028054
 30
0.0
 11
-12.579101291844232
 21
-237.0009401825302
 31
0.0
  0
LINE
  8
0
  6
CONTINUOUS
 62
               4
  5
16B
 10
-12.579101291844232
 20
-237.0009401825302
 30
0.0
 11
-11.211491438820708
 21
-238.13913910973673
 31
0.0
  0
LINE
  8
0
  6
CONTINUOUS
 62
               4
  5
16C
 10
-11.211491438820708
 20
-238.13913910973673
 30
0.0
 11
-9.84388158580159
 21
-239.27816044285834
 31
0.0
  0
LINE
  8
0
  6
CONTINUOUS
 62
               4
  5
16D
 10
-9.84388158580159
 20
-239.27816044285834
 30
0.0
 11
-8.4762717327868771
 21
-240.41814919693769
 31
0.0
  0
LINE
  8
0
  6
CONTINUOUS
 62
               4
  5
16E
 10
-8.4762717327868771
 20
-240.41814919693769
 30
0.0
 11
-7.1086618797699606
 21
-241.5597077460896
 31
0.0
  0
LINE
  8
0
  6
CONTINUOUS
 62
               4
  5
16F
 10
-7.1086618797699606
 20
-241.5597077460896
 30
0.0
 11
-5.7410520267441632
 21
-242.70343846442864
 31
0.0
  0
LINE
  8
0
  6
CONTINUOUS
 62
               4
  5
170
 10
-5.7410520267441632
 20
-242.70343846442864
 30
0.0
 11
-4.3734421737028759
 21
-243.84994372606928
 31
0.0
  0
LINE
  8
0
  6
CONTINUOUS
 62
               4
  5
171
 10
-4.3734421737028759
 20
-243.84994372606928
 30
0.0
 11
-3.0058323206603812
 21
-244.99924178475084
 31
0.0
  0
LINE
  8
0
  6
CONTINUOUS
 62
               4
  5
172
 10
-3.0058323206603812
 20
-244.99924178475084
 30
0.0
 11
-1.6382224676323098
 21
-246.15071809717193
 31
0.0
  0
LINE
  8
0
  6
CONTINUOUS
 62
               4
  5
173
 10
-1.6382224676323098
 20
-246.15071809717193
 30
0.0
 11
-0.270612614613618
 21
-247.30402584188533
 31
0.0
  0
LINE
  8
0
  6
CONTINUOUS
 62
               4
  5
174
 10
-0.270612614613618
 20
-247.30402584188533
 30
0.0
 11
1.0969972384005977
 21
-248.45881819744415
 31
0.0
  0
LINE
  8
0
  6
CONTINUOUS
 62
               4
  5
175
 10
1.0969972384005977
 20
-248.45881819744415
 30
0.0
 11
2.4646070914148841
 21
-249.6147483424017
 31
0.0
  0
LINE
  8
0
  6
CONTINUOUS
 62
               4
  5
176
 10
2.4646070914148841
 20
-249.6147483424017
 30
0.0
 11
3.832216944433434
 21
-250.77167126172054
 31
0.0
  0
LINE
  8
0
  6
CONTINUOUS
 62
               4
  5
177
 10
3.832216944433434
 20
-250.77167126172054
 30
0.0
 11
5.1998267974558212
 21
-251.93024916600206
 31
0.0
  0
LINE
  8
0
  6
CONTINUOUS
 62
               4
  5
178
 10
5.1998267974558212
 20
-251.93024916600206
 30
0.0
 11
6.5674366504806949
 21
-253.09134607225752
 31
0.0
  0
LINE
  8
0
  6
CONTINUOUS
 62
               4
  5
179
 10
6.5674366504806949
 20
-253.09134607225752
 30
0.0
 11
7.9350465035067765
 21
-254.25582599749788
 31
0.0
  0
LINE
  8
0
  6
CONTINUOUS
 62
               4
  5
17A
 10
7.9350465035067765
 20
-254.25582599749788
 30
0.0
 11
9.3026563565327862
 21
-255.42455295873418
 31
0.0
  0
LINE
  8
0
  6
CONTINUOUS
 62
               4
  5
17B
 10
9.3026563565327862
 20
-255.42455295873418
 30
0.0
 11
10.67026620955766
 21
-256.59808876237622
 31
0.0
  0
LINE
  8
0
  6
CONTINUOUS
 62
               4
  5
17C
 10
10.67026620955766
 20
-256.59808876237622
 30
0.0
 11
12.037876062581752
 21
-257.77578637242794
 31
0.0
  0
LINE
  8
0
  6
CONTINUOUS
 62
               4
  5
17D
 10
12.037876062581752
 20
-257.77578637242794
 30
0.0
 11
13.405485915604849
 21
-258.95669654229181
 31
0.0
  0
LINE
  8
0
  6
CONTINUOUS
 62
               4
  5
17E
 10
13.405485915604849
 20
-258.95669654229181
 30
0.0
 11
14.773095768627734
 21
-260.13987002537061
 31
0.0
  0
LINE
  8
0
  6
CONTINUOUS
 62
               4
  5
17F
 10
14.773095768627734
 20
-260.13987002537061
 30
0.0
 11
16.140705621650618
 21
-261.3243575750667
 31
0.0
  0
LINE
  8
0
  6
CONTINUOUS
 62
               4
  5
180
 10
16.140705621650618
 20
-261.3243575750667
 30
0.0
 11
17.508315474673786
 21
-262.50949698077858
 31
0.0
  0
LINE
  8
0
  6
CONTINUOUS
 62
               4
  5
181
 10
17.508315474673786
 20
-262.50949698077858
 30
0.0
 11
18.875925327697452
 21
-263.6957741758892
 31
0.0
  0
LINE
  8
0
  6
CONTINUOUS
 62
               4
  5
182
 10
18.875925327697452
 20
-263.6957741758892
 30
0.0
 11
20.243535180720976
 21
-264.88396212977699
 31
0.0
  0
LINE
  8
0
  6
CONTINUOUS
 62
               4
  5
183
 10
20.243535180720976
 20
-264.88396212977699
 30
0.0
 11
21.611145033744712
 21
-266.07483381182072
 31
0.0
  0
LINE
  8
0
  6
CONTINUOUS
 62
               4
  5
184
 10
21.611145033744712
 20
-266.07483381182072
 30
0.0
 11
22.978754886768378
 21
-267.26916219139906
 31
0.0
  0
LINE
  8
0
  6
CONTINUOUS
 62
               4
  5
185
 10
22.978754886768378
 20
-267.26916219139906
 30
0.0
 11
24.346364739792186
 21
-268.46752230450801
 31
0.0
  0
LINE
  8
0
  6
CONTINUOUS
 62
               4
  5
186
 10
24.346364739792186
 20
-268.46752230450801
 30
0.0
 11
25.71397459281571
 21
-269.66969745361297
 31
0.0
  0
LINE
  8
0
  6
CONTINUOUS
 62
               4
  5
187
 10
25.71397459281571
 20
-269.66969745361297
 30
0.0
 11
27.081584445839233
 21
-270.87527300779669
 31
0.0
  0
LINE
  8
0
  6
CONTINUOUS
 62
               4
  5
188
 10
27.081584445839233
 20
-270.87527300779669
 30
0.0
 11
28.449194298862757
 21
-272.08383433614193
 31
0.0
  0
LINE
  8
0
  6
CONTINUOUS
 62
               4
  5
189
 10
28.449194298862757
 20
-272.08383433614193
 30
0.0
 11
29.816804151886352
 21
-273.29496680773156
 31
0.0
  0
LINE
  8
0
  6
CONTINUOUS
 62
               4
  5
18A
 10
29.816804151886352
 20
-273.29496680773156
 30
0.0
 11
31.184414004909804
 21
-274.50840048918286
 31
0.0
  0
LINE
  8
0
  6
CONTINUOUS
 62
               4
  5
18B
 10
31.184414004909804
 20
-274.50840048918286
 30
0.0
 11
32.552023857933399
 21
-275.72444423725148
 31
0.0
  0
LINE
  8
0
  6
CONTINUOUS
 62
               4
  5
18C
 10
32.552023857933399
 20
-275.72444423725148
 30
0.0
 11
33.919633710956923
 21
-276.9435516062278
 31
0.0
  0
LINE
  8
0
  6
CONTINUOUS
 62
               4
  5
18D
 10
33.919633710956923
 20
-276.9435516062278
 30
0.0
 11
35.287243563980446
 21
-278.16617615040178
 31
0.0
  0
LINE
  8
0
  6
CONTINUOUS
 62
               4
  5
18E
 10
35.287243563980446
 20
-278.16617615040178
 30
0.0
 11
36.654853417004112
 21
-279.39277142406405
 31
0.0
  0
LINE
  8
0
  6
CONTINUOUS
 62
               4
  5
18F
 10
36.654853417004112
 20
-279.39277142406405
 30
0.0
 11
38.022463270027636
 21
-280.623770124749
 31
0.0
  0
LINE
  8
0
  6
CONTINUOUS
 62
               4
  5
190
 10
38.022463270027636
 20
-280.623770124749
 30
0.0
 11
39.39007312305116
 21
-281.85952152296835
 31
0.0
  0
LINE
  8
0
  6
CONTINUOUS
 62
               4
  5
191
 10
39.39007312305116
 20
-281.85952152296835
 30
0.0
 11
40.757682976074825
 21
-283.10035403247872
 31
0.0
  0
LINE
  8
0
  6
CONTINUOUS
 62
               4
  5
192
 10
40.757682976074825
 20
-283.10035403247872
 30
0.0
 11
42.125292829098349
 21
-284.34659606703593
 31
0.0
  0
LINE
  8
0
  6
CONTINUOUS
 62
               4
  5
193
 10
42.125292829098349
 20
-284.34659606703593
 30
0.0
 11
43.492902682121873
 21
-285.59857604039649
 31
0.0
  0
LINE
  8
0
  6
CONTINUOUS
 62
               4
  5
194
 10
43.492902682121873
 20
-285.59857604039649
 30
0.0
 11
44.860512535145538
 21
-286.85656109580435
 31
0.0
  0
LINE
  8
0
  6
CONTINUOUS
 62
               4
  5
195
 10
44.860512535145538
 20
-286.85656109580435
 30
0.0
 11
46.228122388169204
 21
-288.12057329445673
 31
0.0
  0
LINE
  8
0
  6
CONTINUOUS
 62
               4
  5
196
 10
46.228122388169204
 20
-288.12057329445673
 30
0.0
 11
47.595732241192728
 21
-289.39057342703819
 31
0.0
  0
LINE
  8
0
  6
CONTINUOUS
 62
               4
  5
197
 10
47.595732241192728
 20
-289.39057342703819
 30
0.0
 11
48.963342094216323
 21
-290.66652228423396
 31
0.0
  0
LINE
  8
0
  6
CONTINUOUS
 62
               4
  5
198
 10
48.963342094216323
 20
-290.66652228423396
 30
0.0
 11
50.330951947239775
 21
-291.94838065672894
 31
0.0
  0
LINE
  8
0
  6
CONTINUOUS
 62
               4
  5
199
 10
50.330951947239775
 20
-291.94838065672894
 30
0.0
 11
51.698561800263157
 21
-293.23673527401121
 31
0.0
  0
LINE
  8
0
  6
CONTINUOUS
 62
               4
  5
19A
 10
51.698561800263157
 20
-293.23673527401121
 30
0.0
 11
53.066171653286681
 21
-294.53467662078145
 31
0.0
  0
LINE
  8
0
  6
CONTINUOUS
 62
               4
  5
19B
 10
53.066171653286681
 20
-294.53467662078145
 30
0.0
 11
54.433781506310204
 21
-295.84592112054401
 31
0.0
  0
LINE
  8
0
  6
CONTINUOUS
 62
               4
  5
19C
 10
54.433781506310204
 20
-295.84592112054401
 30
0.0
 11
55.801391359333728
 21
-297.17418519680263
 31
0.0
  0
LINE
  8
0
  6
CONTINUOUS
 62
               4
  5
19D
 10
55.801391359333728
 20
-297.17418519680263
 30
0.0
 11
57.169001212357607
 21
-298.52318527306142
 31
0.0
  0
LINE
  8
0
  6
CONTINUOUS
 62
               4
  5
19E
 10
57.169001212357607
 20
-298.52318527306142
 30
0.0
 11
58.536611065381628
 21
-299.89520328812358
 31
0.0
  0
LINE
  8
0
  6
CONTINUOUS
 62
               4
  5
19F
 10
58.536611065381628
 20
-299.89520328812358
 30
0.0
 11
59.904220918405933
 21
-301.2867832419891
 31
0.0
  0
LINE
  8
0
  6
CONTINUOUS
 62
               4
  5
1A0
 10
59.904220918405933
 20
-301.2867832419891
 30
0.0
 11
61.27183077143038
 21
-302.69303464995704
 31
0.0
  0
LINE
  8
0
  6
CONTINUOUS
 62
               4
  5
1A1
 10
61.27183077143038
 20
-302.69303464995704
 30
0.0
 11
62.639440624454899
 21
-304.10906702732683
 31
0.0
  0
LINE
  8
0
  6
CONTINUOUS
 62
               4
  5
1A2
 10
62.639440624454899
 20
-304.10906702732683
 30
0.0
 11
64.007050477479567
 21
-305.5299898893972
 31
0.0
  0
ENDBLK
  8
0
  5
1A3
  0
BLOCK
  8
0
  5
1A4
  2
GROUP_2
 70
               0
 10
0.0
 20
0.0
 30
0.0
  3
GROUP_2
  0
LINE
  8
0
  6
CONTINUOUS
 62
               4
  5
1A5
 10
-72.753934824881327
 20
-190.77389756274462
 30
0.0
 11
-71.386324971861001
 21
-195.07349177549622
 31
0.0
  0
LINE
  8
0
  6
CONTINUOUS
 62
               4
  5
1A6
 10
-71.386324971861001
 20
-195.07349177549622
 30
0.0
 11
-70.018715118838259
 21
-199.31542766580648
 31
0.0
  0
LINE
  8
0
  6
CONTINUOUS
 62
               4
  5
1A7
 10
-70.018715118838259
 20
-199.31542766580648
 30
0.0
 11
-68.651105265813811
 21
-203.44204691137412
 31
0.0
  0
LINE
  8
0
  6
CONTINUOUS
 62
               4
  5
1A8
 10
-68.651105265813811
 20
-203.44204691137412
 30
0.0
 11
-67.283495412788582
 21
-207.39569118989803
 31
0.0
  0
LINE
  8
0
  6
CONTINUOUS
 62
               4
  5
1A9
 10
-67.283495412788582
 20
-207.39569118989803
 30
0.0
 11
-65.915885559763495
 21
-211.11870217907708
 31
0.0
  0
LINE
  8
0
  6
CONTINUOUS
 62
               4
  5
1AA
 10
-65.915885559763495
 20
-211.11870217907708
 30
0.0
 11
-64.548275706739119
 21
-214.57068787893931
 31
0.0
  0
LINE
  8
0
  6
CONTINUOUS
 62
               4
  5
1AB
 10
-64.548275706739119
 20
-214.57068787893931
 30
0.0
 11
-63.180665853715318
 21
-217.7803215788295
 31
0.0
  0
LINE
  8
0
  6
CONTINUOUS
 62
               4
  5
1AC
 10
-63.180665853715318
 20
-217.7803215788295
 30
0.0
 11
-61.813056000691937
 21
-220.79354289042186
 31
0.0
  0
LINE
  8
0
  6
CONTINUOUS
 62
               4
  5
1AD
 10
-61.813056000691937
 20
-220.79354289042186
 30
0.0
 11
-60.445446147668768
 21
-223.65629142539052
 31
0.0
  0
LINE
  8
0
  6
CONTINUOUS
 62
               4
  5
1AE
 10
-60.445446147668768
 20
-223.65629142539052
 30
0.0
 11
-59.077836294645671
 21
-226.41450679540952
 31
0.0
  0
LINE
  8
0
  6
CONTINUOUS
 62
               4
  5
1AF
 10
-59.077836294645671
 20
-226.41450679540952
 30
0.0
 11
-57.71022644162236
 21
-229.10590332280827
 31
0.0
  0
LINE
  8
0
  6
CONTINUOUS
 62
               4
  5
1B0
 10
-57.71022644162236
 20
-229.10590332280827
 30
0.0
 11
-56.342616588598766
 21
-231.73529417253616
 31
0.0
  0
LINE
  8
0
  6
CONTINUOUS
 62
               4
  5
1B1
 10
-56.342616588598766
 20
-231.73529417253616
 30
0.0
 11
-54.975006735575171
 21
-234.29926722019803
 31
0.0
  0
LINE
  8
0
  6
CONTINUOUS
 62
               4
  5
1B2
 10
-54.975006735575171
 20
-234.29926722019803
 30
0.0
 11
-53.607396882551576
 21
-236.79441034139842
 31
0.0
  0
LINE
  8
0
  6
CONTINUOUS
 62
               4
  5
1B3
 10
-53.607396882551576
 20
-236.79441034139842
 30
0.0
 11
-52.239787029527697
 21
-239.21731141174206
 31
0.0
  0
LINE
  8
0
  6
CONTINUOUS
 62
               4
  5
1B4
 10
-52.239787029527697
 20
-239.21731141174206
 30
0.0
 11
-50.872177176504103
 21
-241.56622514188399
 31
0.0
  0
LINE
  8
0
  6
CONTINUOUS
 62
               4
  5
1B5
 10
-50.872177176504103
 20
-241.56622514188399
 30
0.0
 11
-49.504567323480579
 21
-243.84607358268096
 31
0.0
  0
LINE
  8
0
  6
CONTINUOUS
 62
               4
  5
1B6
 10
-49.504567323480579
 20
-243.84607358268096
 30
0.0
 11
-48.136957470457055
 21
-246.06344562004034
 31
0.0
  0
LINE
  8
0
  6
CONTINUOUS
 62
               4
  5
1B7
 10
-48.136957470457055
 20
-246.06344562004034
 30
0.0
 11
-46.769347617433532
 21
-248.22493013986906
 31
0.0
  0
LINE
  8
0
  6
CONTINUOUS
 62
               4
  5
1B8
 10
-46.769347617433532
 20
-248.22493013986906
 30
0.0
 11
-45.401737764410008
 21
-250.33711602807449
 31
0.0
  0
LINE
  8
0
  6
CONTINUOUS
 62
               4
  5
1B9
 10
-45.401737764410008
 20
-250.33711602807449
 30
0.0
 11
-44.034127911386342
 21
-252.40563011970704
 31
0.0
  0
LINE
  8
0
  6
CONTINUOUS
 62
               4
  5
1BA
 10
-44.034127911386342
 20
-252.40563011970704
 30
0.0
 11
-42.66651805836289
 21
-254.43225104638992
 31
0.0
  0
LINE
  8
0
  6
CONTINUOUS
 62
               4
  5
1BB
 10
-42.66651805836289
 20
-254.43225104638992
 30
0.0
 11
-41.298908205339366
 21
-256.41779538888983
 31
0.0
  0
LINE
  8
0
  6
CONTINUOUS
 62
               4
  5
1BC
 10
-41.298908205339366
 20
-256.41779538888983
 30
0.0
 11
-39.931298352315771
 21
-258.36307972797334
 31
0.0
  0
LINE
  8
0
  6
CONTINUOUS
 62
               4
  5
1BD
 10
-39.931298352315771
 20
-258.36307972797334
 30
0.0
 11
-38.563688499292176
 21
-260.26892064440693
 31
0.0
  0
LINE
  8
0
  6
CONTINUOUS
 62
               4
  5
1BE
 10
-38.563688499292176
 20
-260.26892064440693
 30
0.0
 11
-37.196078646268653
 21
-262.1362280873339
 31
0.0
  0
LINE
  8
0
  6
CONTINUOUS
 62
               4
  5
1BF
 10
-37.196078646268653
 20
-262.1362280873339
 30
0.0
 11
-35.828468793245058
 21
-263.96628547940401
 31
0.0
  0
LINE
  8
0
  6
CONTINUOUS
 62
               4
  5
1C0
 10
-35.828468793245058
 20
-263.96628547940401
 30
0.0
 11
-34.460858940221463
 21
-265.76046961164394
 31
0.0
  0
LINE
  8
0
  6
CONTINUOUS
 62
               4
  5
1C1
 10
-34.460858940221463
 20
-265.76046961164394
 30
0.0
 11
-33.093249087197798
 21
-267.52015727508029
 31
0.0
  0
LINE
  8
0
  6
CONTINUOUS
 62
               4
  5
1C2
 10
-33.093249087197798
 20
-267.52015727508029
 30
0.0
 11
-31.725639234174345
 21
-269.24672526073942
 31
0.0
  0
LINE
  8
0
  6
CONTINUOUS
 62
               4
  5
1C3
 10
-31.725639234174345
 20
-269.24672526073942
 30
0.0
 11
-30.35802938115075
 21
-270.94134693699806
 31
0.0
  0
LINE
  8
0
  6
CONTINUOUS
 62
               4
  5
1C4
 10
-30.35802938115075
 20
-270.94134693699806
 30
0.0
 11
-28.990419528127084
 21
-272.60438198163337
 31
0.0
  0
LINE
  8
0
  6
CONTINUOUS
 62
               4
  5
1C5
 10
-28.990419528127084
 20
-272.60438198163337
 30
0.0
 11
-27.622809675103632
 21
-274.23598664977254
 31
0.0
  0
LINE
  8
0
  6
CONTINUOUS
 62
               4
  5
1C6
 10
-27.622809675103632
 20
-274.23598664977254
 30
0.0
 11
-26.255199822080037
 21
-275.83631719654289
 31
0.0
  0
LINE
  8
0
  6
CONTINUOUS
 62
               4
  5
1C7
 10
-26.255199822080037
 20
-275.83631719654289
 30
0.0
 11
-24.887589969056442
 21
-277.40552987707184
 31
0.0
  0
LINE
  8
0
  6
CONTINUOUS
 62
               4
  5
1C8
 10
-24.887589969056442
 20
-277.40552987707184
 30
0.0
 11
-23.51998011603299
 21
-278.94392526870939
 31
0.0
  0
LINE
  8
0
  6
CONTINUOUS
 62
               4
  5
1C9
 10
-23.51998011603299
 20
-278.94392526870939
 30
0.0
 11
-22.152370263009395
 21
-280.45238123769701
 31
0.0
  0
LINE
  8
0
  6
CONTINUOUS
 62
               4
  5
1CA
 10
-22.152370263009395
 20
-280.45238123769701
 30
0.0
 11
-20.784760409985729
 21
-281.93191997249897
 31
0.0
  0
LINE
  8
0
  6
CONTINUOUS
 62
               4
  5
1CB
 10
-20.784760409985729
 20
-281.93191997249897
 30
0.0
 11
-19.417150556962135
 21
-283.38356366158013
 31
0.0
  0
LINE
  8
0
  6
CONTINUOUS
 62
               4
  5
1CC
 10
-19.417150556962135
 20
-283.38356366158013
 30
0.0
 11
-18.049540703938611
 21
-284.80833449340429
 31
0.0
  0
LINE
  8
0
  6
CONTINUOUS
 62
               4
  5
1CD
 10
-18.049540703938611
 20
-284.80833449340429
 30
0.0
 11
-16.681930850914945
 21
-286.20702479019468
 31
0.0
  0
LINE
  8
0
  6
CONTINUOUS
 62
               4
  5
1CE
 10
-16.681930850914945
 20
-286.20702479019468
 30
0.0
 11
-15.314320997891564
 21
-287.57950740920791
 31
0.0
  0
LINE
  8
0
  6
CONTINUOUS
 62
               4
  5
1CF
 10
-15.314320997891564
 20
-287.57950740920791
 30
0.0
 11
-13.946711144867898
 21
-288.92542534145917
 31
0.0
  0
LINE
  8
0
  6
CONTINUOUS
 62
               4
  5
1D0
 10
-13.946711144867898
 20
-288.92542534145917
 30
0.0
 11
-12.579101291844374
 21
-290.24442157796381
 31
0.0
  0
LINE
  8
0
  6
CONTINUOUS
 62
               4
  5
1D1
 10
-12.579101291844374
 20
-290.24442157796381
 30
0.0
 11
-11.21149143882085
 21
-291.53613910973678
 31
0.0
  0
LINE
  8
0
  6
CONTINUOUS
 62
               4
  5
1D2
 10
-11.21149143882085
 20
-291.53613910973678
 30
0.0
 11
-9.8438815858016611
 21
-292.80128175950296
 31
0.0
  0
LINE
  8
0
  6
CONTINUOUS
 62
               4
  5
1D3
 10
-9.8438815858016611
 20
-292.80128175950296
 30
0.0
 11
-8.4762717327870192
 21
-294.04048823199361
 31
0.0
  0
LINE
  8
0
  6
CONTINUOUS
 62
               4
  5
1D4
 10
-8.4762717327870192
 20
-294.04048823199361
 30
0.0
 11
-7.1086618797701027
 21
-295.25330384123453
 31
0.0
  0
LINE
  8
0
  6
CONTINUOUS
 62
               4
  5
1D5
 10
-7.1086618797701027
 20
-295.25330384123453
 30
0.0
 11
-5.7410520267443053
 21
-296.43927390125128
 31
0.0
  0
LINE
  8
0
  6
CONTINUOUS
 62
               4
  5
1D6
 10
-5.7410520267443053
 20
-296.43927390125128
 30
0.0
 11
-4.373442173703018
 21
-297.59794372606922
 31
0.0
  0
LINE
  8
0
  6
CONTINUOUS
 62
               4
  5
1D7
 10
-4.373442173703018
 20
-297.59794372606922
 30
0.0
 11
-3.0058323206605233
 21
-298.73094899189215
 31
0.0
  0
LINE
  8
0
  6
CONTINUOUS
 62
               4
  5
1D8
 10
-3.0058323206605233
 20
-298.73094899189215
 30
0.0
 11
-1.6382224676323098
 21
-299.83966993391874
 31
0.0
  0
LINE
  8
0
  6
CONTINUOUS
 62
               4
  5
1D9
 10
-1.6382224676323098
 20
-299.83966993391874
 30
0.0
 11
-0.2706126146137601
 21
-300.92326870466712
 31
0.0
  0
LINE
  8
0
  6
CONTINUOUS
 62
               4
  5
1DA
 10
-0.2706126146137601
 20
-300.92326870466712
 30
0.0
 11
1.0969972384004556
 21
-301.98090745665542
 31
0.0
  0
LINE
  8
0
  6
CONTINUOUS
 62
               4
  5
1DB
 10
1.0969972384004556
 20
-301.98090745665542
 30
0.0
 11
2.4646070914148841
 21
-303.01174834240175
 31
0.0
  0
LINE
  8
0
  6
CONTINUOUS
 62
               4
  5
1DC
 10
2.4646070914148841
 20
-303.01174834240175
 30
0.0
 11
3.832216944433434
 21
-304.01515265716904
 31
0.0
  0
LINE
  8
0
  6
CONTINUOUS
 62
               4
  5
1DD
 10
3.832216944433434
 20
-304.01515265716904
 30
0.0
 11
5.1998267974558212
 21
-304.99127826719922
 31
0.0
  0
LINE
  8
0
  6
CONTINUOUS
 62
               4
  5
1DE
 10
5.1998267974558212
 20
-304.99127826719922
 30
0.0
 11
6.5674366504806239
 21
-305.94048218147913
 31
0.0
  0
LINE
  8
0
  6
CONTINUOUS
 62
               4
  5
1DF
 10
6.5674366504806239
 20
-305.94048218147913
 30
0.0
 11
7.9350465035067055
 21
-306.86312140899514
 31
0.0
  0
LINE
  8
0
  6
CONTINUOUS
 62
               4
  5
1E0
 10
7.9350465035067055
 20
-306.86312140899514
 30
0.0
 11
9.3026563565326441
 21
-307.7595529587341
 31
0.0
  0
LINE
  8
0
  6
CONTINUOUS
 62
               4
  5
1E1
 10
9.3026563565326441
 20
-307.7595529587341
 30
0.0
 11
10.670266209557589
 21
-308.62990397344089
 31
0.0
  0
LINE
  8
0
  6
CONTINUOUS
 62
               4
  5
1E2
 10
10.670266209557589
 20
-308.62990397344089
 30
0.0
 11
12.037876062581752
 21
-309.47338213089239
 31
0.0
  0
LINE
  8
0
  6
CONTINUOUS
 62
               4
  5
1E3
 10
12.037876062581752
 20
-309.47338213089239
 30
0.0
 11
13.405485915604849
 21
-310.28896524262387
 31
0.0
  0
LINE
  8
0
  6
CONTINUOUS
 62
               4
  5
1E4
 10
13.405485915604849
 20
-310.28896524262387
 30
0.0
 11
14.773095768627734
 21
-311.07563112017016
 31
0.0
  0
LINE
  8
0
  6
CONTINUOUS
 62
               4
  5
1E5
 10
14.773095768627734
 20
-311.07563112017016
 30
0.0
 11
16.140705621650618
 21
-311.83235757506662
 31
0.0
  0
LINE
  8
0
  6
CONTINUOUS
 62
               4
  5
1E6
 10
16.140705621650618
 20
-311.83235757506662
 30
0.0
 11
17.508315474673786
 21
-312.55826674107124
 31
0.0
  0
LINE
  8
0
  6
CONTINUOUS
 62
               4
  5
1E7
 10
17.508315474673786
 20
-312.55826674107124
 30
0.0
 11
18.87592532769731
 21
-313.25305804083388
 31
0.0
  0
LINE
  8
0
  6
CONTINUOUS
 62
               4
  5
1E8
 10
18.87592532769731
 20
-313.25305804083388
 30
0.0
 11
20.243535180720833
 21
-313.91657521922747
 31
0.0
  0
LINE
  8
0
  6
CONTINUOUS
 62
               4
  5
1E9
 10
20.243535180720833
 20
-313.91657521922747
 30
0.0
 11
21.611145033744712
 21
-314.54866202112493
 31
0.0
  0
LINE
  8
0
  6
CONTINUOUS
 62
               4
  5
1EA
 10
21.611145033744712
 20
-314.54866202112493
 30
0.0
 11
22.978754886768378
 21
-315.14916219139906
 31
0.0
  0
LINE
  8
0
  6
CONTINUOUS
 62
               4
  5
1EB
 10
22.978754886768378
 20
-315.14916219139906
 30
0.0
 11
24.346364739792044
 21
-315.71771605227292
 31
0.0
  0
LINE
  8
0
  6
CONTINUOUS
 62
               4
  5
1EC
 10
24.346364739792044
 20
-315.71771605227292
 30
0.0
 11
25.71397459281571
 21
-316.25315023536967
 31
0.0
  0
LINE
  8
0
  6
CONTINUOUS
 62
               4
  5
1ED
 10
25.71397459281571
 20
-316.25315023536967
 30
0.0
 11
27.081584445839233
 21
-316.75408794966273
 31
0.0
  0
LINE
  8
0
  6
CONTINUOUS
 62
               4
  5
1EE
 10
27.081584445839233
 20
-316.75408794966273
 30
0.0
 11
28.449194298862757
 21
-317.21915240412562
 31
0.0
  0
LINE
  8
0
  6
CONTINUOUS
 62
               4
  5
1EF
 10
28.449194298862757
 20
-317.21915240412562
 30
0.0
 11
29.816804151886281
 21
-317.64696680773164
 31
0.0
  0
LINE
  8
0
  6
CONTINUOUS
 62
               4
  5
1F0
 10
29.816804151886281
 20
-317.64696680773164
 30
0.0
 11
31.184414004909804
 21
-318.03624773783071
 31
0.0
  0
LINE
  8
0
  6
CONTINUOUS
 62
               4
  5
1F1
 10
31.184414004909804
 20
-318.03624773783071
 30
0.0
 11
32.552023857933399
 21
-318.38608524527984
 31
0.0
  0
LINE
  8
0
  6
CONTINUOUS
 62
               4
  5
1F2
 10
32.552023857933399
 20
-318.38608524527984
 30
0.0
 11
33.919633710956852
 21
-318.6956627493127
 31
0.0
  0
LINE
  8
0
  6
CONTINUOUS
 62
               4
  5
1F3
 10
33.919633710956852
 20
-318.6956627493127
 30
0.0
 11
35.287243563980446
 21
-318.96416366916282
 31
0.0
  0
LINE
  8
0
  6
CONTINUOUS
 62
               4
  5
1F4
 10
35.287243563980446
 20
-318.96416366916282
 30
0.0
 11
36.654853417004112
 21
-319.19077142406394
 31
0.0
  0
LINE
  8
0
  6
CONTINUOUS
 62
               4
  5
1F5
 10
36.654853417004112
 20
-319.19077142406394
 30
0.0
 11
38.022463270027494
 21
-319.37370738239275
 31
0.0
  0
LINE
  8
0
  6
CONTINUOUS
 62
               4
  5
1F6
 10
38.022463270027494
 20
-319.37370738239275
 30
0.0
 11
39.39007312305116
 21
-319.50734470909839
 31
0.0
  0
LINE
  8
0
  6
CONTINUOUS
 62
               4
  5
1F7
 10
39.39007312305116
 20
-319.50734470909839
 30
0.0
 11
40.757682976074825
 21
-319.58509451827268
 31
0.0
  0
LINE
  8
0
  6
CONTINUOUS
 62
               4
  5
1F8
 10
40.757682976074825
 20
-319.58509451827268
 30
0.0
 11
42.125292829098207
 21
-319.60036792400803
 31
0.0
  0
LINE
  8
0
  6
CONTINUOUS
 62
               4
  5
1F9
 10
42.125292829098207
 20
-319.60036792400803
 30
0.0
 11
43.492902682121873
 21
-319.54657604039647
 31
0.0
  0
LINE
  8
0
  6
CONTINUOUS
 62
               4
  5
1FA
 10
43.492902682121873
 20
-319.54657604039647
 30
0.0
 11
44.860512535145538
 21
-319.41879681658105
 31
0.0
  0
LINE
  8
0
  6
CONTINUOUS
 62
               4
  5
1FB
 10
44.860512535145538
 20
-319.41879681658105
 30
0.0
 11
46.228122388169062
 21
-319.21877554190877
 31
0.0
  0
LINE
  8
0
  6
CONTINUOUS
 62
               4
  5
1FC
 10
46.228122388169062
 20
-319.21877554190877
 30
0.0
 11
47.595732241192728
 21
-318.94992434077739
 31
0.0
  0
LINE
  8
0
  6
CONTINUOUS
 62
               4
  5
1FD
 10
47.595732241192728
 20
-318.94992434077739
 30
0.0
 11
48.963342094216252
 21
-318.61565533758477
 31
0.0
  0
LINE
  8
0
  6
CONTINUOUS
 62
               4
  5
1FE
 10
48.963342094216252
 20
-318.61565533758477
 30
0.0
 11
50.330951947239775
 21
-318.2193806567289
 31
0.0
  0
LINE
  8
0
  6
CONTINUOUS
 62
               4
  5
1FF
 10
50.330951947239775
 20
-318.2193806567289
 30
0.0
 11
51.698561800263157
 21
-317.75628713326074
 31
0.0
  0
LINE
  8
0
  6
CONTINUOUS
 62
               4
  5
200
 10
51.698561800263157
 20
-317.75628713326074
 30
0.0
 11
53.066171653286681
 21
-317.18866044484338
 31
0.0
  0
LINE
  8
0
  6
CONTINUOUS
 62
               4
  5
201
 10
53.066171653286681
 20
-317.18866044484338
 30
0.0
 11
54.433781506310204
 21
-316.47056097979356
 31
0.0
  0
LINE
  8
0
  6
CONTINUOUS
 62
               4
  5
202
 10
54.433781506310204
 20
-316.47056097979356
 30
0.0
 11
55.801391359333728
 21
-315.55604912642735
 31
0.0
  0
LINE
  8
0
  6
CONTINUOUS
 62
               4
  5
203
 10
55.801391359333728
 20
-315.55604912642735
 30
0.0
 11
57.169001212357607
 21
-314.39918527306139
 31
0.0
  0
LINE
  8
0
  6
CONTINUOUS
 62
               4
  5
204
 10
57.169001212357607
 20
-314.39918527306139
 30
0.0
 11
58.536611065381628
 21
-312.97129613034866
 31
0.0
  0
LINE
  8
0
  6
CONTINUOUS
 62
               4
  5
205
 10
58.536611065381628
 20
-312.97129613034866
 30
0.0
 11
59.904220918405933
 21
-311.31277369828928
 31
0.0
  0
LINE
  8
0
  6
CONTINUOUS
 62
               4
  5
206
 10
59.904220918405933
 20
-311.31277369828928
 30
0.0
 11
61.27183077143038
 21
-309.4812762992197
 31
0.0
  0
LINE
  8
0
  6
CONTINUOUS
 62
               4
  5
207
 10
61.27183077143038
 20
-309.4812762992197
 30
0.0
 11
62.639440624454899
 21
-307.53446225547685
 31
0.0
  0
LINE
  8
0
  6
CONTINUOUS
 62
               4
  5
208
 10
62.639440624454899
 20
-307.53446225547685
 30
0.0
 11
64.007050477479567
 21
-305.5299898893972
 31
0.0
  0
ENDBLK
  8
0
  5
209
  0
BLOCK
  8
0
  5
20A
  2
GROUP_3
 70
               0
 10
0.0
 20
0.0
 30
0.0
  3
GROUP_3
  0
LINE
  8
0
  6
CONTINUOUS
 62
               4
  5
20B
 10
666.83174593052104
 20
19.817192722661332
 30
0.0
 11
666.83174593052104
 21
10.943025747581089
 31
0.0
  0
LINE
  8
0
  6
CONTINUOUS
 62
               4
  5
20C
 10
672.31657348782244
 20
19.817192722661332
 30
0.0
 11
672.31657348782244
 21
10.943025747581089
 31
0.0
  0
LINE
  8
0
  6
CONTINUOUS
 62
               4
  5
20D
 10
666.83174593052104
 20
19.817192722661332
 30
0.0
 11
688.73174593052079
 21
19.817192722661332
 31
0.0
  0
LINE
  8
0
  6
CONTINUOUS
 62
               4
  5
20E
 10
669.57415970917157
 20
9.817192722661332
 30
0.0
 11
685.98933215186992
 21
9.817192722661332
 31
0.0
  0
LINE
  8
0
  6
CONTINUOUS
 62
               4
  5
20F
 10
688.73174593052079
 20
19.817192722661332
 30
0.0
 11
688.73174593052079
 21
10.943025747581089
 31
0.0
  0
LINE
  8
0
  6
CONTINUOUS
 62
               4
  5
210
 10
683.24691837321939
 20
19.817192722661332
 30
0.0
 11
683.24691837321939
 21
10.943025747581089
 31
0.0
  0
ARC
  8
0
  6
CONTINUOUS
 62
               4
  5
211
 10
669.57415970917157
 20
13.720228580913556
 30
0.0
 40
3.9030358582523994
 50
225.3611192140055
 51
314.63888078588769
  0
ARC
  8
0
  6
CONTINUOUS
 62
               4
  5
212
 10
685.98933215186992
 20
13.720228580913556
 30
0.0
 40
3.9030358582525593
 50
225.36111921400786
 51
314.63888078589014
  0
ARC
  8
0
  6
CONTINUOUS
 62
               4
  5
213
 10
677.78174593052074
 20
23.645002504067236
 30
0.0
 40
13.827809781406303
 50
246.71964825748168
 51
293.28035174241398
  0
ENDBLK
  8
0
  5
214
  0
BLOCK
  8
0
  5
215
  2
GROUP_4
 70
               0
 10
0.0
 20
0.0
 30
0.0
  3
GROUP_4
  0
LINE
  8
0
  6
CONTINUOUS
 62
               4
  5
216
 10
533.16825406947908
 20
19.817192722661332
 30
0.0
 11
533.16825406947908
 21
10.943025747581089
 31
0.0
  0
LINE
  8
0
  6
CONTINUOUS
 62
               4
  5
217
 10
527.68342651217779
 20
19.817192722661332
 30
0.0
 11
527.68342651217779
 21
10.943025747581089
 31
0.0
  0
LINE
  8
0
  6
CONTINUOUS
 62
               4
  5
218
 10
533.16825406947908
 20
19.817192722661332
 30
0.0
 11
511.26825406947944
 21
19.817192722661332
 31
0.0
  0
LINE
  8
0
  6
CONTINUOUS
 62
               4
  5
219
 10
530.42584029082855
 20
9.817192722661332
 30
0.0
 11
514.0106678481302
 21
9.817192722661332
 31
0.0
  0
LINE
  8
0
  6
CONTINUOUS
 62
               4
  5
21A
 10
511.26825406947944
 20
19.817192722661332
 30
0.0
 11
511.26825406947944
 21
10.943025747581089
 31
0.0
  0
LINE
  8
0
  6
CONTINUOUS
 62
               4
  5
21B
 10
516.75308162678073
 20
19.817192722661332
 30
0.0
 11
516.75308162678073
 21
10.943025747581089
 31
0.0
  0
ARC
  8
0
  6
CONTINUOUS
 62
               4
  5
21C
 10
530.42584029082855
 20
13.720228580913556
 30
0.0
 40
3.9030358582523994
 50
225.36111921400783
 51
314.63888078589008
  0
ARC
  8
0
  6
CONTINUOUS
 62
               4
  5
21D
 10
514.0106678481302
 20
13.720228580913556
 30
0.0
 40
3.9030358582525593
 50
225.36111921400484
 51
314.63888078588775
  0
ARC
  8
0
  6
CONTINUOUS
 62
               4
  5
21E
 10
522.21825406947937
 20
23.645002504067236
 30
0.0
 40
13.827809781406303
 50
246.71964825748168
 51
293.28035174241398
  0
ENDBLK
  8
0
  5
21F
  0
BLOCK
  8
0
  5
220
  2
GROUP_5
 70
               0
 10
0.0
 20
0.0
 30
0.0
  3
GROUP_5
  0
LINE
  8
0
  6
CONTINUOUS
 62
               4
  5
221
 10
66.831745930520782
 20
19.817192722661616
 30
0.0
 11
66.831745930520782
 21
10.943025747581373
 31
0.0
  0
LINE
  8
0
  6
CONTINUOUS
 62
               4
  5
222
 10
72.316573487822183
 20
19.817192722661616
 30
0.0
 11
72.316573487822183
 21
10.943025747581373
 31
0.0
  0
LINE
  8
0
  6
CONTINUOUS
 62
               4
  5
223
 10
66.831745930520782
 20
19.817192722661616
 30
0.0
 11
88.731745930520532
 21
19.817192722661616
 31
0.0
  0
LINE
  8
0
  6
CONTINUOUS
 62
               4
  5
224
 10
69.574159709171312
 20
9.8171927226616162
 30
0.0
 11
85.989332151869661
 21
9.8171927226616162
 31
0.0
  0
LINE
  8
0
  6
CONTINUOUS
 62
               4
  5
225
 10
88.731745930520532
 20
19.817192722661616
 30
0.0
 11
88.731745930520532
 21
10.943025747581373
 31
0.0
  0
LINE
  8
0
  6
CONTINUOUS
 62
               4
  5
226
 10
83.246918373219131
 20
19.817192722661616
 30
0.0
 11
83.246918373219131
 21
10.943025747581373
 31
0.0
  0
ARC
  8
0
  6
CONTINUOUS
 62
               4
  5
227
 10
69.574159709171312
 20
13.72022858091384
 30
0.0
 40
3.9030358582523994
 50
225.36111921400504
 51
314.63888078588815
  0
ARC
  8
0
  6
CONTINUOUS
 62
               4
  5
228
 10
85.989332151869661
 20
13.72022858091384
 30
0.0
 40
3.9030358582525593
 50
225.3611192140074
 51
314.63888078589054
  0
ARC
  8
0
  6
CONTINUOUS
 62
               4
  5
229
 10
77.781745930520486
 20
23.64500250406752
 30
0.0
 40
13.827809781406303
 50
246.71964825748174
 51
293.28035174241393
  0
ENDBLK
  8
0
  5
22A
  0
BLOCK
  8
0
  5
22B
  2
GROUP_6
 70
               0
 10
0.0
 20
0.0
 30
0.0
  3
GROUP_6
  0
LINE
  8
0
  6
CONTINUOUS
 62
               4
  5
22C
 10
-66.83174593052118
 20
19.817192722661616
 30
0.0
 11
-66.83174593052118
 21
10.943025747581373
 31
0.0
  0
LINE
  8
0
  6
CONTINUOUS
 62
               4
  5
22D
 10
-72.316573487822467
 20
19.817192722661616
 30
0.0
 11
-72.316573487822467
 21
10.943025747581373
 31
0.0
  0
LINE
  8
0
  6
CONTINUOUS
 62
               4
  5
22E
 10
-66.83174593052118
 20
19.817192722661616
 30
0.0
 11
-88.731745930520816
 21
19.817192722661616
 31
0.0
  0
LINE
  8
0
  6
CONTINUOUS
 62
               4
  5
22F
 10
-69.57415970917171
 20
9.8171927226616162
 30
0.0
 11
-85.989332151870059
 21
9.8171927226616162
 31
0.0
  0
LINE
  8
0
  6
CONTINUOUS
 62
               4
  5
230
 10
-88.731745930520816
 20
19.817192722661616
 30
0.0
 11
-88.731745930520816
 21
10.943025747581373
 31
0.0
  0
LINE
  8
0
  6
CONTINUOUS
 62
               4
  5
231
 10
-83.246918373219529
 20
19.817192722661616
 30
0.0
 11
-83.246918373219529
 21
10.943025747581373
 31
0.0
  0
ARC
  8
0
  6
CONTINUOUS
 62
               4
  5
232
 10
-69.57415970917171
 20
13.72022858091384
 30
0.0
 40
3.9030358582523994
 50
225.36111921400737
 51
314.63888078589054
  0
ARC
  8
0
  6
CONTINUOUS
 62
               4
  5
233
 10
-85.989332151870059
 20
13.72022858091384
 30
0.0
 40
3.9030358582525593
 50
225.36111921400502
 51
314.6388807858882
  0
ARC
  8
0
  6
CONTINUOUS
 62
               4
  5
234
 10
-77.781745930520884
 20
23.64500250406752
 30
0.0
 40
13.827809781406303
 50
246.71964825748174
 51
293.28035174241387
  0
ENDBLK
  8
0
  5
235
  0
BLOCK
  8
0
  5
236
  2
GROUP_7
 70
               0
 10
0.0
 20
0.0
 30
0.0
  3
GROUP_7
  0
LINE
  8
0
  6
CONTINUOUS
 62
               4
  5
237
 10
-533.1682540694793
 20
19.817192722661652
 30
0.0
 11
-533.1682540694793
 21
10.943025747581409
 31
0.0
  0
LINE
  8
0
  6
CONTINUOUS
 62
               4
  5
238
 10
-527.6834265121779
 20
19.817192722661652
 30
0.0
 11
-527.6834265121779
 21
10.943025747581409
 31
0.0
  0
LINE
  8
0
  6
CONTINUOUS
 62
               4
  5
239
 10
-533.1682540694793
 20
19.817192722661652
 30
0.0
 11
-511.26825406947955
 21
19.817192722661652
 31
0.0
  0
LINE
  8
0
  6
CONTINUOUS
 62
               4
  5
23A
 10
-530.42584029082877
 20
9.8171927226616518
 30
0.0
 11
-514.01066784813042
 21
9.8171927226616518
 31
0.0
  0
LINE
  8
0
  6
CONTINUOUS
 62
               4
  5
23B
 10
-511.26825406947955
 20
19.817192722661652
 30
0.0
 11
-511.26825406947955
 21
10.943025747581409
 31
0.0
  0
LINE
  8
0
  6
CONTINUOUS
 62
               4
  5
23C
 10
-516.75308162678095
 20
19.817192722661652
 30
0.0
 11
-516.75308162678095
 21
10.943025747581409
 31
0.0
  0
ARC
  8
0
  6
CONTINUOUS
 62
               4
  5
23D
 10
-530.42584029082877
 20
13.720228580913876
 30
0.0
 40
3.9030358582523994
 50
225.3611192140055
 51
314.63888078588769
  0
ARC
  8
0
  6
CONTINUOUS
 62
               4
  5
23E
 10
-514.01066784813042
 20
13.720228580913876
 30
0.0
 40
3.9030358582525593
 50
225.36111921400786
 51
314.63888078589076
  0
ARC
  8
0
  6
CONTINUOUS
 62
               4
  5
23F
 10
-522.2182540694796
 20
23.645002504067556
 30
0.0
 40
13.827809781406303
 50
246.71964825748168
 51
293.28035174241398
  0
ENDBLK
  8
0
  5
240
  0
BLOCK
  8
0
  5
241
  2
GROUP_8
 70
               0
 10
0.0
 20
0.0
 30
0.0
  3
GROUP_8
  0
LINE
  8
0
  6
CONTINUOUS
 62
               4
  5
242
 10
-666.83174593052127
 20
19.817192722661652
 30
0.0
 11
-666.83174593052127
 21
10.943025747581409
 31
0.0
  0
LINE
  8
0
  6
CONTINUOUS
 62
               4
  5
243
 10
-672.31657348782255
 20
19.817192722661652
 30
0.0
 11
-672.31657348782255
 21
10.943025747581409
 31
0.0
  0
LINE
  8
0
  6
CONTINUOUS
 62
               4
  5
244
 10
-666.83174593052127
 20
19.817192722661652
 30
0.0
 11
-688.7317459305209
 21
19.817192722661652
 31
0.0
  0
LINE
  8
0
  6
CONTINUOUS
 62
               4
  5
245
 10
-669.57415970917179
 20
9.8171927226616518
 30
0.0
 11
-685.98933215187014
 21
9.8171927226616518
 31
0.0
  0
LINE
  8
0
  6
CONTINUOUS
 62
               4
  5
246
 10
-688.7317459305209
 20
19.817192722661652
 30
0.0
 11
-688.7317459305209
 21
10.943025747581409
 31
0.0
  0
LINE
  8
0
  6
CONTINUOUS
 62
               4
  5
247
 10
-683.24691837321961
 20
19.817192722661652
 30
0.0
 11
-683.24691837321961
 21
10.943025747581409
 31
0.0
  0
ARC
  8
0
  6
CONTINUOUS
 62
               4
  5
248
 10
-669.57415970917179
 20
13.720228580913876
 30
0.0
 40
3.9030358582523994
 50
225.36111921400783
 51
314.63888078589008
  0
ARC
  8
0
  6
CONTINUOUS
 62
               4
  5
249
 10
-685.98933215187014
 20
13.720228580913876
 30
0.0
 40
3.9030358582525593
 50
225.36111921400547
 51
314.63888078588775
  0
ARC
  8
0
  6
CONTINUOUS
 62
               4
  5
24A
 10
-677.78174593052097
 20
23.645002504067556
 30
0.0
 40
13.827809781406303
 50
246.71964825748168
 51
293.28035174241398
  0
ENDBLK
  8
0
  5
24B
  0
ENDSEC
  0
SECTION
  2
ENTITIES
  0
LINE
  8
0
  6
DASHDOT
 62
               4
  5
24C
 10
-0.0000000000003476
 20
-656.77076622580603
 30
0.0
 11
-0.0000000000001121
 21
172.63598971514142
 31
0.0
  0
LINE
  8
0
  6
DASHDOT
 62
               4
  5
24D
 10
-600.00000000000045
 20
-656.77076622580603
 30
0.0
 11
-600.00000000000023
 21
172.63598971514153
 31
0.0
  0
LINE
  8
0
  6
DASHDOT
 62
               4
  5
24E
 10
599.99999999999989
 20
-656.77076622580626
 30
0.0
 11
600.00000000000011
 21
172.63598971514119
 31
0.0
  0
LINE
  8
0
  6
DASHDOT
 62
               4
  5
24F
 10
-0.0000000000001989
 20
428.96436747132583
 30
0.0
 11
0.0000000000000142
 21
656.77076622580626
 31
0.0
  0
LINE
  8
0
  6
DASHDOT
 62
               4
  5
250
 10
113.90319937723996
 20
542.86756684856596
 30
0.0
 11
-113.90319937724041
 21
542.86756684856618
 31
0.0
  0
LINE
  8
0
  6
DASHDOT
 62
               4
  5
251
 10
-113.90319937724014
 20
542.86756684856618
 30
0.0
 11
-180.0
 21
542.86756684856618
 31
0.0
  0
LINE
  8
0
  6
DASHDOT
 62
               4
  5
252
 10
113.90319937724041
 20
542.8675668485663
 30
0.0
 11
180.00000000000023
 21
542.86756684856618
 31
0.0
  0
LINE
  8
0
  6
DASHDOT
 62
               4
  5
253
 10
-162.01839599130329
 20
-46.382807277339907
 30
0.0
 11
-90.000000000000057
 21
-46.382807277339907
 31
0.0
  0
LINE
  8
0
  6
DASHDOT
 62
               4
  5
254
 10
-489.95609660796197
 20
-36.382807277340262
 30
0.0
 11
-529.95609660796197
 21
-36.382807277340291
 31
0.0
  0
LINE
  8
0
  6
DASHDOT
 62
               4
  5
255
 10
-675.50000000000045
 20
-46.382807277339907
 30
0.0
 11
-524.50000000000045
 21
-46.382807277339907
 31
0.0
  0
LINE
  8
0
  6
DASHDOT
 62
               4
  5
256
 10
168.14092777451538
 20
-58.882807277340092
 30
0.0
 11
89.999999999999659
 21
-58.882807277340035
 31
0.0
  0
LINE
  8
0
  6
DASHDOT
 62
               4
  5
257
 10
667.49999999999989
 20
-58.88280727734022
 30
0.0
 11
532.5
 21
-58.88280727734022
 31
0.0
  0
LINE
  8
0
  6
DASHDOT
 62
               4
  5
258
 10
710.04390339203871
 20
-36.382807277340703
 30
0.0
 11
670.04390339203871
 21
-36.382807277340703
 31
0.0
  0
LINE
  8
0
  6
DASHDOT
 62
               4
  5
259
 10
39.999999999999652
 20
-36.382807277340703
 30
0.0
 11
-40.000000000000348
 21
-36.382807277340703
 31
0.0
  0
LINE
  8
0
  6
DASHDOT
 62
               4
  5
25A
 10
489.95609660796151
 20
-36.38280727734066
 30
0.0
 11
529.95609660796151
 21
-36.382807277340689
 31
0.0
  0
LINE
  8
0
  6
DASHDOT
 62
               4
  5
25B
 10
-710.04390339203871
 20
-36.382807277340262
 30
0.0
 11
-670.04390339203871
 21
-36.382807277340305
 31
0.0
  0
LINE
  8
0
  6
DASHDOT
 62
               4
  5
25C
 10
-392.13776905046905
 20
-1083.0310027585306
 30
0.0
 11
-392.13776905046893
 21
-954.03100275853035
 31
0.0
  0
LINE
  8
0
  6
DASHDOT
 62
               4
  5
25D
 10
-450.13776905046905
 20
-1025.0310027585303
 30
0.0
 11
-334.13776905046905
 21
-1025.0310027585303
 31
0.0
  0
LINE
  8
0
  6
DASHDOT
 62
               4
  5
25E
 10
-461.94094753457648
 20
-1018.5310027585303
 30
0.0
 11
-327.63776905046905
 21
-1018.5310027585303
 31
0.0
  0
LINE
  8
0
  6
DASHDOT
 62
               4
  5
25F
 10
-268.23776905046896
 20
-1018.5310027585303
 30
0.0
 11
-169.63776905046905
 21
-1018.5310027585303
 31
0.0
  0
LINE
  8
0
  6
DASHDOT
 62
               4
  5
260
 10
-302.63776905046905
 20
-1025.0310027585303
 30
0.0
 11
-228.23776905046907
 21
-1025.0310027585303
 31
0.0
  0
LINE
  8
0
  6
DASHDOT
 62
               4
  5
261
 10
-516.03776905046891
 20
-1018.5310027585301
 30
0.0
 11
-614.63776905046905
 21
-1018.5310027585299
 31
0.0
  0
LINE
  8
0
  6
DASHDOT
 62
               4
  5
262
 10
-481.63776905046905
 20
-1025.0310027585301
 30
0.0
 11
-556.03776905046891
 21
-1025.0310027585301
 31
0.0
  0
LINE
  8
0
  6
DASHDOT
 62
               4
  5
263
 10
-394.08372644623557
 20
-921.56311868949524
 30
0.0
 11
-394.08372644623557
 21
-788.56311868949524
 31
0.0
  0
LINE
  8
0
  6
DASHDOT
 62
               4
  5
264
 10
221.63392368588063
 20
-1018.5310027585303
 30
0.0
 11
320.23392368588077
 21
-1018.5310027585303
 31
0.0
  0
LINE
  8
0
  6
DASHDOT
 62
               4
  5
265
 10
196.63392368588063
 20
-1033.0310027585303
 30
0.0
 11
261.63392368588063
 21
-1033.0310027585303
 31
0.0
  0
LINE
  8
0
  6
DASHDOT
 62
               4
  5
266
 10
70.87790746063763
 20
-1033.0310027585303
 30
0.0
 11
170.87790746063786
 21
-1033.0310027585303
 31
0.0
  0
LINE
  8
0
  6
DASHDOT
 62
               4
  5
267
 10
120.87790746063763
 20
-1083.0310027585306
 30
0.0
 11
120.87790746063786
 21
-954.03100275853035
 31
0.0
  0
LINE
  8
0
  6
DASHDOT
 62
               4
  5
268
 10
56.377907460637623
 20
-1018.5310027585303
 30
0.0
 11
190.92191724058887
 21
-1018.5310027585303
 31
0.0
  0
LINE
  8
0
  6
DASHDOT
 62
               4
  5
269
 10
20.121891235394848
 20
-1018.5310027585303
 30
0.0
 11
-78.478108764605167
 21
-1018.5310027585303
 31
0.0
  0
LINE
  8
0
  6
DASHDOT
 62
               4
  5
26A
 10
45.121891235394848
 20
-1033.0310027585303
 30
0.0
 11
-19.878108764605152
 21
-1033.0310027585303
 31
0.0
  0
LINE
  8
0
  6
DASHDOT
 62
               4
  5
26B
 10
120.87790746063786
 20
-932.27498653328757
 30
0.0
 11
120.87790746063786
 21
-808.67498653328744
 31
0.0
  0
LINE
  8
0
  6
DASHDOT
 62
               4
  5
26C
 10
609.2865232163075
 20
-852.34656718673932
 30
0.0
 11
609.2865232163075
 21
-1122.8933539865657
 31
0.0
  0
LINE
  8
0
  6
DASHDOT
 62
               4
  5
26D
 10
447.28652321630761
 20
-960.84656718673932
 30
0.0
 11
717.78652321630773
 21
-960.84656718673932
 31
0.0
  0
LINE
  8
0
  6
DASHDOT
 62
               4
  5
26E
 10
677.81174799153234
 20
-1435.3460009353239
 30
0.0
 11
447.55790992287928
 21
-1435.3460009353239
 31
0.0
  0
LINE
  8
0
  6
DASHDOT
 62
               4
  5
26F
 10
609.2865232163075
 20
-1249.3460009353239
 30
0.0
 11
609.2865232163075
 21
-1500.3460009353239
 31
0.0
  0
LINE
  8
0
  6
DASHDOT
 62
               4
  5
270
 10
559.2865232163075
 20
-1449.8460009353239
 30
0.0
 11
659.28652321630773
 21
-1449.8460009353239
 31
0.0
  0
LINE
  8
0
  6
DASHDOT
 62
               4
  5
271
 10
609.2865232163075
 20
-1151.4465671867397
 30
0.0
 11
609.2865232163075
 21
-1027.8465671867393
 31
0.0
  0
LINE
  8
0
  6
DASHDOT
 62
               4
  5
272
 10
409.2865232163075
 20
-1441.8460009353239
 30
0.0
 11
483.68652321630748
 21
-1441.8460009353239
 31
0.0
  0
LINE
  8
0
  6
DASHDOT
 62
               4
  5
273
 10
409.28652321630773
 20
-960.84656718673909
 30
0.0
 11
542.28652321630773
 21
-960.84656718673909
 31
0.0
  0
LINE
  8
0
  6
CONTINUOUS
 62
               4
  5
274
 10
-72.753934824881327
 20
-190.77389756274462
 30
0.0
 11
64.007050477479567
 21
-305.5299898893972
 31
0.0
  0
ARC
  8
0
  6
CONTINUOUS
 62
               4
  5
275
 10
-1169.8433590460345
 20
-514.68096724863062
 30
0.0
 40
687.72820158627314
 50
18.108480790465826
 51
28.098008730082476
  0
ARC
  8
0
  6
CONTINUOUS
 62
               4
  5
276
 10
-581.48963228257765
 20
-258.06719270384309
 30
0.0
 40
69.74273142123306
 50
332.35940834662927
 51
434.76997683374913
  0
ARC
  8
0
  6
CONTINUOUS
 62
               4
  5
277
 10
577.51175440469285
 20
-290.28978754234532
 30
0.0
 40
62.379470432471358
 50
153.87479529774379
 51
191.49340995895585
  0
ARC
  8
0
  6
CONTINUOUS
 62
               4
  5
278
 10
542.63468447666207
 20
-305.83754498611387
 30
0.0
 40
10.0
 50
324.29736943372262
 51
398.20421175358553
  0
LINE
  8
0
  6
CONTINUOUS
 62
               4
  5
279
 10
550.49279880155063
 20
-299.65288337394924
 30
0.0
 11
510.20094803717859
 21
-248.4588181974446
 31
0.0
  0
ARC
  8
0
  6
CONTINUOUS
 62
               4
  5
27A
 10
535.29686529161665
 20
-300.5642761417551
 30
0.0
 40
19.036091782253322
 50
186.49999999996379
 51
324.29736943372262
  0
ARC
  8
0
  6
CONTINUOUS
 62
               4
  5
27B
 10
473.68129117649653
 20
-340.88162240669004
 30
0.0
 40
204.24864340422488
 50
353.49999999993162
 51
373.4368021674054
  0
ARC
  8
0
  6
CONTINUOUS
 62
               4
  5
27C
 10
511.37230094455754
 20
-338.59720533728233
 30
0.0
 40
167.18634723772169
 50
351.25933879886691
 51
375.67746336847057
  0
ARC
  8
0
  6
CONTINUOUS
 62
               4
  5
27D
 10
-426.64065013564903
 20
-36.522490355307312
 30
0.0
 40
92.090694433536868
 50
155.07010251999947
 51
205.15144555827746
  0
ARC
  8
0
  6
CONTINUOUS
 62
               4
  5
27E
 10
773.35934986435154
 20
-36.522490355307809
 30
0.0
 40
92.090694433536868
 50
155.07010251999944
 51
205.15144555827743
  0
ARC
  8
0
  6
CONTINUOUS
 62
               4
  5
27F
 10
426.64065013564868
 20
-36.522490355307724
 30
0.0
 40
92.090694433536868
 50
334.84855444161809
 51
384.92989747989617
  0
ARC
  8
0
  6
CONTINUOUS
 62
               4
  5
280
 10
-773.35934986435166
 20
-36.522490355307283
 30
0.0
 40
92.090694433536868
 50
334.84855444161809
 51
384.92989747989617
  0
LINE
  8
0
  6
CONTINUOUS
 62
               4
  5
281
 10
690.78174593052051
 20
19.817192722660195
 30
0.0
 11
690.78174593052051
 21
22.11719272266015
 31
0.0
  0
LINE
  8
0
  6
CONTINUOUS
 62
               4
  5
282
 10
690.78174593052051
 20
22.11719272266015
 30
0.0
 11
664.78174593052063
 21
22.11719272266015
 31
0.0
  0
LINE
  8
0
  6
CONTINUOUS
 62
               4
  5
283
 10
664.78174593052063
 20
22.11719272266015
 30
0.0
 11
664.78174593052063
 21
19.817192722660195
 31
0.0
  0
LINE
  8
0
  6
CONTINUOUS
 62
               4
  5
284
 10
664.78174593052063
 20
19.817192722660195
 30
0.0
 11
690.78174593052051
 21
19.817192722660195
 31
0.0
  0
LINE
  8
0
  6
CONTINUOUS
 62
               4
  5
285
 10
683.78174593052017
 20
-8.8828072773403051
 30
0.0
 11
683.78174593052017
 21
9.817192722661332
 31
0.0
  0
LINE
  8
0
  6
CONTINUOUS
 62
               4
  5
286
 10
671.78174593052017
 20
9.817192722661332
 30
0.0
 11
671.78174593052006
 21
-8.8828072773403051
 31
0.0
  0
LINE
  8
0
  6
CONTINUOUS
 62
               4
  5
287
 10
683.78174593052017
 20
-8.8828072773403051
 30
0.0
 11
671.78174593052006
 21
-8.8828072773403051
 31
0.0
  0
LINE
  8
0
  6
CONTINUOUS
 62
               4
  5
288
 10
509.2182540694796
 20
19.817192722660195
 30
0.0
 11
509.2182540694796
 21
22.11719272266015
 31
0.0
  0
LINE
  8
0
  6
CONTINUOUS
 62
               4
  5
289
 10
509.2182540694796
 20
22.11719272266015
 30
0.0
 11
535.21825406947949
 21
22.11719272266015
 31
0.0
  0
LINE
  8
0
  6
CONTINUOUS
 62
               4
  5
28A
 10
535.21825406947949
 20
22.11719272266015
 30
0.0
 11
535.21825406947949
 21
19.817192722660195
 31
0.0
  0
LINE
  8
0
  6
CONTINUOUS
 62
               4
  5
28B
 10
535.21825406947949
 20
19.817192722660195
 30
0.0
 11
509.2182540694796
 21
19.817192722660195
 31
0.0
  0
LINE
  8
0
  6
CONTINUOUS
 62
               4
  5
28C
 10
516.21825406947994
 20
-8.8828072773403051
 30
0.0
 11
516.21825406947994
 21
9.817192722661332
 31
0.0
  0
LINE
  8
0
  6
CONTINUOUS
 62
               4
  5
28D
 10
528.21825406947994
 20
9.817192722661332
 30
0.0
 11
528.21825406948005
 21
-8.8828072773403051
 31
0.0
  0
LINE
  8
0
  6
CONTINUOUS
 62
               4
  5
28E
 10
516.21825406947994
 20
-8.8828072773403051
 30
0.0
 11
528.21825406948005
 21
-8.8828072773403051
 31
0.0
  0
LINE
  8
0
  6
CONTINUOUS
 62
               4
  5
28F
 10
90.781745930520259
 20
19.817192722660479
 30
0.0
 11
90.781745930520259
 21
22.117192722660434
 31
0.0
  0
LINE
  8
0
  6
CONTINUOUS
 62
               4
  5
290
 10
90.781745930520259
 20
22.117192722660434
 30
0.0
 11
64.781745930520373
 21
22.117192722660434
 31
0.0
  0
LINE
  8
0
  6
CONTINUOUS
 62
               4
  5
291
 10
64.781745930520373
 20
22.117192722660434
 30
0.0
 11
64.781745930520373
 21
19.817192722660479
 31
0.0
  0
LINE
  8
0
  6
CONTINUOUS
 62
               4
  5
292
 10
64.781745930520373
 20
19.817192722660479
 30
0.0
 11
90.781745930520259
 21
19.817192722660479
 31
0.0
  0
LINE
  8
0
  6
CONTINUOUS
 62
               4
  5
293
 10
83.781745930519918
 20
-8.8828072773400208
 30
0.0
 11
83.781745930519918
 21
9.8171927226616162
 31
0.0
  0
LINE
  8
0
  6
CONTINUOUS
 62
               4
  5
294
 10
71.781745930519918
 20
9.8171927226616162
 30
0.0
 11
71.781745930519804
 21
-8.8828072773400208
 31
0.0
  0
LINE
  8
0
  6
CONTINUOUS
 62
               4
  5
295
 10
83.781745930519918
 20
-8.8828072773400208
 30
0.0
 11
71.781745930519804
 21
-8.8828072773400208
 31
0.0
  0
LINE
  8
0
  6
CONTINUOUS
 62
               4
  5
296
 10
-90.781745930520657
 20
19.817192722660479
 30
0.0
 11
-90.781745930520657
 21
22.117192722660434
 31
0.0
  0
LINE
  8
0
  6
CONTINUOUS
 62
               4
  5
297
 10
-90.781745930520657
 20
22.117192722660434
 30
0.0
 11
-64.781745930520771
 21
22.117192722660434
 31
0.0
  0
LINE
  8
0
  6
CONTINUOUS
 62
               4
  5
298
 10
-64.781745930520771
 20
22.117192722660434
 30
0.0
 11
-64.781745930520771
 21
19.817192722660479
 31
0.0
  0
LINE
  8
0
  6
CONTINUOUS
 62
               4
  5
299
 10
-64.781745930520771
 20
19.817192722660479
 30
0.0
 11
-90.781745930520657
 21
19.817192722660479
 31
0.0
  0
LINE
  8
0
  6
CONTINUOUS
 62
               4
  5
29A
 10
-83.781745930520316
 20
-8.8828072773400208
 30
0.0
 11
-83.781745930520316
 21
9.8171927226616162
 31
0.0
  0
LINE
  8
0
  6
CONTINUOUS
 62
               4
  5
29B
 10
-71.781745930520316
 20
9.8171927226616162
 30
0.0
 11
-71.781745930520202
 21
-8.8828072773400208
 31
0.0
  0
LINE
  8
0
  6
CONTINUOUS
 62
               4
  5
29C
 10
-83.781745930520316
 20
-8.8828072773400208
 30
0.0
 11
-71.781745930520202
 21
-8.8828072773400208
 31
0.0
  0
LINE
  8
0
  6
CONTINUOUS
 62
               4
  5
29D
 10
-509.21825406947983
 20
19.817192722660515
 30
0.0
 11
-509.21825406947983
 21
22.117192722660469
 31
0.0
  0
LINE
  8
0
  6
CONTINUOUS
 62
               4
  5
29E
 10
-509.21825406947983
 20
22.117192722660469
 30
0.0
 11
-535.21825406947971
 21
22.117192722660469
 31
0.0
  0
LINE
  8
0
  6
CONTINUOUS
 62
               4
  5
29F
 10
-535.21825406947971
 20
22.117192722660469
 30
0.0
 11
-535.21825406947971
 21
19.817192722660515
 31
0.0
  0
LINE
  8
0
  6
CONTINUOUS
 62
               4
  5
2A0
 10
-535.21825406947971
 20
19.817192722660515
 30
0.0
 11
-509.21825406947983
 21
19.817192722660515
 31
0.0
  0
LINE
  8
0
  6
CONTINUOUS
 62
               4
  5
2A1
 10
-516.21825406948017
 20
-8.8828072773399853
 30
0.0
 11
-516.21825406948017
 21
9.8171927226616518
 31
0.0
  0
LINE
  8
0
  6
CONTINUOUS
 62
               4
  5
2A2
 10
-528.21825406948017
 20
9.8171927226616518
 30
0.0
 11
-528.21825406948028
 21
-8.8828072773399853
 31
0.0
  0
LINE
  8
0
  6
CONTINUOUS
 62
               4
  5
2A3
 10
-516.21825406948017
 20
-8.8828072773399853
 30
0.0
 11
-528.21825406948028
 21
-8.8828072773399853
 31
0.0
  0
LINE
  8
0
  6
CONTINUOUS
 62
               4
  5
2A4
 10
-690.78174593052074
 20
19.817192722660515
 30
0.0
 11
-690.78174593052074
 21
22.117192722660469
 31
0.0
  0
LINE
  8
0
  6
CONTINUOUS
 62
               4
  5
2A5
 10
-690.78174593052074
 20
22.117192722660469
 30
0.0
 11
-664.78174593052086
 21
22.117192722660469
 31
0.0
  0
LINE
  8
0
  6
CONTINUOUS
 62
               4
  5
2A6
 10
-664.78174593052086
 20
22.117192722660469
 30
0.0
 11
-664.78174593052086
 21
19.817192722660515
 31
0.0
  0
LINE
  8
0
  6
CONTINUOUS
 62
               4
  5
2A7
 10
-664.78174593052086
 20
19.817192722660515
 30
0.0
 11
-690.78174593052074
 21
19.817192722660515
 31
0.0
  0
LINE
  8
0
  6
CONTINUOUS
 62
               4
  5
2A8
 10
-683.7817459305204
 20
-8.8828072773399853
 30
0.0
 11
-683.7817459305204
 21
9.8171927226616518
 31
0.0
  0
LINE
  8
0
  6
CONTINUOUS
 62
               4
  5
2A9
 10
-671.7817459305204
 20
9.8171927226616518
 30
0.0
 11
-671.78174593052029
 21
-8.8828072773399853
 31
0.0
  0
LINE
  8
0
  6
CONTINUOUS
 62
               4
  5
2AA
 10
-683.7817459305204
 20
-8.8828072773399853
 30
0.0
 11
-671.78174593052029
 21
-8.8828072773399853
 31
0.0
  0
LINE
  8
0
  6
CONTINUOUS
 62
               4
  5
2AB
 10
56.99999999999968
 20
-496.88280727733985
 30
0.0
 11
-57.000000000000306
 21
-496.88280727733985
 31
0.0
  0
LINE
  8
0
  6
CONTINUOUS
 62
               4
  5
2AC
 10
58.053042823173065
 20
-495.82976445416631
 30
0.0
 11
-58.053042823173648
 21
-495.82976445416631
 31
0.0
  0
LINE
  8
0
  6
CONTINUOUS
 62
               4
  5
2AD
 10
-543.00000000000045
 20
-496.88280727733985
 30
0.0
 11
-657.00000000000045
 21
-496.88280727733985
 31
0.0
  0
LINE
  8
0
  6
CONTINUOUS
 62
               4
  5
2AE
 10
-541.94695717682703
 20
-495.82976445416642
 30
0.0
 11
-658.05304282317377
 21
-495.82976445416642
 31
0.0
  0
LINE
  8
0
  6
CONTINUOUS
 62
               4
  5
2AF
 10
656.99999999999989
 20
-496.88280727734008
 30
0.0
 11
542.99999999999989
 21
-496.88280727734008
 31
0.0
  0
LINE
  8
0
  6
CONTINUOUS
 62
               4
  5
2B0
 10
658.05304282317331
 20
-495.82976445416665
 30
0.0
 11
541.94695717682657
 21
-495.82976445416665
 31
0.0
  0
LINE
  8
0
  6
CONTINUOUS
 62
               4
  5
2B1
 10
-32.83358811246989
 20
62.117192722659951
 30
0.0
 11
-32.83358811246989
 21
58.117192722660064
 31
0.0
  0
LINE
  8
0
  6
CONTINUOUS
 62
               4
  5
2B2
 10
-32.83358811246989
 20
58.117192722660064
 30
0.0
 11
-105.00000000000034
 21
58.117192722660064
 31
0.0
  0
LINE
  8
0
  6
CONTINUOUS
 62
               4
  5
2B3
 10
32.83358811246972
 20
58.117192722660064
 30
0.0
 11
105.00000000000016
 21
58.117192722660064
 31
0.0
  0
LINE
  8
0
  6
CONTINUOUS
 62
               4
  5
2B4
 10
32.83358811246972
 20
62.117192722659951
 30
0.0
 11
32.83358811246972
 21
58.117192722660064
 31
0.0
  0
LINE
  8
0
  6
CONTINUOUS
 62
               4
  5
2B5
 10
94.85880739699725
 20
58.117192722660064
 30
0.0
 11
94.85880739699725
 21
62.717192722659973
 31
0.0
  0
LINE
  8
0
  6
CONTINUOUS
 62
               4
  5
2B6
 10
91.908219931881391
 20
62.717192722659973
 30
0.0
 11
86.031745930519619
 21
66.117192722659951
 31
0.0
  0
LINE
  8
0
  6
CONTINUOUS
 62
               4
  5
2B7
 10
69.531745930519634
 20
66.117192722659951
 30
0.0
 11
86.031745930519619
 21
66.117192722659951
 31
0.0
  0
LINE
  8
0
  6
CONTINUOUS
 62
               4
  5
2B8
 10
69.531745930519634
 20
66.117192722659951
 30
0.0
 11
69.531745930519634
 21
58.117192722659837
 31
0.0
  0
LINE
  8
0
  6
CONTINUOUS
 62
               4
  5
2B9
 10
94.85880739699725
 20
62.717192722659973
 30
0.0
 11
91.90821993188132
 21
62.717192722659973
 31
0.0
  0
LINE
  8
0
  6
CONTINUOUS
 62
               4
  5
2BA
 10
-60.704684464042252
 20
58.117192722660178
 30
0.0
 11
-60.704684464042252
 21
62.717192722660201
 31
0.0
  0
LINE
  8
0
  6
CONTINUOUS
 62
               4
  5
2BB
 10
-63.655271929158111
 20
62.717192722660087
 30
0.0
 11
-69.531745930519889
 21
66.117192722660178
 31
0.0
  0
LINE
  8
0
  6
CONTINUOUS
 62
               4
  5
2BC
 10
-86.031745930519946
 20
66.117192722660064
 30
0.0
 11
-69.531745930519889
 21
66.117192722660178
 31
0.0
  0
LINE
  8
0
  6
CONTINUOUS
 62
               4
  5
2BD
 10
-72.725499744213721
 20
58.117192722660064
 30
0.0
 11
-72.725499744213721
 21
62.717192722660087
 31
0.0
  0
LINE
  8
0
  6
CONTINUOUS
 62
               4
  5
2BE
 10
-60.704684464042252
 20
62.717192722660201
 30
0.0
 11
-75.67608720932958
 21
62.717192722660087
 31
0.0
  0
LINE
  8
0
  6
CONTINUOUS
 62
               4
  5
2BF
 10
-83.188600180012372
 20
66.117192722660178
 30
0.0
 11
-75.67608720932958
 21
62.717192722660087
 31
0.0
  0
LINE
  8
0
  6
CONTINUOUS
 62
               4
  5
2C0
 10
-86.031745930519946
 20
66.117192722660064
 30
0.0
 11
-86.031745930519946
 21
58.117192722660064
 31
0.0
  0
LINE
  8
0
  6
CONTINUOUS
 62
               4
  5
2C1
 10
-632.83358811247001
 20
62.117192722659986
 30
0.0
 11
-632.83358811247001
 21
58.1171927226601
 31
0.0
  0
LINE
  8
0
  6
CONTINUOUS
 62
               4
  5
2C2
 10
-632.83358811247001
 20
58.1171927226601
 30
0.0
 11
-705.00000000000045
 21
58.1171927226601
 31
0.0
  0
LINE
  8
0
  6
CONTINUOUS
 62
               4
  5
2C3
 10
-567.16641188753044
 20
58.1171927226601
 30
0.0
 11
-494.99999999999994
 21
58.1171927226601
 31
0.0
  0
LINE
  8
0
  6
CONTINUOUS
 62
               4
  5
2C4
 10
-567.16641188753044
 20
62.117192722659986
 30
0.0
 11
-567.16641188753044
 21
58.1171927226601
 31
0.0
  0
LINE
  8
0
  6
CONTINUOUS
 62
               4
  5
2C5
 10
-505.14119260300288
 20
58.1171927226601
 30
0.0
 11
-505.14119260300288
 21
62.717192722660009
 31
0.0
  0
LINE
  8
0
  6
CONTINUOUS
 62
               4
  5
2C6
 10
-508.09178006811874
 20
62.717192722660009
 30
0.0
 11
-513.96825406948051
 21
66.117192722659979
 31
0.0
  0
LINE
  8
0
  6
CONTINUOUS
 62
               4
  5
2C7
 10
-530.46825406948051
 20
66.117192722659979
 30
0.0
 11
-513.96825406948051
 21
66.117192722659979
 31
0.0
  0
LINE
  8
0
  6
CONTINUOUS
 62
               4
  5
2C8
 10
-530.46825406948051
 20
66.117192722659979
 30
0.0
 11
-530.46825406948051
 21
58.117192722659873
 31
0.0
  0
LINE
  8
0
  6
CONTINUOUS
 62
               4
  5
2C9
 10
-505.14119260300288
 20
62.717192722660009
 30
0.0
 11
-508.09178006811879
 21
62.717192722660009
 31
0.0
  0
LINE
  8
0
  6
CONTINUOUS
 62
               4
  5
2CA
 10
-660.70468446404232
 20
58.117192722660214
 30
0.0
 11
-660.70468446404232
 21
62.717192722660236
 31
0.0
  0
LINE
  8
0
  6
CONTINUOUS
 62
               4
  5
2CB
 10
-663.65527192915818
 20
62.717192722660123
 30
0.0
 11
-669.53174593052006
 21
66.117192722660207
 31
0.0
  0
LINE
  8
0
  6
CONTINUOUS
 62
               4
  5
2CC
 10
-686.03174593052006
 20
66.117192722660093
 30
0.0
 11
-669.53174593052006
 21
66.117192722660207
 31
0.0
  0
LINE
  8
0
  6
CONTINUOUS
 62
               4
  5
2CD
 10
-672.72549974421383
 20
58.1171927226601
 30
0.0
 11
-672.72549974421383
 21
62.717192722660123
 31
0.0
  0
LINE
  8
0
  6
CONTINUOUS
 62
               4
  5
2CE
 10
-660.70468446404232
 20
62.717192722660236
 30
0.0
 11
-675.67608720932969
 21
62.717192722660123
 31
0.0
  0
LINE
  8
0
  6
CONTINUOUS
 62
               4
  5
2CF
 10
-683.18860018001249
 20
66.117192722660207
 30
0.0
 11
-675.67608720932969
 21
62.717192722660123
 31
0.0
  0
LINE
  8
0
  6
CONTINUOUS
 62
               4
  5
2D0
 10
-686.03174593052006
 20
66.117192722660093
 30
0.0
 11
-686.03174593052006
 21
58.1171927226601
 31
0.0
  0
LINE
  8
0
  6
CONTINUOUS
 62
               4
  5
2D1
 10
567.16641188753033
 20
62.117192722659667
 30
0.0
 11
567.16641188753033
 21
58.11719272265978
 31
0.0
  0
LINE
  8
0
  6
CONTINUOUS
 62
               4
  5
2D2
 10
567.16641188753033
 20
58.11719272265978
 30
0.0
 11
494.99999999999989
 21
58.11719272265978
 31
0.0
  0
LINE
  8
0
  6
CONTINUOUS
 62
               4
  5
2D3
 10
632.8335881124699
 20
58.11719272265978
 30
0.0
 11
705.00000000000034
 21
58.11719272265978
 31
0.0
  0
LINE
  8
0
  6
CONTINUOUS
 62
               4
  5
2D4
 10
632.8335881124699
 20
62.117192722659667
 30
0.0
 11
632.8335881124699
 21
58.11719272265978
 31
0.0
  0
LINE
  8
0
  6
CONTINUOUS
 62
               4
  5
2D5
 10
694.85880739699746
 20
58.11719272265978
 30
0.0
 11
694.85880739699746
 21
62.717192722659689
 31
0.0
  0
LINE
  8
0
  6
CONTINUOUS
 62
               4
  5
2D6
 10
691.9082199318816
 20
62.717192722659689
 30
0.0
 11
686.03174593051983
 21
66.117192722659667
 31
0.0
  0
LINE
  8
0
  6
CONTINUOUS
 62
               4
  5
2D7
 10
669.53174593051983
 20
66.117192722659667
 30
0.0
 11
686.03174593051983
 21
66.117192722659667
 31
0.0
  0
LINE
  8
0
  6
CONTINUOUS
 62
               4
  5
2D8
 10
669.53174593051983
 20
66.117192722659667
 30
0.0
 11
669.53174593051983
 21
58.117192722659553
 31
0.0
  0
LINE
  8
0
  6
CONTINUOUS
 62
               4
  5
2D9
 10
694.85880739699746
 20
62.717192722659689
 30
0.0
 11
691.90821993188149
 21
62.717192722659689
 31
0.0
  0
LINE
  8
0
  6
CONTINUOUS
 62
               4
  5
2DA
 10
539.29531553595791
 20
58.117192722659894
 30
0.0
 11
539.29531553595791
 21
62.717192722659917
 31
0.0
  0
LINE
  8
0
  6
CONTINUOUS
 62
               4
  5
2DB
 10
536.34472807084205
 20
62.717192722659803
 30
0.0
 11
530.46825406948039
 21
66.117192722659894
 31
0.0
  0
LINE
  8
0
  6
CONTINUOUS
 62
               4
  5
2DC
 10
513.96825406948028
 20
66.11719272265978
 30
0.0
 11
530.46825406948039
 21
66.117192722659894
 31
0.0
  0
LINE
  8
0
  6
CONTINUOUS
 62
               4
  5
2DD
 10
527.27450025578651
 20
58.11719272265978
 30
0.0
 11
527.27450025578651
 21
62.717192722659803
 31
0.0
  0
LINE
  8
0
  6
CONTINUOUS
 62
               4
  5
2DE
 10
539.29531553595791
 20
62.717192722659917
 30
0.0
 11
524.32391279067065
 21
62.717192722659803
 31
0.0
  0
LINE
  8
0
  6
CONTINUOUS
 62
               4
  5
2DF
 10
516.81139981998786
 20
66.117192722659894
 30
0.0
 11
524.32391279067065
 21
62.717192722659803
 31
0.0
  0
LINE
  8
0
  6
CONTINUOUS
 62
               4
  5
2E0
 10
513.96825406948028
 20
66.11719272265978
 30
0.0
 11
513.96825406948028
 21
58.11719272265978
 31
0.0
  0
POINT
  8
0
  6
CONTINUOUS
 62
               4
  5
2E1
 10
-247.03776905046902
 20
-974.03100275853035
 30
0.0
  0
POINT
  8
0
  6
CONTINUOUS
 62
               4
  5
2E2
 10
-537.23776905046896
 20
-974.03100275853012
 30
0.0
  0
POINT
  8
0
  6
CONTINUOUS
 62
               4
  5
2E3
 10
-349.58372644623557
 20
-865.96311868949533
 30
0.0
  0
POINT
  8
0
  6
CONTINUOUS
 62
               4
  5
2E4
 10
242.83392368588068
 20
-974.03100275853035
 30
0.0
  0
POINT
  8
0
  6
CONTINUOUS
 62
               4
  5
2E5
 10
-1.0781087646051963
 20
-974.03100275853035
 30
0.0
  0
POINT
  8
0
  6
CONTINUOUS
 62
               4
  5
2E6
 10
165.37790746063786
 20
-886.07498653328753
 30
0.0
  0
LINE
  8
0
  6
CONTINUOUS
 62
               4
  5
2E7
 10
686.2865232163075
 20
-1365.8103471824711
 30
0.0
 11
681.2865232163075
 21
-1360.8103471824711
 31
0.0
  0
ARC
  8
0
  6
CONTINUOUS
 62
               4
  5
2E8
 10
663.7865232163075
 20
-1376.3460009353239
 30
0.0
 40
19.999999999999996
 50
0.0
 51
31.78833061703342
  0
LINE
  8
0
  6
CONTINUOUS
 62
               4
  5
2E9
 10
680.78652321630796
 20
-1365.8103471824711
 30
0.0
 11
680.78652321630796
 21
-1360.8103471824707
 31
0.0
  0
LINE
  8
0
  6
CONTINUOUS
 62
               4
  5
2EA
 10
681.2865232163075
 20
-1360.8103471824711
 30
0.0
 11
680.78652321630796
 21
-1360.8103471824711
 31
0.0
  0
LINE
  8
0
  6
CONTINUOUS
 62
               4
  5
2EB
 10
686.03652321630773
 20
-1366.0603471824711
 30
0.0
 11
680.78652321630796
 21
-1360.8103471824711
 31
0.0
  0
LINE
  8
0
  6
CONTINUOUS
 62
               4
  5
2EC
 10
686.03652321630773
 20
-1366.0603471824711
 30
0.0
 11
686.2865232163075
 21
-1365.8103471824711
 31
0.0
  0
LINE
  8
0
  6
CONTINUOUS
 62
               4
  5
2ED
 10
686.2865232163075
 20
-1365.8103471824711
 30
0.0
 11
686.2865232163075
 21
-1496.4990245324407
 31
0.0
  0
LINE
  8
0
  6
CONTINUOUS
 62
               4
  5
2EE
 10
686.03652321630773
 20
-1366.0603471824711
 30
0.0
 11
686.03652321630773
 21
-1496.2136674253052
 31
0.0
  0
LINE
  8
0
  6
CONTINUOUS
 62
               4
  5
2EF
 10
683.7865232163075
 20
-1376.1929773382067
 30
0.0
 11
683.7865232163075
 21
-1495.3460009353239
 31
0.0
  0
POINT
  8
0
  6
CONTINUOUS
 62
               4
  5
2F0
 10
653.7865232163075
 20
-1105.2465671867394
 30
0.0
  0
POINT
  8
0
  6
CONTINUOUS
 62
               4
  5
2F1
 10
464.88652321630752
 20
-1390.8460009353239
 30
0.0
  0
POINT
  8
0
  6
CONTINUOUS
 62
               4
  5
2F2
 10
464.88652321630764
 20
-1005.3465671867391
 30
0.0
  0
LINE
  8
0
  6
DASHED2
 62
               4
  5
2F3
 10
552.28652321630773
 20
-1334.3460009353239
 30
0.0
 11
666.2865232163075
 21
-1334.3460009353239
 31
0.0
  0
LINE
  8
0
  6
CONTINUOUS
 62
               3
  5
2F4
 10
-100.50000000000031
 20
48.117192722660121
 30
0.0
 11
-100.50000000000031
 21
40.11719272266015
 31
0.0
  0
LINE
  8
0
  6
CONTINUOUS
 62
               3
  5
2F5
 10
100.49999999999977
 20
40.11719272266015
 30
0.0
 11
100.49999999999977
 21
48.117192722660121
 31
0.0
  0
ARC
  8
0
  6
CONTINUOUS
 62
               3
  5
2F6
 10
-77.781745930520131
 20
620.64931277908613
 30
0.0
 40
17.5
 50
97.698209707834295
 51
172.30179029211342
  0
ARC
  8
0
  6
CONTINUOUS
 62
               3
  5
2F7
 10
77.781745930520231
 20
620.64931277908613
 30
0.0
 40
17.5
 50
7.6982097078516123
 51
82.30179029213096
  0
LINE
  8
0
  6
CONTINUOUS
 62
               3
  5
2F8
 10
104.05367551208785
 20
556.93286501195848
 30
0.0
 11
95.124025182534822
 21
622.99352913965163
 31
0.0
  0
ARC
  8
0
  6
CONTINUOUS
 62
               3
  5
2F9
 10
-77.781745930520131
 20
465.08582091804595
 30
0.0
 40
17.5
 50
187.69820970781683
 51
262.3017902920962
  0
LINE
  8
0
  6
CONTINUOUS
 62
               3
  5
2FA
 10
-80.125962291085514
 20
447.74354166603138
 30
0.0
 11
-14.065298163392285
 21
438.81389133647855
 31
0.0
  0
ARC
  8
0
  6
CONTINUOUS
 62
               3
  5
2FB
 10
77.781745930520231
 20
465.08582091804595
 30
0.0
 40
17.5
 50
277.69820970779944
 51
352.30179029207886
  0
LINE
  8
0
  6
CONTINUOUS
 62
               3
  5
2FC
 10
80.125962291085472
 20
447.74354166603138
 30
0.0
 11
14.065298163392242
 21
438.81389133647855
 31
0.0
  0
LINE
  8
0
  6
CONTINUOUS
 62
               3
  5
2FD
 10
104.05367551208785
 20
528.80226868517366
 30
0.0
 11
95.124025182534822
 21
462.74160455748057
 31
0.0
  0
ARC
  8
0
  6
CONTINUOUS
 62
               3
  5
2FE
 10
0.0000000000000142
 20
542.86756684856618
 30
0.0
 40
105.0
 50
262.30179029209626
 51
277.69820970779938
  0
ARC
  8
0
  6
CONTINUOUS
 62
               3
  5
2FF
 10
0.0000000000000142
 20
542.86756684856618
 30
0.0
 40
105.0
 50
352.30179029207875
 51
367.69820970778204
  0
LINE
  8
0
  6
CONTINUOUS
 62
               3
  5
300
 10
-96.229529997969067
 20
614.81511457595366
 30
0.0
 11
-95.124025182534794
 21
622.99352913965163
 31
0.0
  0
LINE
  8
0
  6
CONTINUOUS
 62
               3
  5
301
 10
-96.229529997969067
 20
614.81511457595366
 30
0.0
 11
-104.05367551208782
 21
556.93286501195848
 31
0.0
  0
ARC
  8
0
  6
CONTINUOUS
 62
               3
  5
302
 10
0.0000000000000142
 20
542.86756684856618
 30
0.0
 40
105.0
 50
172.30179029211342
 51
187.69820970781697
  0
LINE
  8
0
  6
CONTINUOUS
 62
               3
  5
303
 10
-96.229607097849467
 20
470.92058949841891
 30
0.0
 11
-95.124025182534794
 21
462.74160455748057
 31
0.0
  0
LINE
  8
0
  6
CONTINUOUS
 62
               3
  5
304
 10
-104.05367551208782
 20
528.80226868517366
 30
0.0
 11
-96.229607097849467
 21
470.92058949841891
 31
0.0
  0
LINE
  8
0
  6
CONTINUOUS
 62
               3
  5
305
 10
-59.388263356383518
 20
640.79477911030563
 30
0.0
 11
-14.065298163392285
 21
646.92124236065388
 31
0.0
  0
LINE
  8
0
  6
CONTINUOUS
 62
               3
  5
306
 10
-80.125962291085514
 20
637.99159203110094
 30
0.0
 11
-59.388263356383518
 21
640.79477911030563
 31
0.0
  0
ARC
  8
0
  6
CONTINUOUS
 62
               3
  5
307
 10
0.0000000000000142
 20
542.86756684856618
 30
0.0
 40
105.0
 50
82.30179029213096
 51
97.698209707834224
  0
LINE
  8
0
  6
CONTINUOUS
 62
               3
  5
308
 10
14.065298163392242
 20
646.92124236065388
 30
0.0
 11
59.278057624590033
 21
640.8096760033693
 31
0.0
  0
LINE
  8
0
  6
CONTINUOUS
 62
               3
  5
309
 10
80.125962291085472
 20
637.99159203110094
 30
0.0
 11
59.278057624590033
 21
640.8096760033693
 31
0.0
  0
LINE
  8
0
  6
CONTINUOUS
 62
               3
  5
30A
 10
-151.98374363275866
 20
612.86756684856596
 30
0.0
 11
-151.98374363275866
 21
472.86699916371282
 31
0.0
  0
LINE
  8
0
  6
CONTINUOUS
 62
               3
  5
30B
 10
-154.99999999999991
 20
610.53912297453007
 30
0.0
 11
-154.31218750679454
 21
610.53912297453007
 31
0.0
  0
LINE
  8
0
  6
CONTINUOUS
 62
               3
  5
30C
 10
-151.98374363275866
 20
612.86756684856596
 30
0.0
 11
-154.31218750679454
 21
610.53912297453007
 31
0.0
  0
LINE
  8
0
  6
CONTINUOUS
 62
               3
  5
30D
 10
-154.99999999999991
 20
612.86756684856596
 30
0.0
 11
-157.49999999999991
 21
612.86756684856596
 31
0.0
  0
ARC
  8
0
  6
CONTINUOUS
 62
               3
  5
30E
 10
-157.49999999999991
 20
610.36756684856596
 30
0.0
 40
2.5
 50
89.999999999982862
 51
179.99999999996572
  0
LINE
  8
0
  6
CONTINUOUS
 62
               3
  5
30F
 10
-154.99999999999991
 20
475.19601072260178
 30
0.0
 11
-154.31218750679454
 21
475.19601072260178
 31
0.0
  0
LINE
  8
0
  6
CONTINUOUS
 62
               3
  5
310
 10
-151.98374363275866
 20
472.8675668485659
 30
0.0
 11
-154.31218750679454
 21
475.19601072260178
 31
0.0
  0
LINE
  8
0
  6
CONTINUOUS
 62
               3
  5
311
 10
-154.99999999999991
 20
472.86756684856624
 30
0.0
 11
-157.49999999999991
 21
472.86756684856624
 31
0.0
  0
ARC
  8
0
  6
CONTINUOUS
 62
               3
  5
312
 10
-157.49999999999991
 20
475.36756684856624
 30
0.0
 40
2.5
 50
179.99999999996572
 51
269.99999999994793
  0
LINE
  8
0
  6
CONTINUOUS
 62
               3
  5
313
 10
-159.99999999999991
 20
610.36756684856596
 30
0.0
 11
-159.99999999999991
 21
475.36756684856624
 31
0.0
  0
LINE
  8
0
  6
CONTINUOUS
 62
               3
  5
314
 10
-154.99999999999991
 20
472.86756684856624
 30
0.0
 11
-154.99999999999991
 21
612.86756684856596
 31
0.0
  0
LINE
  8
0
  6
CONTINUOUS
 62
               3
  5
315
 10
-154.31218750679454
 20
610.53912297453007
 30
0.0
 11
-154.31218750679454
 21
475.19601072260178
 31
0.0
  0
LINE
  8
0
  6
CONTINUOUS
 62
               3
  5
316
 10
-151.98374363275866
 20
612.86756684856596
 30
0.0
 11
-96.22960709784968
 21
614.81454419871284
 31
0.0
  0
LINE
  8
0
  6
CONTINUOUS
 62
               3
  5
317
 10
-151.9999999999998
 20
472.8675668485659
 30
0.0
 11
-96.229529997968854
 21
470.92001912117786
 31
0.0
  0
LINE
  8
0
  6
CONTINUOUS
 62
               3
  5
318
 10
154.99999999999989
 20
487.86756684856658
 30
0.0
 11
154.32844387403566
 21
487.86756684856658
 31
0.0
  0
LINE
  8
0
  6
CONTINUOUS
 62
               3
  5
319
 10
151.99999999999977
 20
485.53912297453155
 30
0.0
 11
154.32844387403566
 21
487.86756684856658
 31
0.0
  0
LINE
  8
0
  6
CONTINUOUS
 62
               3
  5
31A
 10
154.99999999999989
 20
597.86756684856618
 30
0.0
 11
154.32844387403566
 21
597.86756684856618
 31
0.0
  0
LINE
  8
0
  6
CONTINUOUS
 62
               3
  5
31B
 10
151.99999999999977
 20
600.19601072260207
 30
0.0
 11
154.32844387403566
 21
597.86756684856618
 31
0.0
  0
LINE
  8
0
  6
CONTINUOUS
 62
               3
  5
31C
 10
154.32844387403566
 20
597.86756684856618
 30
0.0
 11
154.32844387403566
 21
487.86756684856658
 31
0.0
  0
LINE
  8
0
  6
CONTINUOUS
 62
               3
  5
31D
 10
151.99999999999977
 20
485.53912297453155
 30
0.0
 11
151.99999999999977
 21
600.19601072260207
 31
0.0
  0
LINE
  8
0
  6
CONTINUOUS
 62
               3
  5
31E
 10
154.99999999999989
 20
485.53912297453098
 30
0.0
 11
154.99999999999989
 21
600.19601072260207
 31
0.0
  0
LINE
  8
0
  6
CONTINUOUS
 62
               3
  5
31F
 10
154.99999999999989
 20
600.19601072260207
 30
0.0
 11
157.49999999999989
 21
600.19601072260207
 31
0.0
  0
ARC
  8
0
  6
CONTINUOUS
 62
               3
  5
320
 10
157.49999999999989
 20
597.69601072260207
 30
0.0
 40
2.5
 50
0.0
 51
89.999999999982862
  0
LINE
  8
0
  6
CONTINUOUS
 62
               3
  5
321
 10
159.99999999999989
 20
597.69601072260207
 30
0.0
 11
159.99999999999989
 21
488.03912297453098
 31
0.0
  0
LINE
  8
0
  6
CONTINUOUS
 62
               3
  5
322
 10
154.99999999999989
 20
485.53912297453098
 30
0.0
 11
157.49999999999989
 21
485.53912297453098
 31
0.0
  0
ARC
  8
0
  6
CONTINUOUS
 62
               3
  5
323
 10
157.49999999999989
 20
488.03912297453098
 30
0.0
 40
2.5
 50
269.99999999994793
 51
359.99999999993014
  0
LINE
  8
0
  6
CONTINUOUS
 62
               3
  5
324
 10
151.99999999999977
 20
485.53912297453155
 30
0.0
 11
97.950512085122682
 21
483.65167326590853
 31
0.0
  0
LINE
  8
0
  6
CONTINUOUS
 62
               3
  5
325
 10
151.99999999999977
 20
600.19601072260207
 30
0.0
 11
97.950512085122682
 21
602.08346043122515
 31
0.0
  0
LINE
  8
0
  6
CONTINUOUS
 62
               3
  5
326
 10
-499.50000000000011
 20
48.11719272266005
 30
0.0
 11
-499.50000000000011
 21
40.117192722660079
 31
0.0
  0
LINE
  8
0
  6
CONTINUOUS
 62
               3
  5
327
 10
-700.50000000000011
 20
40.117192722660221
 30
0.0
 11
-700.50000000000011
 21
48.117192722660192
 31
0.0
  0
LINE
  8
0
  6
CONTINUOUS
 62
               3
  5
328
 10
499.49999999999983
 20
48.117192722659695
 30
0.0
 11
499.49999999999983
 21
40.117192722659723
 31
0.0
  0
LINE
  8
0
  6
CONTINUOUS
 62
               3
  5
329
 10
700.50000000000011
 20
40.117192722659865
 30
0.0
 11
700.50000000000011
 21
48.117192722659837
 31
0.0
  0
LINE
  8
0
  6
CONTINUOUS
 62
               3
  5
32A
 10
-83.792153570605578
 20
626.65972041917166
 30
0.0
 11
-93.37729832694562
 21
617.07457566283165
 31
0.0
  0
CIRCLE
  8
0
  6
CONTINUOUS
 62
               3
  5
32B
 10
-77.781745930520131
 20
620.64931277908613
 30
0.0
 40
8.5
  0
ARC
  8
0
  6
CONTINUOUS
 62
               3
  5
32C
 10
-77.781745930519563
 20
620.64931277908681
 30
0.0
 40
16.000000000000014
 50
192.91004874368397
 51
257.08995125623147
  0
LINE
  8
0
  6
CONTINUOUS
 62
               3
  5
32D
 10
-81.356483046774017
 20
605.05376038266058
 30
0.0
 11
-71.771338290434329
 21
614.63890513900037
 31
0.0
  0
LINE
  8
0
  6
CONTINUOUS
 62
               3
  5
32E
 10
74.207008814266501
 20
636.2448651755119
 30
0.0
 11
83.792153570606189
 21
626.65972041917234
 31
0.0
  0
CIRCLE
  8
0
  6
CONTINUOUS
 62
               3
  5
32F
 10
77.781745930520387
 20
620.64931277908636
 30
0.0
 40
8.5
  0
ARC
  8
0
  6
CONTINUOUS
 62
               3
  5
330
 10
77.781745930520955
 20
620.64931277908568
 30
0.0
 40
16.000000000000014
 50
102.91004874369884
 51
167.08995125624668
  0
LINE
  8
0
  6
CONTINUOUS
 62
               3
  5
331
 10
71.77133829043494
 20
614.63890513900083
 30
0.0
 11
62.18619353409489
 21
624.22404989534107
 31
0.0
  0
LINE
  8
0
  6
CONTINUOUS
 62
               3
  5
332
 10
81.356483046774116
 20
480.68137331447139
 30
0.0
 11
71.771338290434429
 21
471.09622855813171
 31
0.0
  0
LINE
  8
0
  6
CONTINUOUS
 62
               3
  5
333
 10
83.792153570605677
 20
459.07541327796042
 30
0.0
 11
93.37729832694572
 21
468.66055803430044
 31
0.0
  0
CIRCLE
  8
0
  6
CONTINUOUS
 62
               3
  5
334
 10
77.781745930520231
 20
465.08582091804595
 30
0.0
 40
8.5
  0
ARC
  8
0
  6
CONTINUOUS
 62
               3
  5
335
 10
77.781745930519662
 20
465.08582091804516
 30
0.0
 40
16.000000000000014
 50
12.910048743718656
 51
77.08995125626636
  0
LINE
  8
0
  6
CONTINUOUS
 62
               3
  5
336
 10
-74.207008814266473
 20
449.49026852162075
 30
0.0
 11
-83.79215357060616
 21
459.07541327796042
 31
0.0
  0
LINE
  8
0
  6
CONTINUOUS
 62
               3
  5
337
 10
-71.771338290434912
 20
471.09622855813171
 30
0.0
 11
-62.186193534094869
 21
461.5110838017917
 31
0.0
  0
CIRCLE
  8
0
  6
CONTINUOUS
 62
               3
  5
338
 10
-77.781745930520358
 20
465.08582091804618
 30
0.0
 40
8.5
  0
ARC
  8
0
  6
CONTINUOUS
 62
               3
  5
339
 10
-77.781745930520927
 20
465.08582091804698
 30
0.0
 40
16.000000000000014
 50
282.91004874366399
 51
347.0899512562118
  0
LINE
  8
0
  6
CONTINUOUS
 62
               3
  5
33A
 10
-151.98374363275894
 20
23.617192722660093
 30
0.0
 11
-107.89530150989306
 21
25.156795047282912
 31
0.0
  0
LINE
  8
0
  6
CONTINUOUS
 62
               3
  5
33B
 10
-152.00000000000009
 20
-116.38280727733994
 30
0.0
 11
-104.29499600175389
 21
-118.04870272556573
 31
0.0
  0
LINE
  8
0
  6
CONTINUOUS
 62
               3
  5
33C
 10
-100.93395957933359
 20
-119.51012295472844
 30
0.0
 11
-91.464466094067149
 21
-128.97961643999511
 31
0.0
  0
ARC
  8
0
  6
CONTINUOUS
 62
               3
  5
33D
 10
-104.46949348526636
 20
-123.04565686066121
 30
0.0
 40
5.0
 50
44.999999999991267
 51
87.99999999998262
  0
ARC
  8
0
  6
CONTINUOUS
 62
               3
  5
33E
 10
-95.000000000000057
 20
-132.51515034592776
 30
0.0
 40
5.0
 50
0.0
 51
44.999999999990806
  0
LINE
  8
0
  6
CONTINUOUS
 62
               3
  5
33F
 10
96.999999999999687
 20
41.617192722660064
 30
0.0
 11
66.999999999999687
 21
41.617192722660064
 31
0.0
  0
LINE
  8
0
  6
CONTINUOUS
 62
               3
  5
340
 10
-495.00000000000017
 20
40.117192722660043
 30
0.0
 11
-495.00000000000017
 21
25.117192722659972
 31
0.0
  0
LINE
  8
0
  6
CONTINUOUS
 62
               3
  5
341
 10
-151.98374363275894
 20
23.617192722660093
 30
0.0
 11
-151.98374363275894
 21
-116.38337496219316
 31
0.0
  0
LINE
  8
0
  6
CONTINUOUS
 62
               3
  5
342
 10
96.999999999999687
 20
41.617192722660064
 30
0.0
 11
97.499999999999659
 21
40.117192722660008
 31
0.0
  0
LINE
  8
0
  6
CONTINUOUS
 62
               3
  5
343
 10
66.999999999999687
 20
41.617192722660064
 30
0.0
 11
65.499999999999773
 21
40.117192722660008
 31
0.0
  0
LINE
  8
0
  6
CONTINUOUS
 62
               3
  5
344
 10
97.499999999999659
 20
40.117192722660008
 30
0.0
 11
104.99999999999994
 21
40.117192722660008
 31
0.0
  0
LINE
  8
0
  6
CONTINUOUS
 62
               3
  5
345
 10
-97.000000000000298
 20
41.617192722660064
 30
0.0
 11
-67.000000000000298
 21
41.617192722660064
 31
0.0
  0
LINE
  8
0
  6
CONTINUOUS
 62
               3
  5
346
 10
-105.00000000000048
 20
40.117192722660008
 30
0.0
 11
-105.00000000000041
 21
25.117192722660008
 31
0.0
  0
ARC
  8
0
  6
CONTINUOUS
 62
               3
  5
347
 10
-102.00000000000037
 20
25.117192722660008
 30
0.0
 40
3.0000000000000004
 50
179.99999999996524
 51
269.99999999994782
  0
LINE
  8
0
  6
CONTINUOUS
 62
               3
  5
348
 10
-97.000000000000298
 20
41.617192722660064
 30
0.0
 11
-97.50000000000027
 21
40.117192722660008
 31
0.0
  0
LINE
  8
0
  6
CONTINUOUS
 62
               3
  5
349
 10
-67.000000000000298
 20
41.617192722660064
 30
0.0
 11
-65.500000000000313
 21
40.117192722660008
 31
0.0
  0
LINE
  8
0
  6
CONTINUOUS
 62
               3
  5
34A
 10
-97.50000000000027
 20
40.117192722660008
 30
0.0
 11
-105.00000000000048
 21
40.117192722660008
 31
0.0
  0
ARC
  8
0
  6
CONTINUOUS
 62
               3
  5
34B
 10
-108.00000000000053
 20
28.154967528340308
 30
0.0
 40
3.0000000000000004
 50
271.99999999994657
 51
359.99999999993042
  0
LINE
  8
0
  6
CONTINUOUS
 62
               3
  5
34C
 10
-90.000000000000057
 20
-132.51515034592776
 30
0.0
 11
-90.000000000000057
 21
-246.69511991054395
 31
0.0
  0
ARC
  8
0
  6
CONTINUOUS
 62
               3
  5
34D
 10
-82.000000000000298
 20
-121.38280727733994
 30
0.0
 40
2.5
 50
89.999999999982535
 51
269.99999999994793
  0
LINE
  8
0
  6
CONTINUOUS
 62
               3
  5
34E
 10
-65.500000000000313
 20
40.117192722660008
 30
0.0
 11
65.499999999999773
 21
40.117192722660008
 31
0.0
  0
LINE
  8
0
  6
CONTINUOUS
 62
               3
  5
34F
 10
87.721287833966755
 20
-266.69511991054395
 30
0.0
 11
73.278712166032648
 21
-393.45597969107126
 31
0.0
  0
LINE
  8
0
  6
CONTINUOUS
 62
               3
  5
350
 10
-155.0000000000002
 20
21.288748848624209
 30
0.0
 11
-154.31218750679483
 21
21.288748848624209
 31
0.0
  0
LINE
  8
0
  6
CONTINUOUS
 62
               3
  5
351
 10
-151.98374363275894
 20
23.617192722660093
 30
0.0
 11
-154.31218750679483
 21
21.288748848624209
 31
0.0
  0
LINE
  8
0
  6
CONTINUOUS
 62
               3
  5
352
 10
-155.0000000000002
 20
23.617192722659951
 30
0.0
 11
-157.5000000000002
 21
23.617192722659951
 31
0.0
  0
ARC
  8
0
  6
CONTINUOUS
 62
               3
  5
353
 10
-157.5000000000002
 20
21.117192722659951
 30
0.0
 40
2.5
 50
89.999999999982862
 51
179.99999999996524
  0
LINE
  8
0
  6
CONTINUOUS
 62
               3
  5
354
 10
-155.0000000000002
 20
-114.05436340330405
 30
0.0
 11
-154.31218750679483
 21
-114.05436340330405
 31
0.0
  0
LINE
  8
0
  6
CONTINUOUS
 62
               3
  5
355
 10
-151.98374363275894
 20
-116.38280727733994
 30
0.0
 11
-154.31218750679483
 21
-114.05436340330405
 31
0.0
  0
LINE
  8
0
  6
CONTINUOUS
 62
               3
  5
356
 10
-155.0000000000002
 20
-116.38280727733979
 30
0.0
 11
-157.5000000000002
 21
-116.38280727733979
 31
0.0
  0
ARC
  8
0
  6
CONTINUOUS
 62
               3
  5
357
 10
-157.5000000000002
 20
-113.88280727733979
 30
0.0
 40
2.5
 50
179.99999999996507
 51
269.99999999994793
  0
LINE
  8
0
  6
CONTINUOUS
 62
               3
  5
358
 10
-160.0000000000002
 20
21.117192722659951
 30
0.0
 11
-160.0000000000002
 21
-113.88280727733979
 31
0.0
  0
LINE
  8
0
  6
CONTINUOUS
 62
               3
  5
359
 10
-155.0000000000002
 20
-116.38280727733979
 30
0.0
 11
-155.0000000000002
 21
23.617192722659951
 31
0.0
  0
LINE
  8
0
  6
CONTINUOUS
 62
               3
  5
35A
 10
-154.31218750679483
 20
21.288748848624209
 30
0.0
 11
-154.31218750679483
 21
-114.05436340330405
 31
0.0
  0
LINE
  8
0
  6
CONTINUOUS
 62
               3
  5
35B
 10
-510.00000000000057
 20
-123.88280727733991
 30
0.0
 11
-510.00000000000034
 21
-246.69511991054259
 31
0.0
  0
LINE
  8
0
  6
CONTINUOUS
 62
               3
  5
35C
 10
90.482497638530873
 20
-264.54447116719467
 30
0.0
 11
92.200921604771452
 21
-249.46205758415516
 31
0.0
  0
ARC
  8
0
  6
CONTINUOUS
 62
               3
  5
35D
 10
89.716991965580007
 20
-249.17904954973534
 30
0.0
 40
2.5
 50
353.49999999993105
 51
443.49999999991411
  0
ARC
  8
0
  6
CONTINUOUS
 62
               3
  5
35E
 10
88.004295868386691
 20
-264.21119027135234
 30
0.0
 40
2.5
 50
263.49999999994765
 51
353.49999999993105
  0
LINE
  8
0
  6
CONTINUOUS
 62
               3
  5
35F
 10
-90.482497638531484
 20
-264.54447116719467
 30
0.0
 11
-92.200921604772063
 21
-249.46205758415516
 31
0.0
  0
ARC
  8
0
  6
CONTINUOUS
 62
               3
  5
360
 10
-89.716991965580547
 20
-249.17904954973534
 30
0.0
 40
2.5
 50
96.499999999981398
 51
186.49999999996413
  0
ARC
  8
0
  6
CONTINUOUS
 62
               3
  5
361
 10
-88.004295868387231
 20
-264.21119027135234
 30
0.0
 40
2.5
 50
186.49999999996413
 51
276.49999999994787
  0
LINE
  8
0
  6
CONTINUOUS
 62
               3
  5
362
 10
-87.721287833967295
 20
-266.69511991054395
 30
0.0
 11
-73.278712166033259
 21
-393.45597969107126
 31
0.0
  0
LINE
  8
0
  6
CONTINUOUS
 62
               3
  5
363
 10
-87.721287833967153
 20
-266.69511991054395
 30
0.0
 11
-33.734459031608701
 21
-266.69511991054395
 31
0.0
  0
LINE
  8
0
  6
CONTINUOUS
 62
               3
  5
364
 10
22.492816867467774
 20
-266.69511991054395
 30
0.0
 11
87.721287833966755
 21
-266.69511991054395
 31
0.0
  0
LINE
  8
0
  6
CONTINUOUS
 62
               3
  5
365
 10
-90.000000000000057
 20
-246.69511991054395
 30
0.0
 11
-47.73728586713559
 21
-246.69511991054395
 31
0.0
  0
LINE
  8
0
  6
CONTINUOUS
 62
               3
  5
366
 10
-1.1029583587464409
 20
-246.69511991054395
 30
0.0
 11
89.999999999999659
 21
-246.69511991054395
 31
0.0
  0
LINE
  8
0
  6
CONTINUOUS
 62
               3
  5
367
 10
-697.00000000000011
 20
41.617192722660064
 30
0.0
 11
-667.00000000000011
 21
41.617192722660064
 31
0.0
  0
LINE
  8
0
  6
CONTINUOUS
 62
               3
  5
368
 10
-705.00000000000034
 20
40.117192722660079
 30
0.0
 11
-705.00000000000034
 21
25.117192722659937
 31
0.0
  0
LINE
  8
0
  6
CONTINUOUS
 62
               3
  5
369
 10
-697.00000000000011
 20
41.617192722660064
 30
0.0
 11
-697.50000000000011
 21
40.117192722660079
 31
0.0
  0
LINE
  8
0
  6
CONTINUOUS
 62
               3
  5
36A
 10
-667.00000000000011
 20
41.617192722660064
 30
0.0
 11
-665.50000000000011
 21
40.117192722660079
 31
0.0
  0
LINE
  8
0
  6
CONTINUOUS
 62
               3
  5
36B
 10
-697.50000000000011
 20
40.117192722660079
 30
0.0
 11
-705.00000000000034
 21
40.117192722660079
 31
0.0
  0
LINE
  8
0
  6
CONTINUOUS
 62
               3
  5
36C
 10
-503.0
 20
41.617192722659922
 30
0.0
 11
-533.0
 21
41.617192722659922
 31
0.0
  0
LINE
  8
0
  6
CONTINUOUS
 62
               3
  5
36D
 10
-503.0
 20
41.617192722659922
 30
0.0
 11
-502.50000000000023
 21
40.117192722659937
 31
0.0
  0
LINE
  8
0
  6
CONTINUOUS
 62
               3
  5
36E
 10
-533.0
 20
41.617192722659922
 30
0.0
 11
-534.50000000000011
 21
40.117192722660008
 31
0.0
  0
LINE
  8
0
  6
CONTINUOUS
 62
               3
  5
36F
 10
-502.50000000000023
 20
40.117192722659937
 30
0.0
 11
-494.99999999999989
 21
40.117192722659937
 31
0.0
  0
LINE
  8
0
  6
CONTINUOUS
 62
               3
  5
370
 10
-534.50000000000011
 20
40.117192722660008
 30
0.0
 11
-665.50000000000011
 21
40.117192722660079
 31
0.0
  0
ARC
  8
0
  6
CONTINUOUS
 62
               3
  5
371
 10
-556.71598155428433
 20
-121.38280727733999
 30
0.0
 40
2.5
 50
89.999999999981569
 51
269.99999999994731
  0
LINE
  8
0
  6
CONTINUOUS
 62
               3
  5
372
 10
-643.28401844571624
 20
-123.88280727733994
 30
0.0
 11
-689.99999999999966
 21
-123.88280727733991
 31
0.0
  0
LINE
  8
0
  6
CONTINUOUS
 62
               3
  5
373
 10
-643.28401844571624
 20
-118.88280727733994
 30
0.0
 11
-689.99999999999966
 21
-118.88280727733991
 31
0.0
  0
ARC
  8
0
  6
CONTINUOUS
 62
               3
  5
374
 10
-643.28401844571624
 20
-121.38280727733994
 30
0.0
 40
2.5
 50
269.99999999994731
 51
449.99999999991297
  0
LINE
  8
0
  6
CONTINUOUS
 62
               3
  5
375
 10
-687.72128783396727
 20
-266.69511991054395
 30
0.0
 11
-673.2787121660333
 21
-393.45597969107126
 31
0.0
  0
ARC
  8
0
  6
CONTINUOUS
 62
               3
  5
376
 10
-689.99999999999966
 20
-121.38280727733991
 30
0.0
 40
2.5
 50
89.999999999981569
 51
269.99999999994731
  0
LINE
  8
0
  6
CONTINUOUS
 62
               3
  5
377
 10
-616.67333200053395
 20
22.117192722659965
 30
0.0
 11
-702.00000000000023
 21
22.117192722659965
 31
0.0
  0
LINE
  8
0
  6
CONTINUOUS
 62
               3
  5
378
 10
-690.48249763853141
 20
-264.54447116719467
 30
0.0
 11
-692.20092160477202
 21
-249.46205758415516
 31
0.0
  0
ARC
  8
0
  6
CONTINUOUS
 62
               3
  5
379
 10
-689.71699196558052
 20
-249.17904954973534
 30
0.0
 40
2.5
 50
96.499999999980105
 51
186.49999999996422
  0
ARC
  8
0
  6
CONTINUOUS
 62
               3
  5
37A
 10
-688.0042958683872
 20
-264.21119027135234
 30
0.0
 40
2.5
 50
186.49999999996422
 51
276.49999999994822
  0
LINE
  8
0
  6
CONTINUOUS
 62
               3
  5
37B
 10
-528.38166979475852
 20
-266.69511991054338
 30
0.0
 11
-687.72128783396727
 21
-266.69511991054395
 31
0.0
  0
ARC
  8
0
  6
CONTINUOUS
 62
               3
  5
37C
 10
-702.00000000000023
 20
25.117192722659937
 30
0.0
 40
3.0000000000000004
 50
179.99999999996518
 51
269.99999999994731
  0
LINE
  8
0
  6
CONTINUOUS
 62
               3
  5
37D
 10
-689.99999999999966
 20
-123.88280727733991
 30
0.0
 11
-690.00000000000034
 21
-246.69511991054259
 31
0.0
  0
ARC
  8
0
  6
CONTINUOUS
 62
               3
  5
37E
 10
-694.99999999999943
 20
17.117192722659965
 30
0.0
 40
5.0
 50
359.99999999993031
 51
449.99999999991297
  0
CIRCLE
  8
0
  6
CONTINUOUS
 62
               3
  5
37F
 10
-600.00000000000045
 20
-46.382807277339907
 30
0.0
 40
60.999999999999879
  0
CIRCLE
  8
0
  6
CONTINUOUS
 62
               3
  5
380
 10
-600.00000000000045
 20
-46.382807277339907
 30
0.0
 40
59.799999999999862
  0
CIRCLE
  8
0
  6
CONTINUOUS
 62
               3
  5
381
 10
-600.00000000000045
 20
-46.382807277339907
 30
0.0
 40
55.499999999999865
  0
CIRCLE
  8
0
  6
CONTINUOUS
 62
               3
  5
382
 10
-600.00000000000045
 20
-46.382807277339907
 30
0.0
 40
51.249999999999865
  0
ARC
  8
0
  6
CONTINUOUS
 62
               3
  5
383
 10
-600.00000000000045
 20
-46.382807277339907
 30
0.0
 40
57.499999999999865
 50
224.99999999995649
 51
314.99999999993912
  0
LINE
  8
0
  6
CONTINUOUS
 62
               3
  5
384
 10
-640.65863991822687
 20
-87.041447195566292
 30
0.0
 11
-642.28498551495602
 21
-88.667792792295359
 31
0.0
  0
LINE
  8
0
  6
CONTINUOUS
 62
               3
  5
385
 10
-559.34136008177404
 20
-87.041447195566292
 30
0.0
 11
-557.715014485045
 21
-88.667792792295359
 31
0.0
  0
CIRCLE
  8
0
  6
CONTINUOUS
 62
               3
  5
386
 10
-600.00000000000045
 20
-46.382807277339907
 30
0.0
 40
70.5
  0
LINE
  8
0
  6
CONTINUOUS
 62
               3
  5
387
 10
-510.00000000000045
 20
-246.69511991054407
 30
0.0
 11
-512.68029754899533
 21
-246.69511991054407
 31
0.0
  0
LINE
  8
0
  6
CONTINUOUS
 62
               3
  5
388
 10
-536.4764315201511
 20
-246.69511991054418
 30
0.0
 11
-690.00000000000023
 21
-246.69511991054395
 31
0.0
  0
LINE
  8
0
  6
CONTINUOUS
 62
               3
  5
389
 10
-510.00000000000045
 20
-246.69511991054452
 30
0.0
 11
-512.19521720442924
 21
-265.96229403767865
 31
0.0
  0
LINE
  8
0
  6
CONTINUOUS
 62
               3
  5
38A
 10
-516.17851711993092
 20
-300.92326870466724
 30
0.0
 11
-526.72128783396738
 21
-393.45597969107138
 31
0.0
  0
LINE
  8
0
  6
CONTINUOUS
 62
               3
  5
38B
 10
697.0
 20
41.617192722659638
 30
0.0
 11
667.0
 21
41.617192722659638
 31
0.0
  0
LINE
  8
0
  6
CONTINUOUS
 62
               3
  5
38C
 10
697.0
 20
41.617192722659638
 30
0.0
 11
697.49999999999989
 21
40.117192722659723
 31
0.0
  0
LINE
  8
0
  6
CONTINUOUS
 62
               3
  5
38D
 10
667.0
 20
41.617192722659638
 30
0.0
 11
665.50000000000011
 21
40.117192722659723
 31
0.0
  0
LINE
  8
0
  6
CONTINUOUS
 62
               3
  5
38E
 10
697.49999999999989
 20
40.117192722659723
 30
0.0
 11
705.00000000000023
 21
40.117192722659723
 31
0.0
  0
LINE
  8
0
  6
CONTINUOUS
 62
               3
  5
38F
 10
502.99999999999977
 20
41.617192722659638
 30
0.0
 11
532.99999999999977
 21
41.617192722659638
 31
0.0
  0
LINE
  8
0
  6
CONTINUOUS
 62
               3
  5
390
 10
502.99999999999977
 20
41.617192722659638
 30
0.0
 11
502.49999999999994
 21
40.117192722659581
 31
0.0
  0
LINE
  8
0
  6
CONTINUOUS
 62
               3
  5
391
 10
532.99999999999977
 20
41.617192722659638
 30
0.0
 11
534.49999999999989
 21
40.117192722659723
 31
0.0
  0
LINE
  8
0
  6
CONTINUOUS
 62
               3
  5
392
 10
502.49999999999994
 20
40.117192722659581
 30
0.0
 11
494.99999999999966
 21
40.117192722659581
 31
0.0
  0
LINE
  8
0
  6
CONTINUOUS
 62
               3
  5
393
 10
534.49999999999989
 20
40.117192722659723
 30
0.0
 11
665.50000000000011
 21
40.117192722659723
 31
0.0
  0
LINE
  8
0
  6
CONTINUOUS
 62
               3
  5
394
 10
687.72128783396693
 20
-266.69511991054429
 30
0.0
 11
673.27871216603296
 21
-393.4559796910716
 31
0.0
  0
LINE
  8
0
  6
CONTINUOUS
 62
               3
  5
395
 10
516.17851711993046
 20
-300.92326870466758
 30
0.0
 11
526.72128783396693
 21
-393.4559796910716
 31
0.0
  0
LINE
  8
0
  6
CONTINUOUS
 62
               3
  5
396
 10
690.48249763853119
 20
-264.54447116719501
 30
0.0
 11
692.20092160477168
 21
-249.46205758415562
 31
0.0
  0
ARC
  8
0
  6
CONTINUOUS
 62
               3
  5
397
 10
689.71699196558029
 20
-249.17904954973579
 30
0.0
 40
2.5
 50
353.49999999993111
 51
443.49999999991383
  0
ARC
  8
0
  6
CONTINUOUS
 62
               3
  5
398
 10
688.00429586838698
 20
-264.21119027135279
 30
0.0
 40
2.5
 50
263.49999999994833
 51
353.49999999993111
  0
LINE
  8
0
  6
CONTINUOUS
 62
               3
  5
399
 10
524.55367319359959
 20
-266.69511991054441
 30
0.0
 11
687.72128783396704
 21
-266.69511991054429
 31
0.0
  0
LINE
  8
0
  6
CONTINUOUS
 62
               3
  5
39A
 10
510.00000000000023
 20
-246.69511991054441
 30
0.0
 11
689.99999999999989
 21
-246.69511991054429
 31
0.0
  0
LINE
  8
0
  6
CONTINUOUS
 62
               3
  5
39B
 10
510.00000000000023
 20
-246.69511991054497
 30
0.0
 11
510.20094803717859
 21
-248.4588181974446
 31
0.0
  0
ARC
  8
0
  6
CONTINUOUS
 62
               3
  5
39C
 10
-505.00000000000148
 20
17.11719272266
 30
0.0
 40
5.0
 50
89.999999999982862
 51
179.99999999996524
  0
LINE
  8
0
  6
CONTINUOUS
 62
               3
  5
39D
 10
-510.00000000000148
 20
17.11719272266
 30
0.0
 11
-510.00000000000148
 21
7.7250027526290452
 31
0.0
  0
LINE
  8
0
  6
CONTINUOUS
 62
               3
  5
39E
 10
-502.96510050329846
 20
-75.416509329552724
 30
0.0
 11
-505.17449748351316
 21
-75.493663172214141
 31
0.0
  0
ARC
  8
0
  6
CONTINUOUS
 62
               3
  5
39F
 10
-505.00000000000045
 20
-80.490617307309634
 30
0.0
 40
5.0
 50
91.999999999981938
 51
179.99999999996507
  0
LINE
  8
0
  6
CONTINUOUS
 62
               3
  5
3A0
 10
-502.96510050329857
 20
2.6508947748722775
 30
0.0
 11
-505.17449748351282
 21
2.7280486175335525
 31
0.0
  0
ARC
  8
0
  6
CONTINUOUS
 62
               3
  5
3A1
 10
-505.00000000000034
 20
7.7250027526290452
 30
0.0
 40
5.0
 50
179.99999999996518
 51
267.99999999994816
  0
LINE
  8
0
  6
CONTINUOUS
 62
               3
  5
3A2
 10
-502.00000000000091
 20
-74.41711850253364
 30
0.0
 11
-502.00000000000091
 21
1.6515039478531932
 31
0.0
  0
ARC
  8
0
  6
CONTINUOUS
 62
               3
  5
3A3
 10
-503.0000000000008
 20
-74.41711850253364
 30
0.0
 40
1.0
 50
271.99999999994117
 51
359.99999999993082
  0
ARC
  8
0
  6
CONTINUOUS
 62
               3
  5
3A4
 10
-503.0000000000008
 20
1.6515039478531932
 30
0.0
 40
1.0
 50
0.0
 51
87.999999999996149
  0
LINE
  8
0
  6
CONTINUOUS
 62
               3
  5
3A5
 10
-510.00000000000148
 20
-80.490617307309634
 30
0.0
 11
-510.00000000000125
 21
-118.88280727733988
 31
0.0
  0
ARC
  8
0
  6
CONTINUOUS
 62
               3
  5
3A6
 10
-510.00000000000125
 20
-121.38280727733988
 30
0.0
 40
2.5
 50
269.99999999994731
 51
449.99999999991297
  0
ARC
  8
0
  6
CONTINUOUS
 62
               3
  5
3A7
 10
-498.00000000000068
 20
25.117192722659972
 30
0.0
 40
3.0000000000000004
 50
269.99999999994731
 51
359.99999999993048
  0
ARC
  8
0
  6
CONTINUOUS
 62
               3
  5
3A8
 10
94.732670528588358
 20
17.368265826830331
 30
0.0
 40
4.7489268958295181
 50
89.999999999982663
 51
179.99999999996521
  0
ARC
  8
0
  6
CONTINUOUS
 62
               3
  5
3A9
 10
102.00000000000011
 20
25.11719272265983
 30
0.0
 40
3.0000000000000004
 50
269.99999999994782
 51
359.99999999993037
  0
LINE
  8
0
  6
CONTINUOUS
 62
               3
  5
3AA
 10
154.99999999999977
 20
-3.8828072773398006
 30
0.0
 11
154.32844387403554
 21
-3.8828072773398006
 31
0.0
  0
LINE
  8
0
  6
CONTINUOUS
 62
               3
  5
3AB
 10
151.99999999999966
 20
-1.5543634033039169
 30
0.0
 11
154.32844387403554
 21
-3.8828072773398006
 31
0.0
  0
LINE
  8
0
  6
CONTINUOUS
 62
               3
  5
3AC
 10
154.99999999999977
 20
-1.5543634033039737
 30
0.0
 11
157.49999999999977
 21
-1.5543634033039737
 31
0.0
  0
ARC
  8
0
  6
CONTINUOUS
 62
               3
  5
3AD
 10
157.49999999999977
 20
-4.0543634033039737
 30
0.0
 40
2.5
 50
0.0
 51
89.999999999982862
  0
LINE
  8
0
  6
CONTINUOUS
 62
               3
  5
3AE
 10
151.99999999999966
 20
-1.5543634033039169
 30
0.0
 11
94.825502516487518
 21
0.4422140441243059
 31
0.0
  0
ARC
  8
0
  6
CONTINUOUS
 62
               3
  5
3AF
 10
94.999999999999886
 20
5.4391681792197843
 30
0.0
 40
5.0
 50
179.99999999996524
 51
267.99999999994816
  0
LINE
  8
0
  6
CONTINUOUS
 62
               3
  5
3B0
 10
89.999999999999886
 20
17.368265826830331
 30
0.0
 11
89.999999999999886
 21
5.4391681792197843
 31
0.0
  0
ARC
  8
0
  6
CONTINUOUS
 62
               3
  5
3B1
 10
110.00000000000006
 20
4.9153566368435619
 30
0.0
 40
5.0
 50
179.99999999996524
 51
267.99999999994816
  0
ARC
  8
0
  6
CONTINUOUS
 62
               3
  5
3B2
 10
82.0
 20
-121.38280727734008
 30
0.0
 40
2.5
 50
269.99999999994759
 51
449.99999999991297
  0
LINE
  8
0
  6
CONTINUOUS
 62
               3
  5
3B3
 10
154.99999999999977
 20
-113.88280727733962
 30
0.0
 11
154.32844387403554
 21
-113.88280727733962
 31
0.0
  0
LINE
  8
0
  6
CONTINUOUS
 62
               3
  5
3B4
 10
151.99999999999966
 20
-116.21125115137465
 30
0.0
 11
154.32844387403554
 21
-113.88280727733962
 31
0.0
  0
LINE
  8
0
  6
CONTINUOUS
 62
               3
  5
3B5
 10
154.99999999999977
 20
-116.21125115137517
 30
0.0
 11
157.49999999999977
 21
-116.21125115137517
 31
0.0
  0
ARC
  8
0
  6
CONTINUOUS
 62
               3
  5
3B6
 10
157.49999999999977
 20
-113.71125115137517
 30
0.0
 40
2.5
 50
269.99999999994793
 51
359.99999999993014
  0
LINE
  8
0
  6
CONTINUOUS
 62
               3
  5
3B7
 10
151.99999999999966
 20
-116.21125115137465
 30
0.0
 11
104.47275977548475
 21
-117.87093895183432
 31
0.0
  0
LINE
  8
0
  6
CONTINUOUS
 62
               3
  5
3B8
 10
101.11172335306458
 20
-119.33235918099712
 30
0.0
 11
91.464466094066722
 21
-128.9796164399952
 31
0.0
  0
ARC
  8
0
  6
CONTINUOUS
 62
               3
  5
3B9
 10
94.999999999999659
 20
-132.51515034592779
 30
0.0
 40
5.0
 50
134.99999999997439
 51
179.99999999996507
  0
ARC
  8
0
  6
CONTINUOUS
 62
               3
  5
3BA
 10
104.64725725899734
 20
-122.86789308692983
 30
0.0
 40
5.0
 50
91.999999999982748
 51
134.9999999999747
  0
LINE
  8
0
  6
CONTINUOUS
 62
               3
  5
3BB
 10
105.00000000000023
 20
40.117192722659915
 30
0.0
 11
105.00000000000006
 21
4.9153566368435619
 31
0.0
  0
LINE
  8
0
  6
CONTINUOUS
 62
               3
  5
3BC
 10
154.32844387403554
 20
-3.8828072773398006
 30
0.0
 11
154.32844387403554
 21
-113.88280727733962
 31
0.0
  0
LINE
  8
0
  6
CONTINUOUS
 62
               3
  5
3BD
 10
151.99999999999966
 20
-116.21125115137465
 30
0.0
 11
151.99999999999966
 21
-1.5543634033039169
 31
0.0
  0
LINE
  8
0
  6
CONTINUOUS
 62
               3
  5
3BE
 10
154.99999999999977
 20
-116.21125115137517
 30
0.0
 11
154.99999999999977
 21
-1.5543634033039737
 31
0.0
  0
LINE
  8
0
  6
CONTINUOUS
 62
               3
  5
3BF
 10
159.99999999999977
 20
-4.0543634033039737
 30
0.0
 11
159.99999999999977
 21
-113.71125115137517
 31
0.0
  0
LINE
  8
0
  6
CONTINUOUS
 62
               3
  5
3C0
 10
701.98374363275934
 20
22.117192722659631
 30
0.0
 11
616.67333200053349
 21
22.117192722659645
 31
0.0
  0
LINE
  8
0
  6
CONTINUOUS
 62
               3
  5
3C1
 10
689.99999999999943
 20
-123.88280727734039
 30
0.0
 11
643.28401844571601
 21
-123.88280727734031
 31
0.0
  0
LINE
  8
0
  6
CONTINUOUS
 62
               3
  5
3C2
 10
689.99999999999943
 20
-118.88280727734039
 30
0.0
 11
643.28401844571601
 21
-118.88280727734031
 31
0.0
  0
LINE
  8
0
  6
CONTINUOUS
 62
               3
  5
3C3
 10
89.999999999999659
 20
-246.69511991054475
 30
0.0
 11
89.999999999999659
 21
-132.51515034592779
 31
0.0
  0
ARC
  8
0
  6
CONTINUOUS
 62
               3
  5
3C4
 10
556.71598155428399
 20
-121.38280727734022
 30
0.0
 40
2.5
 50
269.99999999994731
 51
449.99999999991297
  0
ARC
  8
0
  6
CONTINUOUS
 62
               3
  5
3C5
 10
643.2840184457159
 20
-121.38280727734022
 30
0.0
 40
2.5
 50
89.999999999981569
 51
269.99999999994731
  0
CIRCLE
  8
0
  6
CONTINUOUS
 62
               3
  5
3C6
 10
599.99999999999989
 20
-58.88280727734022
 30
0.0
 40
57.5
  0
LINE
  8
0
  6
CONTINUOUS
 62
               3
  5
3C7
 10
626.78735709247928
 20
-30.882807277340333
 30
0.0
 11
573.21264290752049
 21
-30.882807277340333
 31
0.0
  0
CIRCLE
  8
0
  6
CONTINUOUS
 62
               3
  5
3C8
 10
599.99999999999989
 20
-58.88280727734022
 30
0.0
 40
48.500000000000014
  0
CIRCLE
  8
0
  6
CONTINUOUS
 62
               3
  5
3C9
 10
599.99999999999989
 20
-58.88280727734022
 30
0.0
 40
38.75
  0
CIRCLE
  8
0
  6
CONTINUOUS
 62
               3
  5
3CA
 10
599.99999999999989
 20
-58.88280727734022
 30
0.0
 40
47.299999999999997
  0
LINE
  8
0
  6
CONTINUOUS
 62
               3
  5
3CB
 10
568.18019484660533
 20
-90.702612430734547
 30
0.0
 11
566.55384924987629
 21
-92.328958027463926
 31
0.0
  0
LINE
  8
0
  6
CONTINUOUS
 62
               3
  5
3CC
 10
631.81980515339444
 20
-90.702612430734547
 30
0.0
 11
633.44615075012359
 21
-92.328958027463926
 31
0.0
  0
ARC
  8
0
  6
CONTINUOUS
 62
               3
  5
3CD
 10
599.99999999999989
 20
-58.88280727734022
 30
0.0
 40
45.0
 50
224.99999999995646
 51
314.99999999993918
  0
CIRCLE
  8
0
  6
CONTINUOUS
 62
               3
  5
3CE
 10
599.99999999999989
 20
-58.88280727734022
 30
0.0
 40
43.0
  0
LINE
  8
0
  6
CONTINUOUS
 62
               3
  5
3CF
 10
589.99999999999989
 20
4.7834450558530648
 30
0.0
 11
589.99999999999989
 21
17.117192722659752
 31
0.0
  0
LINE
  8
0
  6
CONTINUOUS
 62
               3
  5
3D0
 10
609.99999999999989
 20
17.117192722659752
 30
0.0
 11
609.99999999999989
 21
4.7834450558530648
 31
0.0
  0
ARC
  8
0
  6
CONTINUOUS
 62
               3
  5
3D1
 10
584.99999999999989
 20
4.7834450558530648
 30
0.0
 40
5.0
 50
283.3423637970331
 51
359.99999999993037
  0
ARC
  8
0
  6
CONTINUOUS
 62
               3
  5
3D2
 10
614.99999999999989
 20
4.7834450558530648
 30
0.0
 40
5.0
 50
179.99999999996524
 51
256.65763620286259
  0
ARC
  8
0
  6
CONTINUOUS
 62
               3
  5
3D3
 10
584.99999999999989
 20
17.117192722659752
 30
0.0
 40
5.0
 50
0.0
 51
89.999999999982862
  0
ARC
  8
0
  6
CONTINUOUS
 62
               3
  5
3D4
 10
614.99999999999989
 20
17.117192722659752
 30
0.0
 40
5.0
 50
89.999999999982862
 51
179.99999999996518
  0
LINE
  8
0
  6
CONTINUOUS
 62
               3
  5
3D5
 10
-556.71598155428444
 20
-123.88280727733991
 30
0.0
 11
-510.00000000000057
 21
-123.88280727733991
 31
0.0
  0
LINE
  8
0
  6
CONTINUOUS
 62
               3
  5
3D6
 10
-556.71598155428444
 20
-118.88280727733991
 30
0.0
 11
-510.00000000000057
 21
-118.88280727733991
 31
0.0
  0
LINE
  8
0
  6
CONTINUOUS
 62
               3
  5
3D7
 10
-585.00000000000045
 20
22.117192722660072
 30
0.0
 11
-498.00000000000028
 21
22.117192722659986
 31
0.0
  0
LINE
  8
0
  6
CONTINUOUS
 62
               3
  5
3D8
 10
-82.000000000000341
 20
-123.88280727734031
 30
0.0
 11
-0.0000000000003476
 21
-123.88280727734031
 31
0.0
  0
LINE
  8
0
  6
CONTINUOUS
 62
               3
  5
3D9
 10
-0.0000000000003476
 20
-123.88280727734031
 30
0.0
 11
82.0
 21
-123.88280727734008
 31
0.0
  0
LINE
  8
0
  6
CONTINUOUS
 62
               3
  5
3DA
 10
-82.000000000000341
 20
-118.88280727734031
 30
0.0
 11
-0.0000000000003476
 21
-118.88280727734031
 31
0.0
  0
LINE
  8
0
  6
CONTINUOUS
 62
               3
  5
3DB
 10
-0.0000000000003476
 20
-118.88280727734031
 30
0.0
 11
82.0
 21
-118.88280727734031
 31
0.0
  0
ARC
  8
0
  6
CONTINUOUS
 62
               3
  5
3DC
 10
689.99999999999943
 20
-121.38280727734031
 30
0.0
 40
2.5
 50
269.99999999994731
 51
449.99999999991297
  0
LINE
  8
0
  6
CONTINUOUS
 62
               3
  5
3DD
 10
-101.98374363275946
 20
22.11719272265961
 30
0.0
 11
-0.0000000000003476
 21
22.117192722659723
 31
0.0
  0
LINE
  8
0
  6
CONTINUOUS
 62
               3
  5
3DE
 10
-0.0000000000003476
 20
22.11719272265978
 30
0.0
 11
101.99999999999977
 21
22.11719272265961
 31
0.0
  0
ARC
  8
0
  6
CONTINUOUS
 62
               3
  5
3DF
 10
702.00000000000011
 20
25.117192722659581
 30
0.0
 40
3.0000000000000004
 50
269.99999999994731
 51
359.99999999993037
  0
ARC
  8
0
  6
CONTINUOUS
 62
               3
  5
3E0
 10
694.9999999999992
 20
17.11719272265961
 30
0.0
 40
5.0
 50
89.999999999982862
 51
179.99999999996518
  0
LINE
  8
0
  6
CONTINUOUS
 62
               3
  5
3E1
 10
697.03489949670222
 20
-75.416509329553151
 30
0.0
 11
694.82550251648752
 21
-75.49366317221461
 31
0.0
  0
ARC
  8
0
  6
CONTINUOUS
 62
               3
  5
3E2
 10
695.00000000000023
 20
-80.49061730731006
 30
0.0
 40
5.0
 50
91.999999999981284
 51
179.99999999996507
  0
LINE
  8
0
  6
CONTINUOUS
 62
               3
  5
3E3
 10
697.03489949670211
 20
2.6508947748718867
 30
0.0
 11
694.82550251648786
 21
2.7280486175330907
 31
0.0
  0
ARC
  8
0
  6
CONTINUOUS
 62
               3
  5
3E4
 10
695.00000000000034
 20
7.7250027526286544
 30
0.0
 40
5.0
 50
179.99999999996507
 51
267.99999999994884
  0
LINE
  8
0
  6
CONTINUOUS
 62
               3
  5
3E5
 10
697.99999999999977
 20
-74.417118502534095
 30
0.0
 11
697.99999999999977
 21
1.6515039478528024
 31
0.0
  0
ARC
  8
0
  6
CONTINUOUS
 62
               3
  5
3E6
 10
696.99999999999989
 20
-74.417118502534095
 30
0.0
 40
1.0
 50
271.99999999994441
 51
359.99999999993082
  0
ARC
  8
0
  6
CONTINUOUS
 62
               3
  5
3E7
 10
696.99999999999989
 20
1.6515039478528024
 30
0.0
 40
1.0
 50
0.0
 51
87.999999999996149
  0
LINE
  8
0
  6
CONTINUOUS
 62
               3
  5
3E8
 10
689.9999999999992
 20
17.11719272265961
 30
0.0
 11
689.9999999999992
 21
7.7250027526286544
 31
0.0
  0
LINE
  8
0
  6
CONTINUOUS
 62
               3
  5
3E9
 10
689.9999999999992
 20
-80.49061730731006
 30
0.0
 11
689.99999999999943
 21
-118.88280727734031
 31
0.0
  0
CIRCLE
  8
0
  6
CONTINUOUS
 62
               3
  5
3EA
 10
-0.0000000000003476
 20
-36.382807277340703
 30
0.0
 40
39.0
  0
LINE
  8
0
  6
CONTINUOUS
 62
               3
  5
3EB
 10
705.00000000000023
 20
40.117192722659723
 30
0.0
 11
705.00000000000011
 21
25.117192722659581
 31
0.0
  0
LINE
  8
0
  6
CONTINUOUS
 62
               3
  5
3EC
 10
689.99999999999943
 20
-123.88280727734031
 30
0.0
 11
689.99999999999989
 21
-246.69511991054293
 31
0.0
  0
ARC
  8
0
  6
CONTINUOUS
 62
               3
  5
3ED
 10
510.00000000000068
 20
-121.38280727734028
 30
0.0
 40
2.5
 50
89.999999999982862
 51
269.99999999994731
  0
ARC
  8
0
  6
CONTINUOUS
 62
               3
  5
3EE
 10
498.00000000000011
 20
25.117192722659617
 30
0.0
 40
3.0000000000000004
 50
179.99999999996524
 51
269.99999999994731
  0
ARC
  8
0
  6
CONTINUOUS
 62
               3
  5
3EF
 10
505.00000000000102
 20
17.117192722659642
 30
0.0
 40
5.0
 50
359.99999999993031
 51
449.99999999991297
  0
LINE
  8
0
  6
CONTINUOUS
 62
               3
  5
3F0
 10
502.96510050329789
 20
-75.416509329553122
 30
0.0
 11
505.1744974835126
 21
-75.493663172214582
 31
0.0
  0
ARC
  8
0
  6
CONTINUOUS
 62
               3
  5
3F1
 10
504.99999999999989
 20
-80.490617307310032
 30
0.0
 40
5.0
 50
0.0
 51
87.999999999983118
  0
LINE
  8
0
  6
CONTINUOUS
 62
               3
  5
3F2
 10
502.96510050329812
 20
2.6508947748719223
 30
0.0
 11
505.17449748351237
 21
2.7280486175331191
 31
0.0
  0
ARC
  8
0
  6
CONTINUOUS
 62
               3
  5
3F3
 10
504.99999999999989
 20
7.7250027526286829
 30
0.0
 40
5.0
 50
271.99999999994702
 51
359.99999999993048
  0
LINE
  8
0
  6
CONTINUOUS
 62
               3
  5
3F4
 10
502.00000000000034
 20
-74.417118502534066
 30
0.0
 11
502.00000000000045
 21
1.6515039478528379
 31
0.0
  0
ARC
  8
0
  6
CONTINUOUS
 62
               3
  5
3F5
 10
503.00000000000023
 20
-74.417118502534066
 30
0.0
 40
1.0
 50
179.99999999996541
 51
267.99999999995339
  0
ARC
  8
0
  6
CONTINUOUS
 62
               3
  5
3F6
 10
503.00000000000034
 20
1.6515039478528379
 30
0.0
 40
1.0
 50
91.999999999967613
 51
179.99999999996498
  0
LINE
  8
0
  6
CONTINUOUS
 62
               3
  5
3F7
 10
510.00000000000102
 20
17.117192722659638
 30
0.0
 11
510.00000000000102
 21
7.7250027526286829
 31
0.0
  0
LINE
  8
0
  6
CONTINUOUS
 62
               3
  5
3F8
 10
510.00000000000091
 20
-80.490617307310032
 30
0.0
 11
510.00000000000068
 21
-118.88280727734028
 31
0.0
  0
LINE
  8
0
  6
CONTINUOUS
 62
               3
  5
3F9
 10
498.01625636724089
 20
22.117192722659667
 30
0.0
 11
583.32666799946674
 21
22.11719272265962
 31
0.0
  0
LINE
  8
0
  6
CONTINUOUS
 62
               3
  5
3FA
 10
510.00000000000068
 20
-123.88280727734036
 30
0.0
 11
556.7159815542841
 21
-123.88280727734031
 31
0.0
  0
LINE
  8
0
  6
CONTINUOUS
 62
               3
  5
3FB
 10
510.00000000000068
 20
-118.88280727734036
 30
0.0
 11
556.7159815542841
 21
-118.88280727734031
 31
0.0
  0
LINE
  8
0
  6
CONTINUOUS
 62
               3
  5
3FC
 10
495.0
 20
40.117192722659759
 30
0.0
 11
495.00000000000011
 21
25.117192722659617
 31
0.0
  0
LINE
  8
0
  6
CONTINUOUS
 62
               3
  5
3FD
 10
510.00000000000068
 20
-123.88280727734028
 30
0.0
 11
510.00000000000011
 21
-246.69511991054293
 31
0.0
  0
ARC
  8
0
  6
CONTINUOUS
 62
               3
  5
3FE
 10
-694.9999999999992
 20
17.117192722659993
 30
0.0
 40
5.0
 50
359.99999999993031
 51
449.99999999991297
  0
LINE
  8
0
  6
CONTINUOUS
 62
               3
  5
3FF
 10
-689.9999999999992
 20
17.11719272265999
 30
0.0
 11
-689.9999999999992
 21
7.7250027526290381
 31
0.0
  0
LINE
  8
0
  6
CONTINUOUS
 62
               3
  5
400
 10
-697.03489949670222
 20
-75.416509329552724
 30
0.0
 11
-694.82550251648752
 21
-75.493663172214156
 31
0.0
  0
ARC
  8
0
  6
CONTINUOUS
 62
               3
  5
401
 10
-695.00000000000034
 20
-80.490617307309648
 30
0.0
 40
5.0
 50
0.0
 51
87.999999999983118
  0
LINE
  8
0
  6
CONTINUOUS
 62
               3
  5
402
 10
-697.03489949670211
 20
2.6508947748722704
 30
0.0
 11
-694.82550251648786
 21
2.7280486175335454
 31
0.0
  0
ARC
  8
0
  6
CONTINUOUS
 62
               3
  5
403
 10
-695.00000000000034
 20
7.7250027526290381
 30
0.0
 40
5.0
 50
271.99999999994702
 51
359.99999999993048
  0
LINE
  8
0
  6
CONTINUOUS
 62
               3
  5
404
 10
-697.99999999999989
 20
-74.41711850253364
 30
0.0
 11
-697.99999999999977
 21
1.6515039478531861
 31
0.0
  0
ARC
  8
0
  6
CONTINUOUS
 62
               3
  5
405
 10
-696.99999999999989
 20
-74.41711850253364
 30
0.0
 40
1.0
 50
179.99999999996541
 51
267.99999999995663
  0
ARC
  8
0
  6
CONTINUOUS
 62
               3
  5
406
 10
-696.99999999999989
 20
1.6515039478531861
 30
0.0
 40
1.0
 50
91.999999999970868
 51
179.99999999996498
  0
LINE
  8
0
  6
CONTINUOUS
 62
               3
  5
407
 10
-689.9999999999992
 20
-80.490617307309648
 30
0.0
 11
-689.99999999999943
 21
-118.88280727733988
 31
0.0
  0
LINE
  8
0
  6
CONTINUOUS
 62
               3
  5
408
 10
-71.000000000000355
 20
-413.45597969107058
 30
0.0
 11
70.999999999999602
 21
-413.45597969107189
 31
0.0
  0
LINE
  8
0
  6
CONTINUOUS
 62
               3
  5
409
 10
-73.278712166033117
 20
-393.45597969107115
 30
0.0
 11
73.278712166032648
 21
-393.45597969107115
 31
0.0
  0
LINE
  8
0
  6
CONTINUOUS
 62
               3
  5
40A
 10
73.76120980456372
 20
-411.30533094772272
 30
0.0
 11
75.479633770804298
 21
-396.22291736468327
 31
0.0
  0
ARC
  8
0
  6
CONTINUOUS
 62
               3
  5
40B
 10
72.995704131612854
 20
-395.93990933026345
 30
0.0
 40
2.5
 50
353.49999999993105
 51
443.49999999991411
  0
ARC
  8
0
  6
CONTINUOUS
 62
               3
  5
40C
 10
71.283008034419538
 20
-410.97205005188044
 30
0.0
 40
2.5
 50
263.49999999994765
 51
353.49999999993105
  0
LINE
  8
0
  6
CONTINUOUS
 62
               3
  5
40D
 10
-73.761209804564331
 20
-411.30533094772272
 30
0.0
 11
-75.479633770804909
 21
-396.22291736468327
 31
0.0
  0
ARC
  8
0
  6
CONTINUOUS
 62
               3
  5
40E
 10
-72.995704131613394
 20
-395.93990933026345
 30
0.0
 40
2.5
 50
96.499999999981398
 51
186.49999999996413
  0
ARC
  8
0
  6
CONTINUOUS
 62
               3
  5
40F
 10
-71.283008034420078
 20
-410.97205005188044
 30
0.0
 40
2.5
 50
186.49999999996413
 51
276.49999999994787
  0
LINE
  8
0
  6
CONTINUOUS
 62
               3
  5
410
 10
-529.00000000000023
 20
-413.4559796910707
 30
0.0
 11
-671.00000000000034
 21
-413.45597969107189
 31
0.0
  0
LINE
  8
0
  6
CONTINUOUS
 62
               3
  5
411
 10
-526.72128783396761
 20
-393.45597969107126
 30
0.0
 11
-673.2787121660333
 21
-393.45597969107115
 31
0.0
  0
LINE
  8
0
  6
CONTINUOUS
 62
               3
  5
412
 10
-673.76120980456437
 20
-411.30533094772272
 30
0.0
 11
-675.47963377080498
 21
-396.22291736468327
 31
0.0
  0
ARC
  8
0
  6
CONTINUOUS
 62
               3
  5
413
 10
-672.99570413161348
 20
-395.93990933026345
 30
0.0
 40
2.5
 50
96.499999999980105
 51
186.49999999996422
  0
ARC
  8
0
  6
CONTINUOUS
 62
               3
  5
414
 10
-671.28300803442028
 20
-410.97205005188044
 30
0.0
 40
2.5
 50
186.49999999996422
 51
276.49999999994822
  0
LINE
  8
0
  6
CONTINUOUS
 62
               3
  5
415
 10
-526.23879019543631
 20
-411.30533094772278
 30
0.0
 11
-524.52036622919582
 21
-396.22291736468333
 31
0.0
  0
ARC
  8
0
  6
CONTINUOUS
 62
               3
  5
416
 10
-527.00429586838732
 20
-395.93990933026356
 30
0.0
 40
2.5
 50
353.49999999993111
 51
443.49999999991383
  0
ARC
  8
0
  6
CONTINUOUS
 62
               3
  5
417
 10
-528.71699196558063
 20
-410.9720500518805
 30
0.0
 40
2.5
 50
263.49999999994833
 51
353.49999999993111
  0
LINE
  8
0
  6
CONTINUOUS
 62
               3
  5
418
 10
528.99999999999966
 20
-413.45597969107092
 30
0.0
 11
670.99999999999989
 21
-413.45597969107223
 31
0.0
  0
LINE
  8
0
  6
CONTINUOUS
 62
               3
  5
419
 10
526.72128783396727
 20
-393.45597969107149
 30
0.0
 11
673.27871216603296
 21
-393.45597969107149
 31
0.0
  0
LINE
  8
0
  6
CONTINUOUS
 62
               3
  5
41A
 10
673.76120980456403
 20
-411.30533094772312
 30
0.0
 11
675.47963377080453
 21
-396.22291736468361
 31
0.0
  0
ARC
  8
0
  6
CONTINUOUS
 62
               3
  5
41B
 10
672.99570413161314
 20
-395.93990933026379
 30
0.0
 40
2.5
 50
353.49999999993111
 51
443.49999999991383
  0
ARC
  8
0
  6
CONTINUOUS
 62
               3
  5
41C
 10
671.28300803441982
 20
-410.97205005188079
 30
0.0
 40
2.5
 50
263.49999999994833
 51
353.49999999993111
  0
LINE
  8
0
  6
CONTINUOUS
 62
               3
  5
41D
 10
526.23879019543574
 20
-411.30533094772312
 30
0.0
 11
524.52036622919525
 21
-396.22291736468361
 31
0.0
  0
ARC
  8
0
  6
CONTINUOUS
 62
               3
  5
41E
 10
527.00429586838675
 20
-395.93990933026379
 30
0.0
 40
2.5
 50
96.499999999980105
 51
186.49999999996422
  0
ARC
  8
0
  6
CONTINUOUS
 62
               3
  5
41F
 10
528.71699196558006
 20
-410.97205005188079
 30
0.0
 40
2.5
 50
186.49999999996422
 51
276.49999999994822
  0
LINE
  8
0
  6
CONTINUOUS
 62
               3
  5
420
 10
-71.0
 20
-413.45597969107195
 30
0.0
 11
-71.000000000000142
 21
-466.16926572070236
 31
0.0
  0
LINE
  8
0
  6
CONTINUOUS
 62
               3
  5
421
 10
70.999999999999602
 20
-413.45597969107195
 30
0.0
 11
70.999999999999602
 21
-466.16926572070236
 31
0.0
  0
LINE
  8
0
  6
CONTINUOUS
 62
               3
  5
422
 10
-529.00000000000057
 20
-413.455979691072
 30
0.0
 11
-529.00000000000057
 21
-466.16926572070241
 31
0.0
  0
LINE
  8
0
  6
CONTINUOUS
 62
               3
  5
423
 10
-670.99999999999989
 20
-413.455979691072
 30
0.0
 11
-671.00000000000034
 21
-466.16926572070241
 31
0.0
  0
LINE
  8
0
  6
CONTINUOUS
 62
               3
  5
424
 10
529.00000000000057
 20
-413.45597969107223
 30
0.0
 11
529.00000000000011
 21
-466.16926572070264
 31
0.0
  0
LINE
  8
0
  6
CONTINUOUS
 62
               3
  5
425
 10
670.99999999999989
 20
-413.45597969107223
 30
0.0
 11
670.99999999999989
 21
-466.16926572070264
 31
0.0
  0
LINE
  8
0
  6
CONTINUOUS
 62
               3
  5
426
 10
-55.000000000000348
 20
-596.88280727733991
 30
0.0
 11
54.999999999999652
 21
-596.88280727733991
 31
0.0
  0
LINE
  8
0
  6
CONTINUOUS
 62
               3
  5
427
 10
56.99999999999968
 20
-594.88280727733968
 30
0.0
 11
56.99999999999968
 21
-496.88280727733985
 31
0.0
  0
LINE
  8
0
  6
CONTINUOUS
 62
               3
  5
428
 10
-57.000000000000306
 20
-594.88280727733968
 30
0.0
 11
-57.000000000000306
 21
-496.88280727733985
 31
0.0
  0
LINE
  8
0
  6
CONTINUOUS
 62
               3
  5
429
 10
56.99999999999968
 20
-496.88280727733985
 30
0.0
 11
58.053042823173094
 21
-495.8297644541662
 31
0.0
  0
LINE
  8
0
  6
CONTINUOUS
 62
               3
  5
42A
 10
-57.000000000000306
 20
-496.88280727733985
 30
0.0
 11
-58.053042823173577
 21
-495.82976445416631
 31
0.0
  0
LINE
  8
0
  6
CONTINUOUS
 62
               3
  5
42B
 10
-55.000000000000348
 20
-596.88280727733991
 30
0.0
 11
-57.000000000000306
 21
-594.88280727733968
 31
0.0
  0
LINE
  8
0
  6
CONTINUOUS
 62
               3
  5
42C
 10
54.999999999999652
 20
-596.88280727733991
 30
0.0
 11
56.99999999999968
 21
-594.88280727733968
 31
0.0
  0
LINE
  8
0
  6
CONTINUOUS
 62
               3
  5
42D
 10
-655.00000000000045
 20
-596.88280727733991
 30
0.0
 11
-545.00000000000045
 21
-596.88280727733991
 31
0.0
  0
LINE
  8
0
  6
CONTINUOUS
 62
               3
  5
42E
 10
-543.00000000000045
 20
-594.88280727733968
 30
0.0
 11
-543.00000000000045
 21
-496.88280727733985
 31
0.0
  0
LINE
  8
0
  6
CONTINUOUS
 62
               3
  5
42F
 10
-657.00000000000045
 20
-594.88280727733968
 30
0.0
 11
-657.00000000000045
 21
-496.88280727733985
 31
0.0
  0
LINE
  8
0
  6
CONTINUOUS
 62
               3
  5
430
 10
-543.00000000000045
 20
-496.88280727733985
 30
0.0
 11
-541.94695717682703
 21
-495.8297644541662
 31
0.0
  0
LINE
  8
0
  6
CONTINUOUS
 62
               3
  5
431
 10
-657.00000000000045
 20
-496.88280727733985
 30
0.0
 11
-658.05304282317366
 21
-495.82976445416642
 31
0.0
  0
LINE
  8
0
  6
CONTINUOUS
 62
               3
  5
432
 10
-655.00000000000045
 20
-596.88280727733991
 30
0.0
 11
-657.00000000000045
 21
-594.88280727733968
 31
0.0
  0
LINE
  8
0
  6
CONTINUOUS
 62
               3
  5
433
 10
-545.00000000000045
 20
-596.88280727733991
 30
0.0
 11
-543.00000000000045
 21
-594.88280727733968
 31
0.0
  0
LINE
  8
0
  6
CONTINUOUS
 62
               3
  5
434
 10
544.99999999999989
 20
-596.88280727734013
 30
0.0
 11
654.99999999999989
 21
-596.88280727734013
 31
0.0
  0
LINE
  8
0
  6
CONTINUOUS
 62
               3
  5
435
 10
656.99999999999989
 20
-594.88280727733991
 30
0.0
 11
656.99999999999989
 21
-496.88280727734008
 31
0.0
  0
LINE
  8
0
  6
CONTINUOUS
 62
               3
  5
436
 10
542.99999999999989
 20
-594.88280727733991
 30
0.0
 11
542.99999999999989
 21
-496.88280727734008
 31
0.0
  0
LINE
  8
0
  6
CONTINUOUS
 62
               3
  5
437
 10
656.99999999999989
 20
-496.88280727734008
 30
0.0
 11
658.05304282317331
 21
-495.82976445416642
 31
0.0
  0
LINE
  8
0
  6
CONTINUOUS
 62
               3
  5
438
 10
542.99999999999989
 20
-496.88280727734008
 30
0.0
 11
541.94695717682669
 21
-495.82976445416665
 31
0.0
  0
LINE
  8
0
  6
CONTINUOUS
 62
               3
  5
439
 10
544.99999999999989
 20
-596.88280727734013
 30
0.0
 11
542.99999999999989
 21
-594.88280727733991
 31
0.0
  0
LINE
  8
0
  6
CONTINUOUS
 62
               3
  5
43A
 10
654.99999999999989
 20
-596.88280727734013
 30
0.0
 11
656.99999999999989
 21
-594.88280727733991
 31
0.0
  0
CIRCLE
  8
0
  6
CONTINUOUS
 62
               3
  5
43B
 10
609.2865232163075
 20
-960.84656718673932
 30
0.0
 40
75.0
  0
CIRCLE
  8
0
  6
CONTINUOUS
 62
               3
  5
43C
 10
609.2865232163075
 20
-960.84656718673932
 30
0.0
 40
52.5
  0
LINE
  8
0
  6
CONTINUOUS
 62
               3
  5
43D
 10
523.07602501568215
 20
-940.84656718673932
 30
0.0
 11
537.00236174230224
 21
-940.84656718673932
 31
0.0
  0
LINE
  8
0
  6
CONTINUOUS
 62
               3
  5
43E
 10
537.00236174230224
 20
-980.84656718673932
 30
0.0
 11
523.07602501568215
 21
-980.84656718673932
 31
0.0
  0
ARC
  8
0
  6
CONTINUOUS
 62
               3
  5
43F
 10
609.2865232163075
 20
-960.84656718673932
 30
0.0
 40
88.5
 50
166.93897588510336
 51
193.06102411468945
  0
LINE
  8
0
  6
CONTINUOUS
 62
               3
  5
440
 10
589.2865232163075
 20
-1047.0570653873642
 30
0.0
 11
589.2865232163075
 21
-1033.1307286607444
 31
0.0
  0
LINE
  8
0
  6
CONTINUOUS
 62
               3
  5
441
 10
629.2865232163075
 20
-1033.1307286607444
 30
0.0
 11
629.2865232163075
 21
-1047.0570653873642
 31
0.0
  0
ARC
  8
0
  6
CONTINUOUS
 62
               3
  5
442
 10
609.2865232163075
 20
-960.84656718673932
 30
0.0
 40
88.5
 50
256.93897588505166
 51
283.06102411463769
  0
LINE
  8
0
  6
CONTINUOUS
 62
               3
  5
443
 10
695.49702141693217
 20
-980.84656718673932
 30
0.0
 11
681.57068469031185
 21
-980.84656718673932
 31
0.0
  0
LINE
  8
0
  6
CONTINUOUS
 62
               3
  5
444
 10
681.57068469031185
 20
-940.84656718673932
 30
0.0
 11
695.49702141693217
 21
-940.84656718673932
 31
0.0
  0
ARC
  8
0
  6
CONTINUOUS
 62
               3
  5
445
 10
609.2865232163075
 20
-960.84656718673932
 30
0.0
 40
88.5
 50
346.93897588499982
 51
373.06102411458585
  0
LINE
  8
0
  6
CONTINUOUS
 62
               3
  5
446
 10
629.2865232163075
 20
-874.63606898611374
 30
0.0
 11
629.2865232163075
 21
-888.56240571273429
 31
0.0
  0
LINE
  8
0
  6
CONTINUOUS
 62
               3
  5
447
 10
589.2865232163075
 20
-888.56240571273429
 30
0.0
 11
589.2865232163075
 21
-874.63606898611374
 31
0.0
  0
ARC
  8
0
  6
CONTINUOUS
 62
               3
  5
448
 10
609.2865232163075
 20
-960.84656718673932
 30
0.0
 40
88.5
 50
76.938975885155216
 51
103.06102411474124
  0
LINE
  8
0
  6
CONTINUOUS
 62
               3
  5
449
 10
561.61839969544656
 20
-982.84656718673978
 30
0.0
 11
656.95464673716754
 21
-982.84656718673978
 31
0.0
  0
ARC
  8
0
  6
CONTINUOUS
 62
               3
  5
44A
 10
621.79013486568863
 20
-952.1401695591203
 30
0.0
 40
54.763804151667173
 50
141.3859176367566
 51
145.15009542087031
  0
ARC
  8
0
  6
CONTINUOUS
 62
               3
  5
44B
 10
609.2865232163075
 20
-960.84656718673932
 30
0.0
 40
51.5
 50
334.71098847326505
 51
410.95932736340404
  0
ARC
  8
0
  6
CONTINUOUS
 62
               3
  5
44C
 10
609.2865232163075
 20
-960.84656718673932
 30
0.0
 40
51.5
 50
129.04067263628559
 51
205.28901152642416
  0
ARC
  8
0
  6
CONTINUOUS
 62
               3
  5
44D
 10
609.2865232163075
 20
-960.84656718673932
 30
0.0
 40
77.5
 50
104.95524831658298
 51
128.57288309095932
  0
ARC
  8
0
  6
CONTINUOUS
 62
               3
  5
44E
 10
609.2865232163075
 20
-960.84656718673932
 30
0.0
 40
77.5
 50
14.9552483166347
 51
75.044751683313535
  0
ARC
  8
0
  6
CONTINUOUS
 62
               3
  5
44F
 10
609.2865232163075
 20
-960.84656718673932
 30
0.0
 40
77.5
 50
321.42711690878122
 51
345.04475168315804
  0
LINE
  8
0
  6
CONTINUOUS
 62
               3
  5
450
 10
469.2865232163075
 20
-1015.8465671867393
 30
0.0
 11
469.95807934227173
 21
-1015.8465671867393
 31
0.0
  0
LINE
  8
0
  6
CONTINUOUS
 62
               3
  5
451
 10
472.45807934227219
 20
-1018.3465671867393
 30
0.0
 11
469.95807934227173
 21
-1015.8465671867393
 31
0.0
  0
LINE
  8
0
  6
CONTINUOUS
 62
               3
  5
452
 10
469.2865232163075
 20
-905.84656718673932
 30
0.0
 11
469.95807934227173
 21
-905.84656718673932
 31
0.0
  0
LINE
  8
0
  6
CONTINUOUS
 62
               3
  5
453
 10
472.45807934227173
 20
-903.34656718673932
 30
0.0
 11
469.95807934227173
 21
-905.84656718673932
 31
0.0
  0
LINE
  8
0
  6
CONTINUOUS
 62
               3
  5
454
 10
469.95807934227173
 20
-905.84656718673932
 30
0.0
 11
469.95807934227173
 21
-1015.8465671867393
 31
0.0
  0
LINE
  8
0
  6
CONTINUOUS
 62
               3
  5
455
 10
563.79618742992955
 20
-900.15697016839772
 30
0.0
 11
472.45807934227173
 21
-903.34656718673932
 31
0.0
  0
LINE
  8
0
  6
CONTINUOUS
 62
               3
  5
456
 10
544.45005149975657
 20
-1020.860582251707
 30
0.0
 11
472.4580793422723
 21
-1018.3465671867393
 31
0.0
  0
LINE
  8
0
  6
CONTINUOUS
 62
               3
  5
457
 10
464.2865232163075
 20
-906.01812331270344
 30
0.0
 11
464.2865232163075
 21
-1015.9465671867393
 31
0.0
  0
LINE
  8
0
  6
CONTINUOUS
 62
               3
  5
458
 10
469.2865232163075
 20
-1018.4465671867393
 30
0.0
 11
469.2865232163075
 21
-903.2465671867393
 31
0.0
  0
LINE
  8
0
  6
CONTINUOUS
 62
               3
  5
459
 10
469.2865232163075
 20
-903.2465671867393
 30
0.0
 11
466.7865232163075
 21
-903.2465671867393
 31
0.0
  0
LINE
  8
0
  6
CONTINUOUS
 62
               3
  5
45A
 10
469.2865232163075
 20
-1018.4465671867393
 30
0.0
 11
466.7865232163075
 21
-1018.4465671867393
 31
0.0
  0
ARC
  8
0
  6
CONTINUOUS
 62
               3
  5
45B
 10
466.7865232163075
 20
-1015.9465671867393
 30
0.0
 40
2.5
 50
179.99999999989538
 51
269.99999999984436
  0
ARC
  8
0
  6
CONTINUOUS
 62
               3
  5
45C
 10
466.7865232163075
 20
-905.7465671867393
 30
0.0
 40
2.5
 50
89.999999999948997
 51
179.99999999989538
  0
LINE
  8
0
  6
CONTINUOUS
 62
               3
  5
45D
 10
576.84812004969001
 20
-920.84656718673955
 30
0.0
 11
609.2865232163075
 21
-920.84656718673955
 31
0.0
  0
LINE
  8
0
  6
CONTINUOUS
 62
               3
  5
45E
 10
609.2865232163075
 20
-920.84656718673955
 30
0.0
 11
643.29019948814619
 21
-920.84656718673955
 31
0.0
  0
LINE
  8
0
  6
CONTINUOUS
 62
               3
  5
45F
 10
472.45807934227219
 20
-1018.3465671867393
 30
0.0
 11
472.45807934227173
 21
-903.34656718673932
 31
0.0
  0
ARC
  8
0
  6
CONTINUOUS
 62
               3
  5
460
 10
563.62168994641718
 20
-895.16001603330221
 30
0.0
 40
5.0
 50
271.99999999984402
 51
304.806757870252
  0
LINE
  8
0
  6
CONTINUOUS
 62
               3
  5
461
 10
664.2865232163075
 20
-1100.8465671867393
 30
0.0
 11
664.2865232163075
 21
-1100.175011060775
 31
0.0
  0
LINE
  8
0
  6
CONTINUOUS
 62
               3
  5
462
 10
666.7865232163075
 20
-1097.6750110607745
 30
0.0
 11
664.2865232163075
 21
-1100.175011060775
 31
0.0
  0
LINE
  8
0
  6
CONTINUOUS
 62
               3
  5
463
 10
554.2865232163075
 20
-1100.8465671867393
 30
0.0
 11
554.2865232163075
 21
-1100.175011060775
 31
0.0
  0
LINE
  8
0
  6
CONTINUOUS
 62
               3
  5
464
 10
551.7865232163075
 20
-1097.675011060775
 30
0.0
 11
554.2865232163075
 21
-1100.175011060775
 31
0.0
  0
LINE
  8
0
  6
CONTINUOUS
 62
               3
  5
465
 10
554.2865232163075
 20
-1100.175011060775
 30
0.0
 11
664.2865232163075
 21
-1100.175011060775
 31
0.0
  0
LINE
  8
0
  6
CONTINUOUS
 62
               3
  5
466
 10
554.45807934227162
 20
-1105.8465671867393
 30
0.0
 11
664.38652321630741
 21
-1105.8465671867393
 31
0.0
  0
LINE
  8
0
  6
CONTINUOUS
 62
               3
  5
467
 10
666.88652321630741
 20
-1100.8465671867393
 30
0.0
 11
551.68652321630736
 21
-1100.8465671867393
 31
0.0
  0
LINE
  8
0
  6
CONTINUOUS
 62
               3
  5
468
 10
551.68652321630736
 20
-1100.8465671867393
 30
0.0
 11
551.68652321630736
 21
-1103.3465671867393
 31
0.0
  0
LINE
  8
0
  6
CONTINUOUS
 62
               3
  5
469
 10
666.88652321630741
 20
-1100.8465671867393
 30
0.0
 11
666.88652321630741
 21
-1103.3465671867393
 31
0.0
  0
ARC
  8
0
  6
CONTINUOUS
 62
               3
  5
46A
 10
664.38652321630741
 20
-1103.3465671867393
 30
0.0
 40
2.5
 50
269.99999999984567
 51
359.99999999979076
  0
ARC
  8
0
  6
CONTINUOUS
 62
               3
  5
46B
 10
554.18652321630736
 20
-1103.3465671867393
 30
0.0
 40
2.5
 50
179.99999999989538
 51
269.99999999984567
  0
LINE
  8
0
  6
CONTINUOUS
 62
               3
  5
46C
 10
666.7865232163075
 20
-1097.6750110607745
 30
0.0
 11
551.7865232163075
 21
-1097.675011060775
 31
0.0
  0
LINE
  8
0
  6
CONTINUOUS
 62
               3
  5
46D
 10
669.97612023464865
 20
-1006.3369029731178
 30
0.0
 11
666.7865232163075
 21
-1097.6750110607745
 31
0.0
  0
ARC
  8
0
  6
CONTINUOUS
 62
               3
  5
46E
 10
674.97307436974404
 20
-1006.5114004566303
 30
0.0
 40
5.0
 50
145.19324212948862
 51
177.99999999989819
  0
LINE
  8
0
  6
CONTINUOUS
 62
               3
  5
46F
 10
549.27250815133937
 20
-1025.6830389032903
 30
0.0
 11
551.7865232163075
 21
-1097.675011060775
 31
0.0
  0
ARC
  8
0
  6
CONTINUOUS
 62
               3
  5
470
 10
544.27555401624397
 20
-1025.8575363868026
 30
0.0
 40
5.0
 50
1.9999999999958187
 51
87.99999999994921
  0
LINE
  8
0
  6
CONTINUOUS
 62
               3
  5
471
 10
534.2865232163075
 20
-1269.3460009353239
 30
0.0
 11
684.2865232163075
 21
-1269.3460009353239
 31
0.0
  0
LINE
  8
0
  6
CONTINUOUS
 62
               3
  5
472
 10
520.78652321630727
 20
-1279.3460009353239
 30
0.0
 11
520.78652321630727
 21
-1286.3460009353234
 31
0.0
  0
LINE
  8
0
  6
CONTINUOUS
 62
               3
  5
473
 10
520.78652321630727
 20
-1279.3460009353239
 30
0.0
 11
534.2865232163075
 21
-1269.3460009353239
 31
0.0
  0
ARC
  8
0
  6
CONTINUOUS
 62
               3
  5
474
 10
532.28652321630773
 20
-1290.9285766302792
 30
0.0
 40
4.9999999999999991
 50
0.0
 51
66.421821521760023
  0
LINE
  8
0
  6
CONTINUOUS
 62
               3
  5
475
 10
520.78652321630727
 20
-1286.3460009353234
 30
0.0
 11
697.78652321630727
 21
-1286.3460009353234
 31
0.0
  0
ARC
  8
0
  6
CONTINUOUS
 62
               3
  5
476
 10
554.2865232163075
 20
-1376.3460009353239
 30
0.0
 40
19.999999999999996
 50
148.21166938286279
 51
167.26981986159123
  0
LINE
  8
0
  6
CONTINUOUS
 62
               3
  5
477
 10
537.28652321630773
 20
-1290.9285766302792
 30
0.0
 11
537.28652321630773
 21
-1365.8103471824711
 31
0.0
  0
LINE
  8
0
  6
CONTINUOUS
 62
               3
  5
478
 10
681.2865232163075
 20
-1360.8103471824707
 30
0.0
 11
681.2865232163075
 21
-1290.9285766302792
 31
0.0
  0
LINE
  8
0
  6
CONTINUOUS
 62
               3
  5
479
 10
537.28652321630773
 20
-1365.8103471824711
 30
0.0
 11
680.78652321630796
 21
-1365.8103471824711
 31
0.0
  0
LINE
  8
0
  6
CONTINUOUS
 62
               3
  5
47A
 10
589.2865232163075
 20
-1286.3460009353234
 30
0.0
 11
589.2865232163075
 21
-1269.3460009353239
 31
0.0
  0
LINE
  8
0
  6
CONTINUOUS
 62
               3
  5
47B
 10
629.2865232163075
 20
-1269.3460009353239
 30
0.0
 11
629.2865232163075
 21
-1286.3460009353234
 31
0.0
  0
LINE
  8
0
  6
CONTINUOUS
 62
               3
  5
47C
 10
589.2865232163075
 20
-1279.3460009353239
 30
0.0
 11
629.2865232163075
 21
-1279.3460009353239
 31
0.0
  0
LINE
  8
0
  6
CONTINUOUS
 62
               3
  5
47D
 10
537.00236174230224
 20
-1269.3460009353239
 30
0.0
 11
537.00236174230224
 21
-1286.3460009353234
 31
0.0
  0
LINE
  8
0
  6
CONTINUOUS
 62
               3
  5
47E
 10
523.07602501568215
 20
-1279.3460009353239
 30
0.0
 11
523.07602501568215
 21
-1286.3460009353234
 31
0.0
  0
LINE
  8
0
  6
CONTINUOUS
 62
               3
  5
47F
 10
520.78652321630727
 20
-1279.3460009353239
 30
0.0
 11
523.07602501568215
 21
-1279.3460009353239
 31
0.0
  0
LINE
  8
0
  6
CONTINUOUS
 62
               3
  5
480
 10
523.07602501568215
 20
-1279.3460009353239
 30
0.0
 11
537.00236174230224
 21
-1269.3460009353239
 31
0.0
  0
LINE
  8
0
  6
CONTINUOUS
 62
               3
  5
481
 10
697.78652321630727
 20
-1279.3460009353239
 30
0.0
 11
697.78652321630727
 21
-1286.3460009353234
 31
0.0
  0
LINE
  8
0
  6
CONTINUOUS
 62
               3
  5
482
 10
697.78652321630727
 20
-1279.3460009353239
 30
0.0
 11
684.2865232163075
 21
-1269.3460009353239
 31
0.0
  0
ARC
  8
0
  6
CONTINUOUS
 62
               3
  5
483
 10
686.2865232163075
 20
-1290.9285766302792
 30
0.0
 40
4.9999999999999991
 50
113.57817847813573
 51
179.99999999989538
  0
LINE
  8
0
  6
CONTINUOUS
 62
               3
  5
484
 10
681.57068469031185
 20
-1269.3460009353239
 30
0.0
 11
681.57068469031185
 21
-1286.3460009353234
 31
0.0
  0
LINE
  8
0
  6
CONTINUOUS
 62
               3
  5
485
 10
695.49702141693285
 20
-1279.3460009353239
 30
0.0
 11
695.49702141693285
 21
-1286.3460009353234
 31
0.0
  0
LINE
  8
0
  6
CONTINUOUS
 62
               3
  5
486
 10
697.78652321630727
 20
-1279.3460009353239
 30
0.0
 11
695.49702141693285
 21
-1279.3460009353239
 31
0.0
  0
LINE
  8
0
  6
CONTINUOUS
 62
               3
  5
487
 10
695.49702141693285
 20
-1279.3460009353239
 30
0.0
 11
681.57068469031185
 21
-1269.3460009353239
 31
0.0
  0
ARC
  8
0
  6
CONTINUOUS
 62
               3
  5
488
 10
544.2865232163075
 20
-1497.8460009353239
 30
0.0
 40
2.4999999999999996
 50
89.99999999994769
 51
269.99999999984567
  0
ARC
  8
0
  6
CONTINUOUS
 62
               3
  5
489
 10
684.2865232163075
 20
-1497.8460009353239
 30
0.0
 40
2.4999999999999996
 50
269.99999999984567
 51
449.99999999974102
  0
LINE
  8
0
  6
CONTINUOUS
 62
               3
  5
48A
 10
469.2865232163075
 20
-1490.3460009353239
 30
0.0
 11
469.95807934227184
 21
-1490.3460009353239
 31
0.0
  0
LINE
  8
0
  6
CONTINUOUS
 62
               3
  5
48B
 10
472.45807934227196
 20
-1492.846000935323
 30
0.0
 11
469.95807934227184
 21
-1490.3460009353239
 31
0.0
  0
LINE
  8
0
  6
CONTINUOUS
 62
               3
  5
48C
 10
472.45807934227275
 20
-1492.8460009353239
 30
0.0
 11
514.62318959855008
 21
-1494.3184390311781
 31
0.0
  0
LINE
  8
0
  6
CONTINUOUS
 62
               3
  5
48D
 10
532.82205712224015
 20
-1510.6176903616097
 30
0.0
 11
517.98422602097025
 21
-1495.7798592603403
 31
0.0
  0
ARC
  8
0
  6
CONTINUOUS
 62
               3
  5
48E
 10
529.2865232163075
 20
-1514.153224267543
 30
0.0
 40
4.9999999999999991
 50
0.0
 51
44.999999999973191
  0
LINE
  8
0
  6
CONTINUOUS
 62
               3
  5
48F
 10
469.2865232163075
 20
-1380.3460009353239
 30
0.0
 11
469.95807934227184
 21
-1380.3460009353239
 31
0.0
  0
LINE
  8
0
  6
CONTINUOUS
 62
               3
  5
490
 10
472.45807934227196
 20
-1377.8460009353239
 30
0.0
 11
469.95807934227184
 21
-1380.3460009353239
 31
0.0
  0
LINE
  8
0
  6
CONTINUOUS
 62
               3
  5
491
 10
472.45807934227184
 20
-1377.8460009353239
 30
0.0
 11
530.07555554444627
 21
-1375.8339543301713
 31
0.0
  0
LINE
  8
0
  6
CONTINUOUS
 62
               3
  5
492
 10
469.95807934227184
 20
-1380.3460009353239
 30
0.0
 11
469.95807934227184
 21
-1490.3460009353239
 31
0.0
  0
LINE
  8
0
  6
CONTINUOUS
 62
               3
  5
493
 10
469.2865232163075
 20
-1492.9460009353238
 30
0.0
 11
469.2865232163075
 21
-1377.746000935324
 31
0.0
  0
LINE
  8
0
  6
CONTINUOUS
 62
               3
  5
494
 10
469.2865232163075
 20
-1377.746000935324
 30
0.0
 11
466.7865232163075
 21
-1377.746000935324
 31
0.0
  0
ARC
  8
0
  6
CONTINUOUS
 62
               3
  5
495
 10
466.7865232163075
 20
-1380.246000935324
 30
0.0
 40
2.5
 50
89.999999999948997
 51
179.99999999989538
  0
LINE
  8
0
  6
CONTINUOUS
 62
               3
  5
496
 10
464.2865232163075
 20
-1380.246000935324
 30
0.0
 11
464.2865232163075
 21
-1490.4460009353238
 31
0.0
  0
LINE
  8
0
  6
CONTINUOUS
 62
               3
  5
497
 10
469.2865232163075
 20
-1492.9460009353238
 30
0.0
 11
466.7865232163075
 21
-1492.9460009353238
 31
0.0
  0
ARC
  8
0
  6
CONTINUOUS
 62
               3
  5
498
 10
466.7865232163075
 20
-1490.4460009353238
 30
0.0
 40
2.5
 50
179.99999999989538
 51
269.99999999984436
  0
LINE
  8
0
  6
CONTINUOUS
 62
               3
  5
499
 10
472.45807934227196
 20
-1377.8460009353239
 30
0.0
 11
472.45807934227275
 21
-1492.8460009353239
 31
0.0
  0
ARC
  8
0
  6
CONTINUOUS
 62
               3
  5
49A
 10
514.4486921150376
 20
-1499.3153931662732
 30
0.0
 40
5.0
 50
44.999999999975948
 51
87.999999999949253
  0
ARC
  8
0
  6
CONTINUOUS
 62
               3
  5
49B
 10
529.90105806093368
 20
-1370.8370001950761
 30
0.0
 40
5.0
 50
271.99999999984408
 51
347.26981986148661
  0
CIRCLE
  8
0
  6
CONTINUOUS
 62
               3
  5
49C
 10
609.2865232163075
 20
-1435.3460009353239
 30
0.0
 40
48.5
  0
CIRCLE
  8
0
  6
CONTINUOUS
 62
               3
  5
49D
 10
609.2865232163075
 20
-1435.3460009353239
 30
0.0
 40
47.299999999999997
  0
LINE
  8
0
  6
CONTINUOUS
 62
               3
  5
49E
 10
577.46671806291295
 20
-1467.1658060887185
 30
0.0
 11
575.84037246618379
 21
-1468.7921516854476
 31
0.0
  0
LINE
  8
0
  6
CONTINUOUS
 62
               3
  5
49F
 10
641.10632836970228
 20
-1467.1658060887185
 30
0.0
 11
642.73267396643121
 21
-1468.7921516854476
 31
0.0
  0
ARC
  8
0
  6
CONTINUOUS
 62
               3
  5
4A0
 10
609.2865232163075
 20
-1435.3460009353239
 30
0.0
 40
45.0
 50
224.99999999987043
 51
314.99999999981884
  0
CIRCLE
  8
0
  6
CONTINUOUS
 62
               3
  5
4A1
 10
609.2865232163075
 20
-1435.3460009353239
 30
0.0
 40
57.600000000000001
  0
ARC
  8
0
  6
CONTINUOUS
 62
               3
  5
4A2
 10
586.78652321630818
 20
-1497.8460009353239
 30
0.0
 40
2.4999999999999996
 50
269.99999999984567
 51
449.99999999974102
  0
ARC
  8
0
  6
CONTINUOUS
 62
               3
  5
4A3
 10
631.78652321630818
 20
-1497.8460009353239
 30
0.0
 40
2.4999999999999996
 50
89.99999999994769
 51
269.99999999984567
  0
LINE
  8
0
  6
CONTINUOUS
 62
               3
  5
4A4
 10
544.2865232163075
 20
-1500.3460009353239
 30
0.0
 11
586.78652321630818
 21
-1500.3460009353239
 31
0.0
  0
LINE
  8
0
  6
CONTINUOUS
 62
               3
  5
4A5
 10
544.2865232163075
 20
-1495.3460009353239
 30
0.0
 11
586.78652321630818
 21
-1495.3460009353239
 31
0.0
  0
LINE
  8
0
  6
CONTINUOUS
 62
               3
  5
4A6
 10
631.78652321630818
 20
-1495.3460009353239
 30
0.0
 11
684.2865232163075
 21
-1495.3460009353239
 31
0.0
  0
LINE
  8
0
  6
CONTINUOUS
 62
               3
  5
4A7
 10
631.78652321630818
 20
-1500.3460009353239
 30
0.0
 11
684.2865232163075
 21
-1500.3460009353239
 31
0.0
  0
CIRCLE
  8
0
  6
CONTINUOUS
 62
               3
  5
4A8
 10
609.2865232163075
 20
-960.84656718673932
 30
0.0
 40
59.0
  0
LINE
  8
0
  6
DASHED2
 62
               3
  5
4A9
 10
-51.500000000000547
 20
-596.88280727733991
 30
0.0
 11
-51.500000000000547
 21
-516.88280727733991
 31
0.0
  0
LINE
  8
0
  6
DASHED2
 62
               3
  5
4AA
 10
51.499999999999353
 20
-596.88280727733991
 30
0.0
 11
51.499999999999353
 21
-516.88280727733991
 31
0.0
  0
LINE
  8
0
  6
DASHED2
 62
               3
  5
4AB
 10
-651.50000000000068
 20
-596.88280727733991
 30
0.0
 11
-651.50000000000068
 21
-516.88280727733991
 31
0.0
  0
LINE
  8
0
  6
DASHED2
 62
               3
  5
4AC
 10
-548.5000000000008
 20
-596.88280727733991
 30
0.0
 11
-548.5000000000008
 21
-516.88280727733991
 31
0.0
  0
LINE
  8
0
  6
DASHED2
 62
               3
  5
4AD
 10
548.49999999999966
 20
-596.88280727734013
 30
0.0
 11
548.49999999999966
 21
-516.88280727734013
 31
0.0
  0
LINE
  8
0
  6
DASHED2
 62
               3
  5
4AE
 10
651.49999999999955
 20
-596.88280727734013
 30
0.0
 11
651.49999999999955
 21
-516.88280727734013
 31
0.0
  0
LINE
  8
LAYER192
  6
CONTINUOUS
 62
               4
  5
4AF
 10
-32.833588112469542
 20
441.35086653559239
 30
0.0
 11
-101.51670031297412
 21
510.03397873609714
 31
0.0
  0
LINE
  8
LAYER192
  6
CONTINUOUS
 62
               4
  5
4B0
 10
-101.51670031297384
 20
575.70115496103585
 30
0.0
 11
-32.833588112469116
 21
644.38426716154049
 31
0.0
  0
LINE
  8
LAYER192
  6
CONTINUOUS
 62
               4
  5
4B1
 10
32.833588112469641
 20
644.38426716154004
 30
0.0
 11
101.51670031297415
 21
575.7011549610354
 31
0.0
  0
LINE
  8
LAYER192
  6
CONTINUOUS
 62
               4
  5
4B2
 10
101.51670031297387
 20
510.0339787360968
 30
0.0
 11
32.833588112469144
 21
441.35086653559216
 31
0.0
  0
INSERT
  8
0
  6
CONTINUOUS
  5
4B3
  2
GROUP_1
 10
0.0
 20
0.0
 30
0.0
  0
INSERT
  8
0
  6
CONTINUOUS
  5
4B4
  2
GROUP_2
 10
0.0
 20
0.0
 30
0.0
  0
INSERT
  8
0
  6
CONTINUOUS
  5
4B5
  2
GROUP_3
 10
0.0
 20
0.0
 30
0.0
  0
INSERT
  8
0
  6
CONTINUOUS
  5
4B6
  2
GROUP_4
 10
0.0
 20
0.0
 30
0.0
  0
INSERT
  8
0
  6
CONTINUOUS
  5
4B7
  2
GROUP_5
 10
0.0
 20
0.0
 30
0.0
  0
INSERT
  8
0
  6
CONTINUOUS
  5
4B8
  2
GROUP_6
 10
0.0
 20
0.0
 30
0.0
  0
INSERT
  8
0
  6
CONTINUOUS
  5
4B9
  2
GROUP_7
 10
0.0
 20
0.0
 30
0.0
  0
INSERT
  8
0
  6
CONTINUOUS
  5
4BA
  2
GROUP_8
 10
0.0
 20
0.0
 30
0.0
  0
LINE
  8
LAYER192
  6
CONTINUOUS
 62
               3
  5
4BB
 10
-68.253520777581457
 20
-476.41926572070219
 30
0.0
 11
-59.339745962155831
 21
-491.85837658824738
 31
0.0
  0
ARC
  8
LAYER192
  6
CONTINUOUS
 62
               3
  5
4BC
 10
-50.500000000000455
 20
-466.16926572070236
 30
0.0
 40
20.500000000000004
 50
179.99999999996513
 51
209.99999999995933
  0
LINE
  8
LAYER192
  6
CONTINUOUS
 62
               3
  5
4BD
 10
68.253520777580917
 20
-476.41926572070219
 30
0.0
 11
59.339745962155291
 21
-491.85837658824738
 31
0.0
  0
ARC
  8
LAYER192
  6
CONTINUOUS
 62
               3
  5
4BE
 10
50.499999999999915
 20
-466.16926572070236
 30
0.0
 40
20.500000000000004
 50
329.99999999993628
 51
359.99999999993037
  0
ARC
  8
LAYER192
  6
CONTINUOUS
 62
               3
  5
4BF
 10
67.999999999999631
 20
-496.85837658824738
 30
0.0
 40
10.0
 50
149.9999999999726
 51
174.09604415054125
  0
ARC
  8
LAYER192
  6
CONTINUOUS
 62
               3
  5
4C0
 10
-68.000000000000171
 20
-496.85837658824738
 30
0.0
 40
10.0
 50
5.9039558494236442
 51
29.999999999992458
  0
LINE
  8
LAYER192
  6
CONTINUOUS
 62
               3
  5
4C1
 10
-668.25352077758157
 20
-476.41926572070219
 30
0.0
 11
-659.33974596215592
 21
-491.85837658824738
 31
0.0
  0
ARC
  8
LAYER192
  6
CONTINUOUS
 62
               3
  5
4C2
 10
-650.50000000000057
 20
-466.16926572070241
 30
0.0
 40
20.500000000000004
 50
179.99999999996513
 51
209.99999999995924
  0
LINE
  8
LAYER192
  6
CONTINUOUS
 62
               3
  5
4C3
 10
-531.74647922241923
 20
-476.41926572070219
 30
0.0
 11
-540.66025403784477
 21
-491.85837658824738
 31
0.0
  0
ARC
  8
LAYER192
  6
CONTINUOUS
 62
               3
  5
4C4
 10
-549.50000000000023
 20
-466.16926572070241
 30
0.0
 40
20.500000000000004
 50
329.99999999993622
 51
359.99999999993037
  0
ARC
  8
LAYER192
  6
CONTINUOUS
 62
               3
  5
4C5
 10
-532.00000000000045
 20
-496.85837658824738
 30
0.0
 40
10.0
 50
149.99999999997263
 51
174.09604415054127
  0
ARC
  8
LAYER192
  6
CONTINUOUS
 62
               3
  5
4C6
 10
-668.00000000000034
 20
-496.85837658824738
 30
0.0
 40
10.0
 50
5.9039558494236442
 51
29.999999999992557
  0
LINE
  8
LAYER192
  6
CONTINUOUS
 62
               3
  5
4C7
 10
531.74647922241877
 20
-476.41926572070241
 30
0.0
 11
540.66025403784442
 21
-491.85837658824761
 31
0.0
  0
ARC
  8
LAYER192
  6
CONTINUOUS
 62
               3
  5
4C8
 10
549.49999999999977
 20
-466.16926572070264
 30
0.0
 40
20.500000000000004
 50
179.99999999996513
 51
209.99999999995924
  0
LINE
  8
LAYER192
  6
CONTINUOUS
 62
               3
  5
4C9
 10
668.25352077758112
 20
-476.41926572070241
 30
0.0
 11
659.33974596215546
 21
-491.85837658824761
 31
0.0
  0
ARC
  8
LAYER192
  6
CONTINUOUS
 62
               3
  5
4CA
 10
650.50000000000011
 20
-466.16926572070264
 30
0.0
 40
20.500000000000004
 50
329.99999999993622
 51
359.99999999993037
  0
ARC
  8
LAYER192
  6
CONTINUOUS
 62
               3
  5
4CB
 10
667.99999999999989
 20
-496.85837658824761
 30
0.0
 40
10.0
 50
149.99999999997263
 51
174.09604415054122
  0
ARC
  8
LAYER192
  6
CONTINUOUS
 62
               3
  5
4CC
 10
532.00000000000011
 20
-496.85837658824761
 30
0.0
 40
10.0
 50
5.9039558494236442
 51
29.999999999992557
  0
LINE
  8
LAYER192
  6
CONTINUOUS
 62
               3
  5
4CD
 10
-105.00000000000034
 20
60.118411068621839
 30
0.0
 11
-105.00000000000034
 21
48.117192722660121
 31
0.0
  0
LINE
  8
LAYER192
  6
CONTINUOUS
 62
               3
  5
4CE
 10
104.99999999999966
 20
60.118411068621839
 30
0.0
 11
104.99999999999966
 21
48.117192722660121
 31
0.0
  0
ARC
  8
LAYER192
  6
CONTINUOUS
 62
               3
  5
4CF
 10
-103.00000000000031
 20
60.118411068621839
 30
0.0
 40
2.0
 50
91.999999999981043
 51
179.99999999996518
  0
ARC
  8
LAYER192
  6
CONTINUOUS
 62
               3
  5
4D0
 10
102.99999999999977
 20
60.118411068621839
 30
0.0
 40
2.0
 50
0.0
 51
87.999999999983118
  0
LINE
  8
LAYER192
  6
CONTINUOUS
 62
               3
  5
4D1
 10
-105.00000000000034
 20
48.117192722660121
 30
0.0
 11
104.99999999999966
 21
48.117192722660121
 31
0.0
  0
LINE
  8
LAYER192
  6
CONTINUOUS
 62
               3
  5
4D2
 10
-103.06979899340524
 20
62.117192722659951
 30
0.0
 11
-86.031745930519946
 21
62.117192722659951
 31
0.0
  0
LINE
  8
LAYER192
  6
CONTINUOUS
 62
               3
  5
4D3
 10
-60.704684464042252
 20
62.117192722659951
 30
0.0
 11
69.531745930519634
 21
62.117192722659951
 31
0.0
  0
LINE
  8
LAYER192
  6
CONTINUOUS
 62
               3
  5
4D4
 10
94.85880739699725
 20
62.117192722659951
 30
0.0
 11
103.0697989934047
 21
62.117192722659951
 31
0.0
  0
LINE
  8
LAYER192
  6
CONTINUOUS
 62
               3
  5
4D5
 10
-705.00000000000045
 20
60.118411068621874
 30
0.0
 11
-705.00000000000045
 21
48.117192722660157
 31
0.0
  0
LINE
  8
LAYER192
  6
CONTINUOUS
 62
               3
  5
4D6
 10
-495.00000000000045
 20
60.118411068621874
 30
0.0
 11
-495.00000000000045
 21
48.117192722660157
 31
0.0
  0
ARC
  8
LAYER192
  6
CONTINUOUS
 62
               3
  5
4D7
 10
-703.00000000000045
 20
60.118411068621874
 30
0.0
 40
2.0
 50
91.999999999980631
 51
179.99999999996518
  0
ARC
  8
LAYER192
  6
CONTINUOUS
 62
               3
  5
4D8
 10
-497.00000000000034
 20
60.118411068621874
 30
0.0
 40
2.0
 50
0.0
 51
87.999999999983118
  0
LINE
  8
LAYER192
  6
CONTINUOUS
 62
               3
  5
4D9
 10
-705.00000000000045
 20
48.117192722660157
 30
0.0
 11
-495.00000000000045
 21
48.117192722660157
 31
0.0
  0
LINE
  8
LAYER192
  6
CONTINUOUS
 62
               3
  5
4DA
 10
-703.06979899340536
 20
62.117192722659986
 30
0.0
 11
-686.03174593052006
 21
62.117192722659986
 31
0.0
  0
LINE
  8
LAYER192
  6
CONTINUOUS
 62
               3
  5
4DB
 10
-660.70468446404232
 20
62.117192722659986
 30
0.0
 11
-530.46825406948051
 21
62.117192722659986
 31
0.0
  0
LINE
  8
LAYER192
  6
CONTINUOUS
 62
               3
  5
4DC
 10
-505.14119260300288
 20
62.117192722659986
 30
0.0
 11
-496.93020100659544
 21
62.117192722659986
 31
0.0
  0
LINE
  8
LAYER192
  6
CONTINUOUS
 62
               3
  5
4DD
 10
494.99999999999989
 20
60.118411068621555
 30
0.0
 11
494.99999999999989
 21
48.117192722659837
 31
0.0
  0
LINE
  8
LAYER192
  6
CONTINUOUS
 62
               3
  5
4DE
 10
704.99999999999989
 20
60.118411068621555
 30
0.0
 11
704.99999999999989
 21
48.117192722659837
 31
0.0
  0
ARC
  8
LAYER192
  6
CONTINUOUS
 62
               3
  5
4DF
 10
496.99999999999989
 20
60.118411068621555
 30
0.0
 40
2.0
 50
91.999999999980631
 51
179.99999999996518
  0
ARC
  8
LAYER192
  6
CONTINUOUS
 62
               3
  5
4E0
 10
703.0
 20
60.118411068621555
 30
0.0
 40
2.0
 50
0.0
 51
87.999999999983118
  0
LINE
  8
LAYER192
  6
CONTINUOUS
 62
               3
  5
4E1
 10
494.99999999999989
 20
48.117192722659837
 30
0.0
 11
704.99999999999989
 21
48.117192722659837
 31
0.0
  0
LINE
  8
LAYER192
  6
CONTINUOUS
 62
               3
  5
4E2
 10
496.93020100659498
 20
62.117192722659667
 30
0.0
 11
513.96825406948028
 21
62.117192722659667
 31
0.0
  0
LINE
  8
LAYER192
  6
CONTINUOUS
 62
               3
  5
4E3
 10
539.29531553595791
 20
62.117192722659667
 30
0.0
 11
669.53174593051983
 21
62.117192722659667
 31
0.0
  0
LINE
  8
LAYER192
  6
CONTINUOUS
 62
               3
  5
4E4
 10
694.85880739699746
 20
62.117192722659667
 30
0.0
 11
703.0697989934049
 21
62.117192722659667
 31
0.0
  0
POINT
  8
0
  6
CONTINUOUS
 62
               5
  5
4E5
 10
-392.13776905046905
 20
-1018.5310027585303
 30
0.0
  0
POINT
  8
0
  6
CONTINUOUS
 62
               5
  5
4E6
 10
-218.90769754050871
 20
-1019.8217968334193
 30
0.0
  0
POINT
  8
0
  6
CONTINUOUS
 62
               5
  5
4E7
 10
-565.36784056042927
 20
-1019.8217968334191
 30
0.0
  0
POINT
  8
0
  6
CONTINUOUS
 62
               5
  5
4E8
 10
-395.37452052112462
 20
-837.83304717953501
 30
0.0
  0
POINT
  8
0
  6
CONTINUOUS
 62
               5
  5
4E9
 10
493.01659472626784
 20
-1436.6367950102126
 30
0.0
  0
POINT
  8
0
  6
CONTINUOUS
 62
               5
  5
4EA
 10
493.01659472626795
 20
-959.55577311185016
 30
0.0
  0
CIRCLE
  8
0
  6
CONTINUOUS
 62
               7
  5
4EB
 10
-392.13776905046905
 20
-1025.0310027585303
 30
0.0
 40
38.0
  0
CIRCLE
  8
0
  6
CONTINUOUS
 62
               7
  5
4EC
 10
-392.13776905046905
 20
-1025.0310027585303
 30
0.0
 40
33.5
  0
LINE
  8
0
  6
CONTINUOUS
 62
               7
  5
4ED
 10
-247.63776905046905
 20
-974.03100275853035
 30
0.0
 11
-247.63776905046905
 21
-1063.0257666378559
 31
0.0
  0
LINE
  8
0
  6
CONTINUOUS
 62
               7
  5
4EE
 10
-247.03776905046902
 20
-974.03100275853035
 30
0.0
 11
-247.63776905046905
 21
-974.03100275853035
 31
0.0
  0
LINE
  8
0
  6
CONTINUOUS
 62
               7
  5
4EF
 10
-282.63776905046905
 20
-1062.0310027585303
 30
0.0
 11
-282.63776905046905
 21
-988.03100275853035
 31
0.0
  0
LINE
  8
0
  6
CONTINUOUS
 62
               7
  5
4F0
 10
-189.63776905046905
 20
-1062.0310027585303
 30
0.0
 11
-189.63776905046905
 21
-975.03100275853035
 31
0.0
  0
LINE
  8
0
  6
CONTINUOUS
 62
               7
  5
4F1
 10
-247.63776905046905
 20
-974.03100275853035
 30
0.0
 11
-190.63776905046905
 21
-974.03100275853035
 31
0.0
  0
LINE
  8
0
  6
CONTINUOUS
 62
               7
  5
4F2
 10
-281.63776905046905
 20
-1063.0310027585303
 30
0.0
 11
-190.63776905046905
 21
-1063.0310027585303
 31
0.0
  0
LINE
  8
0
  6
CONTINUOUS
 62
               7
  5
4F3
 10
-190.63776905046905
 20
-974.03100275853035
 30
0.0
 11
-189.63776905046905
 21
-975.03100275853035
 31
0.0
  0
LINE
  8
0
  6
CONTINUOUS
 62
               7
  5
4F4
 10
-189.63776905046905
 20
-1062.0310027585303
 30
0.0
 11
-190.63776905046905
 21
-1063.0310027585303
 31
0.0
  0
LINE
  8
0
  6
CONTINUOUS
 62
               7
  5
4F5
 10
-281.63776905046905
 20
-987.03100275853035
 30
0.0
 11
-247.63776905046905
 21
-987.03100275853035
 31
0.0
  0
CIRCLE
  8
0
  6
CONTINUOUS
 62
               7
  5
4F6
 10
-392.13776905046905
 20
-1018.5310027585303
 30
0.0
 40
44.5
  0
LINE
  8
0
  6
CONTINUOUS
 62
               7
  5
4F7
 10
-281.63776905046905
 20
-987.03100275853035
 30
0.0
 11
-282.63776905046905
 21
-988.03100275853035
 31
0.0
  0
LINE
  8
0
  6
CONTINUOUS
 62
               7
  5
4F8
 10
-282.63776905046905
 20
-1062.0310027585303
 30
0.0
 11
-281.63776905046905
 21
-1063.0310027585303
 31
0.0
  0
LINE
  8
0
  6
CONTINUOUS
 62
               7
  5
4F9
 10
-536.63776905046882
 20
-974.03100275853012
 30
0.0
 11
-536.63776905046905
 21
-1063.0257666378557
 31
0.0
  0
LINE
  8
0
  6
CONTINUOUS
 62
               7
  5
4FA
 10
-537.23776905046896
 20
-974.03100275853012
 30
0.0
 11
-536.63776905046882
 21
-974.03100275853012
 31
0.0
  0
LINE
  8
0
  6
CONTINUOUS
 62
               7
  5
4FB
 10
-501.6377690504691
 20
-1062.0310027585301
 30
0.0
 11
-501.63776905046888
 21
-988.03100275853012
 31
0.0
  0
LINE
  8
0
  6
CONTINUOUS
 62
               7
  5
4FC
 10
-594.63776905046905
 20
-1062.0310027585301
 30
0.0
 11
-594.63776905046882
 21
-975.03100275853012
 31
0.0
  0
LINE
  8
0
  6
CONTINUOUS
 62
               7
  5
4FD
 10
-536.63776905046882
 20
-974.03100275853012
 30
0.0
 11
-593.63776905046882
 21
-974.03100275853012
 31
0.0
  0
LINE
  8
0
  6
CONTINUOUS
 62
               7
  5
4FE
 10
-502.6377690504691
 20
-1063.0310027585301
 30
0.0
 11
-593.63776905046905
 21
-1063.0310027585301
 31
0.0
  0
LINE
  8
0
  6
CONTINUOUS
 62
               7
  5
4FF
 10
-593.63776905046882
 20
-974.03100275853012
 30
0.0
 11
-594.63776905046882
 21
-975.03100275853012
 31
0.0
  0
LINE
  8
0
  6
CONTINUOUS
 62
               7
  5
500
 10
-594.63776905046905
 20
-1062.0310027585301
 30
0.0
 11
-593.63776905046905
 21
-1063.0310027585301
 31
0.0
  0
LINE
  8
0
  6
CONTINUOUS
 62
               7
  5
501
 10
-502.63776905046888
 20
-987.03100275853012
 30
0.0
 11
-536.63776905046882
 21
-987.03100275853012
 31
0.0
  0
LINE
  8
0
  6
CONTINUOUS
 62
               7
  5
502
 10
-502.63776905046888
 20
-987.03100275853012
 30
0.0
 11
-501.63776905046888
 21
-988.03100275853012
 31
0.0
  0
LINE
  8
0
  6
CONTINUOUS
 62
               7
  5
503
 10
-501.6377690504691
 20
-1062.0310027585301
 30
0.0
 11
-502.6377690504691
 21
-1063.0310027585301
 31
0.0
  0
LINE
  8
0
  6
CONTINUOUS
 62
               7
  5
504
 10
-349.58372644623557
 20
-866.56311868949547
 30
0.0
 11
-438.57849032556112
 21
-866.56311868949524
 31
0.0
  0
LINE
  8
0
  6
CONTINUOUS
 62
               7
  5
505
 10
-349.58372644623557
 20
-865.96311868949533
 30
0.0
 11
-349.58372644623557
 21
-866.56311868949547
 31
0.0
  0
LINE
  8
0
  6
CONTINUOUS
 62
               7
  5
506
 10
-431.08372644623557
 20
-901.56311868949524
 30
0.0
 11
-357.08372644623557
 21
-901.56311868949547
 31
0.0
  0
LINE
  8
0
  6
CONTINUOUS
 62
               7
  5
507
 10
-437.58372644623546
 20
-808.56311868949524
 30
0.0
 11
-350.58372644623557
 21
-808.56311868949547
 31
0.0
  0
LINE
  8
0
  6
CONTINUOUS
 62
               7
  5
508
 10
-349.58372644623557
 20
-866.56311868949547
 30
0.0
 11
-349.58372644623557
 21
-809.56311868949547
 31
0.0
  0
LINE
  8
0
  6
CONTINUOUS
 62
               7
  5
509
 10
-432.08372644623557
 20
-900.56311868949524
 30
0.0
 11
-432.08372644623557
 21
-866.56311868949524
 31
0.0
  0
LINE
  8
0
  6
CONTINUOUS
 62
               7
  5
50A
 10
-349.58372644623557
 20
-809.56311868949547
 30
0.0
 11
-350.58372644623557
 21
-808.56311868949547
 31
0.0
  0
LINE
  8
0
  6
CONTINUOUS
 62
               7
  5
50B
 10
-437.58372644623546
 20
-808.56311868949524
 30
0.0
 11
-438.58372644623546
 21
-809.56311868949524
 31
0.0
  0
LINE
  8
0
  6
CONTINUOUS
 62
               7
  5
50C
 10
-356.08372644623557
 20
-900.56311868949547
 30
0.0
 11
-356.08372644623557
 21
-866.56311868949524
 31
0.0
  0
LINE
  8
0
  6
CONTINUOUS
 62
               7
  5
50D
 10
-356.08372644623557
 20
-900.56311868949547
 30
0.0
 11
-357.08372644623557
 21
-901.56311868949547
 31
0.0
  0
LINE
  8
0
  6
CONTINUOUS
 62
               7
  5
50E
 10
-431.08372644623557
 20
-901.56311868949524
 30
0.0
 11
-432.08372644623557
 21
-900.56311868949524
 31
0.0
  0
LINE
  8
0
  6
CONTINUOUS
 62
               7
  5
50F
 10
-438.58372644623557
 20
-866.56311868949524
 30
0.0
 11
-438.58372644623557
 21
-809.56311868949524
 31
0.0
  0
LINE
  8
0
  6
CONTINUOUS
 62
               7
  5
510
 10
216.63392368588063
 20
-1062.0310027585303
 30
0.0
 11
216.63392368588063
 21
-1004.0310027585303
 31
0.0
  0
LINE
  8
0
  6
CONTINUOUS
 62
               7
  5
511
 10
242.23392368588054
 20
-974.03100275853035
 30
0.0
 11
242.23392368588054
 21
-1063.0310027585303
 31
0.0
  0
LINE
  8
0
  6
CONTINUOUS
 62
               7
  5
512
 10
242.83392368588068
 20
-974.03100275853035
 30
0.0
 11
242.23392368588054
 21
-974.03100275853035
 31
0.0
  0
LINE
  8
0
  6
CONTINUOUS
 62
               7
  5
513
 10
300.23392368588077
 20
-1062.0310027585303
 30
0.0
 11
300.23392368588077
 21
-975.03100275853035
 31
0.0
  0
CIRCLE
  8
0
  6
CONTINUOUS
 62
               7
  5
514
 10
120.87790746063763
 20
-1033.0310027585303
 30
0.0
 40
30.0
  0
CIRCLE
  8
0
  6
CONTINUOUS
 62
               7
  5
515
 10
120.87790746063763
 20
-1033.0310027585303
 30
0.0
 40
25.5
  0
CIRCLE
  8
0
  6
CONTINUOUS
 62
               7
  5
516
 10
120.87790746063763
 20
-1018.5310027585303
 30
0.0
 40
44.5
  0
LINE
  8
0
  6
CONTINUOUS
 62
               7
  5
517
 10
242.36837543136096
 20
-974.03100275853035
 30
0.0
 11
299.23392368588077
 21
-974.03100275853035
 31
0.0
  0
LINE
  8
0
  6
CONTINUOUS
 62
               7
  5
518
 10
217.63392368588063
 20
-1063.0310027585303
 30
0.0
 11
299.23392368588077
 21
-1063.0310027585303
 31
0.0
  0
LINE
  8
0
  6
CONTINUOUS
 62
               7
  5
519
 10
217.63392368588063
 20
-1003.0310027585303
 30
0.0
 11
242.23392368588054
 21
-1003.0310027585303
 31
0.0
  0
LINE
  8
0
  6
CONTINUOUS
 62
               7
  5
51A
 10
217.63392368588063
 20
-1003.0310027585303
 30
0.0
 11
216.63392368588063
 21
-1004.0310027585303
 31
0.0
  0
LINE
  8
0
  6
CONTINUOUS
 62
               7
  5
51B
 10
299.23392368588077
 20
-974.03100275853035
 30
0.0
 11
300.23392368588077
 21
-975.03100275853035
 31
0.0
  0
LINE
  8
0
  6
CONTINUOUS
 62
               7
  5
51C
 10
216.63392368588063
 20
-1062.0310027585303
 30
0.0
 11
217.63392368588063
 21
-1063.0310027585303
 31
0.0
  0
LINE
  8
0
  6
CONTINUOUS
 62
               7
  5
51D
 10
300.23392368588077
 20
-1062.0310027585303
 30
0.0
 11
299.23392368588077
 21
-1063.0310027585303
 31
0.0
  0
LINE
  8
0
  6
CONTINUOUS
 62
               7
  5
51E
 10
25.121891235394848
 20
-1062.0310027585303
 30
0.0
 11
25.121891235394848
 21
-1004.0310027585303
 31
0.0
  0
LINE
  8
0
  6
CONTINUOUS
 62
               7
  5
51F
 10
-0.4781087646051736
 20
-974.03100275853035
 30
0.0
 11
-0.4781087646051736
 21
-1063.0310027585303
 31
0.0
  0
LINE
  8
0
  6
CONTINUOUS
 62
               7
  5
520
 10
-1.0781087646051963
 20
-974.03100275853035
 30
0.0
 11
-0.4781087646051736
 21
-974.03100275853035
 31
0.0
  0
LINE
  8
0
  6
CONTINUOUS
 62
               7
  5
521
 10
-58.478108764605174
 20
-1062.0310027585303
 30
0.0
 11
-58.478108764605174
 21
-975.03100275853035
 31
0.0
  0
LINE
  8
0
  6
CONTINUOUS
 62
               7
  5
522
 10
-0.612560510085479
 20
-974.03100275853035
 30
0.0
 11
-57.478108764605174
 21
-974.03100275853035
 31
0.0
  0
LINE
  8
0
  6
CONTINUOUS
 62
               7
  5
523
 10
24.121891235394848
 20
-1063.0310027585303
 30
0.0
 11
-57.478108764605174
 21
-1063.0310027585303
 31
0.0
  0
LINE
  8
0
  6
CONTINUOUS
 62
               7
  5
524
 10
24.121891235394848
 20
-1003.0310027585303
 30
0.0
 11
-0.4781087646051736
 21
-1003.0310027585303
 31
0.0
  0
LINE
  8
0
  6
CONTINUOUS
 62
               7
  5
525
 10
24.121891235394848
 20
-1003.0310027585303
 30
0.0
 11
25.121891235394848
 21
-1004.0310027585303
 31
0.0
  0
LINE
  8
0
  6
CONTINUOUS
 62
               7
  5
526
 10
-57.478108764605174
 20
-974.03100275853035
 30
0.0
 11
-58.478108764605174
 21
-975.03100275853035
 31
0.0
  0
LINE
  8
0
  6
CONTINUOUS
 62
               7
  5
527
 10
25.121891235394848
 20
-1062.0310027585303
 30
0.0
 11
24.121891235394848
 21
-1063.0310027585303
 31
0.0
  0
LINE
  8
0
  6
CONTINUOUS
 62
               7
  5
528
 10
-58.478108764605174
 20
-1062.0310027585303
 30
0.0
 11
-57.478108764605174
 21
-1063.0310027585303
 31
0.0
  0
LINE
  8
0
  6
CONTINUOUS
 62
               7
  5
529
 10
91.877907460637857
 20
-912.27498653328757
 30
0.0
 11
149.87790746063786
 21
-912.27498653328757
 31
0.0
  0
LINE
  8
0
  6
CONTINUOUS
 62
               7
  5
52A
 10
165.37790746063786
 20
-886.67498653328744
 30
0.0
 11
76.377907460637857
 21
-886.67498653328744
 31
0.0
  0
LINE
  8
0
  6
CONTINUOUS
 62
               7
  5
52B
 10
165.37790746063786
 20
-886.07498653328753
 30
0.0
 11
165.37790746063786
 21
-886.67498653328744
 31
0.0
  0
LINE
  8
0
  6
CONTINUOUS
 62
               7
  5
52C
 10
77.377907460637857
 20
-828.67498653328744
 30
0.0
 11
164.37790746063786
 21
-828.67498653328744
 31
0.0
  0
LINE
  8
0
  6
CONTINUOUS
 62
               7
  5
52D
 10
165.37790746063786
 20
-886.54053478780725
 30
0.0
 11
165.37790746063786
 21
-829.67498653328744
 31
0.0
  0
LINE
  8
0
  6
CONTINUOUS
 62
               7
  5
52E
 10
90.877907460637857
 20
-911.27498653328757
 30
0.0
 11
90.877907460637857
 21
-886.67498653328744
 31
0.0
  0
LINE
  8
0
  6
CONTINUOUS
 62
               7
  5
52F
 10
150.87790746063786
 20
-911.27498653328757
 30
0.0
 11
150.87790746063786
 21
-886.67498653328744
 31
0.0
  0
LINE
  8
0
  6
CONTINUOUS
 62
               7
  5
530
 10
150.87790746063786
 20
-911.27498653328757
 30
0.0
 11
149.87790746063786
 21
-912.27498653328757
 31
0.0
  0
LINE
  8
0
  6
CONTINUOUS
 62
               7
  5
531
 10
165.37790746063786
 20
-829.67498653328744
 30
0.0
 11
164.37790746063786
 21
-828.67498653328744
 31
0.0
  0
LINE
  8
0
  6
CONTINUOUS
 62
               7
  5
532
 10
91.877907460637857
 20
-912.27498653328757
 30
0.0
 11
90.877907460637857
 21
-911.27498653328757
 31
0.0
  0
LINE
  8
0
  6
CONTINUOUS
 62
               7
  5
533
 10
77.377907460637857
 20
-828.67498653328744
 30
0.0
 11
76.377907460637857
 21
-829.67498653328744
 31
0.0
  0
LINE
  8
0
  6
CONTINUOUS
 62
               7
  5
534
 10
76.377907460637857
 20
-886.54053478780702
 30
0.0
 11
76.377907460637857
 21
-829.67498653328744
 31
0.0
  0
CIRCLE
  8
0
  6
CONTINUOUS
 62
               7
  5
535
 10
609.2865232163075
 20
-1449.8460009353239
 30
0.0
 40
25.5
  0
CIRCLE
  8
0
  6
CONTINUOUS
 62
               7
  5
536
 10
609.2865232163075
 20
-1435.3460009353239
 30
0.0
 40
44.5
  0
CIRCLE
  8
0
  6
CONTINUOUS
 62
               7
  5
537
 10
609.2865232163075
 20
-1449.8460009353239
 30
0.0
 40
30.0
  0
LINE
  8
0
  6
CONTINUOUS
 62
               7
  5
538
 10
580.2865232163075
 20
-1131.4465671867392
 30
0.0
 11
638.2865232163075
 21
-1131.4465671867392
 31
0.0
  0
LINE
  8
0
  6
CONTINUOUS
 62
               7
  5
539
 10
653.7865232163075
 20
-1105.8465671867393
 30
0.0
 11
564.7865232163075
 21
-1105.8465671867393
 31
0.0
  0
LINE
  8
0
  6
CONTINUOUS
 62
               7
  5
53A
 10
653.7865232163075
 20
-1105.2465671867394
 30
0.0
 11
653.7865232163075
 21
-1105.8465671867393
 31
0.0
  0
LINE
  8
0
  6
CONTINUOUS
 62
               7
  5
53B
 10
565.7865232163075
 20
-1047.8465671867393
 30
0.0
 11
652.7865232163075
 21
-1047.8465671867393
 31
0.0
  0
LINE
  8
0
  6
CONTINUOUS
 62
               7
  5
53C
 10
653.7865232163075
 20
-1105.7121154412589
 30
0.0
 11
653.7865232163075
 21
-1048.8465671867393
 31
0.0
  0
LINE
  8
0
  6
CONTINUOUS
 62
               7
  5
53D
 10
579.2865232163075
 20
-1130.4465671867392
 30
0.0
 11
579.2865232163075
 21
-1105.8465671867393
 31
0.0
  0
LINE
  8
0
  6
CONTINUOUS
 62
               7
  5
53E
 10
639.2865232163075
 20
-1130.4465671867392
 30
0.0
 11
639.2865232163075
 21
-1105.8465671867393
 31
0.0
  0
LINE
  8
0
  6
CONTINUOUS
 62
               7
  5
53F
 10
639.2865232163075
 20
-1130.4465671867392
 30
0.0
 11
638.2865232163075
 21
-1131.4465671867392
 31
0.0
  0
LINE
  8
0
  6
CONTINUOUS
 62
               7
  5
540
 10
653.7865232163075
 20
-1048.8465671867393
 30
0.0
 11
652.7865232163075
 21
-1047.8465671867393
 31
0.0
  0
LINE
  8
0
  6
CONTINUOUS
 62
               7
  5
541
 10
580.2865232163075
 20
-1131.4465671867392
 30
0.0
 11
579.2865232163075
 21
-1130.4465671867392
 31
0.0
  0
LINE
  8
0
  6
CONTINUOUS
 62
               7
  5
542
 10
565.7865232163075
 20
-1047.8465671867393
 30
0.0
 11
564.7865232163075
 21
-1048.8465671867393
 31
0.0
  0
LINE
  8
0
  6
CONTINUOUS
 62
               7
  5
543
 10
564.7865232163075
 20
-1105.7121154412589
 30
0.0
 11
564.7865232163075
 21
-1048.8465671867393
 31
0.0
  0
LINE
  8
0
  6
CONTINUOUS
 62
               7
  5
544
 10
464.2865232163075
 20
-1390.8460009353239
 30
0.0
 11
464.2865232163075
 21
-1479.8407648146494
 31
0.0
  0
LINE
  8
0
  6
CONTINUOUS
 62
               7
  5
545
 10
464.88652321630752
 20
-1390.8460009353239
 30
0.0
 11
464.2865232163075
 21
-1390.8460009353239
 31
0.0
  0
LINE
  8
0
  6
CONTINUOUS
 62
               7
  5
546
 10
429.2865232163075
 20
-1478.8460009353239
 30
0.0
 11
429.2865232163075
 21
-1404.8460009353239
 31
0.0
  0
LINE
  8
0
  6
CONTINUOUS
 62
               7
  5
547
 10
522.2865232163075
 20
-1478.8460009353239
 30
0.0
 11
522.2865232163075
 21
-1391.8460009353239
 31
0.0
  0
LINE
  8
0
  6
CONTINUOUS
 62
               7
  5
548
 10
464.2865232163075
 20
-1390.8460009353239
 30
0.0
 11
521.2865232163075
 21
-1390.8460009353239
 31
0.0
  0
LINE
  8
0
  6
CONTINUOUS
 62
               7
  5
549
 10
430.2865232163075
 20
-1479.8460009353239
 30
0.0
 11
521.2865232163075
 21
-1479.8460009353239
 31
0.0
  0
LINE
  8
0
  6
CONTINUOUS
 62
               7
  5
54A
 10
521.2865232163075
 20
-1390.8460009353239
 30
0.0
 11
522.2865232163075
 21
-1391.8460009353239
 31
0.0
  0
LINE
  8
0
  6
CONTINUOUS
 62
               7
  5
54B
 10
522.2865232163075
 20
-1478.8460009353239
 30
0.0
 11
521.2865232163075
 21
-1479.8460009353239
 31
0.0
  0
LINE
  8
0
  6
CONTINUOUS
 62
               7
  5
54C
 10
430.2865232163075
 20
-1403.8460009353239
 30
0.0
 11
464.2865232163075
 21
-1403.8460009353239
 31
0.0
  0
LINE
  8
0
  6
CONTINUOUS
 62
               7
  5
54D
 10
430.2865232163075
 20
-1403.8460009353239
 30
0.0
 11
429.2865232163075
 21
-1404.8460009353239
 31
0.0
  0
LINE
  8
0
  6
CONTINUOUS
 62
               7
  5
54E
 10
429.2865232163075
 20
-1478.8460009353239
 30
0.0
 11
430.2865232163075
 21
-1479.8460009353239
 31
0.0
  0
LINE
  8
0
  6
CONTINUOUS
 62
               7
  5
54F
 10
464.2865232163075
 20
-1005.3465671867391
 30
0.0
 11
464.28652321630773
 21
-916.35180330741355
 31
0.0
  0
LINE
  8
0
  6
CONTINUOUS
 62
               7
  5
550
 10
464.88652321630764
 20
-1005.3465671867391
 30
0.0
 11
464.2865232163075
 21
-1005.3465671867391
 31
0.0
  0
LINE
  8
0
  6
CONTINUOUS
 62
               7
  5
551
 10
429.28652321630773
 20
-923.84656718673909
 30
0.0
 11
429.2865232163075
 21
-997.84656718673909
 31
0.0
  0
LINE
  8
0
  6
CONTINUOUS
 62
               7
  5
552
 10
522.28652321630773
 20
-917.34656718673932
 30
0.0
 11
522.2865232163075
 21
-1004.3465671867391
 31
0.0
  0
LINE
  8
0
  6
CONTINUOUS
 62
               7
  5
553
 10
464.2865232163075
 20
-1005.3465671867391
 30
0.0
 11
521.2865232163075
 21
-1005.3465671867391
 31
0.0
  0
LINE
  8
0
  6
CONTINUOUS
 62
               7
  5
554
 10
430.28652321630773
 20
-922.84656718673909
 30
0.0
 11
464.28652321630773
 21
-922.84656718673909
 31
0.0
  0
LINE
  8
0
  6
CONTINUOUS
 62
               7
  5
555
 10
521.2865232163075
 20
-1005.3465671867391
 30
0.0
 11
522.2865232163075
 21
-1004.3465671867391
 31
0.0
  0
LINE
  8
0
  6
CONTINUOUS
 62
               7
  5
556
 10
522.28652321630773
 20
-917.34656718673932
 30
0.0
 11
521.28652321630773
 21
-916.34656718673932
 31
0.0
  0
LINE
  8
0
  6
CONTINUOUS
 62
               7
  5
557
 10
430.2865232163075
 20
-998.84656718673909
 30
0.0
 11
464.28652321630773
 21
-998.84656718673909
 31
0.0
  0
LINE
  8
0
  6
CONTINUOUS
 62
               7
  5
558
 10
430.2865232163075
 20
-998.84656718673909
 30
0.0
 11
429.2865232163075
 21
-997.84656718673909
 31
0.0
  0
LINE
  8
0
  6
CONTINUOUS
 62
               7
  5
559
 10
429.28652321630773
 20
-923.84656718673909
 30
0.0
 11
430.28652321630773
 21
-922.84656718673909
 31
0.0
  0
LINE
  8
0
  6
CONTINUOUS
 62
               7
  5
55A
 10
464.28652321630773
 20
-916.34656718673909
 30
0.0
 11
521.28652321630773
 21
-916.34656718673909
 31
0.0
  0
CIRCLE
  8
0
  6
DASHED
 62
               7
  5
55B
 10
-392.13776905046905
 20
-1018.5310027585303
 30
0.0
 40
40.0
  0
CIRCLE
  8
0
  6
DASHED
 62
               7
  5
55C
 10
120.87790746063763
 20
-1018.5310027585303
 30
0.0
 40
40.0
  0
CIRCLE
  8
0
  6
DASHED
 62
               7
  5
55D
 10
609.2865232163075
 20
-1435.3460009353239
 30
0.0
 40
40.0
  0
TEXT
  8
0
 62
               3
  5
55E
 10
-392.13776905046905
 20
-1103.0310027585301
 30
0.0
 40
40.0
  1
EMB_80×65
 41
0.8
 72
               1
 11
-392.13776905046905
 21
-1103.0310027585301
 31
0.0
 73
               3
  0
TEXT
  8
0
 62
               3
  5
55F
 10
120.87790746063763
 20
-1103.0310027585306
 30
0.0
 40
40.0
  1
EMB_80×50
 41
0.8
 72
               1
 11
120.87790746063763
 21
-1103.0310027585306
 31
0.0
 73
               3
  0
TEXT
  8
0
 62
               3
  5
560
 10
605.58911923866719
 20
-781.40019868152001
 30
0.0
 40
40.0
  1
EMB使用例
 41
0.8
 72
               1
 11
605.58911923866719
 21
-781.40019868152001
 31
0.0
 73
               3
  0
TEXT
  8
0
 62
               3
  5
561
 10
-123.74270409089124
 20
-727.0400627811805
 30
0.0
 40
35.0
  1
横枝管に呼び６５、５０の管を接続するときは、EMBをご使用ください。
 41
0.8
 72
               1
 11
-123.74270409089124
 21
-727.0400627811805
 31
0.0
 73
               3
  0
ENDSEC
  0
EOF
