  0
SECTION
  2
HEADER
  9
$ACADVER
  1
AC1009
  9
$INSBASE
 10
0.0
 20
0.0
 30
0.0
  9
$EXTMIN
 10
-776.55235578625548
 20
-479.18783008333395
 30
0.0
  9
$EXTMAX
 10
700.33896326918534
 20
1116.1414035864786
 30
0.0
  9
$LIMMIN
 10
-822.70520950673802
 20
-529.04186863551558
  9
$LIMMAX
 10
746.49181698966788
 20
1165.9954421386603
  9
$ORTHOMODE
 70
               0
  9
$REGENMODE
 70
               1
  9
$FILLMODE
 70
               1
  9
$QTEXTMODE
 70
               0
  9
$MIRRTEXT
 70
               1
  9
$DRAGMODE
 70
               2
  9
$LTSCALE
 40
1.0
  9
$OSMODE
 70
               0
  9
$ATTMODE
 70
               1
  9
$TEXTSIZE
 40
0.2
  9
$TRACEWID
 40
0.05
  9
$TEXTSTYLE
  7
STANDARD
  9
$CLAYER
  8
0
  9
$CELTYPE
  6
CONTINUOUS
  9
$CECOLOR
 62
             256
  9
$DIMSCALE
 40
1.0
  9
$DIMASZ
 40
0.18
  9
$DIMEXO
 40
0.0625
  9
$DIMDLI
 40
0.38
  9
$DIMRND
 40
0.0
  9
$DIMDLE
 40
0.0
  9
$DIMEXE
 40
0.18
  9
$DIMTP
 40
0.0
  9
$DIMTM
 40
0.0
  9
$DIMTXT
 40
0.18
  9
$DIMCEN
 40
0.09
  9
$DIMTSZ
 40
0.0
  9
$DIMTOL
 70
               0
  9
$DIMLIM
 70
               0
  9
$DIMTIH
 70
               1
  9
$DIMTOH
 70
               1
  9
$DIMSE1
 70
               0
  9
$DIMSE2
 70
               0
  9
$DIMTAD
 70
               0
  9
$DIMZIN
 70
               0
  9
$DIMBLK
  1

  9
$DIMASO
 70
               1
  9
$DIMSHO
 70
               1
  9
$DIMPOST
  1

  9
$DIMAPOST
  1

  9
$DIMALT
 70
               0
  9
$DIMALTD
 70
               2
  9
$DIMALTF
 40
25.399999999999999
  9
$DIMLFAC
 40
1.0
  9
$DIMTOFL
 70
               0
  9
$DIMTVP
 40
0.0
  9
$DIMTIX
 70
               0
  9
$DIMSOXD
 70
               0
  9
$DIMSAH
 70
               0
  9
$DIMBLK1
  1

  9
$DIMBLK2
  1

  9
$DIMSTYLE
  2
STANDARD
  9
$DIMCLRD
 70
               0
  9
$DIMCLRE
 70
               0
  9
$DIMCLRT
 70
               0
  9
$DIMTFAC
 40
1.0
  9
$DIMGAP
 40
0.09
  9
$LUNITS
 70
               2
  9
$LUPREC
 70
               4
  9
$AXISMODE
 70
               0
  9
$AXISUNIT
 10
0.0
 20
0.0
  9
$SKETCHINC
 40
0.1
  9
$FILLETRAD
 40
0.0
  9
$AUNITS
 70
               0
  9
$AUPREC
 70
               0
  9
$MENU
  1
acad
  9
$ELEVATION
 40
0.0
  9
$PELEVATION
 40
0.0
  9
$THICKNESS
 40
0.0
  9
$LIMCHECK
 70
               0
  9
$BLIPMODE
 70
               1
  9
$CHAMFERA
 40
0.0
  9
$CHAMFERB
 40
0.0
  9
$SKPOLY
 70
               0
  9
$TDCREATE
 40
0.000000000
  9
$TDUPDATE
 40
0.000000000
  9
$TDINDWG
 40
0.0000000000
  9
$TDUSRTIMER
 40
0.0000000000
  9
$USRTIMER
 70
               1
  9
$ANGBASE
 50
0.0
  9
$ANGDIR
 70
               0
  9
$PDMODE
 70
               0
  9
$PDSIZE
 40
1.0
  9
$PLINEWID
 40
0.0
  9
$COORDS
 70
               1
  9
$SPLFRAME
 70
               0
  9
$SPLINETYPE
 70
               6
  9
$SPLINESEGS
 70
               8
  9
$ATTDIA
 70
               0
  9
$ATTREQ
 70
               1
  9
$HANDLING
 70
               1
  9
$HANDSEED
  5
44A
  9
$SURFTAB1
 70
               6
  9
$SURFTAB2
 70
               6
  9
$SURFTYPE
 70
               6
  9
$SURFU
 70
               6
  9
$SURFV
 70
               6
  9
$UCSNAME
  2

  9
$UCSORG
 10
0.0
 20
0.0
 30
0.0
  9
$UCSXDIR
 10
1.0
 20
0.0
 30
0.0
  9
$UCSYDIR
 10
0.0
 20
1.0
 30
0.0
  9
$PUCSNAME
  2

  9
$PUCSORG
 10
0.0
 20
0.0
 30
0.0
  9
$PUCSXDIR
 10
1.0
 20
0.0
 30
0.0
  9
$PUCSYDIR
 10
0.0
 20
1.0
 30
0.0
  9
$USERI1
 70
               0
  9
$USERI2
 70
               0
  9
$USERI3
 70
               0
  9
$USERI4
 70
               0
  9
$USERI5
 70
               0
  9
$USERR1
 40
0.0
  9
$USERR2
 40
0.0
  9
$USERR3
 40
0.0
  9
$USERR4
 40
0.0
  9
$USERR5
 40
0.0
  9
$WORLDVIEW
 70
               1
  9
$SHADEDGE
 70
               3
  9
$SHADEDIF
 70
              70
  9
$TILEMODE
 70
               1
  9
$MAXACTVP
 70
              16
  9
$PINSBASE
 10
0.0
 20
0.0
 30
0.0
  9
$PLIMCHECK
 70
               0
  9
$PEXTMIN
 10
1.0000000000000000E+20
 20
1.0000000000000000E+20
 30
1.0000000000000000E+20
  9
$PEXTMAX
 10
-1.0000000000000000E+20
 20
-1.0000000000000000E+20
 30
-1.0000000000000000E+20
  9
$PLIMMIN
 10
0.0
 20
0.0
  9
$PLIMMAX
 10
12.0
 20
9.0
  9
$UNITMODE
 70
               0
  9
$VISRETAIN
 70
               0
  9
$PLINEGEN
 70
               1
  9
$PSLTSCALE
 70
               0
  9
$TREEDEPTH
 70
            3020
  9
$DWGCODEPAGE
  3
dos932
  0
ENDSEC
  0
SECTION
  2
TABLES
  0
TABLE
  2
VPORT
 70
               1
  0
VPORT
  2
*ACTIVE
 70
               0
 10
0.0
 20
0.0
 11
1.0
 21
1.0
 12
-38.106696258535067
 22
318.47678675157238
 13
0.0
 23
0.0
 14
1.0
 24
1.0
 15
0.0
 25
0.0
 16
0.0
 26
0.0
 36
1.0
 17
0.0
 27
0.0
 37
0.0
 40
1695.0373107741759
 41
0.9257595785780698
 42
50.0
 43
0.0
 44
0.0
 50
0.0
 51
0.0
 71
               0
 72
             100
 73
               1
 74
               1
 75
               0
 76
               0
 77
               0
 78
               0
  0
ENDTAB
  0
TABLE
  2
LTYPE
 70
              26
  0
LTYPE
  2
CONTINUOUS
 70
               0
  3
Solid line
 72
              65
 73
               0
 40
0.0
  0
LTYPE
  2
HIDDENX2
 70
               0
  3
CADPAC FUSION LINETYPE
 72
              65
 73
               2
 40
47.560000000000002
 49
35.670000000000002
 49
-11.890000000000001
  0
LTYPE
  2
HIDDEN
 70
               0
  3
CADPAC FUSION LINETYPE
 72
              65
 73
               2
 40
35.670000000000002
 49
23.780000000000001
 49
-11.890000000000001
  0
LTYPE
  2
HIDDEN2
 70
               0
  3
CADPAC FUSION LINETYPE
 72
              65
 73
               2
 40
29.725000000000001
 49
17.835000000000001
 49
-11.890000000000001
  0
LTYPE
  2
DASHED
 70
               0
  3
CADPAC FUSION LINETYPE
 72
              65
 73
               2
 40
35.670000000000002
 49
23.780000000000001
 49
-11.890000000000001
  0
LTYPE
  2
DASHED2
 70
               0
  3
CADPAC FUSION LINETYPE
 72
              65
 73
               2
 40
26.752500000000001
 49
17.835000000000001
 49
-8.9175000000000004
  0
LTYPE
  2
DASHEDX2
 70
               0
  3
CADPAC FUSION LINETYPE
 72
              65
 73
               2
 40
53.505000000000003
 49
35.670000000000002
 49
-17.835000000000001
  0
LTYPE
  2
DOTX2
 70
               0
  3
CADPAC FUSION LINETYPE
 72
              65
 73
               2
 40
14.862500000000001
 49
0.0
 49
-14.862500000000001
  0
LTYPE
  2
DOT
 70
               0
  3
CADPAC FUSION LINETYPE
 72
              65
 73
               2
 40
11.890000000000001
 49
0.0
 49
-11.890000000000001
  0
LTYPE
  2
DOTS
 70
               0
  3
CADPAC FUSION LINETYPE
 72
              65
 73
               2
 40
11.890000000000001
 49
0.0
 49
-11.890000000000001
  0
LTYPE
  2
DOT2
 70
               0
  3
CADPAC FUSION LINETYPE
 72
              65
 73
               2
 40
8.9175000000000004
 49
0.0
 49
-8.9175000000000004
  0
LTYPE
  2
CENTERX2
 70
               0
  3
CADPAC FUSION LINETYPE
 72
              65
 73
               4
 40
71.340000000000003
 49
29.725000000000001
 49
-14.862500000000001
 49
11.890000000000001
 49
-14.862500000000001
  0
LTYPE
  2
CENTER
 70
               0
  3
CADPAC FUSION LINETYPE
 72
              65
 73
               4
 40
54.694000000000003
 49
23.780000000000001
 49
-11.890000000000001
 49
7.1340000000000003
 49
-11.890000000000001
  0
LTYPE
  2
CENTER2
 70
               0
  3
CADPAC FUSION LINETYPE
 72
              65
 73
               4
 40
38.048000000000002
 49
17.835000000000001
 49
-8.9175000000000004
 49
2.3780000000000001
 49
-8.9175000000000004
  0
LTYPE
  2
DASHDOTX2
 70
               0
  3
CADPAC FUSION LINETYPE
 72
              65
 73
               4
 40
59.450000000000003
 49
29.725000000000001
 49
-14.862500000000001
 49
0.0
 49
-14.862500000000001
  0
LTYPE
  2
DASHDOT
 70
               0
  3
CADPAC FUSION LINETYPE
 72
              65
 73
               4
 40
47.560000000000002
 49
23.780000000000001
 49
-11.890000000000001
 49
0.0
 49
-11.890000000000001
  0
LTYPE
  2
DASHDOT2
 70
               0
  3
CADPAC FUSION LINETYPE
 72
              65
 73
               4
 40
35.670000000000002
 49
17.835000000000001
 49
-8.9175000000000004
 49
0.0
 49
-8.9175000000000004
  0
LTYPE
  2
DIVIDEX2
 70
               0
  3
CADPAC FUSION LINETYPE
 72
              65
 73
               6
 40
74.3125
 49
29.725000000000001
 49
-14.862500000000001
 49
0.0
 49
-14.862500000000001
 49
0.0
 49
-14.862500000000001
  0
LTYPE
  2
DIVIDE
 70
               0
  3
CADPAC FUSION LINETYPE
 72
              65
 73
               6
 40
59.450000000000003
 49
23.780000000000001
 49
-11.890000000000001
 49
0.0
 49
-11.890000000000001
 49
0.0
 49
-11.890000000000001
  0
LTYPE
  2
DIVIDE2
 70
               0
  3
CADPAC FUSION LINETYPE
 72
              65
 73
               6
 40
44.587500000000006
 49
17.835000000000001
 49
-8.9175000000000004
 49
0.0
 49
-8.9175000000000004
 49
0.0
 49
-8.9175000000000004
  0
LTYPE
  2
BORDERX2
 70
               0
  3
CADPAC FUSION LINETYPE
 72
              65
 73
               6
 40
104.03750000000001
 49
29.725000000000001
 49
-14.862500000000001
 49
29.725000000000001
 49
-14.862500000000001
 49
0.0
 49
-14.862500000000001
  0
LTYPE
  2
BORDER
 70
               0
  3
CADPAC FUSION LINETYPE
 72
              65
 73
               6
 40
83.230000000000004
 49
23.780000000000001
 49
-11.890000000000001
 49
23.780000000000001
 49
-11.890000000000001
 49
0.0
 49
-11.890000000000001
  0
LTYPE
  2
BORDER2
 70
               0
  3
CADPAC FUSION LINETYPE
 72
              65
 73
               6
 40
62.422499999999999
 49
17.835000000000001
 49
-8.9175000000000004
 49
17.835000000000001
 49
-8.9175000000000004
 49
0.0
 49
-8.9175000000000004
  0
LTYPE
  2
PHANTOMX2
 70
               0
  3
CADPAC FUSION LINETYPE
 72
              65
 73
               6
 40
89.175000000000011
 49
29.725000000000001
 49
-11.890000000000001
 49
11.890000000000001
 49
-11.890000000000001
 49
11.890000000000001
 49
-11.890000000000001
  0
LTYPE
  2
PHANTOM
 70
               0
  3
CADPAC FUSION LINETYPE
 72
              65
 73
               6
 40
73.718000000000004
 49
23.780000000000001
 49
-11.890000000000001
 49
7.1340000000000003
 49
-11.890000000000001
 49
7.1340000000000003
 49
-11.890000000000001
  0
LTYPE
  2
PHANTOM2
 70
               0
  3
CADPAC FUSION LINETYPE
 72
              65
 73
               6
 40
63.017000000000003
 49
17.835000000000001
 49
-11.890000000000001
 49
4.7560000000000002
 49
-11.890000000000001
 49
4.7560000000000002
 49
-11.890000000000001
  0
ENDTAB
  0
TABLE
  2
LAYER
 70
             256
  0
LAYER
  2
0
 70
               0
 62
               7
  6
CONTINUOUS
  0
LAYER
  2
LAYER001
 70
               0
 62
               7
  6
CONTINUOUS
  0
LAYER
  2
LAYER002
 70
               0
 62
               7
  6
CONTINUOUS
  0
LAYER
  2
LAYER003
 70
               0
 62
               7
  6
CONTINUOUS
  0
LAYER
  2
LAYER004
 70
               0
 62
               7
  6
CONTINUOUS
  0
LAYER
  2
LAYER005
 70
               0
 62
               7
  6
CONTINUOUS
  0
LAYER
  2
LAYER006
 70
               0
 62
               7
  6
CONTINUOUS
  0
LAYER
  2
LAYER007
 70
               0
 62
               7
  6
CONTINUOUS
  0
LAYER
  2
LAYER008
 70
               0
 62
               7
  6
CONTINUOUS
  0
LAYER
  2
LAYER009
 70
               0
 62
               7
  6
CONTINUOUS
  0
LAYER
  2
LAYER010
 70
               0
 62
               7
  6
CONTINUOUS
  0
LAYER
  2
LAYER011
 70
               0
 62
               7
  6
CONTINUOUS
  0
LAYER
  2
LAYER012
 70
               0
 62
               7
  6
CONTINUOUS
  0
LAYER
  2
LAYER013
 70
               0
 62
               7
  6
CONTINUOUS
  0
LAYER
  2
LAYER014
 70
               0
 62
               7
  6
CONTINUOUS
  0
LAYER
  2
LAYER015
 70
               0
 62
               7
  6
CONTINUOUS
  0
LAYER
  2
LAYER016
 70
               0
 62
               7
  6
CONTINUOUS
  0
LAYER
  2
LAYER017
 70
               0
 62
               7
  6
CONTINUOUS
  0
LAYER
  2
LAYER018
 70
               0
 62
               7
  6
CONTINUOUS
  0
LAYER
  2
LAYER019
 70
               0
 62
               7
  6
CONTINUOUS
  0
LAYER
  2
LAYER020
 70
               0
 62
               7
  6
CONTINUOUS
  0
LAYER
  2
LAYER021
 70
               0
 62
               7
  6
CONTINUOUS
  0
LAYER
  2
LAYER022
 70
               0
 62
               7
  6
CONTINUOUS
  0
LAYER
  2
LAYER023
 70
               0
 62
               7
  6
CONTINUOUS
  0
LAYER
  2
LAYER024
 70
               0
 62
               7
  6
CONTINUOUS
  0
LAYER
  2
LAYER025
 70
               0
 62
               7
  6
CONTINUOUS
  0
LAYER
  2
LAYER026
 70
               0
 62
               7
  6
CONTINUOUS
  0
LAYER
  2
LAYER027
 70
               0
 62
               7
  6
CONTINUOUS
  0
LAYER
  2
LAYER028
 70
               0
 62
               7
  6
CONTINUOUS
  0
LAYER
  2
LAYER029
 70
               0
 62
               7
  6
CONTINUOUS
  0
LAYER
  2
LAYER030
 70
               0
 62
               7
  6
CONTINUOUS
  0
LAYER
  2
LAYER031
 70
               0
 62
               7
  6
CONTINUOUS
  0
LAYER
  2
LAYER032
 70
               0
 62
               7
  6
CONTINUOUS
  0
LAYER
  2
LAYER033
 70
               0
 62
               7
  6
CONTINUOUS
  0
LAYER
  2
LAYER034
 70
               0
 62
               7
  6
CONTINUOUS
  0
LAYER
  2
LAYER035
 70
               0
 62
               7
  6
CONTINUOUS
  0
LAYER
  2
LAYER036
 70
               0
 62
               7
  6
CONTINUOUS
  0
LAYER
  2
LAYER037
 70
               0
 62
               7
  6
CONTINUOUS
  0
LAYER
  2
LAYER038
 70
               0
 62
               7
  6
CONTINUOUS
  0
LAYER
  2
LAYER039
 70
               0
 62
               7
  6
CONTINUOUS
  0
LAYER
  2
LAYER040
 70
               0
 62
               7
  6
CONTINUOUS
  0
LAYER
  2
LAYER041
 70
               0
 62
               7
  6
CONTINUOUS
  0
LAYER
  2
LAYER042
 70
               0
 62
               7
  6
CONTINUOUS
  0
LAYER
  2
LAYER043
 70
               0
 62
               7
  6
CONTINUOUS
  0
LAYER
  2
LAYER044
 70
               0
 62
               7
  6
CONTINUOUS
  0
LAYER
  2
LAYER045
 70
               0
 62
               7
  6
CONTINUOUS
  0
LAYER
  2
LAYER046
 70
               0
 62
               7
  6
CONTINUOUS
  0
LAYER
  2
LAYER047
 70
               0
 62
               7
  6
CONTINUOUS
  0
LAYER
  2
LAYER048
 70
               0
 62
               7
  6
CONTINUOUS
  0
LAYER
  2
LAYER049
 70
               0
 62
               7
  6
CONTINUOUS
  0
LAYER
  2
LAYER050
 70
               0
 62
               7
  6
CONTINUOUS
  0
LAYER
  2
LAYER051
 70
               0
 62
               7
  6
CONTINUOUS
  0
LAYER
  2
LAYER052
 70
               0
 62
               7
  6
CONTINUOUS
  0
LAYER
  2
LAYER053
 70
               0
 62
               7
  6
CONTINUOUS
  0
LAYER
  2
LAYER054
 70
               0
 62
               7
  6
CONTINUOUS
  0
LAYER
  2
LAYER055
 70
               0
 62
               7
  6
CONTINUOUS
  0
LAYER
  2
LAYER056
 70
               0
 62
               7
  6
CONTINUOUS
  0
LAYER
  2
LAYER057
 70
               0
 62
               7
  6
CONTINUOUS
  0
LAYER
  2
LAYER058
 70
               0
 62
               7
  6
CONTINUOUS
  0
LAYER
  2
LAYER059
 70
               0
 62
               7
  6
CONTINUOUS
  0
LAYER
  2
LAYER060
 70
               0
 62
               7
  6
CONTINUOUS
  0
LAYER
  2
LAYER061
 70
               0
 62
               7
  6
CONTINUOUS
  0
LAYER
  2
LAYER062
 70
               0
 62
               7
  6
CONTINUOUS
  0
LAYER
  2
LAYER063
 70
               0
 62
               7
  6
CONTINUOUS
  0
LAYER
  2
LAYER064
 70
               0
 62
               7
  6
CONTINUOUS
  0
LAYER
  2
LAYER065
 70
               0
 62
               7
  6
CONTINUOUS
  0
LAYER
  2
LAYER066
 70
               0
 62
               7
  6
CONTINUOUS
  0
LAYER
  2
LAYER067
 70
               0
 62
               7
  6
CONTINUOUS
  0
LAYER
  2
LAYER068
 70
               0
 62
               7
  6
CONTINUOUS
  0
LAYER
  2
LAYER069
 70
               0
 62
               7
  6
CONTINUOUS
  0
LAYER
  2
LAYER070
 70
               0
 62
               7
  6
CONTINUOUS
  0
LAYER
  2
LAYER071
 70
               0
 62
               7
  6
CONTINUOUS
  0
LAYER
  2
LAYER072
 70
               0
 62
               7
  6
CONTINUOUS
  0
LAYER
  2
LAYER073
 70
               0
 62
               7
  6
CONTINUOUS
  0
LAYER
  2
LAYER074
 70
               0
 62
               7
  6
CONTINUOUS
  0
LAYER
  2
LAYER075
 70
               0
 62
               7
  6
CONTINUOUS
  0
LAYER
  2
LAYER076
 70
               0
 62
               7
  6
CONTINUOUS
  0
LAYER
  2
LAYER077
 70
               0
 62
               7
  6
CONTINUOUS
  0
LAYER
  2
LAYER078
 70
               0
 62
               7
  6
CONTINUOUS
  0
LAYER
  2
LAYER079
 70
               0
 62
               7
  6
CONTINUOUS
  0
LAYER
  2
LAYER080
 70
               0
 62
               7
  6
CONTINUOUS
  0
LAYER
  2
LAYER081
 70
               0
 62
               7
  6
CONTINUOUS
  0
LAYER
  2
LAYER082
 70
               0
 62
               7
  6
CONTINUOUS
  0
LAYER
  2
LAYER083
 70
               0
 62
               7
  6
CONTINUOUS
  0
LAYER
  2
LAYER084
 70
               0
 62
               7
  6
CONTINUOUS
  0
LAYER
  2
LAYER085
 70
               0
 62
               7
  6
CONTINUOUS
  0
LAYER
  2
LAYER086
 70
               0
 62
               7
  6
CONTINUOUS
  0
LAYER
  2
LAYER087
 70
               0
 62
               7
  6
CONTINUOUS
  0
LAYER
  2
LAYER088
 70
               0
 62
               7
  6
CONTINUOUS
  0
LAYER
  2
LAYER089
 70
               0
 62
               7
  6
CONTINUOUS
  0
LAYER
  2
LAYER090
 70
               0
 62
               7
  6
CONTINUOUS
  0
LAYER
  2
LAYER091
 70
               0
 62
               7
  6
CONTINUOUS
  0
LAYER
  2
LAYER092
 70
               0
 62
               7
  6
CONTINUOUS
  0
LAYER
  2
LAYER093
 70
               0
 62
               7
  6
CONTINUOUS
  0
LAYER
  2
LAYER094
 70
               0
 62
               7
  6
CONTINUOUS
  0
LAYER
  2
LAYER095
 70
               0
 62
               7
  6
CONTINUOUS
  0
LAYER
  2
LAYER096
 70
               0
 62
               7
  6
CONTINUOUS
  0
LAYER
  2
LAYER097
 70
               0
 62
               7
  6
CONTINUOUS
  0
LAYER
  2
LAYER098
 70
               0
 62
               7
  6
CONTINUOUS
  0
LAYER
  2
LAYER099
 70
               0
 62
               7
  6
CONTINUOUS
  0
LAYER
  2
LAYER100
 70
               0
 62
               7
  6
CONTINUOUS
  0
LAYER
  2
LAYER101
 70
               0
 62
               7
  6
CONTINUOUS
  0
LAYER
  2
LAYER102
 70
               0
 62
               7
  6
CONTINUOUS
  0
LAYER
  2
LAYER103
 70
               0
 62
               7
  6
CONTINUOUS
  0
LAYER
  2
LAYER104
 70
               0
 62
               7
  6
CONTINUOUS
  0
LAYER
  2
LAYER105
 70
               0
 62
               7
  6
CONTINUOUS
  0
LAYER
  2
LAYER106
 70
               0
 62
               7
  6
CONTINUOUS
  0
LAYER
  2
LAYER107
 70
               0
 62
               7
  6
CONTINUOUS
  0
LAYER
  2
LAYER108
 70
               0
 62
               7
  6
CONTINUOUS
  0
LAYER
  2
LAYER109
 70
               0
 62
               7
  6
CONTINUOUS
  0
LAYER
  2
LAYER110
 70
               0
 62
               7
  6
CONTINUOUS
  0
LAYER
  2
LAYER111
 70
               0
 62
               7
  6
CONTINUOUS
  0
LAYER
  2
LAYER112
 70
               0
 62
               7
  6
CONTINUOUS
  0
LAYER
  2
LAYER113
 70
               0
 62
               7
  6
CONTINUOUS
  0
LAYER
  2
LAYER114
 70
               0
 62
               7
  6
CONTINUOUS
  0
LAYER
  2
LAYER115
 70
               0
 62
               7
  6
CONTINUOUS
  0
LAYER
  2
LAYER116
 70
               0
 62
               7
  6
CONTINUOUS
  0
LAYER
  2
LAYER117
 70
               0
 62
               7
  6
CONTINUOUS
  0
LAYER
  2
LAYER118
 70
               0
 62
               7
  6
CONTINUOUS
  0
LAYER
  2
LAYER119
 70
               0
 62
               7
  6
CONTINUOUS
  0
LAYER
  2
LAYER120
 70
               0
 62
               7
  6
CONTINUOUS
  0
LAYER
  2
LAYER121
 70
               0
 62
               7
  6
CONTINUOUS
  0
LAYER
  2
LAYER122
 70
               0
 62
               7
  6
CONTINUOUS
  0
LAYER
  2
LAYER123
 70
               0
 62
               7
  6
CONTINUOUS
  0
LAYER
  2
LAYER124
 70
               0
 62
               7
  6
CONTINUOUS
  0
LAYER
  2
LAYER125
 70
               0
 62
               7
  6
CONTINUOUS
  0
LAYER
  2
LAYER126
 70
               0
 62
               7
  6
CONTINUOUS
  0
LAYER
  2
LAYER127
 70
               0
 62
               7
  6
CONTINUOUS
  0
LAYER
  2
LAYER128
 70
               0
 62
               7
  6
CONTINUOUS
  0
LAYER
  2
LAYER129
 70
               0
 62
               7
  6
CONTINUOUS
  0
LAYER
  2
LAYER130
 70
               0
 62
               7
  6
CONTINUOUS
  0
LAYER
  2
LAYER131
 70
               0
 62
               7
  6
CONTINUOUS
  0
LAYER
  2
LAYER132
 70
               0
 62
               7
  6
CONTINUOUS
  0
LAYER
  2
LAYER133
 70
               0
 62
               7
  6
CONTINUOUS
  0
LAYER
  2
LAYER134
 70
               0
 62
               7
  6
CONTINUOUS
  0
LAYER
  2
LAYER135
 70
               0
 62
               7
  6
CONTINUOUS
  0
LAYER
  2
LAYER136
 70
               0
 62
               7
  6
CONTINUOUS
  0
LAYER
  2
LAYER137
 70
               0
 62
               7
  6
CONTINUOUS
  0
LAYER
  2
LAYER138
 70
               0
 62
               7
  6
CONTINUOUS
  0
LAYER
  2
LAYER139
 70
               0
 62
               7
  6
CONTINUOUS
  0
LAYER
  2
LAYER140
 70
               0
 62
               7
  6
CONTINUOUS
  0
LAYER
  2
LAYER141
 70
               0
 62
               7
  6
CONTINUOUS
  0
LAYER
  2
LAYER142
 70
               0
 62
               7
  6
CONTINUOUS
  0
LAYER
  2
LAYER143
 70
               0
 62
               7
  6
CONTINUOUS
  0
LAYER
  2
LAYER144
 70
               0
 62
               7
  6
CONTINUOUS
  0
LAYER
  2
LAYER145
 70
               0
 62
               7
  6
CONTINUOUS
  0
LAYER
  2
LAYER146
 70
               0
 62
               7
  6
CONTINUOUS
  0
LAYER
  2
LAYER147
 70
               0
 62
               7
  6
CONTINUOUS
  0
LAYER
  2
LAYER148
 70
               0
 62
               7
  6
CONTINUOUS
  0
LAYER
  2
LAYER149
 70
               0
 62
               7
  6
CONTINUOUS
  0
LAYER
  2
LAYER150
 70
               0
 62
               7
  6
CONTINUOUS
  0
LAYER
  2
LAYER151
 70
               0
 62
               7
  6
CONTINUOUS
  0
LAYER
  2
LAYER152
 70
               0
 62
               7
  6
CONTINUOUS
  0
LAYER
  2
LAYER153
 70
               0
 62
               7
  6
CONTINUOUS
  0
LAYER
  2
LAYER154
 70
               0
 62
               7
  6
CONTINUOUS
  0
LAYER
  2
LAYER155
 70
               0
 62
               7
  6
CONTINUOUS
  0
LAYER
  2
LAYER156
 70
               0
 62
               7
  6
CONTINUOUS
  0
LAYER
  2
LAYER157
 70
               0
 62
               7
  6
CONTINUOUS
  0
LAYER
  2
LAYER158
 70
               0
 62
               7
  6
CONTINUOUS
  0
LAYER
  2
LAYER159
 70
               0
 62
               7
  6
CONTINUOUS
  0
LAYER
  2
LAYER160
 70
               0
 62
               7
  6
CONTINUOUS
  0
LAYER
  2
LAYER161
 70
               0
 62
               7
  6
CONTINUOUS
  0
LAYER
  2
LAYER162
 70
               0
 62
               7
  6
CONTINUOUS
  0
LAYER
  2
LAYER163
 70
               0
 62
               7
  6
CONTINUOUS
  0
LAYER
  2
LAYER164
 70
               0
 62
               7
  6
CONTINUOUS
  0
LAYER
  2
LAYER165
 70
               0
 62
               7
  6
CONTINUOUS
  0
LAYER
  2
LAYER166
 70
               0
 62
               7
  6
CONTINUOUS
  0
LAYER
  2
LAYER167
 70
               0
 62
               7
  6
CONTINUOUS
  0
LAYER
  2
LAYER168
 70
               0
 62
               7
  6
CONTINUOUS
  0
LAYER
  2
LAYER169
 70
               0
 62
               7
  6
CONTINUOUS
  0
LAYER
  2
LAYER170
 70
               0
 62
               7
  6
CONTINUOUS
  0
LAYER
  2
LAYER171
 70
               0
 62
               7
  6
CONTINUOUS
  0
LAYER
  2
LAYER172
 70
               0
 62
               7
  6
CONTINUOUS
  0
LAYER
  2
LAYER173
 70
               0
 62
               7
  6
CONTINUOUS
  0
LAYER
  2
LAYER174
 70
               0
 62
               7
  6
CONTINUOUS
  0
LAYER
  2
LAYER175
 70
               0
 62
               7
  6
CONTINUOUS
  0
LAYER
  2
LAYER176
 70
               0
 62
               7
  6
CONTINUOUS
  0
LAYER
  2
LAYER177
 70
               0
 62
               7
  6
CONTINUOUS
  0
LAYER
  2
LAYER178
 70
               0
 62
               7
  6
CONTINUOUS
  0
LAYER
  2
LAYER179
 70
               0
 62
               7
  6
CONTINUOUS
  0
LAYER
  2
LAYER180
 70
               0
 62
               7
  6
CONTINUOUS
  0
LAYER
  2
LAYER181
 70
               0
 62
               7
  6
CONTINUOUS
  0
LAYER
  2
LAYER182
 70
               0
 62
               7
  6
CONTINUOUS
  0
LAYER
  2
LAYER183
 70
               0
 62
               7
  6
CONTINUOUS
  0
LAYER
  2
LAYER184
 70
               0
 62
               7
  6
CONTINUOUS
  0
LAYER
  2
LAYER185
 70
               0
 62
               7
  6
CONTINUOUS
  0
LAYER
  2
LAYER186
 70
               0
 62
               7
  6
CONTINUOUS
  0
LAYER
  2
LAYER187
 70
               0
 62
               7
  6
CONTINUOUS
  0
LAYER
  2
LAYER188
 70
               0
 62
               7
  6
CONTINUOUS
  0
LAYER
  2
LAYER189
 70
               0
 62
               7
  6
CONTINUOUS
  0
LAYER
  2
LAYER190
 70
               0
 62
               7
  6
CONTINUOUS
  0
LAYER
  2
LAYER191
 70
               0
 62
               7
  6
CONTINUOUS
  0
LAYER
  2
LAYER192
 70
               0
 62
               7
  6
CONTINUOUS
  0
LAYER
  2
LAYER193
 70
               0
 62
               7
  6
CONTINUOUS
  0
LAYER
  2
LAYER194
 70
               0
 62
               7
  6
CONTINUOUS
  0
LAYER
  2
LAYER195
 70
               0
 62
               7
  6
CONTINUOUS
  0
LAYER
  2
LAYER196
 70
               0
 62
               7
  6
CONTINUOUS
  0
LAYER
  2
LAYER197
 70
               0
 62
               7
  6
CONTINUOUS
  0
LAYER
  2
LAYER198
 70
               0
 62
               7
  6
CONTINUOUS
  0
LAYER
  2
LAYER199
 70
               0
 62
               7
  6
CONTINUOUS
  0
LAYER
  2
LAYER200
 70
               0
 62
               7
  6
CONTINUOUS
  0
LAYER
  2
LAYER201
 70
               0
 62
               7
  6
CONTINUOUS
  0
LAYER
  2
LAYER202
 70
               0
 62
               7
  6
CONTINUOUS
  0
LAYER
  2
LAYER203
 70
               0
 62
               7
  6
CONTINUOUS
  0
LAYER
  2
LAYER204
 70
               0
 62
               7
  6
CONTINUOUS
  0
LAYER
  2
LAYER205
 70
               0
 62
               7
  6
CONTINUOUS
  0
LAYER
  2
LAYER206
 70
               0
 62
               7
  6
CONTINUOUS
  0
LAYER
  2
LAYER207
 70
               0
 62
               7
  6
CONTINUOUS
  0
LAYER
  2
LAYER208
 70
               0
 62
               7
  6
CONTINUOUS
  0
LAYER
  2
LAYER209
 70
               0
 62
               7
  6
CONTINUOUS
  0
LAYER
  2
LAYER210
 70
               0
 62
               7
  6
CONTINUOUS
  0
LAYER
  2
LAYER211
 70
               0
 62
               7
  6
CONTINUOUS
  0
LAYER
  2
LAYER212
 70
               0
 62
               7
  6
CONTINUOUS
  0
LAYER
  2
LAYER213
 70
               0
 62
               7
  6
CONTINUOUS
  0
LAYER
  2
LAYER214
 70
               0
 62
               7
  6
CONTINUOUS
  0
LAYER
  2
LAYER215
 70
               0
 62
               7
  6
CONTINUOUS
  0
LAYER
  2
LAYER216
 70
               0
 62
               7
  6
CONTINUOUS
  0
LAYER
  2
LAYER217
 70
               0
 62
               7
  6
CONTINUOUS
  0
LAYER
  2
LAYER218
 70
               0
 62
               7
  6
CONTINUOUS
  0
LAYER
  2
LAYER219
 70
               0
 62
               7
  6
CONTINUOUS
  0
LAYER
  2
LAYER220
 70
               0
 62
               7
  6
CONTINUOUS
  0
LAYER
  2
LAYER221
 70
               0
 62
               7
  6
CONTINUOUS
  0
LAYER
  2
LAYER222
 70
               0
 62
               7
  6
CONTINUOUS
  0
LAYER
  2
LAYER223
 70
               0
 62
               7
  6
CONTINUOUS
  0
LAYER
  2
LAYER224
 70
               0
 62
               7
  6
CONTINUOUS
  0
LAYER
  2
LAYER225
 70
               0
 62
               7
  6
CONTINUOUS
  0
LAYER
  2
LAYER226
 70
               0
 62
               7
  6
CONTINUOUS
  0
LAYER
  2
LAYER227
 70
               0
 62
               7
  6
CONTINUOUS
  0
LAYER
  2
LAYER228
 70
               0
 62
               7
  6
CONTINUOUS
  0
LAYER
  2
LAYER229
 70
               0
 62
               7
  6
CONTINUOUS
  0
LAYER
  2
LAYER230
 70
               0
 62
               7
  6
CONTINUOUS
  0
LAYER
  2
LAYER231
 70
               0
 62
               7
  6
CONTINUOUS
  0
LAYER
  2
LAYER232
 70
               0
 62
               7
  6
CONTINUOUS
  0
LAYER
  2
LAYER233
 70
               0
 62
               7
  6
CONTINUOUS
  0
LAYER
  2
LAYER234
 70
               0
 62
               7
  6
CONTINUOUS
  0
LAYER
  2
LAYER235
 70
               0
 62
               7
  6
CONTINUOUS
  0
LAYER
  2
LAYER236
 70
               0
 62
               7
  6
CONTINUOUS
  0
LAYER
  2
LAYER237
 70
               0
 62
               7
  6
CONTINUOUS
  0
LAYER
  2
LAYER238
 70
               0
 62
               7
  6
CONTINUOUS
  0
LAYER
  2
LAYER239
 70
               0
 62
               7
  6
CONTINUOUS
  0
LAYER
  2
LAYER240
 70
               0
 62
               7
  6
CONTINUOUS
  0
LAYER
  2
LAYER241
 70
               0
 62
               7
  6
CONTINUOUS
  0
LAYER
  2
LAYER242
 70
               0
 62
               7
  6
CONTINUOUS
  0
LAYER
  2
LAYER243
 70
               0
 62
               7
  6
CONTINUOUS
  0
LAYER
  2
LAYER244
 70
               0
 62
               7
  6
CONTINUOUS
  0
LAYER
  2
LAYER245
 70
               0
 62
               7
  6
CONTINUOUS
  0
LAYER
  2
LAYER246
 70
               0
 62
               7
  6
CONTINUOUS
  0
LAYER
  2
LAYER247
 70
               0
 62
               7
  6
CONTINUOUS
  0
LAYER
  2
LAYER248
 70
               0
 62
               7
  6
CONTINUOUS
  0
LAYER
  2
LAYER249
 70
               0
 62
               7
  6
CONTINUOUS
  0
LAYER
  2
LAYER250
 70
               0
 62
               7
  6
CONTINUOUS
  0
LAYER
  2
LAYER251
 70
               0
 62
               7
  6
CONTINUOUS
  0
LAYER
  2
LAYER252
 70
               0
 62
               7
  6
CONTINUOUS
  0
LAYER
  2
LAYER253
 70
               0
 62
               7
  6
CONTINUOUS
  0
LAYER
  2
LAYER254
 70
               0
 62
               7
  6
CONTINUOUS
  0
LAYER
  2
LAYER255
 70
               0
 62
               7
  6
CONTINUOUS
  0
ENDTAB
  0
TABLE
  2
STYLE
 70
               1
  0
STYLE
  2
STANDARD
 70
               0
 40
0.0
 41
1.0
 50
0.0
 71
               0
 42
0.0
  3
txt
  4

  0
ENDTAB
  0
TABLE
  2
VIEW
 70
               0
  0
VIEW
  2
QQQQ
 70
               0
 40
1695.0373107741759
 10
-38.106696258535067
 20
318.47678675157238
 41
1569.1970264964059
 11
0.0
 21
0.0
 31
1.0
 12
100.0
 22
100.0
 32
0.0
 42
50.0
 43
0.0
 44
0.0
 50
0.0
 71
               0
  0
ENDTAB
  0
TABLE
  2
UCS
 70
               0
  0
ENDTAB
  0
TABLE
  2
APPID
 70
               1
  0
APPID
  2
ACAD
 70
               0
  0
ENDTAB
  0
TABLE
  2
DIMSTYLE
 70
               1
  0
DIMSTYLE
  2
STANDARD
 70
               0
  3

  4

  5

  6

  7

 40
1.0
 41
0.18
 42
0.0625
 43
0.38
 44
0.18
 45
0.0
 46
0.0
 47
0.0
 48
0.0
140
0.18
141
0.09
142
0.0
143
25.399999999999999
144
1.0
145
0.0
146
1.0
147
0.09
 71
               0
 72
               0
 73
               1
 74
               1
 75
               0
 76
               0
 77
               0
 78
               0
170
               0
171
               2
172
               0
173
               0
174
               0
175
               0
176
               0
177
               0
178
               0
  0
ENDTAB
  0
ENDSEC
  0
SECTION
  2
BLOCKS
  0
BLOCK
  8
0
  5
13E
  2
GROUP_1
 70
               0
 10
0.0
 20
0.0
 30
0.0
  3
GROUP_1
  0
LINE
  8
0
  6
CONTINUOUS
 62
               4
  5
13F
 10
-110.86063108341622
 20
237.91733145812375
 30
0.0
 11
-109.4930212303959
 21
237.04313247374347
 31
0.0
  0
LINE
  8
0
  6
CONTINUOUS
 62
               4
  5
140
 10
-109.4930212303959
 20
237.04313247374347
 30
0.0
 11
-108.12541137737315
 21
236.16404300459953
 31
0.0
  0
LINE
  8
0
  6
CONTINUOUS
 62
               4
  5
141
 10
-108.12541137737315
 20
236.16404300459953
 30
0.0
 11
-106.75780152434871
 21
235.27517256601249
 31
0.0
  0
LINE
  8
0
  6
CONTINUOUS
 62
               4
  5
142
 10
-106.75780152434871
 20
235.27517256601249
 30
0.0
 11
-105.39019167132348
 21
234.37163067330289
 31
0.0
  0
LINE
  8
0
  6
CONTINUOUS
 62
               4
  5
143
 10
-105.39019167132348
 20
234.37163067330289
 30
0.0
 11
-104.02258181829839
 21
233.44852684179133
 31
0.0
  0
LINE
  8
0
  6
CONTINUOUS
 62
               4
  5
144
 10
-104.02258181829839
 20
233.44852684179133
 30
0.0
 11
-102.65497196527402
 21
232.50240507149465
 31
0.0
  0
LINE
  8
0
  6
CONTINUOUS
 62
               4
  5
145
 10
-102.65497196527402
 20
232.50240507149465
 30
0.0
 11
-101.28736211225021
 21
231.53554730121482
 31
0.0
  0
LINE
  8
0
  6
CONTINUOUS
 62
               4
  5
146
 10
-101.28736211225021
 20
231.53554730121482
 30
0.0
 11
-99.919752259226826
 21
230.55166995445012
 31
0.0
  0
LINE
  8
0
  6
CONTINUOUS
 62
               4
  5
147
 10
-99.919752259226826
 20
230.55166995445012
 30
0.0
 11
-98.552142406203657
 21
229.55448945469871
 31
0.0
  0
LINE
  8
0
  6
CONTINUOUS
 62
               4
  5
148
 10
-98.552142406203657
 20
229.55448945469871
 30
0.0
 11
-97.18453255318056
 21
228.54772222545884
 31
0.0
  0
LINE
  8
0
  6
CONTINUOUS
 62
               4
  5
149
 10
-97.18453255318056
 20
228.54772222545884
 30
0.0
 11
-95.816922700157249
 21
227.5344587514268
 31
0.0
  0
LINE
  8
0
  6
CONTINUOUS
 62
               4
  5
14A
 10
-95.816922700157249
 20
227.5344587514268
 30
0.0
 11
-94.449312847133655
 21
226.51528576209103
 31
0.0
  0
LINE
  8
0
  6
CONTINUOUS
 62
               4
  5
14B
 10
-94.449312847133655
 20
226.51528576209103
 30
0.0
 11
-93.08170299411006
 21
225.49016404813804
 31
0.0
  0
LINE
  8
0
  6
CONTINUOUS
 62
               4
  5
14C
 10
-93.08170299411006
 20
225.49016404813804
 30
0.0
 11
-91.714093141086465
 21
224.45905440025433
 31
0.0
  0
LINE
  8
0
  6
CONTINUOUS
 62
               4
  5
14D
 10
-91.714093141086465
 20
224.45905440025433
 30
0.0
 11
-90.346483288062586
 21
223.42191760912641
 31
0.0
  0
LINE
  8
0
  6
CONTINUOUS
 62
               4
  5
14E
 10
-90.346483288062586
 20
223.42191760912641
 30
0.0
 11
-88.978873435038992
 21
222.37877573595222
 31
0.0
  0
LINE
  8
0
  6
CONTINUOUS
 62
               4
  5
14F
 10
-88.978873435038992
 20
222.37877573595222
 30
0.0
 11
-87.611263582015468
 21
221.32989592397615
 31
0.0
  0
LINE
  8
0
  6
CONTINUOUS
 62
               4
  5
150
 10
-87.611263582015468
 20
221.32989592397615
 30
0.0
 11
-86.243653728991944
 21
220.27560658695384
 31
0.0
  0
LINE
  8
0
  6
CONTINUOUS
 62
               4
  5
151
 10
-86.243653728991944
 20
220.27560658695384
 30
0.0
 11
-84.876043875968421
 21
219.21623613864119
 31
0.0
  0
LINE
  8
0
  6
CONTINUOUS
 62
               4
  5
152
 10
-84.876043875968421
 20
219.21623613864119
 30
0.0
 11
-83.508434022944897
 21
218.15211299279392
 31
0.0
  0
LINE
  8
0
  6
CONTINUOUS
 62
               4
  5
153
 10
-83.508434022944897
 20
218.15211299279392
 30
0.0
 11
-82.140824169921231
 21
217.08358641992362
 31
0.0
  0
LINE
  8
0
  6
CONTINUOUS
 62
               4
  5
154
 10
-82.140824169921231
 20
217.08358641992362
 30
0.0
 11
-80.773214316897779
 21
216.01108911756478
 31
0.0
  0
LINE
  8
0
  6
CONTINUOUS
 62
               4
  5
155
 10
-80.773214316897779
 20
216.01108911756478
 30
0.0
 11
-79.405604463874255
 21
214.93507464000791
 31
0.0
  0
LINE
  8
0
  6
CONTINUOUS
 62
               4
  5
156
 10
-79.405604463874255
 20
214.93507464000791
 30
0.0
 11
-78.03799461085066
 21
213.85599654154339
 31
0.0
  0
LINE
  8
0
  6
CONTINUOUS
 62
               4
  5
157
 10
-78.03799461085066
 20
213.85599654154339
 30
0.0
 11
-76.670384757827065
 21
212.77430837646148
 31
0.0
  0
LINE
  8
0
  6
CONTINUOUS
 62
               4
  5
158
 10
-76.670384757827065
 20
212.77430837646148
 30
0.0
 11
-75.302774904803542
 21
211.69031900151805
 31
0.0
  0
LINE
  8
0
  6
CONTINUOUS
 62
               4
  5
159
 10
-75.302774904803542
 20
211.69031900151805
 30
0.0
 11
-73.935165051779947
 21
210.60375848333041
 31
0.0
  0
LINE
  8
0
  6
CONTINUOUS
 62
               4
  5
15A
 10
-73.935165051779947
 20
210.60375848333041
 30
0.0
 11
-72.567555198756352
 21
209.5142121909812
 31
0.0
  0
LINE
  8
0
  6
CONTINUOUS
 62
               4
  5
15B
 10
-72.567555198756352
 20
209.5142121909812
 30
0.0
 11
-71.199945345732687
 21
208.42126549355322
 31
0.0
  0
LINE
  8
0
  6
CONTINUOUS
 62
               4
  5
15C
 10
-71.199945345732687
 20
208.42126549355322
 30
0.0
 11
-69.832335492709234
 21
207.32450376012901
 31
0.0
  0
LINE
  8
0
  6
CONTINUOUS
 62
               4
  5
15D
 10
-69.832335492709234
 20
207.32450376012901
 30
0.0
 11
-68.464725639685639
 21
206.22371029317412
 31
0.0
  0
LINE
  8
0
  6
CONTINUOUS
 62
               4
  5
15E
 10
-68.464725639685639
 20
206.22371029317412
 30
0.0
 11
-67.097115786661973
 21
205.11946012868464
 31
0.0
  0
LINE
  8
0
  6
CONTINUOUS
 62
               4
  5
15F
 10
-67.097115786661973
 20
205.11946012868464
 30
0.0
 11
-65.729505933638521
 21
204.01252623603932
 31
0.0
  0
LINE
  8
0
  6
CONTINUOUS
 62
               4
  5
160
 10
-65.729505933638521
 20
204.01252623603932
 30
0.0
 11
-64.361896080614926
 21
202.903681584617
 31
0.0
  0
LINE
  8
0
  6
CONTINUOUS
 62
               4
  5
161
 10
-64.361896080614926
 20
202.903681584617
 30
0.0
 11
-62.994286227591331
 21
201.79369914379657
 31
0.0
  0
LINE
  8
0
  6
CONTINUOUS
 62
               4
  5
162
 10
-62.994286227591331
 20
201.79369914379657
 30
0.0
 11
-61.626676374567879
 21
200.68306484696063
 31
0.0
  0
LINE
  8
0
  6
CONTINUOUS
 62
               4
  5
163
 10
-61.626676374567879
 20
200.68306484696063
 30
0.0
 11
-60.259066521544284
 21
199.57111648350741
 31
0.0
  0
LINE
  8
0
  6
CONTINUOUS
 62
               4
  5
164
 10
-60.259066521544284
 20
199.57111648350741
 30
0.0
 11
-58.891456668520618
 21
198.45690480683885
 31
0.0
  0
LINE
  8
0
  6
CONTINUOUS
 62
               4
  5
165
 10
-58.891456668520618
 20
198.45690480683885
 30
0.0
 11
-57.523846815497023
 21
197.33948057035707
 31
0.0
  0
LINE
  8
0
  6
CONTINUOUS
 62
               4
  5
166
 10
-57.523846815497023
 20
197.33948057035707
 30
0.0
 11
-56.1562369624735
 21
196.21789452746407
 31
0.0
  0
LINE
  8
0
  6
CONTINUOUS
 62
               4
  5
167
 10
-56.1562369624735
 20
196.21789452746407
 30
0.0
 11
-54.788627109449834
 21
195.0914996421638
 31
0.0
  0
LINE
  8
0
  6
CONTINUOUS
 62
               4
  5
168
 10
-54.788627109449834
 20
195.0914996421638
 30
0.0
 11
-53.42101725642631
 21
193.96085772086735
 31
0.0
  0
LINE
  8
0
  6
CONTINUOUS
 62
               4
  5
169
 10
-53.42101725642631
 20
193.96085772086735
 30
0.0
 11
-52.053407403402787
 21
192.82683278058784
 31
0.0
  0
LINE
  8
0
  6
CONTINUOUS
 62
               4
  5
16A
 10
-52.053407403402787
 20
192.82683278058784
 30
0.0
 11
-50.685797550379121
 21
191.69028883833823
 31
0.0
  0
LINE
  8
0
  6
CONTINUOUS
 62
               4
  5
16B
 10
-50.685797550379121
 20
191.69028883833823
 30
0.0
 11
-49.318187697355597
 21
190.55208991113165
 31
0.0
  0
LINE
  8
0
  6
CONTINUOUS
 62
               4
  5
16C
 10
-49.318187697355597
 20
190.55208991113165
 30
0.0
 11
-47.950577844336479
 21
189.4130685780101
 31
0.0
  0
LINE
  8
0
  6
CONTINUOUS
 62
               4
  5
16D
 10
-47.950577844336479
 20
189.4130685780101
 30
0.0
 11
-46.582967991321766
 21
188.27307982393069
 31
0.0
  0
LINE
  8
0
  6
CONTINUOUS
 62
               4
  5
16E
 10
-46.582967991321766
 20
188.27307982393069
 30
0.0
 11
-45.21535813830485
 21
187.13152127477878
 31
0.0
  0
LINE
  8
0
  6
CONTINUOUS
 62
               4
  5
16F
 10
-45.21535813830485
 20
187.13152127477878
 30
0.0
 11
-43.847748285279053
 21
185.98779055643979
 31
0.0
  0
LINE
  8
0
  6
CONTINUOUS
 62
               4
  5
170
 10
-43.847748285279053
 20
185.98779055643979
 30
0.0
 11
-42.480138432237766
 21
184.84128529479915
 31
0.0
  0
LINE
  8
0
  6
CONTINUOUS
 62
               4
  5
171
 10
-42.480138432237766
 20
184.84128529479915
 30
0.0
 11
-41.112528579195271
 21
183.69198723611754
 31
0.0
  0
LINE
  8
0
  6
CONTINUOUS
 62
               4
  5
172
 10
-41.112528579195271
 20
183.69198723611754
 30
0.0
 11
-39.744918726167199
 21
182.5405109236965
 31
0.0
  0
LINE
  8
0
  6
CONTINUOUS
 62
               4
  5
173
 10
-39.744918726167199
 20
182.5405109236965
 30
0.0
 11
-38.377308873148507
 21
181.3872031789831
 31
0.0
  0
LINE
  8
0
  6
CONTINUOUS
 62
               4
  5
174
 10
-38.377308873148507
 20
181.3872031789831
 30
0.0
 11
-37.009699020134292
 21
180.23241082342423
 31
0.0
  0
LINE
  8
0
  6
CONTINUOUS
 62
               4
  5
175
 10
-37.009699020134292
 20
180.23241082342423
 30
0.0
 11
-35.642089167120005
 21
179.07648067846668
 31
0.0
  0
LINE
  8
0
  6
CONTINUOUS
 62
               4
  5
176
 10
-35.642089167120005
 20
179.07648067846668
 30
0.0
 11
-34.274479314101455
 21
177.91955775914784
 31
0.0
  0
LINE
  8
0
  6
CONTINUOUS
 62
               4
  5
177
 10
-34.274479314101455
 20
177.91955775914784
 30
0.0
 11
-32.906869461079069
 21
176.76097985486632
 31
0.0
  0
LINE
  8
0
  6
CONTINUOUS
 62
               4
  5
178
 10
-32.906869461079069
 20
176.76097985486632
 30
0.0
 11
-31.539259608054195
 21
175.59988294861091
 31
0.0
  0
LINE
  8
0
  6
CONTINUOUS
 62
               4
  5
179
 10
-31.539259608054195
 20
175.59988294861091
 30
0.0
 11
-30.171649755028113
 21
174.43540302337055
 31
0.0
  0
LINE
  8
0
  6
CONTINUOUS
 62
               4
  5
17A
 10
-30.171649755028113
 20
174.43540302337055
 30
0.0
 11
-28.804039902002103
 21
173.26667606213425
 31
0.0
  0
LINE
  8
0
  6
CONTINUOUS
 62
               4
  5
17B
 10
-28.804039902002103
 20
173.26667606213425
 30
0.0
 11
-27.436430048977229
 21
172.09314025849216
 31
0.0
  0
LINE
  8
0
  6
CONTINUOUS
 62
               4
  5
17C
 10
-27.436430048977229
 20
172.09314025849216
 30
0.0
 11
-26.068820195953137
 21
170.91544264844043
 31
0.0
  0
LINE
  8
0
  6
CONTINUOUS
 62
               4
  5
17D
 10
-26.068820195953137
 20
170.91544264844043
 30
0.0
 11
-24.70121034293004
 21
169.73453247857657
 31
0.0
  0
LINE
  8
0
  6
CONTINUOUS
 62
               4
  5
17E
 10
-24.70121034293004
 20
169.73453247857657
 30
0.0
 11
-23.333600489907155
 21
168.55135899549782
 31
0.0
  0
LINE
  8
0
  6
CONTINUOUS
 62
               4
  5
17F
 10
-23.333600489907155
 20
168.55135899549782
 30
0.0
 11
-21.965990636884271
 21
167.36687144580173
 31
0.0
  0
LINE
  8
0
  6
CONTINUOUS
 62
               4
  5
180
 10
-21.965990636884271
 20
167.36687144580173
 30
0.0
 11
-20.598380783861103
 21
166.1817320400898
 31
0.0
  0
LINE
  8
0
  6
CONTINUOUS
 62
               4
  5
181
 10
-20.598380783861103
 20
166.1817320400898
 30
0.0
 11
-19.230770930837437
 21
164.99545484497918
 31
0.0
  0
LINE
  8
0
  6
CONTINUOUS
 62
               4
  5
182
 10
-19.230770930837437
 20
164.99545484497918
 30
0.0
 11
-17.863161077813913
 21
163.80726689109139
 31
0.0
  0
LINE
  8
0
  6
CONTINUOUS
 62
               4
  5
183
 10
-17.863161077813913
 20
163.80726689109139
 30
0.0
 11
-16.495551224790177
 21
162.61639520904765
 31
0.0
  0
LINE
  8
0
  6
CONTINUOUS
 62
               4
  5
184
 10
-16.495551224790177
 20
162.61639520904765
 30
0.0
 11
-15.127941371766511
 21
161.42206682946932
 31
0.0
  0
LINE
  8
0
  6
CONTINUOUS
 62
               4
  5
185
 10
-15.127941371766511
 20
161.42206682946932
 30
0.0
 11
-13.760331518742703
 21
160.22370671636037
 31
0.0
  0
LINE
  8
0
  6
CONTINUOUS
 62
               4
  5
186
 10
-13.760331518742703
 20
160.22370671636037
 30
0.0
 11
-12.392721665719179
 21
159.02153156725547
 31
0.0
  0
LINE
  8
0
  6
CONTINUOUS
 62
               4
  5
187
 10
-12.392721665719179
 20
159.02153156725547
 30
0.0
 11
-11.025111812695656
 21
157.81595601307168
 31
0.0
  0
LINE
  8
0
  6
CONTINUOUS
 62
               4
  5
188
 10
-11.025111812695656
 20
157.81595601307168
 30
0.0
 11
-9.6575019596721319
 21
156.60739468472644
 31
0.0
  0
LINE
  8
0
  6
CONTINUOUS
 62
               4
  5
189
 10
-9.6575019596721319
 20
156.60739468472644
 30
0.0
 11
-8.2898921066485372
 21
155.39626221313682
 31
0.0
  0
LINE
  8
0
  6
CONTINUOUS
 62
               4
  5
18A
 10
-8.2898921066485372
 20
155.39626221313682
 30
0.0
 11
-6.9222822536250845
 21
154.18282853168552
 31
0.0
  0
LINE
  8
0
  6
CONTINUOUS
 62
               4
  5
18B
 10
-6.9222822536250845
 20
154.18282853168552
 30
0.0
 11
-5.5546724006014898
 21
152.9667847836169
 31
0.0
  0
LINE
  8
0
  6
CONTINUOUS
 62
               4
  5
18C
 10
-5.5546724006014898
 20
152.9667847836169
 30
0.0
 11
-4.1870625475779661
 21
151.74767741464063
 31
0.0
  0
LINE
  8
0
  6
CONTINUOUS
 62
               4
  5
18D
 10
-4.1870625475779661
 20
151.74767741464063
 30
0.0
 11
-2.8194526945544425
 21
150.5250528704666
 31
0.0
  0
LINE
  8
0
  6
CONTINUOUS
 62
               4
  5
18E
 10
-2.8194526945544425
 20
150.5250528704666
 30
0.0
 11
-1.4518428415307767
 21
149.29845759680438
 31
0.0
  0
LINE
  8
0
  6
CONTINUOUS
 62
               4
  5
18F
 10
-1.4518428415307767
 20
149.29845759680438
 30
0.0
 11
-0.084232988507253
 21
148.06745889611943
 31
0.0
  0
LINE
  8
0
  6
CONTINUOUS
 62
               4
  5
190
 10
-0.084232988507253
 20
148.06745889611943
 30
0.0
 11
1.2833768645162706
 21
146.83170749790003
 31
0.0
  0
LINE
  8
0
  6
CONTINUOUS
 62
               4
  5
191
 10
1.2833768645162706
 20
146.83170749790003
 30
0.0
 11
2.6509867175399364
 21
145.59087498838966
 31
0.0
  0
LINE
  8
0
  6
CONTINUOUS
 62
               4
  5
192
 10
2.6509867175399364
 20
145.59087498838966
 30
0.0
 11
4.0185965705634601
 21
144.34463295383244
 31
0.0
  0
LINE
  8
0
  6
CONTINUOUS
 62
               4
  5
193
 10
4.0185965705634601
 20
144.34463295383244
 30
0.0
 11
5.3862064235869838
 21
143.09265298047194
 31
0.0
  0
LINE
  8
0
  6
CONTINUOUS
 62
               4
  5
194
 10
5.3862064235869838
 20
143.09265298047194
 30
0.0
 11
6.7538162766106495
 21
141.83466792506402
 31
0.0
  0
LINE
  8
0
  6
CONTINUOUS
 62
               4
  5
195
 10
6.7538162766106495
 20
141.83466792506402
 30
0.0
 11
8.1214261296343153
 21
140.5706557264117
 31
0.0
  0
LINE
  8
0
  6
CONTINUOUS
 62
               4
  5
196
 10
8.1214261296343153
 20
140.5706557264117
 30
0.0
 11
9.489035982657839
 21
139.30065559383019
 31
0.0
  0
LINE
  8
0
  6
CONTINUOUS
 62
               4
  5
197
 10
9.489035982657839
 20
139.30065559383019
 30
0.0
 11
10.856645835681434
 21
138.02470673663441
 31
0.0
  0
LINE
  8
0
  6
CONTINUOUS
 62
               4
  5
198
 10
10.856645835681434
 20
138.02470673663441
 30
0.0
 11
12.224255688704886
 21
136.74284836413943
 31
0.0
  0
LINE
  8
0
  6
CONTINUOUS
 62
               4
  5
199
 10
12.224255688704886
 20
136.74284836413943
 30
0.0
 11
13.591865541728268
 21
135.45449374685722
 31
0.0
  0
LINE
  8
0
  6
CONTINUOUS
 62
               4
  5
19A
 10
13.591865541728268
 20
135.45449374685722
 30
0.0
 11
14.959475394751792
 21
134.15655240008692
 31
0.0
  0
LINE
  8
0
  6
CONTINUOUS
 62
               4
  5
19B
 10
14.959475394751792
 20
134.15655240008692
 30
0.0
 11
16.327085247775315
 21
132.84530790032437
 31
0.0
  0
LINE
  8
0
  6
CONTINUOUS
 62
               4
  5
19C
 10
16.327085247775315
 20
132.84530790032437
 30
0.0
 11
17.694695100798839
 21
131.51704382406575
 31
0.0
  0
LINE
  8
0
  6
CONTINUOUS
 62
               4
  5
19D
 10
17.694695100798839
 20
131.51704382406575
 30
0.0
 11
19.062304953822718
 21
130.16804374780696
 31
0.0
  0
LINE
  8
0
  6
CONTINUOUS
 62
               4
  5
19E
 10
19.062304953822718
 20
130.16804374780696
 30
0.0
 11
20.429914806846739
 21
128.79602573274479
 31
0.0
  0
LINE
  8
0
  6
CONTINUOUS
 62
               4
  5
19F
 10
20.429914806846739
 20
128.79602573274479
 30
0.0
 11
21.797524659871044
 21
127.40444577887934
 31
0.0
  0
LINE
  8
0
  6
CONTINUOUS
 62
               4
  5
1A0
 10
21.797524659871044
 20
127.40444577887934
 30
0.0
 11
23.165134512895492
 21
125.99819437091134
 31
0.0
  0
LINE
  8
0
  6
CONTINUOUS
 62
               4
  5
1A1
 10
23.165134512895492
 20
125.99819437091134
 30
0.0
 11
24.53274436592001
 21
124.5821619935416
 31
0.0
  0
LINE
  8
0
  6
CONTINUOUS
 62
               4
  5
1A2
 10
24.53274436592001
 20
124.5821619935416
 30
0.0
 11
25.90035421894467
 21
123.16123913147118
 31
0.0
  0
ENDBLK
  8
0
  5
1A3
  0
BLOCK
  8
0
  5
1A4
  2
GROUP_2
 70
               0
 10
0.0
 20
0.0
 30
0.0
  3
GROUP_2
  0
LINE
  8
0
  6
CONTINUOUS
 62
               4
  5
1A5
 10
-110.86063108341622
 20
237.91733145812378
 30
0.0
 11
-109.4930212303959
 21
233.61773724537218
 31
0.0
  0
LINE
  8
0
  6
CONTINUOUS
 62
               4
  5
1A6
 10
-109.4930212303959
 20
233.61773724537218
 30
0.0
 11
-108.12541137737315
 21
229.37580135506192
 31
0.0
  0
LINE
  8
0
  6
CONTINUOUS
 62
               4
  5
1A7
 10
-108.12541137737315
 20
229.37580135506192
 30
0.0
 11
-106.75780152434871
 21
225.24918210949428
 31
0.0
  0
LINE
  8
0
  6
CONTINUOUS
 62
               4
  5
1A8
 10
-106.75780152434871
 20
225.24918210949428
 30
0.0
 11
-105.39019167132348
 21
221.29553783097037
 31
0.0
  0
LINE
  8
0
  6
CONTINUOUS
 62
               4
  5
1A9
 10
-105.39019167132348
 20
221.29553783097037
 30
0.0
 11
-104.02258181829839
 21
217.57252684179133
 31
0.0
  0
LINE
  8
0
  6
CONTINUOUS
 62
               4
  5
1AA
 10
-104.02258181829839
 20
217.57252684179133
 30
0.0
 11
-102.65497196527402
 21
214.1205411419291
 31
0.0
  0
LINE
  8
0
  6
CONTINUOUS
 62
               4
  5
1AB
 10
-102.65497196527402
 20
214.1205411419291
 30
0.0
 11
-101.28736211225021
 21
210.91090744203893
 31
0.0
  0
LINE
  8
0
  6
CONTINUOUS
 62
               4
  5
1AC
 10
-101.28736211225021
 20
210.91090744203893
 30
0.0
 11
-99.919752259226826
 21
207.89768613044657
 31
0.0
  0
LINE
  8
0
  6
CONTINUOUS
 62
               4
  5
1AD
 10
-99.919752259226826
 20
207.89768613044657
 30
0.0
 11
-98.552142406203657
 21
205.03493759547791
 31
0.0
  0
LINE
  8
0
  6
CONTINUOUS
 62
               4
  5
1AE
 10
-98.552142406203657
 20
205.03493759547791
 30
0.0
 11
-97.18453255318056
 21
202.27672222545885
 31
0.0
  0
LINE
  8
0
  6
CONTINUOUS
 62
               4
  5
1AF
 10
-97.18453255318056
 20
202.27672222545885
 30
0.0
 11
-95.816922700157249
 21
199.5853256980601
 31
0.0
  0
LINE
  8
0
  6
CONTINUOUS
 62
               4
  5
1B0
 10
-95.816922700157249
 20
199.5853256980601
 30
0.0
 11
-94.449312847133655
 21
196.95593484833222
 31
0.0
  0
LINE
  8
0
  6
CONTINUOUS
 62
               4
  5
1B1
 10
-94.449312847133655
 20
196.95593484833222
 30
0.0
 11
-93.08170299411006
 21
194.3919618006704
 31
0.0
  0
LINE
  8
0
  6
CONTINUOUS
 62
               4
  5
1B2
 10
-93.08170299411006
 20
194.3919618006704
 30
0.0
 11
-91.714093141086465
 21
191.89681867947002
 31
0.0
  0
LINE
  8
0
  6
CONTINUOUS
 62
               4
  5
1B3
 10
-91.714093141086465
 20
191.89681867947002
 30
0.0
 11
-90.346483288062586
 21
189.47391760912637
 31
0.0
  0
LINE
  8
0
  6
CONTINUOUS
 62
               4
  5
1B4
 10
-90.346483288062586
 20
189.47391760912637
 30
0.0
 11
-88.978873435038992
 21
187.12500387898444
 31
0.0
  0
LINE
  8
0
  6
CONTINUOUS
 62
               4
  5
1B5
 10
-88.978873435038992
 20
187.12500387898444
 30
0.0
 11
-87.611263582015468
 21
184.84515543818742
 31
0.0
  0
LINE
  8
0
  6
CONTINUOUS
 62
               4
  5
1B6
 10
-87.611263582015468
 20
184.84515543818742
 30
0.0
 11
-86.243653728991944
 21
182.62778340082809
 31
0.0
  0
LINE
  8
0
  6
CONTINUOUS
 62
               4
  5
1B7
 10
-86.243653728991944
 20
182.62778340082809
 30
0.0
 11
-84.876043875968421
 21
180.46629888099932
 31
0.0
  0
LINE
  8
0
  6
CONTINUOUS
 62
               4
  5
1B8
 10
-84.876043875968421
 20
180.46629888099932
 30
0.0
 11
-83.508434022944897
 21
178.35411299279389
 31
0.0
  0
LINE
  8
0
  6
CONTINUOUS
 62
               4
  5
1B9
 10
-83.508434022944897
 20
178.35411299279389
 30
0.0
 11
-82.140824169921231
 21
176.28559890116139
 31
0.0
  0
LINE
  8
0
  6
CONTINUOUS
 62
               4
  5
1BA
 10
-82.140824169921231
 20
176.28559890116139
 30
0.0
 11
-80.773214316897779
 21
174.25897797447846
 31
0.0
  0
LINE
  8
0
  6
CONTINUOUS
 62
               4
  5
1BB
 10
-80.773214316897779
 20
174.25897797447846
 30
0.0
 11
-79.405604463874255
 21
172.27343363197855
 31
0.0
  0
LINE
  8
0
  6
CONTINUOUS
 62
               4
  5
1BC
 10
-79.405604463874255
 20
172.27343363197855
 30
0.0
 11
-78.03799461085066
 21
170.32814929289503
 31
0.0
  0
LINE
  8
0
  6
CONTINUOUS
 62
               4
  5
1BD
 10
-78.03799461085066
 20
170.32814929289503
 30
0.0
 11
-76.670384757827065
 21
168.42230837646144
 31
0.0
  0
LINE
  8
0
  6
CONTINUOUS
 62
               4
  5
1BE
 10
-76.670384757827065
 20
168.42230837646144
 30
0.0
 11
-75.302774904803542
 21
166.55500093353453
 31
0.0
  0
LINE
  8
0
  6
CONTINUOUS
 62
               4
  5
1BF
 10
-75.302774904803542
 20
166.55500093353453
 30
0.0
 11
-73.935165051779947
 21
164.72494354146437
 31
0.0
  0
LINE
  8
0
  6
CONTINUOUS
 62
               4
  5
1C0
 10
-73.935165051779947
 20
164.72494354146437
 30
0.0
 11
-72.567555198756352
 21
162.93075940922444
 31
0.0
  0
LINE
  8
0
  6
CONTINUOUS
 62
               4
  5
1C1
 10
-72.567555198756352
 20
162.93075940922444
 30
0.0
 11
-71.199945345732687
 21
161.17107174578808
 31
0.0
  0
LINE
  8
0
  6
CONTINUOUS
 62
               4
  5
1C2
 10
-71.199945345732687
 20
161.17107174578808
 30
0.0
 11
-69.832335492709234
 21
159.44450376012901
 31
0.0
  0
LINE
  8
0
  6
CONTINUOUS
 62
               4
  5
1C3
 10
-69.832335492709234
 20
159.44450376012901
 30
0.0
 11
-68.464725639685639
 21
157.74988208387032
 31
0.0
  0
LINE
  8
0
  6
CONTINUOUS
 62
               4
  5
1C4
 10
-68.464725639685639
 20
157.74988208387032
 30
0.0
 11
-67.097115786661973
 21
156.08684703923507
 31
0.0
  0
LINE
  8
0
  6
CONTINUOUS
 62
               4
  5
1C5
 10
-67.097115786661973
 20
156.08684703923507
 30
0.0
 11
-65.729505933638521
 21
154.45524237109589
 31
0.0
  0
LINE
  8
0
  6
CONTINUOUS
 62
               4
  5
1C6
 10
-65.729505933638521
 20
154.45524237109589
 30
0.0
 11
-64.361896080614926
 21
152.85491182432548
 31
0.0
  0
LINE
  8
0
  6
CONTINUOUS
 62
               4
  5
1C7
 10
-64.361896080614926
 20
152.85491182432548
 30
0.0
 11
-62.994286227591331
 21
151.28569914379653
 31
0.0
  0
LINE
  8
0
  6
CONTINUOUS
 62
               4
  5
1C8
 10
-62.994286227591331
 20
151.28569914379653
 30
0.0
 11
-61.626676374567879
 21
149.74730375215904
 31
0.0
  0
LINE
  8
0
  6
CONTINUOUS
 62
               4
  5
1C9
 10
-61.626676374567879
 20
149.74730375215904
 30
0.0
 11
-60.259066521544284
 21
148.23884778317142
 31
0.0
  0
LINE
  8
0
  6
CONTINUOUS
 62
               4
  5
1CA
 10
-60.259066521544284
 20
148.23884778317142
 30
0.0
 11
-58.891456668520618
 21
146.7593090483694
 31
0.0
  0
LINE
  8
0
  6
CONTINUOUS
 62
               4
  5
1CB
 10
-58.891456668520618
 20
146.7593090483694
 30
0.0
 11
-57.523846815497023
 21
145.30766535928831
 31
0.0
  0
LINE
  8
0
  6
CONTINUOUS
 62
               4
  5
1CC
 10
-57.523846815497023
 20
145.30766535928831
 30
0.0
 11
-56.1562369624735
 21
143.88289452746409
 31
0.0
  0
LINE
  8
0
  6
CONTINUOUS
 62
               4
  5
1CD
 10
-56.1562369624735
 20
143.88289452746409
 30
0.0
 11
-54.788627109449834
 21
142.4842042306737
 31
0.0
  0
LINE
  8
0
  6
CONTINUOUS
 62
               4
  5
1CE
 10
-54.788627109449834
 20
142.4842042306737
 30
0.0
 11
-53.421017256426452
 21
141.11172161166047
 31
0.0
  0
LINE
  8
0
  6
CONTINUOUS
 62
               4
  5
1CF
 10
-53.421017256426452
 20
141.11172161166047
 30
0.0
 11
-52.053407403402787
 21
139.7658036794092
 31
0.0
  0
LINE
  8
0
  6
CONTINUOUS
 62
               4
  5
1D0
 10
-52.053407403402787
 20
139.7658036794092
 30
0.0
 11
-50.685797550379263
 21
138.44680744290463
 31
0.0
  0
LINE
  8
0
  6
CONTINUOUS
 62
               4
  5
1D1
 10
-50.685797550379263
 20
138.44680744290463
 30
0.0
 11
-49.318187697355739
 21
137.1550899111316
 31
0.0
  0
LINE
  8
0
  6
CONTINUOUS
 62
               4
  5
1D2
 10
-49.318187697355739
 20
137.1550899111316
 30
0.0
 11
-47.95057784433655
 21
135.88994726136548
 31
0.0
  0
LINE
  8
0
  6
CONTINUOUS
 62
               4
  5
1D3
 10
-47.95057784433655
 20
135.88994726136548
 30
0.0
 11
-46.582967991321908
 21
134.65074078887477
 31
0.0
  0
LINE
  8
0
  6
CONTINUOUS
 62
               4
  5
1D4
 10
-46.582967991321908
 20
134.65074078887477
 30
0.0
 11
-45.215358138304993
 21
133.43792517963385
 31
0.0
  0
LINE
  8
0
  6
CONTINUOUS
 62
               4
  5
1D5
 10
-45.215358138304993
 20
133.43792517963385
 30
0.0
 11
-43.847748285279195
 21
132.25195511961709
 31
0.0
  0
LINE
  8
0
  6
CONTINUOUS
 62
               4
  5
1D6
 10
-43.847748285279195
 20
132.25195511961709
 30
0.0
 11
-42.480138432237908
 21
131.09328529479916
 31
0.0
  0
LINE
  8
0
  6
CONTINUOUS
 62
               4
  5
1D7
 10
-42.480138432237908
 20
131.09328529479916
 30
0.0
 11
-41.112528579195413
 21
129.96028002897623
 31
0.0
  0
LINE
  8
0
  6
CONTINUOUS
 62
               4
  5
1D8
 10
-41.112528579195413
 20
129.96028002897623
 30
0.0
 11
-39.744918726167199
 21
128.85155908694969
 31
0.0
  0
LINE
  8
0
  6
CONTINUOUS
 62
               4
  5
1D9
 10
-39.744918726167199
 20
128.85155908694969
 30
0.0
 11
-38.37730887314865
 21
127.76796031620125
 31
0.0
  0
LINE
  8
0
  6
CONTINUOUS
 62
               4
  5
1DA
 10
-38.37730887314865
 20
127.76796031620125
 30
0.0
 11
-37.009699020134434
 21
126.71032156421302
 31
0.0
  0
LINE
  8
0
  6
CONTINUOUS
 62
               4
  5
1DB
 10
-37.009699020134434
 20
126.71032156421302
 30
0.0
 11
-35.642089167120005
 21
125.67948067846669
 31
0.0
  0
LINE
  8
0
  6
CONTINUOUS
 62
               4
  5
1DC
 10
-35.642089167120005
 20
125.67948067846669
 30
0.0
 11
-34.274479314101455
 21
124.67607636369939
 31
0.0
  0
LINE
  8
0
  6
CONTINUOUS
 62
               4
  5
1DD
 10
-34.274479314101455
 20
124.67607636369939
 30
0.0
 11
-32.906869461079069
 21
123.69995075366921
 31
0.0
  0
LINE
  8
0
  6
CONTINUOUS
 62
               4
  5
1DE
 10
-32.906869461079069
 20
123.69995075366921
 30
0.0
 11
-31.539259608054266
 21
122.75074683938931
 31
0.0
  0
LINE
  8
0
  6
CONTINUOUS
 62
               4
  5
1DF
 10
-31.539259608054266
 20
122.75074683938931
 30
0.0
 11
-30.171649755028184
 21
121.82810761187324
 31
0.0
  0
LINE
  8
0
  6
CONTINUOUS
 62
               4
  5
1E0
 10
-30.171649755028184
 20
121.82810761187324
 30
0.0
 11
-28.804039902002245
 21
120.93167606213427
 31
0.0
  0
LINE
  8
0
  6
CONTINUOUS
 62
               4
  5
1E1
 10
-28.804039902002245
 20
120.93167606213427
 30
0.0
 11
-27.4364300489773
 21
120.06132504742749
 31
0.0
  0
LINE
  8
0
  6
CONTINUOUS
 62
               4
  5
1E2
 10
-27.4364300489773
 20
120.06132504742749
 30
0.0
 11
-26.068820195953137
 21
119.21784688997599
 31
0.0
  0
LINE
  8
0
  6
CONTINUOUS
 62
               4
  5
1E3
 10
-26.068820195953137
 20
119.21784688997599
 30
0.0
 11
-24.70121034293004
 21
118.4022637782445
 31
0.0
  0
LINE
  8
0
  6
CONTINUOUS
 62
               4
  5
1E4
 10
-24.70121034293004
 20
118.4022637782445
 30
0.0
 11
-23.333600489907155
 21
117.61559790069822
 31
0.0
  0
LINE
  8
0
  6
CONTINUOUS
 62
               4
  5
1E5
 10
-23.333600489907155
 20
117.61559790069822
 30
0.0
 11
-21.965990636884271
 21
116.85887144580175
 31
0.0
  0
LINE
  8
0
  6
CONTINUOUS
 62
               4
  5
1E6
 10
-21.965990636884271
 20
116.85887144580175
 30
0.0
 11
-20.598380783861103
 21
116.13296227979714
 31
0.0
  0
LINE
  8
0
  6
CONTINUOUS
 62
               4
  5
1E7
 10
-20.598380783861103
 20
116.13296227979714
 30
0.0
 11
-19.230770930837579
 21
115.4381709800345
 31
0.0
  0
LINE
  8
0
  6
CONTINUOUS
 62
               4
  5
1E8
 10
-19.230770930837579
 20
115.4381709800345
 30
0.0
 11
-17.863161077814055
 21
114.77465380164091
 31
0.0
  0
LINE
  8
0
  6
CONTINUOUS
 62
               4
  5
1E9
 10
-17.863161077814055
 20
114.77465380164091
 30
0.0
 11
-16.495551224790177
 21
114.14256699974345
 31
0.0
  0
LINE
  8
0
  6
CONTINUOUS
 62
               4
  5
1EA
 10
-16.495551224790177
 20
114.14256699974345
 30
0.0
 11
-15.127941371766511
 21
113.54206682946938
 31
0.0
  0
LINE
  8
0
  6
CONTINUOUS
 62
               4
  5
1EB
 10
-15.127941371766511
 20
113.54206682946938
 30
0.0
 11
-13.760331518742845
 21
112.97351296859551
 31
0.0
  0
LINE
  8
0
  6
CONTINUOUS
 62
               4
  5
1EC
 10
-13.760331518742845
 20
112.97351296859551
 30
0.0
 11
-12.392721665719179
 21
112.4380787854987
 31
0.0
  0
LINE
  8
0
  6
CONTINUOUS
 62
               4
  5
1ED
 10
-12.392721665719179
 20
112.4380787854987
 30
0.0
 11
-11.025111812695656
 21
111.93714107120564
 31
0.0
  0
LINE
  8
0
  6
CONTINUOUS
 62
               4
  5
1EE
 10
-11.025111812695656
 20
111.93714107120564
 30
0.0
 11
-9.6575019596721319
 21
111.47207661674275
 31
0.0
  0
LINE
  8
0
  6
CONTINUOUS
 62
               4
  5
1EF
 10
-9.6575019596721319
 20
111.47207661674275
 30
0.0
 11
-8.2898921066486082
 21
111.04426221313679
 31
0.0
  0
LINE
  8
0
  6
CONTINUOUS
 62
               4
  5
1F0
 10
-8.2898921066486082
 20
111.04426221313679
 30
0.0
 11
-6.9222822536250845
 21
110.65498128303773
 31
0.0
  0
LINE
  8
0
  6
CONTINUOUS
 62
               4
  5
1F1
 10
-6.9222822536250845
 20
110.65498128303773
 30
0.0
 11
-5.5546724006014898
 21
110.30514377558859
 31
0.0
  0
LINE
  8
0
  6
CONTINUOUS
 62
               4
  5
1F2
 10
-5.5546724006014898
 20
110.30514377558859
 30
0.0
 11
-4.1870625475780372
 21
109.99556627155567
 31
0.0
  0
LINE
  8
0
  6
CONTINUOUS
 62
               4
  5
1F3
 10
-4.1870625475780372
 20
109.99556627155567
 30
0.0
 11
-2.8194526945544425
 21
109.72706535170556
 31
0.0
  0
LINE
  8
0
  6
CONTINUOUS
 62
               4
  5
1F4
 10
-2.8194526945544425
 20
109.72706535170556
 30
0.0
 11
-1.4518428415307767
 21
109.50045759680444
 31
0.0
  0
LINE
  8
0
  6
CONTINUOUS
 62
               4
  5
1F5
 10
-1.4518428415307767
 20
109.50045759680444
 30
0.0
 11
-0.0842329885073951
 21
109.31752163847563
 31
0.0
  0
LINE
  8
0
  6
CONTINUOUS
 62
               4
  5
1F6
 10
-0.0842329885073951
 20
109.31752163847563
 30
0.0
 11
1.2833768645162706
 21
109.18388431177004
 31
0.0
  0
LINE
  8
0
  6
CONTINUOUS
 62
               4
  5
1F7
 10
1.2833768645162706
 20
109.18388431177004
 30
0.0
 11
2.6509867175399364
 21
109.10613450259569
 31
0.0
  0
LINE
  8
0
  6
CONTINUOUS
 62
               4
  5
1F8
 10
2.6509867175399364
 20
109.10613450259569
 30
0.0
 11
4.018596570563318
 21
109.09086109686035
 31
0.0
  0
LINE
  8
0
  6
CONTINUOUS
 62
               4
  5
1F9
 10
4.018596570563318
 20
109.09086109686035
 30
0.0
 11
5.3862064235869838
 21
109.14465298047196
 31
0.0
  0
LINE
  8
0
  6
CONTINUOUS
 62
               4
  5
1FA
 10
5.3862064235869838
 20
109.14465298047196
 30
0.0
 11
6.7538162766106495
 21
109.27243220428733
 31
0.0
  0
LINE
  8
0
  6
CONTINUOUS
 62
               4
  5
1FB
 10
6.7538162766106495
 20
109.27243220428733
 30
0.0
 11
8.1214261296341732
 21
109.47245347895961
 31
0.0
  0
LINE
  8
0
  6
CONTINUOUS
 62
               4
  5
1FC
 10
8.1214261296341732
 20
109.47245347895961
 30
0.0
 11
9.489035982657839
 21
109.74130468009105
 31
0.0
  0
LINE
  8
0
  6
CONTINUOUS
 62
               4
  5
1FD
 10
9.489035982657839
 20
109.74130468009105
 30
0.0
 11
10.856645835681363
 21
110.07557368328361
 31
0.0
  0
LINE
  8
0
  6
CONTINUOUS
 62
               4
  5
1FE
 10
10.856645835681363
 20
110.07557368328361
 30
0.0
 11
12.224255688704886
 21
110.47184836413948
 31
0.0
  0
LINE
  8
0
  6
CONTINUOUS
 62
               4
  5
1FF
 10
12.224255688704886
 20
110.47184836413948
 30
0.0
 11
13.591865541728268
 21
110.93494188760769
 31
0.0
  0
LINE
  8
0
  6
CONTINUOUS
 62
               4
  5
200
 10
13.591865541728268
 20
110.93494188760769
 30
0.0
 11
14.959475394751792
 21
111.502568576025
 31
0.0
  0
LINE
  8
0
  6
CONTINUOUS
 62
               4
  5
201
 10
14.959475394751792
 20
111.502568576025
 30
0.0
 11
16.327085247775315
 21
112.22066804107482
 31
0.0
  0
LINE
  8
0
  6
CONTINUOUS
 62
               4
  5
202
 10
16.327085247775315
 20
112.22066804107482
 30
0.0
 11
17.694695100798839
 21
113.13517989444102
 31
0.0
  0
LINE
  8
0
  6
CONTINUOUS
 62
               4
  5
203
 10
17.694695100798839
 20
113.13517989444102
 30
0.0
 11
19.062304953822718
 21
114.29204374780699
 31
0.0
  0
LINE
  8
0
  6
CONTINUOUS
 62
               4
  5
204
 10
19.062304953822718
 20
114.29204374780699
 30
0.0
 11
20.429914806846739
 21
115.71993289051971
 31
0.0
  0
LINE
  8
0
  6
CONTINUOUS
 62
               4
  5
205
 10
20.429914806846739
 20
115.71993289051971
 30
0.0
 11
21.797524659871044
 21
117.3784553225791
 31
0.0
  0
LINE
  8
0
  6
CONTINUOUS
 62
               4
  5
206
 10
21.797524659871044
 20
117.3784553225791
 30
0.0
 11
23.165134512895492
 21
119.20995272164868
 31
0.0
  0
LINE
  8
0
  6
CONTINUOUS
 62
               4
  5
207
 10
23.165134512895492
 20
119.20995272164868
 30
0.0
 11
24.53274436592001
 21
121.15676676539158
 31
0.0
  0
LINE
  8
0
  6
CONTINUOUS
 62
               4
  5
208
 10
24.53274436592001
 20
121.15676676539158
 30
0.0
 11
25.90035421894467
 21
123.16123913147118
 31
0.0
  0
ENDBLK
  8
0
  5
209
  0
BLOCK
  8
0
  5
20A
  2
GROUP_3
 70
               0
 10
0.0
 20
0.0
 30
0.0
  3
GROUP_3
  0
LINE
  8
0
  6
CONTINUOUS
 62
               4
  5
20B
 10
28.725049671985914
 20
448.50842174352982
 30
0.0
 11
28.725049671985914
 21
439.63425476844952
 31
0.0
  0
LINE
  8
0
  6
CONTINUOUS
 62
               4
  5
20C
 10
34.209877229287258
 20
448.50842174352982
 30
0.0
 11
34.209877229287258
 21
439.63425476844952
 31
0.0
  0
LINE
  8
0
  6
CONTINUOUS
 62
               4
  5
20D
 10
28.725049671985914
 20
448.50842174352982
 30
0.0
 11
50.625049671985607
 21
448.50842174352982
 31
0.0
  0
LINE
  8
0
  6
CONTINUOUS
 62
               4
  5
20E
 10
31.467463450636444
 20
438.50842174352982
 30
0.0
 11
47.882635893334793
 21
438.50842174352982
 31
0.0
  0
LINE
  8
0
  6
CONTINUOUS
 62
               4
  5
20F
 10
50.625049671985607
 20
448.50842174352982
 30
0.0
 11
50.625049671985607
 21
439.63425476844952
 31
0.0
  0
LINE
  8
0
  6
CONTINUOUS
 62
               4
  5
210
 10
45.140222114684263
 20
448.50842174352982
 30
0.0
 11
45.140222114684263
 21
439.63425476844952
 31
0.0
  0
ARC
  8
0
  6
CONTINUOUS
 62
               4
  5
211
 10
31.467463450636444
 20
442.41145760178205
 30
0.0
 40
3.9030358582523994
 50
225.36111921391887
 51
314.63888078576798
  0
ARC
  8
0
  6
CONTINUOUS
 62
               4
  5
212
 10
47.882635893334793
 20
442.41145760178205
 30
0.0
 40
3.9030358582525593
 50
225.3611192139212
 51
314.63888078577031
  0
ARC
  8
0
  6
CONTINUOUS
 62
               4
  5
213
 10
39.675049671985619
 20
452.33623152493584
 30
0.0
 40
13.827809781406303
 50
246.71964825738741
 51
293.28035174230183
  0
ENDBLK
  8
0
  5
214
  0
BLOCK
  8
0
  5
215
  2
GROUP_4
 70
               0
 10
0.0
 20
0.0
 30
0.0
  3
GROUP_4
  0
LINE
  8
0
  6
CONTINUOUS
 62
               4
  5
216
 10
-104.93844218905602
 20
448.50842174352988
 30
0.0
 11
-104.93844218905602
 21
439.63425476844958
 31
0.0
  0
LINE
  8
0
  6
CONTINUOUS
 62
               4
  5
217
 10
-110.42326974635736
 20
448.50842174352988
 30
0.0
 11
-110.42326974635736
 21
439.63425476844958
 31
0.0
  0
LINE
  8
0
  6
CONTINUOUS
 62
               4
  5
218
 10
-104.93844218905602
 20
448.50842174352988
 30
0.0
 11
-126.83844218905571
 21
448.50842174352988
 31
0.0
  0
LINE
  8
0
  6
CONTINUOUS
 62
               4
  5
219
 10
-107.68085596770655
 20
438.50842174352988
 30
0.0
 11
-124.0960284104049
 21
438.50842174352988
 31
0.0
  0
LINE
  8
0
  6
CONTINUOUS
 62
               4
  5
21A
 10
-126.83844218905571
 20
448.50842174352988
 30
0.0
 11
-126.83844218905571
 21
439.63425476844958
 31
0.0
  0
LINE
  8
0
  6
CONTINUOUS
 62
               4
  5
21B
 10
-121.35361463175437
 20
448.50842174352988
 30
0.0
 11
-121.35361463175437
 21
439.63425476844958
 31
0.0
  0
ARC
  8
0
  6
CONTINUOUS
 62
               4
  5
21C
 10
-107.68085596770655
 20
442.4114576017821
 30
0.0
 40
3.9030358582523994
 50
225.36111921392123
 51
314.63888078577025
  0
ARC
  8
0
  6
CONTINUOUS
 62
               4
  5
21D
 10
-124.0960284104049
 20
442.4114576017821
 30
0.0
 40
3.9030358582525593
 50
225.36111921391884
 51
314.63888078576804
  0
ARC
  8
0
  6
CONTINUOUS
 62
               4
  5
21E
 10
-115.88844218905572
 20
452.3362315249359
 30
0.0
 40
13.827809781406303
 50
246.71964825738741
 51
293.28035174230178
  0
ENDBLK
  8
0
  5
21F
  0
BLOCK
  8
0
  5
220
  2
GROUP_5
 70
               0
 10
0.0
 20
0.0
 30
0.0
  3
GROUP_5
  0
LINE
  8
0
  6
CONTINUOUS
 62
               4
  5
221
 10
628.7250496719862
 20
448.50842174352954
 30
0.0
 11
628.7250496719862
 21
439.63425476844924
 31
0.0
  0
LINE
  8
0
  6
CONTINUOUS
 62
               4
  5
222
 10
634.20987722928749
 20
448.50842174352954
 30
0.0
 11
634.20987722928749
 21
439.63425476844924
 31
0.0
  0
LINE
  8
0
  6
CONTINUOUS
 62
               4
  5
223
 10
628.7250496719862
 20
448.50842174352954
 30
0.0
 11
650.62504967198583
 21
448.50842174352954
 31
0.0
  0
LINE
  8
0
  6
CONTINUOUS
 62
               4
  5
224
 10
631.46746345063661
 20
438.50842174352954
 30
0.0
 11
647.88263589333496
 21
438.50842174352954
 31
0.0
  0
LINE
  8
0
  6
CONTINUOUS
 62
               4
  5
225
 10
650.62504967198583
 20
448.50842174352954
 30
0.0
 11
650.62504967198583
 21
439.63425476844924
 31
0.0
  0
LINE
  8
0
  6
CONTINUOUS
 62
               4
  5
226
 10
645.14022211468455
 20
448.50842174352954
 30
0.0
 11
645.14022211468455
 21
439.63425476844924
 31
0.0
  0
ARC
  8
0
  6
CONTINUOUS
 62
               4
  5
227
 10
631.46746345063661
 20
442.41145760178176
 30
0.0
 40
3.9030358582523994
 50
225.36111921391898
 51
314.63888078576787
  0
ARC
  8
0
  6
CONTINUOUS
 62
               4
  5
228
 10
647.88263589333496
 20
442.41145760178176
 30
0.0
 40
3.9030358582525593
 50
225.36111921392131
 51
314.6388807857702
  0
ARC
  8
0
  6
CONTINUOUS
 62
               4
  5
229
 10
639.67504967198579
 20
452.33623152493556
 30
0.0
 40
13.827809781406303
 50
246.71964825738735
 51
293.28035174230217
  0
ENDBLK
  8
0
  5
22A
  0
BLOCK
  8
0
  5
22B
  2
GROUP_6
 70
               0
 10
0.0
 20
0.0
 30
0.0
  3
GROUP_6
  0
LINE
  8
0
  6
CONTINUOUS
 62
               4
  5
22C
 10
495.06155781094418
 20
448.5084217435296
 30
0.0
 11
495.06155781094418
 21
439.6342547684493
 31
0.0
  0
LINE
  8
0
  6
CONTINUOUS
 62
               4
  5
22D
 10
489.57673025364289
 20
448.5084217435296
 30
0.0
 11
489.57673025364289
 21
439.6342547684493
 31
0.0
  0
LINE
  8
0
  6
CONTINUOUS
 62
               4
  5
22E
 10
495.06155781094418
 20
448.5084217435296
 30
0.0
 11
473.16155781094454
 21
448.5084217435296
 31
0.0
  0
LINE
  8
0
  6
CONTINUOUS
 62
               4
  5
22F
 10
492.31914403229365
 20
438.5084217435296
 30
0.0
 11
475.9039715895953
 21
438.5084217435296
 31
0.0
  0
LINE
  8
0
  6
CONTINUOUS
 62
               4
  5
230
 10
473.16155781094454
 20
448.5084217435296
 30
0.0
 11
473.16155781094454
 21
439.6342547684493
 31
0.0
  0
LINE
  8
0
  6
CONTINUOUS
 62
               4
  5
231
 10
478.64638536824583
 20
448.5084217435296
 30
0.0
 11
478.64638536824583
 21
439.6342547684493
 31
0.0
  0
ARC
  8
0
  6
CONTINUOUS
 62
               4
  5
232
 10
492.31914403229365
 20
442.41145760178182
 30
0.0
 40
3.9030358582523994
 50
225.36111921392131
 51
314.6388807857702
  0
ARC
  8
0
  6
CONTINUOUS
 62
               4
  5
233
 10
475.9039715895953
 20
442.41145760178182
 30
0.0
 40
3.9030358582525593
 50
225.36111921391822
 51
314.63888078576792
  0
ARC
  8
0
  6
CONTINUOUS
 62
               4
  5
234
 10
484.11155781094448
 20
452.33623152493561
 30
0.0
 40
13.827809781406303
 50
246.71964825738735
 51
293.28035174230217
  0
ENDBLK
  8
0
  5
235
  0
BLOCK
  8
0
  5
236
  2
GROUP_7
 70
               0
 10
0.0
 20
0.0
 30
0.0
  3
GROUP_7
  0
LINE
  8
0
  6
CONTINUOUS
 62
               4
  5
237
 10
-571.27495032801426
 20
448.50842174352988
 30
0.0
 11
-571.27495032801426
 21
439.63425476844958
 31
0.0
  0
LINE
  8
0
  6
CONTINUOUS
 62
               4
  5
238
 10
-565.79012277071297
 20
448.50842174352988
 30
0.0
 11
-565.79012277071297
 21
439.63425476844958
 31
0.0
  0
LINE
  8
0
  6
CONTINUOUS
 62
               4
  5
239
 10
-571.27495032801426
 20
448.50842174352988
 30
0.0
 11
-549.37495032801451
 21
448.50842174352988
 31
0.0
  0
LINE
  8
0
  6
CONTINUOUS
 62
               4
  5
23A
 10
-568.53253654936361
 20
438.50842174352988
 30
0.0
 11
-552.11736410666526
 21
438.50842174352988
 31
0.0
  0
LINE
  8
0
  6
CONTINUOUS
 62
               4
  5
23B
 10
-549.37495032801451
 20
448.50842174352988
 30
0.0
 11
-549.37495032801451
 21
439.63425476844958
 31
0.0
  0
LINE
  8
0
  6
CONTINUOUS
 62
               4
  5
23C
 10
-554.85977788531591
 20
448.50842174352988
 30
0.0
 11
-554.85977788531591
 21
439.63425476844958
 31
0.0
  0
ARC
  8
0
  6
CONTINUOUS
 62
               4
  5
23D
 10
-568.53253654936361
 20
442.4114576017821
 30
0.0
 40
3.9030358582523994
 50
225.36111921391898
 51
314.63888078576787
  0
ARC
  8
0
  6
CONTINUOUS
 62
               4
  5
23E
 10
-552.11736410666526
 20
442.4114576017821
 30
0.0
 40
3.9030358582525593
 50
225.36111921392131
 51
314.63888078577099
  0
ARC
  8
0
  6
CONTINUOUS
 62
               4
  5
23F
 10
-560.32495032801444
 20
452.3362315249359
 30
0.0
 40
13.827809781406303
 50
246.71964825738735
 51
293.28035174230217
  0
ENDBLK
  8
0
  5
240
  0
BLOCK
  8
0
  5
241
  2
GROUP_8
 70
               0
 10
0.0
 20
0.0
 30
0.0
  3
GROUP_8
  0
LINE
  8
0
  6
CONTINUOUS
 62
               4
  5
242
 10
-704.9384421890561
 20
448.50842174352988
 30
0.0
 11
-704.9384421890561
 21
439.63425476844958
 31
0.0
  0
LINE
  8
0
  6
CONTINUOUS
 62
               4
  5
243
 10
-710.42326974635739
 20
448.50842174352988
 30
0.0
 11
-710.42326974635739
 21
439.63425476844958
 31
0.0
  0
LINE
  8
0
  6
CONTINUOUS
 62
               4
  5
244
 10
-704.9384421890561
 20
448.50842174352988
 30
0.0
 11
-726.83844218905574
 21
448.50842174352988
 31
0.0
  0
LINE
  8
0
  6
CONTINUOUS
 62
               4
  5
245
 10
-707.68085596770675
 20
438.50842174352988
 30
0.0
 11
-724.0960284104051
 21
438.50842174352988
 31
0.0
  0
LINE
  8
0
  6
CONTINUOUS
 62
               4
  5
246
 10
-726.83844218905574
 20
448.50842174352988
 30
0.0
 11
-726.83844218905574
 21
439.63425476844964
 31
0.0
  0
LINE
  8
0
  6
CONTINUOUS
 62
               4
  5
247
 10
-721.35361463175445
 20
448.50842174352988
 30
0.0
 11
-721.35361463175445
 21
439.63425476844958
 31
0.0
  0
ARC
  8
0
  6
CONTINUOUS
 62
               4
  5
248
 10
-707.68085596770675
 20
442.4114576017821
 30
0.0
 40
3.9030358582523994
 50
225.36111921392131
 51
314.6388807857702
  0
ARC
  8
0
  6
CONTINUOUS
 62
               4
  5
249
 10
-724.0960284104051
 20
442.4114576017821
 30
0.0
 40
3.9030358582525593
 50
225.36111921391895
 51
314.63888078576792
  0
ARC
  8
0
  6
CONTINUOUS
 62
               4
  5
24A
 10
-715.88844218905592
 20
452.3362315249359
 30
0.0
 40
13.827809781406303
 50
246.71964825738735
 51
293.28035174230217
  0
ENDBLK
  8
0
  5
24B
  0
ENDSEC
  0
SECTION
  2
ENTITIES
  0
LINE
  8
0
  6
DASHDOT
 62
               4
  5
24C
 10
-38.106696258535244
 20
-230.07953720493776
 30
0.0
 11
-38.106696258535244
 21
510.80842174352824
 31
0.0
  0
LINE
  8
0
  6
DASHDOT
 62
               4
  5
24D
 10
-200.12509224983819
 20
382.30842174352847
 30
0.0
 11
-128.10669625853495
 21
382.30842174352847
 31
0.0
  0
LINE
  8
0
  6
DASHDOT
 62
               4
  5
24E
 10
-638.10669625853529
 20
-230.07953720493776
 30
0.0
 11
-638.10669625853507
 21
510.80842174352824
 31
0.0
  0
LINE
  8
0
  6
DASHDOT
 62
               4
  5
24F
 10
-748.15059965057389
 20
392.30842174352813
 30
0.0
 11
-708.15059965057389
 21
392.30842174352807
 31
0.0
  0
LINE
  8
0
  6
DASHDOT
 62
               4
  5
250
 10
561.89330374146493
 20
-230.07953720493799
 30
0.0
 11
561.89330374146493
 21
510.8084217435279
 31
0.0
  0
LINE
  8
0
  6
DASHDOT
 62
               4
  5
251
 10
671.93720713350376
 20
392.30842174352767
 30
0.0
 11
631.93720713350376
 21
392.30842174352767
 31
0.0
  0
LINE
  8
0
  6
DASHDOT
 62
               4
  5
252
 10
-38.106696258535095
 20
857.65559649219404
 30
0.0
 11
-38.106696258534882
 21
1085.4619952466746
 31
0.0
  0
LINE
  8
0
  6
DASHDOT
 62
               4
  5
253
 10
75.796503118705061
 20
971.55879586943422
 30
0.0
 11
-152.00989563577531
 21
971.55879586943445
 31
0.0
  0
LINE
  8
0
  6
DASHDOT
 62
               4
  5
254
 10
-152.00989563577502
 20
971.55879586943445
 30
0.0
 11
-218.1066962585349
 21
971.55879586943445
 31
0.0
  0
LINE
  8
0
  6
DASHDOT
 62
               4
  5
255
 10
-38.106696258534782
 20
857.65559649219404
 30
0.0
 11
-38.106696258534896
 21
791.55879586943433
 31
0.0
  0
LINE
  8
0
  6
DASHDOT
 62
               4
  5
256
 10
-713.60669625853529
 20
382.30842174352847
 30
0.0
 11
-562.60669625853529
 21
382.30842174352847
 31
0.0
  0
LINE
  8
0
  6
DASHDOT
 62
               4
  5
257
 10
71.937207133503591
 20
392.30842174352796
 30
0.0
 11
31.937207133503591
 21
392.30842174352796
 31
0.0
  0
LINE
  8
0
  6
DASHDOT
 62
               4
  5
258
 10
-476.0883002672324
 20
382.30842174352847
 30
0.0
 11
-548.10669625853564
 21
382.30842174352847
 31
0.0
  0
LINE
  8
0
  6
DASHDOT
 62
               4
  5
259
 10
399.87490775016227
 20
382.30842174352824
 30
0.0
 11
471.8933037414655
 21
382.30842174352824
 31
0.0
  0
LINE
  8
0
  6
DASHDOT
 62
               4
  5
25A
 10
621.89330374146493
 20
392.30842174352745
 30
0.0
 11
501.89330374146499
 21
392.30842174352745
 31
0.0
  0
LINE
  8
0
  6
DASHDOT
 62
               4
  5
25B
 10
-128.60669625853524
 20
382.30842174352847
 30
0.0
 11
52.393303741464763
 21
382.30842174352847
 31
0.0
  0
LINE
  8
0
  6
CONTINUOUS
 62
               4
  5
25C
 10
-110.86063108341622
 20
237.91733145812378
 30
0.0
 11
25.90035421894467
 21
123.16123913147118
 31
0.0
  0
ARC
  8
0
  6
CONTINUOUS
 62
               4
  5
25D
 10
-811.46604612288684
 20
392.16873866556102
 30
0.0
 40
92.090694433536868
 50
334.84855444149014
 51
384.92989747974906
  0
ARC
  8
0
  6
CONTINUOUS
 62
               4
  5
25E
 10
-1207.9500553045693
 20
-85.989738227762132
 30
0.0
 40
687.72820158627314
 50
18.108480790458913
 51
28.09800873007174
  0
ARC
  8
0
  6
CONTINUOUS
 62
               4
  5
25F
 10
-619.5963285411126
 20
170.62403631702529
 30
0.0
 40
69.74273142123306
 50
332.35940834650228
 51
434.76997683358303
  0
ARC
  8
0
  6
CONTINUOUS
 62
               4
  5
260
 10
735.2526536058167
 20
392.16873866556057
 30
0.0
 40
92.090694433536868
 50
155.07010251994018
 51
205.15144555819901
  0
ARC
  8
0
  6
CONTINUOUS
 62
               4
  5
261
 10
539.4050581461579
 20
138.40144147852305
 30
0.0
 40
62.379470432471358
 50
153.87479529768498
 51
191.49340995888267
  0
ARC
  8
0
  6
CONTINUOUS
 62
               4
  5
262
 10
504.52798821812718
 20
122.85368403475451
 30
0.0
 40
10.0
 50
324.2973694335987
 51
398.20421175343364
  0
LINE
  8
0
  6
CONTINUOUS
 62
               4
  5
263
 10
512.3861025430158
 20
129.03834564691914
 30
0.0
 11
472.0942517786437
 21
180.23241082342383
 31
0.0
  0
ARC
  8
0
  6
CONTINUOUS
 62
               4
  5
264
 10
497.19016903308176
 20
128.12695287911328
 30
0.0
 40
19.036091782253322
 50
186.49999999989248
 51
324.29736943359831
  0
ARC
  8
0
  6
CONTINUOUS
 62
               4
  5
265
 10
435.57459491796163
 20
87.809606614178335
 30
0.0
 40
204.24864340422488
 50
353.49999999979656
 51
373.43680216726273
  0
ARC
  8
0
  6
CONTINUOUS
 62
               4
  5
266
 10
473.26560468602264
 20
90.094023683586045
 30
0.0
 40
167.18634723772169
 50
351.25933879873276
 51
375.67746336832698
  0
LINE
  8
0
  6
CONTINUOUS
 62
               4
  5
267
 10
52.675049671985448
 20
448.50842174352869
 30
0.0
 11
52.675049671985448
 21
450.80842174352858
 31
0.0
  0
LINE
  8
0
  6
CONTINUOUS
 62
               4
  5
268
 10
52.675049671985448
 20
450.80842174352858
 30
0.0
 11
26.675049671985505
 21
450.80842174352858
 31
0.0
  0
LINE
  8
0
  6
CONTINUOUS
 62
               4
  5
269
 10
26.675049671985505
 20
448.50842174352869
 30
0.0
 11
52.675049671985448
 21
448.50842174352869
 31
0.0
  0
LINE
  8
0
  6
CONTINUOUS
 62
               4
  5
26A
 10
45.675049671985022
 20
419.80842174352813
 30
0.0
 11
45.67504967198505
 21
438.50842174352977
 31
0.0
  0
LINE
  8
0
  6
CONTINUOUS
 62
               4
  5
26B
 10
33.675049671985022
 20
438.50842174352977
 30
0.0
 11
33.675049671984993
 21
419.80842174352813
 31
0.0
  0
LINE
  8
0
  6
CONTINUOUS
 62
               4
  5
26C
 10
45.675049671985022
 20
419.80842174352813
 30
0.0
 11
33.675049671984993
 21
419.80842174352813
 31
0.0
  0
ARC
  8
0
  6
CONTINUOUS
 62
               4
  5
26D
 10
135.25265360581642
 20
392.16873866556091
 30
0.0
 40
92.090694433536868
 50
155.07010251994015
 51
205.15144555819899
  0
LINE
  8
0
  6
CONTINUOUS
 62
               4
  5
26E
 10
-128.88844218905555
 20
448.50842174352874
 30
0.0
 11
-128.88844218905555
 21
450.80842174352864
 31
0.0
  0
LINE
  8
0
  6
CONTINUOUS
 62
               4
  5
26F
 10
-128.88844218905555
 20
450.80842174352864
 30
0.0
 11
-102.88844218905561
 21
450.80842174352864
 31
0.0
  0
LINE
  8
0
  6
CONTINUOUS
 62
               4
  5
270
 10
-102.88844218905561
 20
450.80842174352864
 30
0.0
 11
-102.88844218905561
 21
448.50842174352874
 31
0.0
  0
LINE
  8
0
  6
CONTINUOUS
 62
               4
  5
271
 10
-102.88844218905561
 20
448.50842174352874
 30
0.0
 11
-128.88844218905555
 21
448.50842174352874
 31
0.0
  0
LINE
  8
0
  6
CONTINUOUS
 62
               4
  5
272
 10
-121.88844218905514
 20
419.80842174352819
 30
0.0
 11
-121.88844218905516
 21
438.50842174352982
 31
0.0
  0
LINE
  8
0
  6
CONTINUOUS
 62
               4
  5
273
 10
-109.88844218905513
 20
438.50842174352982
 30
0.0
 11
-109.88844218905511
 21
419.80842174352819
 31
0.0
  0
LINE
  8
0
  6
CONTINUOUS
 62
               4
  5
274
 10
-121.88844218905514
 20
419.80842174352819
 30
0.0
 11
-109.88844218905511
 21
419.80842174352819
 31
0.0
  0
LINE
  8
0
  6
CONTINUOUS
 62
               4
  5
275
 10
652.67504967198556
 20
448.5084217435284
 30
0.0
 11
652.67504967198556
 21
450.8084217435283
 31
0.0
  0
LINE
  8
0
  6
CONTINUOUS
 62
               4
  5
276
 10
652.67504967198556
 20
450.8084217435283
 30
0.0
 11
626.67504967198579
 21
450.8084217435283
 31
0.0
  0
LINE
  8
0
  6
CONTINUOUS
 62
               4
  5
277
 10
626.67504967198579
 20
448.5084217435284
 30
0.0
 11
652.67504967198556
 21
448.5084217435284
 31
0.0
  0
LINE
  8
0
  6
CONTINUOUS
 62
               4
  5
278
 10
645.67504967198533
 20
419.80842174352784
 30
0.0
 11
645.67504967198533
 21
438.50842174352948
 31
0.0
  0
LINE
  8
0
  6
CONTINUOUS
 62
               4
  5
279
 10
633.67504967198533
 20
438.50842174352948
 30
0.0
 11
633.67504967198511
 21
419.80842174352784
 31
0.0
  0
LINE
  8
0
  6
CONTINUOUS
 62
               4
  5
27A
 10
645.67504967198533
 20
419.80842174352784
 30
0.0
 11
633.67504967198511
 21
419.80842174352784
 31
0.0
  0
LINE
  8
0
  6
CONTINUOUS
 62
               4
  5
27B
 10
471.1115578109447
 20
448.50842174352846
 30
0.0
 11
471.1115578109447
 21
450.80842174352836
 31
0.0
  0
LINE
  8
0
  6
CONTINUOUS
 62
               4
  5
27C
 10
471.1115578109447
 20
450.80842174352836
 30
0.0
 11
497.11155781094459
 21
450.80842174352836
 31
0.0
  0
LINE
  8
0
  6
CONTINUOUS
 62
               4
  5
27D
 10
497.11155781094459
 20
450.80842174352836
 30
0.0
 11
497.11155781094459
 21
448.50842174352846
 31
0.0
  0
LINE
  8
0
  6
CONTINUOUS
 62
               4
  5
27E
 10
497.11155781094459
 20
448.50842174352846
 30
0.0
 11
471.1115578109447
 21
448.50842174352846
 31
0.0
  0
LINE
  8
0
  6
CONTINUOUS
 62
               4
  5
27F
 10
478.11155781094504
 20
419.8084217435279
 30
0.0
 11
478.11155781094504
 21
438.50842174352954
 31
0.0
  0
LINE
  8
0
  6
CONTINUOUS
 62
               4
  5
280
 10
490.11155781094504
 20
438.50842174352954
 30
0.0
 11
490.11155781094516
 21
419.8084217435279
 31
0.0
  0
LINE
  8
0
  6
CONTINUOUS
 62
               4
  5
281
 10
478.11155781094504
 20
419.8084217435279
 30
0.0
 11
490.11155781094516
 21
419.8084217435279
 31
0.0
  0
LINE
  8
0
  6
CONTINUOUS
 62
               4
  5
282
 10
-547.32495032801467
 20
448.50842174352874
 30
0.0
 11
-547.32495032801467
 21
450.80842174352864
 31
0.0
  0
LINE
  8
0
  6
CONTINUOUS
 62
               4
  5
283
 10
-547.32495032801467
 20
450.80842174352864
 30
0.0
 11
-573.32495032801467
 21
450.80842174352864
 31
0.0
  0
LINE
  8
0
  6
CONTINUOUS
 62
               4
  5
284
 10
-573.32495032801467
 20
450.80842174352864
 30
0.0
 11
-573.32495032801467
 21
448.50842174352874
 31
0.0
  0
LINE
  8
0
  6
CONTINUOUS
 62
               4
  5
285
 10
-573.32495032801467
 20
448.50842174352874
 30
0.0
 11
-547.32495032801467
 21
448.50842174352874
 31
0.0
  0
LINE
  8
0
  6
CONTINUOUS
 62
               4
  5
286
 10
-554.32495032801512
 20
419.80842174352819
 30
0.0
 11
-554.32495032801512
 21
438.50842174352982
 31
0.0
  0
LINE
  8
0
  6
CONTINUOUS
 62
               4
  5
287
 10
-566.32495032801512
 20
438.50842174352982
 30
0.0
 11
-566.32495032801512
 21
419.80842174352819
 31
0.0
  0
LINE
  8
0
  6
CONTINUOUS
 62
               4
  5
288
 10
-554.32495032801512
 20
419.80842174352819
 30
0.0
 11
-566.32495032801512
 21
419.80842174352819
 31
0.0
  0
LINE
  8
0
  6
CONTINUOUS
 62
               4
  5
289
 10
-728.8884421890557
 20
448.50842174352874
 30
0.0
 11
-728.8884421890557
 21
450.8084217435287
 31
0.0
  0
LINE
  8
0
  6
CONTINUOUS
 62
               4
  5
28A
 10
-728.8884421890557
 20
450.8084217435287
 30
0.0
 11
-702.8884421890557
 21
450.80842174352864
 31
0.0
  0
LINE
  8
0
  6
CONTINUOUS
 62
               4
  5
28B
 10
-702.8884421890557
 20
450.80842174352864
 30
0.0
 11
-702.8884421890557
 21
448.50842174352874
 31
0.0
  0
LINE
  8
0
  6
CONTINUOUS
 62
               4
  5
28C
 10
-702.8884421890557
 20
448.50842174352874
 30
0.0
 11
-728.8884421890557
 21
448.50842174352874
 31
0.0
  0
LINE
  8
0
  6
CONTINUOUS
 62
               4
  5
28D
 10
-721.88844218905524
 20
419.80842174352824
 30
0.0
 11
-721.88844218905524
 21
438.50842174352982
 31
0.0
  0
LINE
  8
0
  6
CONTINUOUS
 62
               4
  5
28E
 10
-709.88844218905524
 20
438.50842174352982
 30
0.0
 11
-709.88844218905524
 21
419.80842174352819
 31
0.0
  0
LINE
  8
0
  6
CONTINUOUS
 62
               4
  5
28F
 10
-721.88844218905524
 20
419.80842174352824
 30
0.0
 11
-709.88844218905524
 21
419.80842174352819
 31
0.0
  0
LINE
  8
0
  6
CONTINUOUS
 62
               4
  5
290
 10
-70.940284371004793
 20
490.80842174352824
 30
0.0
 11
-70.940284371004793
 21
486.80842174352836
 31
0.0
  0
LINE
  8
0
  6
CONTINUOUS
 62
               4
  5
291
 10
-70.940284371004793
 20
486.80842174352836
 30
0.0
 11
-143.10669625853524
 21
486.80842174352836
 31
0.0
  0
LINE
  8
0
  6
CONTINUOUS
 62
               4
  5
292
 10
-5.2731081460651765
 20
486.80842174352836
 30
0.0
 11
66.89330374146526
 21
486.80842174352836
 31
0.0
  0
LINE
  8
0
  6
CONTINUOUS
 62
               4
  5
293
 10
-5.2731081460651765
 20
490.80842174352824
 30
0.0
 11
-5.2731081460651765
 21
486.80842174352836
 31
0.0
  0
LINE
  8
0
  6
CONTINUOUS
 62
               4
  5
294
 10
56.752111138462354
 20
486.80842174352836
 30
0.0
 11
56.752111138462354
 21
491.40842174352827
 31
0.0
  0
LINE
  8
0
  6
CONTINUOUS
 62
               4
  5
295
 10
53.801523673346495
 20
491.40842174352827
 30
0.0
 11
47.925049671984723
 21
494.80842174352824
 31
0.0
  0
LINE
  8
0
  6
CONTINUOUS
 62
               4
  5
296
 10
31.425049671984738
 20
494.80842174352824
 30
0.0
 11
47.925049671984723
 21
494.80842174352824
 31
0.0
  0
LINE
  8
0
  6
CONTINUOUS
 62
               4
  5
297
 10
31.425049671984738
 20
494.80842174352824
 30
0.0
 11
31.425049671984738
 21
486.80842174352813
 31
0.0
  0
LINE
  8
0
  6
CONTINUOUS
 62
               4
  5
298
 10
56.752111138462354
 20
491.40842174352827
 30
0.0
 11
53.801523673346423
 21
491.40842174352827
 31
0.0
  0
LINE
  8
0
  6
CONTINUOUS
 62
               4
  5
299
 10
-98.811380722577155
 20
486.80842174352847
 30
0.0
 11
-98.811380722577155
 21
491.40842174352849
 31
0.0
  0
LINE
  8
0
  6
CONTINUOUS
 62
               4
  5
29A
 10
-101.76196818769301
 20
491.40842174352838
 30
0.0
 11
-107.63844218905479
 21
494.80842174352847
 31
0.0
  0
LINE
  8
0
  6
CONTINUOUS
 62
               4
  5
29B
 10
-124.13844218905484
 20
494.80842174352836
 30
0.0
 11
-107.63844218905479
 21
494.80842174352847
 31
0.0
  0
LINE
  8
0
  6
CONTINUOUS
 62
               4
  5
29C
 10
-110.83219600274862
 20
486.80842174352836
 30
0.0
 11
-110.83219600274862
 21
491.40842174352838
 31
0.0
  0
LINE
  8
0
  6
CONTINUOUS
 62
               4
  5
29D
 10
-98.811380722577155
 20
491.40842174352849
 30
0.0
 11
-113.78278346786448
 21
491.40842174352838
 31
0.0
  0
LINE
  8
0
  6
CONTINUOUS
 62
               4
  5
29E
 10
-121.29529643854727
 20
494.80842174352847
 30
0.0
 11
-113.78278346786448
 21
491.40842174352838
 31
0.0
  0
LINE
  8
0
  6
CONTINUOUS
 62
               4
  5
29F
 10
-124.13844218905484
 20
494.80842174352836
 30
0.0
 11
-124.13844218905484
 21
486.80842174352836
 31
0.0
  0
LINE
  8
0
  6
CONTINUOUS
 62
               4
  5
2A0
 10
-670.94028437100496
 20
490.80842174352824
 30
0.0
 11
-670.94028437100496
 21
486.80842174352836
 31
0.0
  0
LINE
  8
0
  6
CONTINUOUS
 62
               4
  5
2A1
 10
-670.94028437100496
 20
486.80842174352836
 30
0.0
 11
-743.10669625853529
 21
486.80842174352836
 31
0.0
  0
LINE
  8
0
  6
CONTINUOUS
 62
               4
  5
2A2
 10
-605.2731081460654
 20
486.80842174352836
 30
0.0
 11
-533.10669625853484
 21
486.80842174352836
 31
0.0
  0
LINE
  8
0
  6
CONTINUOUS
 62
               4
  5
2A3
 10
-605.2731081460654
 20
490.80842174352824
 30
0.0
 11
-605.2731081460654
 21
486.80842174352836
 31
0.0
  0
LINE
  8
0
  6
CONTINUOUS
 62
               4
  5
2A4
 10
-543.24788886153783
 20
486.80842174352836
 30
0.0
 11
-543.24788886153783
 21
491.40842174352827
 31
0.0
  0
LINE
  8
0
  6
CONTINUOUS
 62
               4
  5
2A5
 10
-546.19847632665369
 20
491.40842174352827
 30
0.0
 11
-552.07495032801535
 21
494.80842174352824
 31
0.0
  0
LINE
  8
0
  6
CONTINUOUS
 62
               4
  5
2A6
 10
-568.57495032801535
 20
494.80842174352824
 30
0.0
 11
-552.07495032801535
 21
494.80842174352824
 31
0.0
  0
LINE
  8
0
  6
CONTINUOUS
 62
               4
  5
2A7
 10
-568.57495032801535
 20
494.80842174352824
 30
0.0
 11
-568.57495032801535
 21
486.80842174352813
 31
0.0
  0
LINE
  8
0
  6
CONTINUOUS
 62
               4
  5
2A8
 10
-543.24788886153783
 20
491.40842174352827
 30
0.0
 11
-546.19847632665369
 21
491.40842174352827
 31
0.0
  0
LINE
  8
0
  6
CONTINUOUS
 62
               4
  5
2A9
 10
-698.81138072257727
 20
486.80842174352847
 30
0.0
 11
-698.81138072257727
 21
491.40842174352849
 31
0.0
  0
LINE
  8
0
  6
CONTINUOUS
 62
               4
  5
2AA
 10
-701.76196818769313
 20
491.40842174352838
 30
0.0
 11
-707.63844218905501
 21
494.80842174352847
 31
0.0
  0
LINE
  8
0
  6
CONTINUOUS
 62
               4
  5
2AB
 10
-724.13844218905501
 20
494.80842174352836
 30
0.0
 11
-707.63844218905501
 21
494.80842174352847
 31
0.0
  0
LINE
  8
0
  6
CONTINUOUS
 62
               4
  5
2AC
 10
-710.83219600274879
 20
486.80842174352836
 30
0.0
 11
-710.83219600274879
 21
491.40842174352838
 31
0.0
  0
LINE
  8
0
  6
CONTINUOUS
 62
               4
  5
2AD
 10
-698.81138072257727
 20
491.40842174352849
 30
0.0
 11
-713.78278346786465
 21
491.40842174352838
 31
0.0
  0
LINE
  8
0
  6
CONTINUOUS
 62
               4
  5
2AE
 10
-721.29529643854744
 20
494.80842174352847
 30
0.0
 11
-713.78278346786465
 21
491.40842174352838
 31
0.0
  0
LINE
  8
0
  6
CONTINUOUS
 62
               4
  5
2AF
 10
-724.13844218905501
 20
494.80842174352836
 30
0.0
 11
-724.13844218905501
 21
486.80842174352836
 31
0.0
  0
LINE
  8
0
  6
CONTINUOUS
 62
               4
  5
2B0
 10
529.05971562899549
 20
490.8084217435279
 30
0.0
 11
529.05971562899549
 21
486.80842174352802
 31
0.0
  0
LINE
  8
0
  6
CONTINUOUS
 62
               4
  5
2B1
 10
529.05971562899549
 20
486.80842174352802
 30
0.0
 11
456.89330374146499
 21
486.80842174352802
 31
0.0
  0
LINE
  8
0
  6
CONTINUOUS
 62
               4
  5
2B2
 10
594.72689185393506
 20
486.80842174352802
 30
0.0
 11
666.89330374146539
 21
486.80842174352802
 31
0.0
  0
LINE
  8
0
  6
CONTINUOUS
 62
               4
  5
2B3
 10
594.72689185393506
 20
490.8084217435279
 30
0.0
 11
594.72689185393506
 21
486.80842174352802
 31
0.0
  0
LINE
  8
0
  6
CONTINUOUS
 62
               4
  5
2B4
 10
656.75211113846262
 20
486.80842174352802
 30
0.0
 11
656.75211113846262
 21
491.40842174352792
 31
0.0
  0
LINE
  8
0
  6
CONTINUOUS
 62
               4
  5
2B5
 10
653.80152367334676
 20
491.40842174352792
 30
0.0
 11
647.92504967198488
 21
494.8084217435279
 31
0.0
  0
LINE
  8
0
  6
CONTINUOUS
 62
               4
  5
2B6
 10
631.42504967198488
 20
494.8084217435279
 30
0.0
 11
647.92504967198488
 21
494.8084217435279
 31
0.0
  0
LINE
  8
0
  6
CONTINUOUS
 62
               4
  5
2B7
 10
631.42504967198488
 20
494.8084217435279
 30
0.0
 11
631.42504967198488
 21
486.80842174352779
 31
0.0
  0
LINE
  8
0
  6
CONTINUOUS
 62
               4
  5
2B8
 10
656.75211113846262
 20
491.40842174352792
 30
0.0
 11
653.80152367334654
 21
491.40842174352792
 31
0.0
  0
LINE
  8
0
  6
CONTINUOUS
 62
               4
  5
2B9
 10
501.18861927742302
 20
486.80842174352813
 30
0.0
 11
501.18861927742302
 21
491.40842174352815
 31
0.0
  0
LINE
  8
0
  6
CONTINUOUS
 62
               4
  5
2BA
 10
498.23803181230716
 20
491.40842174352804
 30
0.0
 11
492.3615578109455
 21
494.80842174352813
 31
0.0
  0
LINE
  8
0
  6
CONTINUOUS
 62
               4
  5
2BB
 10
475.86155781094538
 20
494.80842174352802
 30
0.0
 11
492.3615578109455
 21
494.80842174352813
 31
0.0
  0
LINE
  8
0
  6
CONTINUOUS
 62
               4
  5
2BC
 10
489.16780399725161
 20
486.80842174352802
 30
0.0
 11
489.16780399725161
 21
491.40842174352804
 31
0.0
  0
LINE
  8
0
  6
CONTINUOUS
 62
               4
  5
2BD
 10
501.18861927742302
 20
491.40842174352815
 30
0.0
 11
486.21721653213575
 21
491.40842174352804
 31
0.0
  0
LINE
  8
0
  6
CONTINUOUS
 62
               4
  5
2BE
 10
478.70470356145296
 20
494.80842174352813
 30
0.0
 11
486.21721653213575
 21
491.40842174352804
 31
0.0
  0
LINE
  8
0
  6
CONTINUOUS
 62
               4
  5
2BF
 10
475.86155781094538
 20
494.80842174352802
 30
0.0
 11
475.86155781094538
 21
486.80842174352802
 31
0.0
  0
LINE
  8
0
  6
CONTINUOUS
 62
               4
  5
2C0
 10
-547.32495032801512
 20
448.50842174352874
 30
0.0
 11
-547.32495032801512
 21
450.80842174352864
 31
0.0
  0
LINE
  8
0
  6
CONTINUOUS
 62
               4
  5
2C1
 10
26.675049671985505
 20
450.80842174352858
 30
0.0
 11
26.675049671985505
 21
448.50842174352869
 31
0.0
  0
LINE
  8
0
  6
CONTINUOUS
 62
               4
  5
2C2
 10
18.893303741464791
 20
-68.191578256471473
 30
0.0
 11
-95.106696258535194
 21
-68.191578256471473
 31
0.0
  0
LINE
  8
0
  6
CONTINUOUS
 62
               4
  5
2C3
 10
19.946346564638176
 20
-67.138535433297932
 30
0.0
 11
-96.159739081708537
 21
-67.138535433297932
 31
0.0
  0
LINE
  8
0
  6
CONTINUOUS
 62
               4
  5
2C4
 10
-581.10669625853529
 20
-68.191578256471473
 30
0.0
 11
-695.10669625853529
 21
-68.191578256471473
 31
0.0
  0
LINE
  8
0
  6
CONTINUOUS
 62
               4
  5
2C5
 10
-580.05365343536187
 20
-67.138535433298046
 30
0.0
 11
-696.15973908170872
 21
-67.138535433298046
 31
0.0
  0
LINE
  8
0
  6
CONTINUOUS
 62
               4
  5
2C6
 10
618.89330374146493
 20
-68.191578256471701
 30
0.0
 11
504.89330374146499
 21
-68.191578256471701
 31
0.0
  0
LINE
  8
0
  6
CONTINUOUS
 62
               4
  5
2C7
 10
619.94634656463836
 20
-67.138535433298273
 30
0.0
 11
503.84026091829168
 21
-67.138535433298273
 31
0.0
  0
LINE
  8
0
  6
CONTINUOUS
 62
               3
  5
2C8
 10
-190.09043989129384
 20
452.30842174352847
 30
0.0
 11
-146.00199776842794
 21
453.84802406815129
 31
0.0
  0
LINE
  8
0
  6
CONTINUOUS
 62
               3
  5
2C9
 10
-190.10669625853498
 20
312.30842174352847
 30
0.0
 11
-142.40169226028877
 21
310.64252629530267
 31
0.0
  0
LINE
  8
0
  6
CONTINUOUS
 62
               3
  5
2CA
 10
-139.04065583786848
 20
309.18110606613993
 30
0.0
 11
-129.57116235260204
 21
299.71161258087329
 31
0.0
  0
ARC
  8
0
  6
CONTINUOUS
 62
               3
  5
2CB
 10
-142.57618974380125
 20
305.64557216020717
 30
0.0
 40
5.0
 50
44.999999999974108
 51
87.999999999949068
  0
ARC
  8
0
  6
CONTINUOUS
 62
               3
  5
2CC
 10
-133.10669625853495
 20
296.17607867494064
 30
0.0
 40
5.0
 50
0.0
 51
44.999999999973646
  0
LINE
  8
0
  6
CONTINUOUS
 62
               3
  5
2CD
 10
58.893303741464791
 20
470.30842174352847
 30
0.0
 11
28.893303741464791
 21
470.30842174352847
 31
0.0
  0
LINE
  8
0
  6
CONTINUOUS
 62
               3
  5
2CE
 10
66.893303741465047
 20
468.80842174352841
 30
0.0
 11
66.893303741465047
 21
453.80842174352836
 31
0.0
  0
LINE
  8
0
  6
CONTINUOUS
 62
               3
  5
2CF
 10
-190.09043989129384
 20
452.30842174352847
 30
0.0
 11
-190.09043989129384
 21
312.30785405867528
 31
0.0
  0
LINE
  8
0
  6
CONTINUOUS
 62
               3
  5
2D0
 10
58.893303741464791
 20
470.30842174352847
 30
0.0
 11
59.393303741464763
 21
468.80842174352841
 31
0.0
  0
LINE
  8
0
  6
CONTINUOUS
 62
               3
  5
2D1
 10
28.893303741464791
 20
470.30842174352847
 30
0.0
 11
27.393303741464877
 21
468.80842174352841
 31
0.0
  0
LINE
  8
0
  6
CONTINUOUS
 62
               3
  5
2D2
 10
59.393303741464763
 20
468.80842174352841
 30
0.0
 11
66.893303741465047
 21
468.80842174352841
 31
0.0
  0
LINE
  8
0
  6
CONTINUOUS
 62
               3
  5
2D3
 10
-135.10669625853518
 20
470.30842174352847
 30
0.0
 11
-105.10669625853519
 21
470.30842174352847
 31
0.0
  0
LINE
  8
0
  6
CONTINUOUS
 62
               3
  5
2D4
 10
-143.10669625853538
 20
468.80842174352841
 30
0.0
 11
-143.10669625853529
 21
453.80842174352841
 31
0.0
  0
ARC
  8
0
  6
CONTINUOUS
 62
               3
  5
2D5
 10
-140.10669625853527
 20
453.80842174352841
 30
0.0
 40
3.0000000000000004
 50
179.99999999989646
 51
269.9999999998447
  0
LINE
  8
0
  6
CONTINUOUS
 62
               3
  5
2D6
 10
-135.10669625853518
 20
470.30842174352847
 30
0.0
 11
-135.60669625853518
 21
468.80842174352841
 31
0.0
  0
LINE
  8
0
  6
CONTINUOUS
 62
               3
  5
2D7
 10
-105.10669625853519
 20
470.30842174352847
 30
0.0
 11
-103.60669625853521
 21
468.80842174352841
 31
0.0
  0
LINE
  8
0
  6
CONTINUOUS
 62
               3
  5
2D8
 10
-135.60669625853518
 20
468.80842174352841
 30
0.0
 11
-143.10669625853538
 21
468.80842174352841
 31
0.0
  0
ARC
  8
0
  6
CONTINUOUS
 62
               3
  5
2D9
 10
-146.10669625853541
 20
456.84619654920868
 30
0.0
 40
3.0000000000000004
 50
271.99999999984254
 51
359.99999999979286
  0
LINE
  8
0
  6
CONTINUOUS
 62
               3
  5
2DA
 10
-128.10669625853495
 20
296.17607867494064
 30
0.0
 11
-128.10669625853495
 21
181.99610911032448
 31
0.0
  0
ARC
  8
0
  6
CONTINUOUS
 62
               3
  5
2DB
 10
-120.10669625853519
 20
307.30842174352847
 30
0.0
 40
2.5
 50
89.999999999948017
 51
269.99999999984499
  0
LINE
  8
0
  6
CONTINUOUS
 62
               3
  5
2DC
 10
-103.60669625853521
 20
468.80842174352841
 30
0.0
 11
27.393303741464877
 21
468.80842174352841
 31
0.0
  0
ARC
  8
0
  6
CONTINUOUS
 62
               3
  5
2DD
 10
-81.390714704251181
 20
307.30842174352847
 30
0.0
 40
2.5
 50
269.99999999984453
 51
449.99999999974102
  0
LINE
  8
0
  6
CONTINUOUS
 62
               3
  5
2DE
 10
-120.10669625853519
 20
304.80842174352847
 30
0.0
 11
-81.390714704251181
 21
304.80842174352847
 31
0.0
  0
LINE
  8
0
  6
CONTINUOUS
 62
               3
  5
2DF
 10
5.1773221871807777
 20
304.80842174352847
 30
0.0
 11
51.893303741464621
 21
304.80842174352847
 31
0.0
  0
LINE
  8
0
  6
CONTINUOUS
 62
               3
  5
2E0
 10
-120.10669625853519
 20
309.80842174352847
 30
0.0
 11
-81.390714704251181
 21
309.80842174352847
 31
0.0
  0
LINE
  8
0
  6
CONTINUOUS
 62
               3
  5
2E1
 10
5.1773221871807777
 20
309.80842174352847
 30
0.0
 11
51.893303741464621
 21
309.80842174352847
 31
0.0
  0
ARC
  8
0
  6
CONTINUOUS
 62
               3
  5
2E2
 10
5.1773221871807777
 20
307.30842174352847
 30
0.0
 40
2.5
 50
89.999999999948017
 51
269.99999999984453
  0
LINE
  8
0
  6
CONTINUOUS
 62
               3
  5
2E3
 10
49.614591575431859
 20
161.99610911032448
 30
0.0
 11
35.172015907497752
 21
35.235249329797114
 31
0.0
  0
LINE
  8
0
  6
CONTINUOUS
 62
               3
  5
2E4
 10
-193.1066962585351
 20
449.97997786949259
 30
0.0
 11
-192.41888376532972
 21
449.97997786949259
 31
0.0
  0
LINE
  8
0
  6
CONTINUOUS
 62
               3
  5
2E5
 10
-190.09043989129384
 20
452.30842174352847
 30
0.0
 11
-192.41888376532972
 21
449.97997786949259
 31
0.0
  0
LINE
  8
0
  6
CONTINUOUS
 62
               3
  5
2E6
 10
-193.1066962585351
 20
452.30842174352836
 30
0.0
 11
-195.6066962585351
 21
452.30842174352836
 31
0.0
  0
ARC
  8
0
  6
CONTINUOUS
 62
               3
  5
2E7
 10
-195.6066962585351
 20
449.80842174352836
 30
0.0
 40
2.5
 50
89.999999999948997
 51
179.99999999989652
  0
LINE
  8
0
  6
CONTINUOUS
 62
               3
  5
2E8
 10
-193.1066962585351
 20
314.63686561756435
 30
0.0
 11
-192.41888376532972
 21
314.63686561756435
 31
0.0
  0
LINE
  8
0
  6
CONTINUOUS
 62
               3
  5
2E9
 10
-190.09043989129384
 20
312.30842174352847
 30
0.0
 11
-192.41888376532972
 21
314.63686561756435
 31
0.0
  0
LINE
  8
0
  6
CONTINUOUS
 62
               3
  5
2EA
 10
-193.1066962585351
 20
312.30842174352858
 30
0.0
 11
-195.6066962585351
 21
312.30842174352858
 31
0.0
  0
ARC
  8
0
  6
CONTINUOUS
 62
               3
  5
2EB
 10
-195.6066962585351
 20
314.80842174352858
 30
0.0
 40
2.5
 50
179.99999999989603
 51
269.99999999984499
  0
LINE
  8
0
  6
CONTINUOUS
 62
               3
  5
2EC
 10
-198.1066962585351
 20
449.80842174352836
 30
0.0
 11
-198.1066962585351
 21
314.80842174352858
 31
0.0
  0
LINE
  8
0
  6
CONTINUOUS
 62
               3
  5
2ED
 10
-193.1066962585351
 20
312.30842174352858
 30
0.0
 11
-193.1066962585351
 21
452.30842174352836
 31
0.0
  0
LINE
  8
0
  6
CONTINUOUS
 62
               3
  5
2EE
 10
-192.41888376532972
 20
449.97997786949259
 30
0.0
 11
-192.41888376532972
 21
314.63686561756435
 31
0.0
  0
ARC
  8
0
  6
CONTINUOUS
 62
               3
  5
2EF
 10
51.893303741464621
 20
307.30842174352847
 30
0.0
 40
2.5
 50
269.99999999984499
 51
449.99999999974102
  0
LINE
  8
0
  6
CONTINUOUS
 62
               3
  5
2F0
 10
52.375801379995977
 20
164.14675785367376
 30
0.0
 11
54.094225346236556
 21
179.22917143671322
 31
0.0
  0
ARC
  8
0
  6
CONTINUOUS
 62
               3
  5
2F1
 10
51.610295707045111
 20
179.51217947113304
 30
0.0
 40
2.5
 50
353.49999999979599
 51
443.49999999974438
  0
ARC
  8
0
  6
CONTINUOUS
 62
               3
  5
2F2
 10
49.897599609851795
 20
164.48003874951604
 30
0.0
 40
2.5
 50
263.49999999984698
 51
353.49999999979599
  0
LINE
  8
0
  6
CONTINUOUS
 62
               3
  5
2F3
 10
-128.58919389706637
 20
164.14675785367376
 30
0.0
 11
-130.30761786330697
 21
179.22917143671322
 31
0.0
  0
ARC
  8
0
  6
CONTINUOUS
 62
               3
  5
2F4
 10
-127.82368822411544
 20
179.51217947113304
 30
0.0
 40
2.5
 50
96.499999999944706
 51
186.49999999989333
  0
ARC
  8
0
  6
CONTINUOUS
 62
               3
  5
2F5
 10
-126.11099212692213
 20
164.48003874951604
 30
0.0
 40
2.5
 50
186.49999999989333
 51
276.49999999984232
  0
LINE
  8
0
  6
CONTINUOUS
 62
               3
  5
2F6
 10
-125.82798409250219
 20
161.99610911032448
 30
0.0
 11
-111.38540842456815
 21
35.235249329797114
 31
0.0
  0
LINE
  8
0
  6
CONTINUOUS
 62
               3
  5
2F7
 10
-138.60669625853521
 20
476.80842174352836
 30
0.0
 11
-138.60669625853521
 21
468.80842174352841
 31
0.0
  0
LINE
  8
0
  6
CONTINUOUS
 62
               3
  5
2F8
 10
62.393303741464877
 20
468.80842174352841
 30
0.0
 11
62.393303741464877
 21
476.80842174352836
 31
0.0
  0
LINE
  8
0
  6
CONTINUOUS
 62
               3
  5
2F9
 10
-125.82798409250205
 20
161.99610911032448
 30
0.0
 11
-71.84115529014359
 21
161.99610911032443
 31
0.0
  0
LINE
  8
0
  6
CONTINUOUS
 62
               3
  5
2FA
 10
-15.613879391067115
 20
161.99610911032448
 30
0.0
 11
49.614591575431859
 21
161.99610911032448
 31
0.0
  0
LINE
  8
0
  6
CONTINUOUS
 62
               3
  5
2FB
 10
-128.10669625853495
 20
181.99610911032448
 30
0.0
 11
-85.843982125670479
 21
181.99610911032443
 31
0.0
  0
LINE
  8
0
  6
CONTINUOUS
 62
               3
  5
2FC
 10
-39.209654617281331
 20
181.99610911032448
 30
0.0
 11
51.893303741464763
 21
181.99610911032448
 31
0.0
  0
ARC
  8
0
  6
CONTINUOUS
 62
               3
  5
2FD
 10
-115.88844218905503
 20
1049.3405417999543
 30
0.0
 40
17.5
 50
97.698209707796948
 51
172.30179029204734
  0
ARC
  8
0
  6
CONTINUOUS
 62
               3
  5
2FE
 10
39.675049671985334
 20
1049.3405417999543
 30
0.0
 40
17.5
 50
7.6982097078486067
 51
82.301790292099525
  0
LINE
  8
0
  6
CONTINUOUS
 62
               3
  5
2FF
 10
65.946979253552954
 20
985.62409403282675
 30
0.0
 11
57.017328923999926
 21
1051.6847581605198
 31
0.0
  0
ARC
  8
0
  6
CONTINUOUS
 62
               3
  5
300
 10
-115.88844218905503
 20
893.77704993891416
 30
0.0
 40
17.5
 50
187.69820970774509
 51
262.30179029199587
  0
LINE
  8
0
  6
CONTINUOUS
 62
               3
  5
301
 10
-118.23265854962041
 20
876.43477068689958
 30
0.0
 11
-52.171994421927181
 21
867.50512035734687
 31
0.0
  0
ARC
  8
0
  6
CONTINUOUS
 62
               3
  5
302
 10
39.675049671985334
 20
893.77704993891416
 30
0.0
 40
17.5
 50
277.69820970769331
 51
352.3017902919442
  0
LINE
  8
0
  6
CONTINUOUS
 62
               3
  5
303
 10
42.019266032550576
 20
876.43477068689958
 30
0.0
 11
-24.041398095142654
 21
867.50512035734687
 31
0.0
  0
LINE
  8
0
  6
CONTINUOUS
 62
               3
  5
304
 10
65.946979253552954
 20
957.49349770604192
 30
0.0
 11
57.017328923999926
 21
891.43283357834889
 31
0.0
  0
ARC
  8
0
  6
CONTINUOUS
 62
               3
  5
305
 10
-38.106696258534882
 20
971.55879586943445
 30
0.0
 40
105.0
 50
262.3017902919961
 51
277.69820970769331
  0
ARC
  8
0
  6
CONTINUOUS
 62
               3
  5
306
 10
-38.106696258534882
 20
971.55879586943445
 30
0.0
 40
105.0
 50
352.30179029194409
 51
367.69820970764152
  0
LINE
  8
0
  6
CONTINUOUS
 62
               3
  5
307
 10
-134.33622625650395
 20
1043.5063435968218
 30
0.0
 11
-133.2307214410697
 21
1051.6847581605198
 31
0.0
  0
LINE
  8
0
  6
CONTINUOUS
 62
               3
  5
308
 10
-134.33622625650395
 20
1043.5063435968218
 30
0.0
 11
-142.1603717706227
 21
985.62409403282675
 31
0.0
  0
ARC
  8
0
  6
CONTINUOUS
 62
               3
  5
309
 10
-38.106696258534882
 20
971.55879586943445
 30
0.0
 40
105.0
 50
172.3017902920476
 51
187.69820970774524
  0
LINE
  8
0
  6
CONTINUOUS
 62
               3
  5
30A
 10
-134.33630335638435
 20
899.61181851928723
 30
0.0
 11
-133.2307214410697
 21
891.43283357834889
 31
0.0
  0
LINE
  8
0
  6
CONTINUOUS
 62
               3
  5
30B
 10
-142.1603717706227
 20
957.49349770604192
 30
0.0
 11
-134.33630335638435
 21
899.61181851928723
 31
0.0
  0
LINE
  8
0
  6
CONTINUOUS
 62
               3
  5
30C
 10
-97.494959614918415
 20
1069.486008131174
 30
0.0
 11
-52.171994421927181
 21
1075.612471381522
 31
0.0
  0
LINE
  8
0
  6
CONTINUOUS
 62
               3
  5
30D
 10
-118.23265854962041
 20
1066.6828210519693
 30
0.0
 11
-97.494959614918415
 21
1069.486008131174
 31
0.0
  0
ARC
  8
0
  6
CONTINUOUS
 62
               3
  5
30E
 10
-38.106696258534882
 20
971.55879586943445
 30
0.0
 40
105.0
 50
82.301790292099511
 51
97.698209707796877
  0
LINE
  8
0
  6
CONTINUOUS
 62
               3
  5
30F
 10
-24.041398095142654
 20
1075.612471381522
 30
0.0
 11
21.171361366055137
 21
1069.5009050242375
 31
0.0
  0
LINE
  8
0
  6
CONTINUOUS
 62
               3
  5
310
 10
42.019266032550576
 20
1066.6828210519693
 30
0.0
 11
21.171361366055137
 21
1069.5009050242375
 31
0.0
  0
LINE
  8
0
  6
CONTINUOUS
 62
               3
  5
311
 10
-190.09043989129356
 20
1041.5587958694341
 30
0.0
 11
-190.09043989129356
 21
901.55822818458114
 31
0.0
  0
LINE
  8
0
  6
CONTINUOUS
 62
               3
  5
312
 10
-193.10669625853481
 20
1039.2303519953985
 30
0.0
 11
-192.41888376532944
 21
1039.2303519953985
 31
0.0
  0
LINE
  8
0
  6
CONTINUOUS
 62
               3
  5
313
 10
-190.09043989129356
 20
1041.5587958694341
 30
0.0
 11
-192.41888376532944
 21
1039.2303519953985
 31
0.0
  0
LINE
  8
0
  6
CONTINUOUS
 62
               3
  5
314
 10
-193.10669625853481
 20
1041.5587958694341
 30
0.0
 11
-195.60669625853481
 21
1041.5587958694341
 31
0.0
  0
ARC
  8
0
  6
CONTINUOUS
 62
               3
  5
315
 10
-195.60669625853481
 20
1039.0587958694341
 30
0.0
 40
2.5
 50
89.999999999948997
 51
179.99999999989799
  0
LINE
  8
0
  6
CONTINUOUS
 62
               3
  5
316
 10
-193.10669625853481
 20
903.88723974346999
 30
0.0
 11
-192.41888376532944
 21
903.88723974346999
 31
0.0
  0
LINE
  8
0
  6
CONTINUOUS
 62
               3
  5
317
 10
-190.09043989129356
 20
901.55879586943411
 30
0.0
 11
-192.41888376532944
 21
903.88723974346999
 31
0.0
  0
LINE
  8
0
  6
CONTINUOUS
 62
               3
  5
318
 10
-193.10669625853481
 20
901.55879586943456
 30
0.0
 11
-195.60669625853481
 21
901.55879586943456
 31
0.0
  0
ARC
  8
0
  6
CONTINUOUS
 62
               3
  5
319
 10
-195.60669625853481
 20
904.05879586943456
 30
0.0
 40
2.5
 50
179.99999999989799
 51
269.99999999984499
  0
LINE
  8
0
  6
CONTINUOUS
 62
               3
  5
31A
 10
-198.10669625853481
 20
1039.0587958694341
 30
0.0
 11
-198.10669625853481
 21
904.05879586943456
 31
0.0
  0
LINE
  8
0
  6
CONTINUOUS
 62
               3
  5
31B
 10
-193.10669625853481
 20
901.55879586943456
 30
0.0
 11
-193.10669625853481
 21
1041.5587958694341
 31
0.0
  0
LINE
  8
0
  6
CONTINUOUS
 62
               3
  5
31C
 10
-192.41888376532944
 20
1039.2303519953985
 30
0.0
 11
-192.41888376532944
 21
903.88723974346999
 31
0.0
  0
LINE
  8
0
  6
CONTINUOUS
 62
               3
  5
31D
 10
-190.09043989129356
 20
1041.5587958694341
 30
0.0
 11
-134.33630335638458
 21
1043.505773219581
 31
0.0
  0
LINE
  8
0
  6
CONTINUOUS
 62
               3
  5
31E
 10
-190.1066962585347
 20
901.55879586943411
 30
0.0
 11
-134.33622625650375
 21
899.61124814204618
 31
0.0
  0
LINE
  8
0
  6
CONTINUOUS
 62
               3
  5
31F
 10
-735.10669625853507
 20
470.30842174352847
 30
0.0
 11
-705.10669625853507
 21
470.30842174352847
 31
0.0
  0
LINE
  8
0
  6
CONTINUOUS
 62
               3
  5
320
 10
-743.10669625853529
 20
468.80842174352847
 30
0.0
 11
-743.10669625853529
 21
453.80842174352836
 31
0.0
  0
LINE
  8
0
  6
CONTINUOUS
 62
               3
  5
321
 10
-735.10669625853507
 20
470.30842174352847
 30
0.0
 11
-735.60669625853507
 21
468.80842174352847
 31
0.0
  0
LINE
  8
0
  6
CONTINUOUS
 62
               3
  5
322
 10
-705.10669625853507
 20
470.30842174352847
 30
0.0
 11
-703.60669625853507
 21
468.80842174352847
 31
0.0
  0
LINE
  8
0
  6
CONTINUOUS
 62
               3
  5
323
 10
-735.60669625853507
 20
468.80842174352847
 30
0.0
 11
-743.10669625853529
 21
468.80842174352847
 31
0.0
  0
LINE
  8
0
  6
CONTINUOUS
 62
               3
  5
324
 10
-541.10669625853484
 20
470.30842174352836
 30
0.0
 11
-571.10669625853484
 21
470.30842174352836
 31
0.0
  0
LINE
  8
0
  6
CONTINUOUS
 62
               3
  5
325
 10
-541.10669625853484
 20
470.30842174352836
 30
0.0
 11
-540.60669625853507
 21
468.80842174352836
 31
0.0
  0
LINE
  8
0
  6
CONTINUOUS
 62
               3
  5
326
 10
-571.10669625853484
 20
470.30842174352836
 30
0.0
 11
-572.60669625853507
 21
468.80842174352841
 31
0.0
  0
LINE
  8
0
  6
CONTINUOUS
 62
               3
  5
327
 10
-540.60669625853507
 20
468.80842174352836
 30
0.0
 11
-533.10669625853484
 21
468.80842174352836
 31
0.0
  0
ARC
  8
0
  6
CONTINUOUS
 62
               3
  5
328
 10
-556.10669625853507
 20
307.30842174352836
 30
0.0
 40
2.5
 50
269.99999999984306
 51
449.99999999974102
  0
LINE
  8
0
  6
CONTINUOUS
 62
               3
  5
329
 10
-572.60669625853507
 20
468.80842174352841
 30
0.0
 11
-703.60669625853507
 21
468.80842174352847
 31
0.0
  0
ARC
  8
0
  6
CONTINUOUS
 62
               3
  5
32A
 10
-594.82267781281917
 20
307.30842174352841
 30
0.0
 40
2.5
 50
89.999999999945075
 51
269.99999999984306
  0
LINE
  8
0
  6
CONTINUOUS
 62
               3
  5
32B
 10
-556.10669625853507
 20
304.80842174352836
 30
0.0
 11
-594.82267781281917
 21
304.80842174352841
 31
0.0
  0
LINE
  8
0
  6
CONTINUOUS
 62
               3
  5
32C
 10
-681.3907147042512
 20
304.80842174352847
 30
0.0
 11
-728.10669625853461
 21
304.80842174352847
 31
0.0
  0
LINE
  8
0
  6
CONTINUOUS
 62
               3
  5
32D
 10
-556.10669625853507
 20
309.80842174352836
 30
0.0
 11
-594.82267781281917
 21
309.80842174352841
 31
0.0
  0
LINE
  8
0
  6
CONTINUOUS
 62
               3
  5
32E
 10
-681.3907147042512
 20
309.80842174352847
 30
0.0
 11
-728.10669625853461
 21
309.80842174352847
 31
0.0
  0
ARC
  8
0
  6
CONTINUOUS
 62
               3
  5
32F
 10
-681.3907147042512
 20
307.30842174352847
 30
0.0
 40
2.5
 50
269.99999999984306
 51
449.99999999974102
  0
LINE
  8
0
  6
CONTINUOUS
 62
               3
  5
330
 10
-725.82798409250222
 20
161.99610911032448
 30
0.0
 11
-711.38540842456814
 21
35.235249329797114
 31
0.0
  0
ARC
  8
0
  6
CONTINUOUS
 62
               3
  5
331
 10
-728.10669625853461
 20
307.30842174352847
 30
0.0
 40
2.5
 50
89.999999999945075
 51
269.99999999984306
  0
LINE
  8
0
  6
CONTINUOUS
 62
               3
  5
332
 10
-536.12295262577595
 20
450.80842174352836
 30
0.0
 11
-621.4333642580018
 21
450.80842174352836
 31
0.0
  0
LINE
  8
0
  6
CONTINUOUS
 62
               3
  5
333
 10
-654.78002825906879
 20
450.80842174352836
 30
0.0
 11
-740.10669625853507
 21
450.80842174352836
 31
0.0
  0
LINE
  8
0
  6
CONTINUOUS
 62
               3
  5
334
 10
-728.58919389706625
 20
164.14675785367376
 30
0.0
 11
-730.30761786330686
 21
179.22917143671327
 31
0.0
  0
ARC
  8
0
  6
CONTINUOUS
 62
               3
  5
335
 10
-727.82368822411536
 20
179.51217947113304
 30
0.0
 40
2.5
 50
96.499999999943356
 51
186.49999999989342
  0
ARC
  8
0
  6
CONTINUOUS
 62
               3
  5
336
 10
-726.11099212692216
 20
164.4800387495161
 30
0.0
 40
2.5
 50
186.49999999989342
 51
276.49999999984328
  0
LINE
  8
0
  6
CONTINUOUS
 62
               3
  5
337
 10
-537.60669625853507
 20
476.8084217435283
 30
0.0
 11
-537.60669625853507
 21
468.80842174352836
 31
0.0
  0
LINE
  8
0
  6
CONTINUOUS
 62
               3
  5
338
 10
-738.60669625853507
 20
468.80842174352847
 30
0.0
 11
-738.60669625853507
 21
476.80842174352847
 31
0.0
  0
LINE
  8
0
  6
CONTINUOUS
 62
               3
  5
339
 10
-566.48836605329348
 20
161.99610911032499
 30
0.0
 11
-725.82798409250222
 21
161.99610911032448
 31
0.0
  0
ARC
  8
0
  6
CONTINUOUS
 62
               3
  5
33A
 10
-740.10669625853507
 20
453.80842174352836
 30
0.0
 40
3.0000000000000004
 50
179.9999999998964
 51
269.99999999984306
  0
LINE
  8
0
  6
CONTINUOUS
 62
               3
  5
33B
 10
-548.10669625853529
 20
181.99610911032374
 30
0.0
 11
-548.10669625853529
 21
296.17607867494064
 31
0.0
  0
LINE
  8
0
  6
CONTINUOUS
 62
               3
  5
33C
 10
-728.10669625853461
 20
304.80842174352847
 30
0.0
 11
-728.10669625853529
 21
181.99610911032579
 31
0.0
  0
ARC
  8
0
  6
CONTINUOUS
 62
               3
  5
33D
 10
-733.10669625853438
 20
445.80842174352836
 30
0.0
 40
5.0
 50
359.99999999979269
 51
449.99999999974102
  0
LINE
  8
0
  6
CONTINUOUS
 62
               3
  5
33E
 10
-735.1415957552374
 20
353.27471969131562
 30
0.0
 11
-732.9321987750227
 21
353.19756584865422
 31
0.0
  0
ARC
  8
0
  6
CONTINUOUS
 62
               3
  5
33F
 10
-733.10669625853529
 20
348.20061171355871
 30
0.0
 40
5.0
 50
0.0
 51
87.999999999949225
  0
LINE
  8
0
  6
CONTINUOUS
 62
               3
  5
340
 10
-735.14159575523718
 20
431.34212379574063
 30
0.0
 11
-732.93219877502293
 21
431.41927763840192
 31
0.0
  0
ARC
  8
0
  6
CONTINUOUS
 62
               3
  5
341
 10
-733.10669625853552
 20
436.41623177349743
 30
0.0
 40
5.0
 50
271.99999999984271
 51
359.99999999979292
  0
LINE
  8
0
  6
CONTINUOUS
 62
               3
  5
342
 10
-736.10669625853484
 20
354.27411051833474
 30
0.0
 11
-736.10669625853484
 21
430.34273296872158
 31
0.0
  0
ARC
  8
0
  6
CONTINUOUS
 62
               3
  5
343
 10
-735.10669625853507
 20
354.27411051833474
 30
0.0
 40
1.0
 50
179.999999999897
 51
267.99999999985238
  0
ARC
  8
0
  6
CONTINUOUS
 62
               3
  5
344
 10
-735.10669625853507
 20
430.34273296872158
 30
0.0
 40
1.0
 50
91.999999999931759
 51
179.9999999998962
  0
LINE
  8
0
  6
CONTINUOUS
 62
               3
  5
345
 10
-728.10669625853438
 20
445.80842174352836
 30
0.0
 11
-728.10669625853438
 21
436.41623177349743
 31
0.0
  0
LINE
  8
0
  6
CONTINUOUS
 62
               3
  5
346
 10
-728.10669625853438
 20
348.20061171355871
 30
0.0
 11
-728.10669625853461
 21
309.80842174352847
 31
0.0
  0
CIRCLE
  8
0
  6
CONTINUOUS
 62
               3
  5
347
 10
-638.10669625853529
 20
382.30842174352847
 30
0.0
 40
60.999999999999879
  0
CIRCLE
  8
0
  6
CONTINUOUS
 62
               3
  5
348
 10
-638.10669625853529
 20
382.30842174352847
 30
0.0
 40
59.799999999999862
  0
CIRCLE
  8
0
  6
CONTINUOUS
 62
               3
  5
349
 10
-638.10669625853529
 20
382.30842174352847
 30
0.0
 40
55.499999999999865
  0
CIRCLE
  8
0
  6
CONTINUOUS
 62
               3
  5
34A
 10
-638.10669625853529
 20
382.30842174352847
 30
0.0
 40
51.249999999999865
  0
ARC
  8
0
  6
CONTINUOUS
 62
               3
  5
34B
 10
-638.10669625853529
 20
382.30842174352847
 30
0.0
 40
57.499999999999865
 50
224.99999999987045
 51
314.99999999981861
  0
LINE
  8
0
  6
CONTINUOUS
 62
               3
  5
34C
 10
-678.76533617676182
 20
341.64978182530211
 30
0.0
 11
-680.39168177349097
 21
340.02343622857302
 31
0.0
  0
LINE
  8
0
  6
CONTINUOUS
 62
               3
  5
34D
 10
-597.44805634030899
 20
341.64978182530211
 30
0.0
 11
-595.82171074357984
 21
340.02343622857302
 31
0.0
  0
CIRCLE
  8
0
  6
CONTINUOUS
 62
               3
  5
34E
 10
-638.10669625853529
 20
382.30842174352847
 30
0.0
 40
70.5
  0
LINE
  8
0
  6
CONTINUOUS
 62
               3
  5
34F
 10
-548.10669625853529
 20
181.99610911032431
 30
0.0
 11
-550.78699380753028
 21
181.99610911032431
 31
0.0
  0
LINE
  8
0
  6
CONTINUOUS
 62
               3
  5
350
 10
-574.58312777868605
 20
181.9961091103242
 30
0.0
 11
-728.10669625853507
 21
181.99610911032448
 31
0.0
  0
LINE
  8
0
  6
CONTINUOUS
 62
               3
  5
351
 10
-548.10669625853529
 20
181.99610911032391
 30
0.0
 11
-550.30191346296419
 21
162.72893498318973
 31
0.0
  0
LINE
  8
0
  6
CONTINUOUS
 62
               3
  5
352
 10
-554.28521337846587
 20
127.76796031620114
 30
0.0
 11
-564.82798409250222
 21
35.235249329797
 31
0.0
  0
LINE
  8
0
  6
CONTINUOUS
 62
               3
  5
353
 10
658.89330374146516
 20
470.30842174352802
 30
0.0
 11
628.89330374146516
 21
470.30842174352802
 31
0.0
  0
LINE
  8
0
  6
CONTINUOUS
 62
               3
  5
354
 10
666.89330374146539
 20
468.80842174352813
 30
0.0
 11
666.89330374146516
 21
453.80842174352802
 31
0.0
  0
LINE
  8
0
  6
CONTINUOUS
 62
               3
  5
355
 10
658.89330374146516
 20
470.30842174352802
 30
0.0
 11
659.39330374146493
 21
468.80842174352813
 31
0.0
  0
LINE
  8
0
  6
CONTINUOUS
 62
               3
  5
356
 10
628.89330374146516
 20
470.30842174352802
 30
0.0
 11
627.39330374146516
 21
468.80842174352813
 31
0.0
  0
LINE
  8
0
  6
CONTINUOUS
 62
               3
  5
357
 10
659.39330374146493
 20
468.80842174352813
 30
0.0
 11
666.89330374146539
 21
468.80842174352813
 31
0.0
  0
LINE
  8
0
  6
CONTINUOUS
 62
               3
  5
358
 10
464.89330374146488
 20
470.30842174352802
 30
0.0
 11
494.89330374146488
 21
470.30842174352802
 31
0.0
  0
LINE
  8
0
  6
CONTINUOUS
 62
               3
  5
359
 10
464.89330374146488
 20
470.30842174352802
 30
0.0
 11
464.39330374146505
 21
468.80842174352802
 31
0.0
  0
LINE
  8
0
  6
CONTINUOUS
 62
               3
  5
35A
 10
494.89330374146488
 20
470.30842174352802
 30
0.0
 11
496.39330374146499
 21
468.80842174352813
 31
0.0
  0
LINE
  8
0
  6
CONTINUOUS
 62
               3
  5
35B
 10
464.39330374146505
 20
468.80842174352802
 30
0.0
 11
456.89330374146476
 21
468.80842174352802
 31
0.0
  0
ARC
  8
0
  6
CONTINUOUS
 62
               3
  5
35C
 10
479.89330374146499
 20
307.30842174352813
 30
0.0
 40
2.5
 50
89.999999999945075
 51
269.99999999984306
  0
LINE
  8
0
  6
CONTINUOUS
 62
               3
  5
35D
 10
496.39330374146499
 20
468.80842174352813
 30
0.0
 11
627.39330374146516
 21
468.80842174352813
 31
0.0
  0
LINE
  8
0
  6
CONTINUOUS
 62
               3
  5
35E
 10
479.89330374146499
 20
304.80842174352813
 30
0.0
 11
561.89330374146493
 21
304.80842174352813
 31
0.0
  0
LINE
  8
0
  6
CONTINUOUS
 62
               3
  5
35F
 10
561.89330374146493
 20
304.80842174352813
 30
0.0
 11
651.89330374146448
 21
304.80842174352813
 31
0.0
  0
LINE
  8
0
  6
CONTINUOUS
 62
               3
  5
360
 10
479.89330374146499
 20
309.80842174352813
 30
0.0
 11
561.89330374146493
 21
309.80842174352813
 31
0.0
  0
LINE
  8
0
  6
CONTINUOUS
 62
               3
  5
361
 10
561.89330374146493
 20
309.80842174352813
 30
0.0
 11
651.89330374146448
 21
309.80842174352813
 31
0.0
  0
LINE
  8
0
  6
CONTINUOUS
 62
               3
  5
362
 10
649.61459157543209
 20
161.99610911032408
 30
0.0
 11
635.17201590749801
 21
35.235249329796773
 31
0.0
  0
ARC
  8
0
  6
CONTINUOUS
 62
               3
  5
363
 10
651.89330374146448
 20
307.30842174352813
 30
0.0
 40
2.5
 50
269.99999999984306
 51
449.99999999974102
  0
LINE
  8
0
  6
CONTINUOUS
 62
               3
  5
364
 10
459.90956010870588
 20
450.80842174352802
 30
0.0
 11
561.89330374146493
 21
450.80842174352807
 31
0.0
  0
LINE
  8
0
  6
CONTINUOUS
 62
               3
  5
365
 10
561.89330374146493
 20
450.80842174352819
 30
0.0
 11
663.89330374146516
 21
450.80842174352802
 31
0.0
  0
LINE
  8
0
  6
CONTINUOUS
 62
               3
  5
366
 10
461.39330374146493
 20
476.80842174352796
 30
0.0
 11
461.39330374146493
 21
468.80842174352802
 31
0.0
  0
LINE
  8
0
  6
CONTINUOUS
 62
               3
  5
367
 10
662.39330374146516
 20
468.80842174352813
 30
0.0
 11
662.39330374146516
 21
476.80842174352813
 31
0.0
  0
ARC
  8
0
  6
CONTINUOUS
 62
               3
  5
368
 10
663.89330374146516
 20
453.80842174352802
 30
0.0
 40
3.0000000000000004
 50
269.99999999984306
 51
359.99999999979281
  0
LINE
  8
0
  6
CONTINUOUS
 62
               3
  5
369
 10
471.89330374146522
 20
181.9961091103234
 30
0.0
 11
471.89330374146533
 21
296.1760786749403
 31
0.0
  0
LINE
  8
0
  6
CONTINUOUS
 62
               3
  5
36A
 10
651.89330374146448
 20
304.80842174352813
 30
0.0
 11
651.89330374146493
 21
181.99610911032539
 31
0.0
  0
ARC
  8
0
  6
CONTINUOUS
 62
               3
  5
36B
 10
656.89330374146425
 20
445.80842174352802
 30
0.0
 40
5.0
 50
89.999999999948997
 51
179.9999999998964
  0
LINE
  8
0
  6
CONTINUOUS
 62
               3
  5
36C
 10
658.92820323816727
 20
353.27471969131523
 30
0.0
 11
656.71880625795256
 21
353.19756584865382
 31
0.0
  0
ARC
  8
0
  6
CONTINUOUS
 62
               3
  5
36D
 10
656.89330374146539
 20
348.20061171355837
 30
0.0
 40
5.0
 50
91.999999999947391
 51
179.99999999989637
  0
LINE
  8
0
  6
CONTINUOUS
 62
               3
  5
36E
 10
658.92820323816727
 20
431.34212379574029
 30
0.0
 11
656.71880625795302
 21
431.41927763840147
 31
0.0
  0
ARC
  8
0
  6
CONTINUOUS
 62
               3
  5
36F
 10
656.89330374146539
 20
436.41623177349709
 30
0.0
 40
5.0
 50
179.99999999989629
 51
267.99999999984715
  0
LINE
  8
0
  6
CONTINUOUS
 62
               3
  5
370
 10
659.89330374146493
 20
354.27411051833434
 30
0.0
 11
659.89330374146493
 21
430.34273296872118
 31
0.0
  0
ARC
  8
0
  6
CONTINUOUS
 62
               3
  5
371
 10
658.89330374146493
 20
354.27411051833434
 30
0.0
 40
1.0
 50
271.9999999998401
 51
359.9999999997932
  0
ARC
  8
0
  6
CONTINUOUS
 62
               3
  5
372
 10
658.89330374146493
 20
430.34273296872118
 30
0.0
 40
1.0
 50
0.0
 51
87.999999999957055
  0
LINE
  8
0
  6
CONTINUOUS
 62
               3
  5
373
 10
651.89330374146425
 20
445.80842174352802
 30
0.0
 11
651.89330374146425
 21
436.41623177349709
 31
0.0
  0
LINE
  8
0
  6
CONTINUOUS
 62
               3
  5
374
 10
651.89330374146425
 20
348.20061171355837
 30
0.0
 11
651.89330374146448
 21
309.80842174352813
 31
0.0
  0
LINE
  8
0
  6
CONTINUOUS
 62
               3
  5
375
 10
478.07182086139557
 20
127.7679603162008
 30
0.0
 11
488.61459157543203
 21
35.235249329796773
 31
0.0
  0
LINE
  8
0
  6
CONTINUOUS
 62
               3
  5
376
 10
652.37580137999635
 20
164.14675785367336
 30
0.0
 11
654.09422534623673
 21
179.22917143671282
 31
0.0
  0
ARC
  8
0
  6
CONTINUOUS
 62
               3
  5
377
 10
651.61029570704545
 20
179.51217947113264
 30
0.0
 40
2.5
 50
353.49999999979605
 51
443.49999999974597
  0
ARC
  8
0
  6
CONTINUOUS
 62
               3
  5
378
 10
649.89759960985202
 20
164.48003874951564
 30
0.0
 40
2.5
 50
263.49999999984857
 51
353.49999999979735
  0
LINE
  8
0
  6
CONTINUOUS
 62
               3
  5
379
 10
486.4469769350647
 20
161.99610911032397
 30
0.0
 11
649.61459157543209
 21
161.99610911032408
 31
0.0
  0
LINE
  8
0
  6
CONTINUOUS
 62
               3
  5
37A
 10
471.89330374146533
 20
181.99610911032397
 30
0.0
 11
651.89330374146493
 21
181.99610911032408
 31
0.0
  0
LINE
  8
0
  6
CONTINUOUS
 62
               3
  5
37B
 10
471.89330374146533
 20
181.9961091103234
 30
0.0
 11
472.0942517786437
 21
180.23241082342383
 31
0.0
  0
LINE
  8
0
  6
CONTINUOUS
 62
               3
  5
37C
 10
-121.89884982914047
 20
1055.35094944004
 30
0.0
 11
-131.4839945854805
 21
1045.7658046837
 31
0.0
  0
CIRCLE
  8
0
  6
CONTINUOUS
 62
               3
  5
37D
 10
-115.88844218905503
 20
1049.3405417999543
 30
0.0
 40
8.5
  0
ARC
  8
0
  6
CONTINUOUS
 62
               3
  5
37E
 10
-115.88844218905446
 20
1049.3405417999552
 30
0.0
 40
16.000000000000014
 50
192.91004874361047
 51
257.08995125613319
  0
LINE
  8
0
  6
CONTINUOUS
 62
               3
  5
37F
 10
-119.46317930530891
 20
1033.744989403529
 30
0.0
 11
-109.87803454896923
 21
1043.3301341598685
 31
0.0
  0
LINE
  8
0
  6
CONTINUOUS
 62
               3
  5
380
 10
36.100312555731605
 20
1064.9360941963801
 30
0.0
 11
45.685457312071293
 21
1055.3509494400405
 31
0.0
  0
CIRCLE
  8
0
  6
CONTINUOUS
 62
               3
  5
381
 10
39.675049671985491
 20
1049.3405417999547
 30
0.0
 40
8.5
  0
ARC
  8
0
  6
CONTINUOUS
 62
               3
  5
382
 10
39.675049671986059
 20
1049.3405417999538
 30
0.0
 40
16.000000000000014
 50
102.91004874365943
 51
167.08995125618321
  0
LINE
  8
0
  6
CONTINUOUS
 62
               3
  5
383
 10
33.664642031900044
 20
1043.330134159869
 30
0.0
 11
24.079497275559994
 21
1052.9152789162094
 31
0.0
  0
LINE
  8
0
  6
CONTINUOUS
 62
               3
  5
384
 10
43.24978678823922
 20
909.37260233533971
 30
0.0
 11
33.664642031899533
 21
899.78745757899992
 31
0.0
  0
LINE
  8
0
  6
CONTINUOUS
 62
               3
  5
385
 10
45.685457312070781
 20
887.76664229882863
 30
0.0
 11
55.270602068410824
 21
897.35178705516864
 31
0.0
  0
CIRCLE
  8
0
  6
CONTINUOUS
 62
               3
  5
386
 10
39.675049671985334
 20
893.77704993891416
 30
0.0
 40
8.5
  0
ARC
  8
0
  6
CONTINUOUS
 62
               3
  5
387
 10
39.675049671984766
 20
893.77704993891348
 30
0.0
 40
16.000000000000014
 50
12.910048743713656
 51
77.08995125623693
  0
LINE
  8
0
  6
CONTINUOUS
 62
               3
  5
388
 10
-112.31370507280137
 20
878.18149754248907
 30
0.0
 11
-121.89884982914106
 21
887.76664229882863
 31
0.0
  0
LINE
  8
0
  6
CONTINUOUS
 62
               3
  5
389
 10
-109.87803454896981
 20
899.78745757899992
 30
0.0
 11
-100.29288979262977
 21
890.20231282265991
 31
0.0
  0
CIRCLE
  8
0
  6
CONTINUOUS
 62
               3
  5
38A
 10
-115.88844218905525
 20
893.77704993891439
 30
0.0
 40
8.5
  0
ARC
  8
0
  6
CONTINUOUS
 62
               3
  5
38B
 10
-115.88844218905582
 20
893.7770499389153
 30
0.0
 40
16.000000000000014
 50
282.91004874355588
 51
347.08995125607919
  0
ARC
  8
0
  6
CONTINUOUS
 62
               3
  5
38C
 10
63.893303741465161
 20
453.80842174352836
 30
0.0
 40
3.0000000000000004
 50
269.9999999998447
 51
359.99999999979281
  0
LINE
  8
0
  6
CONTINUOUS
 62
               3
  5
38D
 10
51.893303741464621
 20
304.80842174352847
 30
0.0
 11
51.893303741464905
 21
181.99610911032573
 31
0.0
  0
ARC
  8
0
  6
CONTINUOUS
 62
               3
  5
38E
 10
56.893303741464081
 20
445.8084217435283
 30
0.0
 40
5.0
 50
89.999999999948017
 51
179.9999999998964
  0
LINE
  8
0
  6
CONTINUOUS
 62
               3
  5
38F
 10
58.9282032381671
 20
353.27471969131557
 30
0.0
 11
56.718806257952394
 21
353.19756584865411
 31
0.0
  0
ARC
  8
0
  6
CONTINUOUS
 62
               3
  5
390
 10
56.893303741465104
 20
348.2006117135586
 30
0.0
 40
5.0
 50
91.999999999946752
 51
179.99999999989637
  0
LINE
  8
0
  6
CONTINUOUS
 62
               3
  5
391
 10
58.928203238166986
 20
431.34212379574058
 30
0.0
 11
56.718806257952735
 21
431.41927763840181
 31
0.0
  0
ARC
  8
0
  6
CONTINUOUS
 62
               3
  5
392
 10
56.893303741465218
 20
436.41623177349732
 30
0.0
 40
5.0
 50
179.99999999989629
 51
267.99999999984584
  0
LINE
  8
0
  6
CONTINUOUS
 62
               3
  5
393
 10
59.893303741464649
 20
354.27411051833462
 30
0.0
 11
59.893303741464649
 21
430.34273296872152
 31
0.0
  0
ARC
  8
0
  6
CONTINUOUS
 62
               3
  5
394
 10
58.893303741464763
 20
354.27411051833462
 30
0.0
 40
1.0
 50
271.9999999998368
 51
359.9999999997932
  0
ARC
  8
0
  6
CONTINUOUS
 62
               3
  5
395
 10
58.893303741464763
 20
430.34273296872152
 30
0.0
 40
1.0
 50
0.0
 51
87.999999999962753
  0
LINE
  8
0
  6
CONTINUOUS
 62
               3
  5
396
 10
51.893303741464081
 20
445.8084217435283
 30
0.0
 11
51.893303741464081
 21
436.41623177349732
 31
0.0
  0
LINE
  8
0
  6
CONTINUOUS
 62
               3
  5
397
 10
51.893303741464081
 20
348.2006117135586
 30
0.0
 11
51.893303741464308
 21
309.80842174352836
 31
0.0
  0
LINE
  8
0
  6
CONTINUOUS
 62
               3
  5
398
 10
-108.10669625853455
 20
819.5750522366759
 30
0.0
 11
31.893871426318526
 21
819.5750522366759
 31
0.0
  0
LINE
  8
0
  6
CONTINUOUS
 62
               3
  5
399
 10
-105.77825238449867
 20
816.55879586943456
 30
0.0
 11
-105.77825238449867
 21
817.24660836264002
 31
0.0
  0
LINE
  8
0
  6
CONTINUOUS
 62
               3
  5
39A
 10
-108.10669625853455
 20
819.5750522366759
 30
0.0
 11
-105.77825238449867
 21
817.24660836264002
 31
0.0
  0
LINE
  8
0
  6
CONTINUOUS
 62
               3
  5
39B
 10
-108.10669625853455
 20
816.55879586943456
 30
0.0
 11
-108.10669625853455
 21
814.05879586943456
 31
0.0
  0
ARC
  8
0
  6
CONTINUOUS
 62
               3
  5
39C
 10
-105.60669625853455
 20
814.05879586943456
 30
0.0
 40
2.5
 50
179.99999999989799
 51
269.99999999984499
  0
LINE
  8
0
  6
CONTINUOUS
 62
               3
  5
39D
 10
29.564859867429561
 20
816.55879586943456
 30
0.0
 11
29.564859867429561
 21
817.24660836264002
 31
0.0
  0
LINE
  8
0
  6
CONTINUOUS
 62
               3
  5
39E
 10
31.893303741465445
 20
819.5750522366759
 30
0.0
 11
29.564859867429561
 21
817.24660836264002
 31
0.0
  0
LINE
  8
0
  6
CONTINUOUS
 62
               3
  5
39F
 10
31.893303741465104
 20
816.55879586943456
 30
0.0
 11
31.893303741465104
 21
814.05879586943456
 31
0.0
  0
ARC
  8
0
  6
CONTINUOUS
 62
               3
  5
3A0
 10
29.393303741465104
 20
814.05879586943456
 30
0.0
 40
2.5
 50
269.99999999984499
 51
359.99999999979207
  0
LINE
  8
0
  6
CONTINUOUS
 62
               3
  5
3A1
 10
-105.60669625853455
 20
811.55879586943456
 30
0.0
 11
29.393303741465104
 21
811.55879586943456
 31
0.0
  0
LINE
  8
0
  6
CONTINUOUS
 62
               3
  5
3A2
 10
31.893303741465104
 20
816.55879586943456
 30
0.0
 11
-108.10669625853455
 21
816.55879586943456
 31
0.0
  0
LINE
  8
0
  6
CONTINUOUS
 62
               3
  5
3A3
 10
-105.77825238449867
 20
817.24660836264002
 30
0.0
 11
29.564859867429561
 21
817.24660836264002
 31
0.0
  0
LINE
  8
0
  6
CONTINUOUS
 62
               3
  5
3A4
 10
31.893303741465445
 20
819.55879586943468
 30
0.0
 11
33.840851468853486
 21
875.32926587146562
 31
0.0
  0
LINE
  8
0
  6
CONTINUOUS
 62
               3
  5
3A5
 10
-108.10669625853455
 20
819.5750522366759
 30
0.0
 11
-110.05367360868155
 21
875.32918877158477
 31
0.0
  0
LINE
  8
0
  6
CONTINUOUS
 62
               3
  5
3A6
 10
-486.12295262577675
 20
452.30842174352847
 30
0.0
 11
-530.21139474864265
 21
453.84802406815129
 31
0.0
  0
LINE
  8
0
  6
CONTINUOUS
 62
               3
  5
3A7
 10
-486.10669625853558
 20
312.30842174352847
 30
0.0
 11
-533.81170025678182
 21
310.64252629530267
 31
0.0
  0
LINE
  8
0
  6
CONTINUOUS
 62
               3
  5
3A8
 10
-537.1727366792021
 20
309.18110606613993
 30
0.0
 11
-546.64223016446863
 21
299.71161258087329
 31
0.0
  0
ARC
  8
0
  6
CONTINUOUS
 62
               3
  5
3A9
 10
-533.63720277326934
 20
305.64557216020717
 30
0.0
 40
5.0
 50
91.999999999947391
 51
134.99999999992187
  0
ARC
  8
0
  6
CONTINUOUS
 62
               3
  5
3AA
 10
-543.10669625853564
 20
296.17607867494064
 30
0.0
 40
5.0
 50
134.99999999992278
 51
179.99999999989603
  0
LINE
  8
0
  6
CONTINUOUS
 62
               3
  5
3AB
 10
-486.12295262577675
 20
452.30842174352847
 30
0.0
 11
-486.12295262577675
 21
312.30785405867528
 31
0.0
  0
ARC
  8
0
  6
CONTINUOUS
 62
               3
  5
3AC
 10
-536.10669625853529
 20
453.80842174352841
 30
0.0
 40
3.0000000000000004
 50
269.99999999984414
 51
359.99999999979286
  0
ARC
  8
0
  6
CONTINUOUS
 62
               3
  5
3AD
 10
-530.10669625853518
 20
456.84619654920868
 30
0.0
 40
3.0000000000000004
 50
179.99999999989646
 51
267.99999999984692
  0
LINE
  8
0
  6
CONTINUOUS
 62
               3
  5
3AE
 10
-483.10669625853546
 20
449.97997786949259
 30
0.0
 11
-483.79450875174086
 21
449.97997786949259
 31
0.0
  0
LINE
  8
0
  6
CONTINUOUS
 62
               3
  5
3AF
 10
-486.12295262577675
 20
452.30842174352847
 30
0.0
 11
-483.79450875174086
 21
449.97997786949259
 31
0.0
  0
LINE
  8
0
  6
CONTINUOUS
 62
               3
  5
3B0
 10
-483.10669625853546
 20
452.30842174352836
 30
0.0
 11
-480.60669625853546
 21
452.30842174352836
 31
0.0
  0
ARC
  8
0
  6
CONTINUOUS
 62
               3
  5
3B1
 10
-480.60669625853546
 20
449.80842174352836
 30
0.0
 40
2.5
 50
0.0
 51
89.999999999948997
  0
LINE
  8
0
  6
CONTINUOUS
 62
               3
  5
3B2
 10
-483.10669625853546
 20
314.63686561756435
 30
0.0
 11
-483.79450875174086
 21
314.63686561756435
 31
0.0
  0
LINE
  8
0
  6
CONTINUOUS
 62
               3
  5
3B3
 10
-486.12295262577675
 20
312.30842174352847
 30
0.0
 11
-483.79450875174086
 21
314.63686561756435
 31
0.0
  0
LINE
  8
0
  6
CONTINUOUS
 62
               3
  5
3B4
 10
-483.10669625853546
 20
312.30842174352858
 30
0.0
 11
-480.60669625853546
 21
312.30842174352858
 31
0.0
  0
ARC
  8
0
  6
CONTINUOUS
 62
               3
  5
3B5
 10
-480.60669625853546
 20
314.80842174352858
 30
0.0
 40
2.5
 50
269.99999999984306
 51
359.99999999979269
  0
LINE
  8
0
  6
CONTINUOUS
 62
               3
  5
3B6
 10
-478.10669625853546
 20
449.80842174352836
 30
0.0
 11
-478.10669625853546
 21
314.80842174352858
 31
0.0
  0
LINE
  8
0
  6
CONTINUOUS
 62
               3
  5
3B7
 10
-483.10669625853546
 20
312.30842174352858
 30
0.0
 11
-483.10669625853546
 21
452.30842174352836
 31
0.0
  0
LINE
  8
0
  6
CONTINUOUS
 62
               3
  5
3B8
 10
-483.79450875174086
 20
449.97997786949259
 30
0.0
 11
-483.79450875174086
 21
314.63686561756435
 31
0.0
  0
LINE
  8
0
  6
CONTINUOUS
 62
               3
  5
3B9
 10
-533.10669625853484
 20
468.80842174352836
 30
0.0
 11
-533.10669625853473
 21
453.80842174352836
 31
0.0
  0
LINE
  8
0
  6
CONTINUOUS
 62
               3
  5
3BA
 10
409.90956010870667
 20
452.30842174352824
 30
0.0
 11
453.99800223157257
 21
453.84802406815106
 31
0.0
  0
ARC
  8
0
  6
CONTINUOUS
 62
               3
  5
3BB
 10
459.89330374146527
 20
453.80842174352813
 30
0.0
 40
3.0000000000000004
 50
179.9999999998964
 51
269.99999999984414
  0
ARC
  8
0
  6
CONTINUOUS
 62
               3
  5
3BC
 10
453.8933037414651
 20
456.84619654920846
 30
0.0
 40
3.0000000000000004
 50
271.99999999984226
 51
359.99999999979281
  0
LINE
  8
0
  6
CONTINUOUS
 62
               3
  5
3BD
 10
406.89330374146539
 20
449.97997786949236
 30
0.0
 11
407.58111623467079
 21
449.97997786949236
 31
0.0
  0
LINE
  8
0
  6
CONTINUOUS
 62
               3
  5
3BE
 10
409.90956010870667
 20
452.30842174352824
 30
0.0
 11
407.58111623467079
 21
449.97997786949236
 31
0.0
  0
LINE
  8
0
  6
CONTINUOUS
 62
               3
  5
3BF
 10
406.89330374146539
 20
452.30842174352813
 30
0.0
 11
404.39330374146539
 21
452.30842174352813
 31
0.0
  0
ARC
  8
0
  6
CONTINUOUS
 62
               3
  5
3C0
 10
404.39330374146539
 20
449.80842174352813
 30
0.0
 40
2.5
 50
89.999999999948997
 51
179.99999999989637
  0
LINE
  8
0
  6
CONTINUOUS
 62
               3
  5
3C1
 10
409.90956010870667
 20
452.30842174352824
 30
0.0
 11
409.90956010870656
 21
312.30785405867499
 31
0.0
  0
LINE
  8
0
  6
CONTINUOUS
 62
               3
  5
3C2
 10
406.89330374146527
 20
314.63686561756413
 30
0.0
 11
407.58111623467067
 21
314.63686561756413
 31
0.0
  0
LINE
  8
0
  6
CONTINUOUS
 62
               3
  5
3C3
 10
409.90956010870656
 20
312.30842174352824
 30
0.0
 11
407.58111623467067
 21
314.63686561756413
 31
0.0
  0
LINE
  8
0
  6
CONTINUOUS
 62
               3
  5
3C4
 10
406.89330374146527
 20
312.30842174352836
 30
0.0
 11
404.39330374146527
 21
312.30842174352836
 31
0.0
  0
ARC
  8
0
  6
CONTINUOUS
 62
               3
  5
3C5
 10
404.39330374146527
 20
314.80842174352836
 30
0.0
 40
2.5
 50
179.99999999989603
 51
269.99999999984306
  0
LINE
  8
0
  6
CONTINUOUS
 62
               3
  5
3C6
 10
401.89330374146539
 20
449.80842174352813
 30
0.0
 11
401.89330374146527
 21
314.80842174352836
 31
0.0
  0
LINE
  8
0
  6
CONTINUOUS
 62
               3
  5
3C7
 10
406.89330374146527
 20
312.30842174352836
 30
0.0
 11
406.89330374146539
 21
452.30842174352813
 31
0.0
  0
LINE
  8
0
  6
CONTINUOUS
 62
               3
  5
3C8
 10
407.58111623467079
 20
449.97997786949236
 30
0.0
 11
407.58111623467067
 21
314.63686561756413
 31
0.0
  0
LINE
  8
0
  6
CONTINUOUS
 62
               3
  5
3C9
 10
409.89330374146539
 20
312.30842174352824
 30
0.0
 11
457.59830773971163
 21
310.64252629530239
 31
0.0
  0
LINE
  8
0
  6
CONTINUOUS
 62
               3
  5
3CA
 10
460.95934416213191
 20
309.18110606613971
 30
0.0
 11
470.42883764739838
 21
299.71161258087301
 31
0.0
  0
ARC
  8
0
  6
CONTINUOUS
 62
               3
  5
3CB
 10
457.42381025619915
 20
305.64557216020694
 30
0.0
 40
5.0
 50
44.999999999974342
 51
87.999999999948585
  0
ARC
  8
0
  6
CONTINUOUS
 62
               3
  5
3CC
 10
466.89330374146545
 20
296.17607867494036
 30
0.0
 40
5.0
 50
359.99999999979303
 51
404.99999999976649
  0
LINE
  8
0
  6
CONTINUOUS
 62
               3
  5
3CD
 10
456.89330374146476
 20
468.80842174352802
 30
0.0
 11
456.89330374146482
 21
453.80842174352802
 31
0.0
  0
CIRCLE
  8
0
  6
CONTINUOUS
 62
               3
  5
3CE
 10
-38.106696258535237
 20
382.30842174352847
 30
0.0
 40
70.5
  0
CIRCLE
  8
0
  6
CONTINUOUS
 62
               3
  5
3CF
 10
-38.106696258535237
 20
382.30842174352847
 30
0.0
 40
59.799999999999862
  0
CIRCLE
  8
0
  6
CONTINUOUS
 62
               3
  5
3D0
 10
-38.106696258535237
 20
382.30842174352847
 30
0.0
 40
55.499999999999865
  0
CIRCLE
  8
0
  6
CONTINUOUS
 62
               3
  5
3D1
 10
-38.106696258535237
 20
382.30842174352847
 30
0.0
 40
51.249999999999865
  0
ARC
  8
0
  6
CONTINUOUS
 62
               3
  5
3D2
 10
-38.106696258535237
 20
382.30842174352847
 30
0.0
 40
57.499999999999865
 50
224.99999999987045
 51
314.99999999981873
  0
LINE
  8
0
  6
CONTINUOUS
 62
               3
  5
3D3
 10
-78.76533617676165
 20
341.64978182530206
 30
0.0
 11
-80.391681773490802
 21
340.02343622857302
 31
0.0
  0
LINE
  8
0
  6
CONTINUOUS
 62
               3
  5
3D4
 10
2.551943659691176
 20
341.64978182530206
 30
0.0
 11
4.1782892564202143
 21
340.02343622857302
 31
0.0
  0
CIRCLE
  8
0
  6
CONTINUOUS
 62
               3
  5
3D5
 10
-38.106696258535237
 20
382.30842174352847
 30
0.0
 40
60.999999999999879
  0
LINE
  8
0
  6
CONTINUOUS
 62
               3
  5
3D6
 10
-54.780028259068729
 20
450.80842174352836
 30
0.0
 11
-140.10669625853501
 21
450.80842174352836
 31
0.0
  0
LINE
  8
0
  6
CONTINUOUS
 62
               3
  5
3D7
 10
63.877047374224219
 20
450.80842174352836
 30
0.0
 11
-21.433364258001745
 21
450.80842174352836
 31
0.0
  0
CIRCLE
  8
0
  6
CONTINUOUS
 62
               3
  5
3D8
 10
561.89330374146493
 20
392.30842174352745
 30
0.0
 40
39.0
  0
LINE
  8
0
  6
CONTINUOUS
 62
               3
  5
3D9
 10
-109.10669625853525
 20
15.235249329797796
 30
0.0
 11
32.893303741464706
 21
15.235249329796545
 31
0.0
  0
LINE
  8
0
  6
CONTINUOUS
 62
               3
  5
3DA
 10
-111.38540842456801
 20
35.235249329797227
 30
0.0
 11
35.172015907497752
 21
35.235249329797227
 31
0.0
  0
LINE
  8
0
  6
CONTINUOUS
 62
               3
  5
3DB
 10
35.654513546028824
 20
17.385898073145711
 30
0.0
 11
37.372937512269402
 21
32.468311656185108
 31
0.0
  0
ARC
  8
0
  6
CONTINUOUS
 62
               3
  5
3DC
 10
34.889007873077958
 20
32.75131969060493
 30
0.0
 40
2.5
 50
353.49999999979599
 51
443.4999999997446
  0
ARC
  8
0
  6
CONTINUOUS
 62
               3
  5
3DD
 10
33.176311775884642
 20
17.719178968987933
 30
0.0
 40
2.5
 50
263.49999999984698
 51
353.49999999979599
  0
LINE
  8
0
  6
CONTINUOUS
 62
               3
  5
3DE
 10
-111.86790606309923
 20
17.385898073145711
 30
0.0
 11
-113.58633002933981
 21
32.468311656185108
 31
0.0
  0
ARC
  8
0
  6
CONTINUOUS
 62
               3
  5
3DF
 10
-111.10240039014829
 20
32.75131969060493
 30
0.0
 40
2.5
 50
96.499999999944706
 51
186.49999999989333
  0
ARC
  8
0
  6
CONTINUOUS
 62
               3
  5
3E0
 10
-109.38970429295497
 20
17.719178968987933
 30
0.0
 40
2.5
 50
186.49999999989333
 51
276.49999999984232
  0
LINE
  8
0
  6
CONTINUOUS
 62
               3
  5
3E1
 10
-567.10669625853507
 20
15.235249329797682
 30
0.0
 11
-709.10669625853529
 21
15.235249329796545
 31
0.0
  0
LINE
  8
0
  6
CONTINUOUS
 62
               3
  5
3E2
 10
-564.82798409250245
 20
35.235249329797114
 30
0.0
 11
-711.38540842456814
 21
35.235249329797227
 31
0.0
  0
LINE
  8
0
  6
CONTINUOUS
 62
               3
  5
3E3
 10
-711.86790606309933
 20
17.385898073145711
 30
0.0
 11
-713.58633002933993
 21
32.468311656185108
 31
0.0
  0
ARC
  8
0
  6
CONTINUOUS
 62
               3
  5
3E4
 10
-711.10240039014843
 20
32.75131969060493
 30
0.0
 40
2.5
 50
96.499999999943427
 51
186.49999999989342
  0
ARC
  8
0
  6
CONTINUOUS
 62
               3
  5
3E5
 10
-709.38970429295523
 20
17.719178968987933
 30
0.0
 40
2.5
 50
186.49999999989342
 51
276.49999999984328
  0
LINE
  8
0
  6
CONTINUOUS
 62
               3
  5
3E6
 10
-564.34548645397126
 20
17.385898073145597
 30
0.0
 11
-562.62706248773065
 21
32.468311656185108
 31
0.0
  0
ARC
  8
0
  6
CONTINUOUS
 62
               3
  5
3E7
 10
-565.11099212692216
 20
32.751319690604817
 30
0.0
 40
2.5
 50
353.49999999979735
 51
443.49999999974591
  0
ARC
  8
0
  6
CONTINUOUS
 62
               3
  5
3E8
 10
-566.82368822411559
 20
17.719178968987933
 30
0.0
 40
2.5
 50
263.49999999984857
 51
353.49999999979735
  0
LINE
  8
0
  6
CONTINUOUS
 62
               3
  5
3E9
 10
490.89330374146476
 20
15.235249329797455
 30
0.0
 11
632.89330374146493
 21
15.235249329796204
 31
0.0
  0
LINE
  8
0
  6
CONTINUOUS
 62
               3
  5
3EA
 10
488.61459157543237
 20
35.235249329796886
 30
0.0
 11
635.17201590749801
 21
35.235249329796886
 31
0.0
  0
LINE
  8
0
  6
CONTINUOUS
 62
               3
  5
3EB
 10
635.65451354602919
 20
17.385898073145256
 30
0.0
 11
637.37293751226957
 21
32.468311656184767
 31
0.0
  0
ARC
  8
0
  6
CONTINUOUS
 62
               3
  5
3EC
 10
634.8890078730783
 20
32.751319690604589
 30
0.0
 40
2.5
 50
353.49999999979735
 51
443.49999999974591
  0
ARC
  8
0
  6
CONTINUOUS
 62
               3
  5
3ED
 10
633.17631177588487
 20
17.719178968987592
 30
0.0
 40
2.5
 50
263.49999999984857
 51
353.49999999979735
  0
LINE
  8
0
  6
CONTINUOUS
 62
               3
  5
3EE
 10
488.13209393690084
 20
17.385898073145256
 30
0.0
 11
486.41366997066035
 21
32.468311656184767
 31
0.0
  0
ARC
  8
0
  6
CONTINUOUS
 62
               3
  5
3EF
 10
488.89759960985185
 20
32.751319690604589
 30
0.0
 40
2.5
 50
96.499999999943427
 51
186.49999999989342
  0
ARC
  8
0
  6
CONTINUOUS
 62
               3
  5
3F0
 10
490.61029570704517
 20
17.719178968987592
 30
0.0
 40
2.5
 50
186.49999999989342
 51
276.49999999984328
  0
LINE
  8
0
  6
CONTINUOUS
 62
               3
  5
3F1
 10
-109.1066962585349
 20
15.235249329796432
 30
0.0
 11
-109.10669625853504
 21
-37.478036699833922
 31
0.0
  0
LINE
  8
0
  6
CONTINUOUS
 62
               3
  5
3F2
 10
32.893303741464706
 20
15.235249329796432
 30
0.0
 11
32.893303741464706
 21
-37.478036699833922
 31
0.0
  0
LINE
  8
0
  6
CONTINUOUS
 62
               3
  5
3F3
 10
-567.10669625853552
 20
15.235249329796432
 30
0.0
 11
-567.10669625853552
 21
-37.478036699834036
 31
0.0
  0
LINE
  8
0
  6
CONTINUOUS
 62
               3
  5
3F4
 10
-709.10669625853484
 20
15.235249329796432
 30
0.0
 11
-709.10669625853529
 21
-37.478036699834036
 31
0.0
  0
LINE
  8
0
  6
CONTINUOUS
 62
               3
  5
3F5
 10
490.89330374146567
 20
15.235249329796204
 30
0.0
 11
490.89330374146522
 21
-37.478036699834263
 31
0.0
  0
LINE
  8
0
  6
CONTINUOUS
 62
               3
  5
3F6
 10
632.89330374146493
 20
15.235249329796204
 30
0.0
 11
632.89330374146493
 21
-37.478036699834263
 31
0.0
  0
LINE
  8
0
  6
CONTINUOUS
 62
               3
  5
3F7
 10
-93.106696258535237
 20
-168.19157825647142
 30
0.0
 11
16.893303741464763
 21
-168.19157825647142
 31
0.0
  0
LINE
  8
0
  6
CONTINUOUS
 62
               3
  5
3F8
 10
18.893303741464791
 20
-166.19157825647119
 30
0.0
 11
18.893303741464791
 21
-68.191578256471473
 31
0.0
  0
LINE
  8
0
  6
CONTINUOUS
 62
               3
  5
3F9
 10
-95.106696258535194
 20
-166.19157825647119
 30
0.0
 11
-95.106696258535194
 21
-68.191578256471473
 31
0.0
  0
LINE
  8
0
  6
CONTINUOUS
 62
               3
  5
3FA
 10
18.893303741464791
 20
-68.191578256471473
 30
0.0
 11
19.946346564638205
 21
-67.138535433297818
 31
0.0
  0
LINE
  8
0
  6
CONTINUOUS
 62
               3
  5
3FB
 10
-95.106696258535194
 20
-68.191578256471473
 30
0.0
 11
-96.159739081708466
 21
-67.138535433297932
 31
0.0
  0
LINE
  8
0
  6
CONTINUOUS
 62
               3
  5
3FC
 10
-93.106696258535237
 20
-168.19157825647142
 30
0.0
 11
-95.106696258535194
 21
-166.19157825647119
 31
0.0
  0
LINE
  8
0
  6
CONTINUOUS
 62
               3
  5
3FD
 10
16.893303741464763
 20
-168.19157825647142
 30
0.0
 11
18.893303741464791
 21
-166.19157825647119
 31
0.0
  0
LINE
  8
0
  6
CONTINUOUS
 62
               3
  5
3FE
 10
-693.10669625853529
 20
-168.19157825647142
 30
0.0
 11
-583.10669625853529
 21
-168.19157825647142
 31
0.0
  0
LINE
  8
0
  6
CONTINUOUS
 62
               3
  5
3FF
 10
-581.10669625853529
 20
-166.19157825647119
 30
0.0
 11
-581.10669625853529
 21
-68.191578256471473
 31
0.0
  0
LINE
  8
0
  6
CONTINUOUS
 62
               3
  5
400
 10
-695.10669625853529
 20
-166.19157825647119
 30
0.0
 11
-695.10669625853529
 21
-68.191578256471473
 31
0.0
  0
LINE
  8
0
  6
CONTINUOUS
 62
               3
  5
401
 10
-581.10669625853529
 20
-68.191578256471473
 30
0.0
 11
-580.05365343536187
 21
-67.138535433297818
 31
0.0
  0
LINE
  8
0
  6
CONTINUOUS
 62
               3
  5
402
 10
-695.10669625853529
 20
-68.191578256471473
 30
0.0
 11
-696.15973908170849
 21
-67.138535433298046
 31
0.0
  0
LINE
  8
0
  6
CONTINUOUS
 62
               3
  5
403
 10
-693.10669625853529
 20
-168.19157825647142
 30
0.0
 11
-695.10669625853529
 21
-166.19157825647119
 31
0.0
  0
LINE
  8
0
  6
CONTINUOUS
 62
               3
  5
404
 10
-583.10669625853529
 20
-168.19157825647142
 30
0.0
 11
-581.10669625853529
 21
-166.19157825647119
 31
0.0
  0
LINE
  8
0
  6
CONTINUOUS
 62
               3
  5
405
 10
506.89330374146499
 20
-168.19157825647164
 30
0.0
 11
616.89330374146493
 21
-168.19157825647164
 31
0.0
  0
LINE
  8
0
  6
CONTINUOUS
 62
               3
  5
406
 10
618.89330374146493
 20
-166.19157825647142
 30
0.0
 11
618.89330374146493
 21
-68.191578256471701
 31
0.0
  0
LINE
  8
0
  6
CONTINUOUS
 62
               3
  5
407
 10
504.89330374146499
 20
-166.19157825647142
 30
0.0
 11
504.89330374146499
 21
-68.191578256471701
 31
0.0
  0
LINE
  8
0
  6
CONTINUOUS
 62
               3
  5
408
 10
618.89330374146493
 20
-68.191578256471701
 30
0.0
 11
619.94634656463836
 21
-67.138535433298046
 31
0.0
  0
LINE
  8
0
  6
CONTINUOUS
 62
               3
  5
409
 10
504.89330374146499
 20
-68.191578256471701
 30
0.0
 11
503.84026091829179
 21
-67.138535433298273
 31
0.0
  0
LINE
  8
0
  6
CONTINUOUS
 62
               3
  5
40A
 10
506.89330374146499
 20
-168.19157825647164
 30
0.0
 11
504.89330374146499
 21
-166.19157825647142
 31
0.0
  0
LINE
  8
0
  6
CONTINUOUS
 62
               3
  5
40B
 10
616.89330374146493
 20
-168.19157825647164
 30
0.0
 11
618.89330374146493
 21
-166.19157825647142
 31
0.0
  0
LINE
  8
0
  6
DASHED2
 62
               3
  5
40C
 10
-89.606696258535436
 20
-168.19157825647142
 30
0.0
 11
-89.606696258535436
 21
-88.191578256471416
 31
0.0
  0
LINE
  8
0
  6
DASHED2
 62
               3
  5
40D
 10
13.393303741464464
 20
-168.19157825647142
 30
0.0
 11
13.393303741464464
 21
-88.191578256471416
 31
0.0
  0
LINE
  8
0
  6
DASHED2
 62
               3
  5
40E
 10
-689.60669625853552
 20
-168.19157825647142
 30
0.0
 11
-689.60669625853552
 21
-88.191578256471416
 31
0.0
  0
LINE
  8
0
  6
DASHED2
 62
               3
  5
40F
 10
-586.60669625853575
 20
-168.19157825647142
 30
0.0
 11
-586.60669625853575
 21
-88.191578256471416
 31
0.0
  0
LINE
  8
0
  6
DASHED2
 62
               3
  5
410
 10
510.39330374146476
 20
-168.19157825647164
 30
0.0
 11
510.39330374146476
 21
-88.191578256471644
 31
0.0
  0
LINE
  8
0
  6
DASHED2
 62
               3
  5
411
 10
613.39330374146471
 20
-168.19157825647164
 30
0.0
 11
613.39330374146471
 21
-88.191578256471644
 31
0.0
  0
INSERT
  8
0
  6
CONTINUOUS
  5
412
  2
GROUP_1
 10
0.0
 20
0.0
 30
0.0
  0
INSERT
  8
0
  6
CONTINUOUS
  5
413
  2
GROUP_2
 10
0.0
 20
0.0
 30
0.0
  0
INSERT
  8
0
  6
CONTINUOUS
  5
414
  2
GROUP_3
 10
0.0
 20
0.0
 30
0.0
  0
INSERT
  8
0
  6
CONTINUOUS
  5
415
  2
GROUP_4
 10
0.0
 20
0.0
 30
0.0
  0
INSERT
  8
0
  6
CONTINUOUS
  5
416
  2
GROUP_5
 10
0.0
 20
0.0
 30
0.0
  0
INSERT
  8
0
  6
CONTINUOUS
  5
417
  2
GROUP_6
 10
0.0
 20
0.0
 30
0.0
  0
INSERT
  8
0
  6
CONTINUOUS
  5
418
  2
GROUP_7
 10
0.0
 20
0.0
 30
0.0
  0
INSERT
  8
0
  6
CONTINUOUS
  5
419
  2
GROUP_8
 10
0.0
 20
0.0
 30
0.0
  0
LINE
  8
LAYER192
  6
CONTINUOUS
 62
               4
  5
41A
 10
-70.940284371004438
 20
870.04209555646071
 30
0.0
 11
-139.62339657150903
 21
938.72520775696535
 31
0.0
  0
LINE
  8
LAYER192
  6
CONTINUOUS
 62
               4
  5
41B
 10
-139.62339657150875
 20
1004.3923839819041
 30
0.0
 11
-70.940284371004012
 21
1073.0754961824086
 31
0.0
  0
LINE
  8
LAYER192
  6
CONTINUOUS
 62
               4
  5
41C
 10
-5.2731081460652547
 20
1073.0754961824082
 30
0.0
 11
63.410004054439256
 21
1004.3923839819037
 31
0.0
  0
LINE
  8
LAYER192
  6
CONTINUOUS
 62
               4
  5
41D
 10
63.410004054438971
 20
938.72520775696512
 30
0.0
 11
-5.2731081460657521
 21
870.04209555646048
 31
0.0
  0
LINE
  8
LAYER192
  6
CONTINUOUS
 62
               3
  5
41E
 10
-143.10669625853524
 20
488.80964008949013
 30
0.0
 11
-143.10669625853524
 21
476.80842174352836
 31
0.0
  0
LINE
  8
LAYER192
  6
CONTINUOUS
 62
               3
  5
41F
 10
66.893303741464763
 20
488.80964008949013
 30
0.0
 11
66.893303741464763
 21
476.80842174352836
 31
0.0
  0
ARC
  8
LAYER192
  6
CONTINUOUS
 62
               3
  5
420
 10
-141.10669625853521
 20
488.80964008949013
 30
0.0
 40
2.0
 50
91.999999999946013
 51
179.9999999998964
  0
ARC
  8
LAYER192
  6
CONTINUOUS
 62
               3
  5
421
 10
64.893303741464877
 20
488.80964008949013
 30
0.0
 40
2.0
 50
0.0
 51
87.999999999949722
  0
LINE
  8
LAYER192
  6
CONTINUOUS
 62
               3
  5
422
 10
-143.10669625853524
 20
476.80842174352836
 30
0.0
 11
66.893303741464763
 21
476.80842174352836
 31
0.0
  0
LINE
  8
LAYER192
  6
CONTINUOUS
 62
               3
  5
423
 10
-141.17649525194014
 20
490.80842174352824
 30
0.0
 11
-124.13844218905484
 21
490.80842174352824
 31
0.0
  0
LINE
  8
LAYER192
  6
CONTINUOUS
 62
               3
  5
424
 10
-98.811380722577155
 20
490.80842174352824
 30
0.0
 11
31.425049671984738
 21
490.80842174352824
 31
0.0
  0
LINE
  8
LAYER192
  6
CONTINUOUS
 62
               3
  5
425
 10
56.752111138462354
 20
490.80842174352824
 30
0.0
 11
64.963102734869807
 21
490.80842174352824
 31
0.0
  0
LINE
  8
LAYER192
  6
CONTINUOUS
 62
               3
  5
426
 10
-743.10669625853529
 20
488.80964008949013
 30
0.0
 11
-743.10669625853529
 21
476.80842174352841
 31
0.0
  0
LINE
  8
LAYER192
  6
CONTINUOUS
 62
               3
  5
427
 10
-533.10669625853529
 20
488.80964008949013
 30
0.0
 11
-533.10669625853529
 21
476.80842174352841
 31
0.0
  0
ARC
  8
LAYER192
  6
CONTINUOUS
 62
               3
  5
428
 10
-741.10669625853529
 20
488.80964008949013
 30
0.0
 40
2.0
 50
91.999999999948045
 51
179.9999999998964
  0
ARC
  8
LAYER192
  6
CONTINUOUS
 62
               3
  5
429
 10
-535.10669625853529
 20
488.80964008949013
 30
0.0
 40
2.0
 50
0.0
 51
87.999999999950532
  0
LINE
  8
LAYER192
  6
CONTINUOUS
 62
               3
  5
42A
 10
-743.10669625853529
 20
476.80842174352841
 30
0.0
 11
-533.10669625853529
 21
476.80842174352841
 31
0.0
  0
LINE
  8
LAYER192
  6
CONTINUOUS
 62
               3
  5
42B
 10
-741.1764952519402
 20
490.80842174352824
 30
0.0
 11
-724.13844218905501
 21
490.80842174352824
 31
0.0
  0
LINE
  8
LAYER192
  6
CONTINUOUS
 62
               3
  5
42C
 10
-698.81138072257727
 20
490.80842174352824
 30
0.0
 11
-568.57495032801535
 21
490.80842174352824
 31
0.0
  0
LINE
  8
LAYER192
  6
CONTINUOUS
 62
               3
  5
42D
 10
-543.24788886153783
 20
490.80842174352824
 30
0.0
 11
-535.03689726513039
 21
490.80842174352824
 31
0.0
  0
LINE
  8
LAYER192
  6
CONTINUOUS
 62
               3
  5
42E
 10
456.89330374146499
 20
488.80964008948979
 30
0.0
 11
456.89330374146499
 21
476.80842174352813
 31
0.0
  0
LINE
  8
LAYER192
  6
CONTINUOUS
 62
               3
  5
42F
 10
666.89330374146493
 20
488.80964008948979
 30
0.0
 11
666.89330374146493
 21
476.80842174352813
 31
0.0
  0
ARC
  8
LAYER192
  6
CONTINUOUS
 62
               3
  5
430
 10
458.89330374146499
 20
488.80964008948979
 30
0.0
 40
2.0
 50
91.999999999944791
 51
179.9999999998964
  0
ARC
  8
LAYER192
  6
CONTINUOUS
 62
               3
  5
431
 10
664.89330374146516
 20
488.80964008948979
 30
0.0
 40
2.0
 50
0.0
 51
87.999999999950532
  0
LINE
  8
LAYER192
  6
CONTINUOUS
 62
               3
  5
432
 10
456.89330374146499
 20
476.80842174352813
 30
0.0
 11
666.89330374146493
 21
476.80842174352813
 31
0.0
  0
LINE
  8
LAYER192
  6
CONTINUOUS
 62
               3
  5
433
 10
458.82350474806009
 20
490.8084217435279
 30
0.0
 11
475.86155781094538
 21
490.8084217435279
 31
0.0
  0
LINE
  8
LAYER192
  6
CONTINUOUS
 62
               3
  5
434
 10
501.18861927742302
 20
490.8084217435279
 30
0.0
 11
631.42504967198488
 21
490.8084217435279
 31
0.0
  0
LINE
  8
LAYER192
  6
CONTINUOUS
 62
               3
  5
435
 10
656.75211113846262
 20
490.8084217435279
 30
0.0
 11
664.96310273487006
 21
490.8084217435279
 31
0.0
  0
LINE
  8
LAYER192
  6
CONTINUOUS
 62
               3
  5
436
 10
-106.36021703611635
 20
-47.728036699833808
 30
0.0
 11
-97.446442220690727
 21
-63.167147567379004
 31
0.0
  0
ARC
  8
LAYER192
  6
CONTINUOUS
 62
               3
  5
437
 10
-88.606696258535351
 20
-37.478036699833922
 30
0.0
 40
20.500000000000004
 50
179.99999999989649
 51
209.99999999987881
  0
LINE
  8
LAYER192
  6
CONTINUOUS
 62
               3
  5
438
 10
30.146824519046021
 20
-47.728036699833808
 30
0.0
 11
21.233049703620402
 21
-63.167147567379004
 31
0.0
  0
ARC
  8
LAYER192
  6
CONTINUOUS
 62
               3
  5
439
 10
12.393303741465026
 20
-37.478036699833922
 30
0.0
 40
20.500000000000004
 50
329.99999999981014
 51
359.99999999979286
  0
ARC
  8
LAYER192
  6
CONTINUOUS
 62
               3
  5
43A
 10
29.893303741464734
 20
-68.167147567379004
 30
0.0
 40
10.0
 50
149.99999999991539
 51
174.09604415047446
  0
ARC
  8
LAYER192
  6
CONTINUOUS
 62
               3
  5
43B
 10
-106.10669625853507
 20
-68.167147567379004
 30
0.0
 40
10.0
 50
5.9039558494216795
 51
29.999999999981103
  0
LINE
  8
LAYER192
  6
CONTINUOUS
 62
               3
  5
43C
 10
-706.36021703611641
 20
-47.728036699833808
 30
0.0
 11
-697.44644222069087
 21
-63.167147567379004
 31
0.0
  0
ARC
  8
LAYER192
  6
CONTINUOUS
 62
               3
  5
43D
 10
-688.60669625853552
 20
-37.478036699834036
 30
0.0
 40
20.500000000000004
 50
179.99999999989649
 51
209.99999999987895
  0
LINE
  8
LAYER192
  6
CONTINUOUS
 62
               3
  5
43E
 10
-569.85317548095418
 20
-47.728036699833808
 30
0.0
 11
-578.76695029637972
 21
-63.167147567379004
 31
0.0
  0
ARC
  8
LAYER192
  6
CONTINUOUS
 62
               3
  5
43F
 10
-587.60669625853507
 20
-37.478036699834036
 30
0.0
 40
20.500000000000004
 50
329.9999999998102
 51
359.99999999979286
  0
ARC
  8
LAYER192
  6
CONTINUOUS
 62
               3
  5
440
 10
-570.10669625853529
 20
-68.167147567379004
 30
0.0
 40
10.0
 50
149.99999999991542
 51
174.09604415047446
  0
ARC
  8
LAYER192
  6
CONTINUOUS
 62
               3
  5
441
 10
-706.10669625853529
 20
-68.167147567379004
 30
0.0
 40
10.0
 50
5.9039558494217008
 51
29.999999999981167
  0
LINE
  8
LAYER192
  6
CONTINUOUS
 62
               3
  5
442
 10
493.63978296388387
 20
-47.728036699834036
 30
0.0
 11
502.55355777930953
 21
-63.167147567379232
 31
0.0
  0
ARC
  8
LAYER192
  6
CONTINUOUS
 62
               3
  5
443
 10
511.39330374146488
 20
-37.478036699834263
 30
0.0
 40
20.500000000000004
 50
179.99999999989649
 51
209.99999999987909
  0
LINE
  8
LAYER192
  6
CONTINUOUS
 62
               3
  5
444
 10
630.14682451904628
 20
-47.728036699834036
 30
0.0
 11
621.23304970362051
 21
-63.167147567379232
 31
0.0
  0
ARC
  8
LAYER192
  6
CONTINUOUS
 62
               3
  5
445
 10
612.39330374146516
 20
-37.478036699834263
 30
0.0
 40
20.500000000000004
 50
329.9999999998102
 51
359.99999999979286
  0
ARC
  8
LAYER192
  6
CONTINUOUS
 62
               3
  5
446
 10
629.89330374146493
 20
-68.167147567379232
 30
0.0
 40
10.0
 50
149.99999999991542
 51
174.09604415047446
  0
ARC
  8
LAYER192
  6
CONTINUOUS
 62
               3
  5
447
 10
493.89330374146522
 20
-68.167147567379232
 30
0.0
 40
10.0
 50
5.9039558494217008
 51
29.999999999981167
  0
ENDSEC
  0
EOF
