  0
SECTION
  2
HEADER
  9
$ACADVER
  1
AC1009
  9
$INSBASE
 10
0.0
 20
0.0
 30
0.0
  9
$EXTMIN
 10
-250.44890156124922
 20
-125.63076923076919
 30
0.0
  9
$EXTMAX
 10
250.44890156124922
 20
125.63076923076919
 30
0.0
  9
$LIMMIN
 10
-266.10195790882727
 20
-133.48269230769228
  9
$LIMMAX
 10
266.10195790882727
 20
133.48269230769228
  9
$ORTHOMODE
 70
               0
  9
$REGENMODE
 70
               1
  9
$FILLMODE
 70
               1
  9
$QTEXTMODE
 70
               0
  9
$MIRRTEXT
 70
               1
  9
$DRAGMODE
 70
               2
  9
$LTSCALE
 40
1.0
  9
$OSMODE
 70
               0
  9
$ATTMODE
 70
               1
  9
$TEXTSIZE
 40
0.2
  9
$TRACEWID
 40
0.05
  9
$TEXTSTYLE
  7
STANDARD
  9
$CLAYER
  8
0
  9
$CELTYPE
  6
CONTINUOUS
  9
$CECOLOR
 62
             256
  9
$DIMSCALE
 40
1.0
  9
$DIMASZ
 40
0.18
  9
$DIMEXO
 40
0.0625
  9
$DIMDLI
 40
0.38
  9
$DIMRND
 40
0.0
  9
$DIMDLE
 40
0.0
  9
$DIMEXE
 40
0.18
  9
$DIMTP
 40
0.0
  9
$DIMTM
 40
0.0
  9
$DIMTXT
 40
0.18
  9
$DIMCEN
 40
0.09
  9
$DIMTSZ
 40
0.0
  9
$DIMTOL
 70
               0
  9
$DIMLIM
 70
               0
  9
$DIMTIH
 70
               1
  9
$DIMTOH
 70
               1
  9
$DIMSE1
 70
               0
  9
$DIMSE2
 70
               0
  9
$DIMTAD
 70
               0
  9
$DIMZIN
 70
               0
  9
$DIMBLK
  1

  9
$DIMASO
 70
               1
  9
$DIMSHO
 70
               1
  9
$DIMPOST
  1

  9
$DIMAPOST
  1

  9
$DIMALT
 70
               0
  9
$DIMALTD
 70
               2
  9
$DIMALTF
 40
25.399999999999999
  9
$DIMLFAC
 40
1.0
  9
$DIMTOFL
 70
               0
  9
$DIMTVP
 40
0.0
  9
$DIMTIX
 70
               0
  9
$DIMSOXD
 70
               0
  9
$DIMSAH
 70
               0
  9
$DIMBLK1
  1

  9
$DIMBLK2
  1

  9
$DIMSTYLE
  2
STANDARD
  9
$DIMCLRD
 70
               0
  9
$DIMCLRE
 70
               0
  9
$DIMCLRT
 70
               0
  9
$DIMTFAC
 40
1.0
  9
$DIMGAP
 40
0.09
  9
$LUNITS
 70
               2
  9
$LUPREC
 70
               4
  9
$AXISMODE
 70
               0
  9
$AXISUNIT
 10
0.0
 20
0.0
  9
$SKETCHINC
 40
0.1
  9
$FILLETRAD
 40
0.0
  9
$AUNITS
 70
               0
  9
$AUPREC
 70
               0
  9
$MENU
  1
acad
  9
$ELEVATION
 40
0.0
  9
$PELEVATION
 40
0.0
  9
$THICKNESS
 40
0.0
  9
$LIMCHECK
 70
               0
  9
$BLIPMODE
 70
               1
  9
$CHAMFERA
 40
0.0
  9
$CHAMFERB
 40
0.0
  9
$SKPOLY
 70
               0
  9
$TDCREATE
 40
0.000000000
  9
$TDUPDATE
 40
0.000000000
  9
$TDINDWG
 40
0.0000000000
  9
$TDUSRTIMER
 40
0.0000000000
  9
$USRTIMER
 70
               1
  9
$ANGBASE
 50
0.0
  9
$ANGDIR
 70
               0
  9
$PDMODE
 70
               0
  9
$PDSIZE
 40
1.0
  9
$PLINEWID
 40
0.0
  9
$COORDS
 70
               1
  9
$SPLFRAME
 70
               0
  9
$SPLINETYPE
 70
               6
  9
$SPLINESEGS
 70
               8
  9
$ATTDIA
 70
               0
  9
$ATTREQ
 70
               1
  9
$HANDLING
 70
               1
  9
$HANDSEED
  5
21D
  9
$SURFTAB1
 70
               6
  9
$SURFTAB2
 70
               6
  9
$SURFTYPE
 70
               6
  9
$SURFU
 70
               6
  9
$SURFV
 70
               6
  9
$UCSNAME
  2

  9
$UCSORG
 10
0.0
 20
0.0
 30
0.0
  9
$UCSXDIR
 10
1.0
 20
0.0
 30
0.0
  9
$UCSYDIR
 10
0.0
 20
1.0
 30
0.0
  9
$PUCSNAME
  2

  9
$PUCSORG
 10
0.0
 20
0.0
 30
0.0
  9
$PUCSXDIR
 10
1.0
 20
0.0
 30
0.0
  9
$PUCSYDIR
 10
0.0
 20
1.0
 30
0.0
  9
$USERI1
 70
               0
  9
$USERI2
 70
               0
  9
$USERI3
 70
               0
  9
$USERI4
 70
               0
  9
$USERI5
 70
               0
  9
$USERR1
 40
0.0
  9
$USERR2
 40
0.0
  9
$USERR3
 40
0.0
  9
$USERR4
 40
0.0
  9
$USERR5
 40
0.0
  9
$WORLDVIEW
 70
               1
  9
$SHADEDGE
 70
               3
  9
$SHADEDIF
 70
              70
  9
$TILEMODE
 70
               1
  9
$MAXACTVP
 70
              16
  9
$PINSBASE
 10
0.0
 20
0.0
 30
0.0
  9
$PLIMCHECK
 70
               0
  9
$PEXTMIN
 10
1.0000000000000000E+20
 20
1.0000000000000000E+20
 30
1.0000000000000000E+20
  9
$PEXTMAX
 10
-1.0000000000000000E+20
 20
-1.0000000000000000E+20
 30
-1.0000000000000000E+20
  9
$PLIMMIN
 10
0.0
 20
0.0
  9
$PLIMMAX
 10
12.0
 20
9.0
  9
$UNITMODE
 70
               0
  9
$VISRETAIN
 70
               0
  9
$PLINEGEN
 70
               1
  9
$PSLTSCALE
 70
               0
  9
$TREEDEPTH
 70
            3020
  9
$DWGCODEPAGE
  3
dos932
  0
ENDSEC
  0
SECTION
  2
TABLES
  0
TABLE
  2
VPORT
 70
               1
  0
VPORT
  2
*ACTIVE
 70
               0
 10
0.0
 20
0.0
 11
1.0
 21
1.0
 12
0.0
 22
0.0
 13
0.0
 23
0.0
 14
1.0
 24
1.0
 15
0.0
 25
0.0
 16
0.0
 26
0.0
 36
1.0
 17
0.0
 27
0.0
 37
0.0
 40
266.96538461538455
 41
1.9935315456136666
 42
50.0
 43
0.0
 44
0.0
 50
0.0
 51
0.0
 71
               0
 72
             100
 73
               1
 74
               1
 75
               0
 76
               0
 77
               0
 78
               0
  0
ENDTAB
  0
TABLE
  2
LTYPE
 70
              26
  0
LTYPE
  2
CONTINUOUS
 70
               0
  3
Solid line
 72
              65
 73
               0
 40
0.0
  0
LTYPE
  2
HIDDENX2
 70
               0
  3
CADPAC FUSION LINETYPE
 72
              65
 73
               2
 40
47.560000000000002
 49
35.670000000000002
 49
-11.890000000000001
  0
LTYPE
  2
HIDDEN
 70
               0
  3
CADPAC FUSION LINETYPE
 72
              65
 73
               2
 40
35.670000000000002
 49
23.780000000000001
 49
-11.890000000000001
  0
LTYPE
  2
HIDDEN2
 70
               0
  3
CADPAC FUSION LINETYPE
 72
              65
 73
               2
 40
29.725000000000001
 49
17.835000000000001
 49
-11.890000000000001
  0
LTYPE
  2
DASHED
 70
               0
  3
CADPAC FUSION LINETYPE
 72
              65
 73
               2
 40
35.670000000000002
 49
23.780000000000001
 49
-11.890000000000001
  0
LTYPE
  2
DASHED2
 70
               0
  3
CADPAC FUSION LINETYPE
 72
              65
 73
               2
 40
26.752500000000001
 49
17.835000000000001
 49
-8.9175000000000004
  0
LTYPE
  2
DASHEDX2
 70
               0
  3
CADPAC FUSION LINETYPE
 72
              65
 73
               2
 40
53.505000000000003
 49
35.670000000000002
 49
-17.835000000000001
  0
LTYPE
  2
DOTX2
 70
               0
  3
CADPAC FUSION LINETYPE
 72
              65
 73
               2
 40
14.862500000000001
 49
0.0
 49
-14.862500000000001
  0
LTYPE
  2
DOT
 70
               0
  3
CADPAC FUSION LINETYPE
 72
              65
 73
               2
 40
11.890000000000001
 49
0.0
 49
-11.890000000000001
  0
LTYPE
  2
DOTS
 70
               0
  3
CADPAC FUSION LINETYPE
 72
              65
 73
               2
 40
11.890000000000001
 49
0.0
 49
-11.890000000000001
  0
LTYPE
  2
DOT2
 70
               0
  3
CADPAC FUSION LINETYPE
 72
              65
 73
               2
 40
8.9175000000000004
 49
0.0
 49
-8.9175000000000004
  0
LTYPE
  2
CENTERX2
 70
               0
  3
CADPAC FUSION LINETYPE
 72
              65
 73
               4
 40
71.340000000000003
 49
29.725000000000001
 49
-14.862500000000001
 49
11.890000000000001
 49
-14.862500000000001
  0
LTYPE
  2
CENTER
 70
               0
  3
CADPAC FUSION LINETYPE
 72
              65
 73
               4
 40
54.694000000000003
 49
23.780000000000001
 49
-11.890000000000001
 49
7.1340000000000003
 49
-11.890000000000001
  0
LTYPE
  2
CENTER2
 70
               0
  3
CADPAC FUSION LINETYPE
 72
              65
 73
               4
 40
38.048000000000002
 49
17.835000000000001
 49
-8.9175000000000004
 49
2.3780000000000001
 49
-8.9175000000000004
  0
LTYPE
  2
DASHDOTX2
 70
               0
  3
CADPAC FUSION LINETYPE
 72
              65
 73
               4
 40
59.450000000000003
 49
29.725000000000001
 49
-14.862500000000001
 49
0.0
 49
-14.862500000000001
  0
LTYPE
  2
DASHDOT
 70
               0
  3
CADPAC FUSION LINETYPE
 72
              65
 73
               4
 40
47.560000000000002
 49
23.780000000000001
 49
-11.890000000000001
 49
0.0
 49
-11.890000000000001
  0
LTYPE
  2
DASHDOT2
 70
               0
  3
CADPAC FUSION LINETYPE
 72
              65
 73
               4
 40
35.670000000000002
 49
17.835000000000001
 49
-8.9175000000000004
 49
0.0
 49
-8.9175000000000004
  0
LTYPE
  2
DIVIDEX2
 70
               0
  3
CADPAC FUSION LINETYPE
 72
              65
 73
               6
 40
74.3125
 49
29.725000000000001
 49
-14.862500000000001
 49
0.0
 49
-14.862500000000001
 49
0.0
 49
-14.862500000000001
  0
LTYPE
  2
DIVIDE
 70
               0
  3
CADPAC FUSION LINETYPE
 72
              65
 73
               6
 40
59.450000000000003
 49
23.780000000000001
 49
-11.890000000000001
 49
0.0
 49
-11.890000000000001
 49
0.0
 49
-11.890000000000001
  0
LTYPE
  2
DIVIDE2
 70
               0
  3
CADPAC FUSION LINETYPE
 72
              65
 73
               6
 40
44.587500000000006
 49
17.835000000000001
 49
-8.9175000000000004
 49
0.0
 49
-8.9175000000000004
 49
0.0
 49
-8.9175000000000004
  0
LTYPE
  2
BORDERX2
 70
               0
  3
CADPAC FUSION LINETYPE
 72
              65
 73
               6
 40
104.03750000000001
 49
29.725000000000001
 49
-14.862500000000001
 49
29.725000000000001
 49
-14.862500000000001
 49
0.0
 49
-14.862500000000001
  0
LTYPE
  2
BORDER
 70
               0
  3
CADPAC FUSION LINETYPE
 72
              65
 73
               6
 40
83.230000000000004
 49
23.780000000000001
 49
-11.890000000000001
 49
23.780000000000001
 49
-11.890000000000001
 49
0.0
 49
-11.890000000000001
  0
LTYPE
  2
BORDER2
 70
               0
  3
CADPAC FUSION LINETYPE
 72
              65
 73
               6
 40
62.422499999999999
 49
17.835000000000001
 49
-8.9175000000000004
 49
17.835000000000001
 49
-8.9175000000000004
 49
0.0
 49
-8.9175000000000004
  0
LTYPE
  2
PHANTOMX2
 70
               0
  3
CADPAC FUSION LINETYPE
 72
              65
 73
               6
 40
89.175000000000011
 49
29.725000000000001
 49
-11.890000000000001
 49
11.890000000000001
 49
-11.890000000000001
 49
11.890000000000001
 49
-11.890000000000001
  0
LTYPE
  2
PHANTOM
 70
               0
  3
CADPAC FUSION LINETYPE
 72
              65
 73
               6
 40
73.718000000000004
 49
23.780000000000001
 49
-11.890000000000001
 49
7.1340000000000003
 49
-11.890000000000001
 49
7.1340000000000003
 49
-11.890000000000001
  0
LTYPE
  2
PHANTOM2
 70
               0
  3
CADPAC FUSION LINETYPE
 72
              65
 73
               6
 40
63.017000000000003
 49
17.835000000000001
 49
-11.890000000000001
 49
4.7560000000000002
 49
-11.890000000000001
 49
4.7560000000000002
 49
-11.890000000000001
  0
ENDTAB
  0
TABLE
  2
LAYER
 70
             256
  0
LAYER
  2
0
 70
               0
 62
               7
  6
CONTINUOUS
  0
LAYER
  2
LAYER001
 70
               0
 62
               7
  6
CONTINUOUS
  0
LAYER
  2
LAYER002
 70
               0
 62
               7
  6
CONTINUOUS
  0
LAYER
  2
LAYER003
 70
               0
 62
               7
  6
CONTINUOUS
  0
LAYER
  2
LAYER004
 70
               0
 62
               7
  6
CONTINUOUS
  0
LAYER
  2
LAYER005
 70
               0
 62
               7
  6
CONTINUOUS
  0
LAYER
  2
LAYER006
 70
               0
 62
               7
  6
CONTINUOUS
  0
LAYER
  2
LAYER007
 70
               0
 62
               7
  6
CONTINUOUS
  0
LAYER
  2
LAYER008
 70
               0
 62
               7
  6
CONTINUOUS
  0
LAYER
  2
LAYER009
 70
               0
 62
               7
  6
CONTINUOUS
  0
LAYER
  2
LAYER010
 70
               0
 62
               7
  6
CONTINUOUS
  0
LAYER
  2
LAYER011
 70
               0
 62
               7
  6
CONTINUOUS
  0
LAYER
  2
LAYER012
 70
               0
 62
               7
  6
CONTINUOUS
  0
LAYER
  2
LAYER013
 70
               0
 62
               7
  6
CONTINUOUS
  0
LAYER
  2
LAYER014
 70
               0
 62
               7
  6
CONTINUOUS
  0
LAYER
  2
LAYER015
 70
               0
 62
               7
  6
CONTINUOUS
  0
LAYER
  2
LAYER016
 70
               0
 62
               7
  6
CONTINUOUS
  0
LAYER
  2
LAYER017
 70
               0
 62
               7
  6
CONTINUOUS
  0
LAYER
  2
LAYER018
 70
               0
 62
               7
  6
CONTINUOUS
  0
LAYER
  2
LAYER019
 70
               0
 62
               7
  6
CONTINUOUS
  0
LAYER
  2
LAYER020
 70
               0
 62
               7
  6
CONTINUOUS
  0
LAYER
  2
LAYER021
 70
               0
 62
               7
  6
CONTINUOUS
  0
LAYER
  2
LAYER022
 70
               0
 62
               7
  6
CONTINUOUS
  0
LAYER
  2
LAYER023
 70
               0
 62
               7
  6
CONTINUOUS
  0
LAYER
  2
LAYER024
 70
               0
 62
               7
  6
CONTINUOUS
  0
LAYER
  2
LAYER025
 70
               0
 62
               7
  6
CONTINUOUS
  0
LAYER
  2
LAYER026
 70
               0
 62
               7
  6
CONTINUOUS
  0
LAYER
  2
LAYER027
 70
               0
 62
               7
  6
CONTINUOUS
  0
LAYER
  2
LAYER028
 70
               0
 62
               7
  6
CONTINUOUS
  0
LAYER
  2
LAYER029
 70
               0
 62
               7
  6
CONTINUOUS
  0
LAYER
  2
LAYER030
 70
               0
 62
               7
  6
CONTINUOUS
  0
LAYER
  2
LAYER031
 70
               0
 62
               7
  6
CONTINUOUS
  0
LAYER
  2
LAYER032
 70
               0
 62
               7
  6
CONTINUOUS
  0
LAYER
  2
LAYER033
 70
               0
 62
               7
  6
CONTINUOUS
  0
LAYER
  2
LAYER034
 70
               0
 62
               7
  6
CONTINUOUS
  0
LAYER
  2
LAYER035
 70
               0
 62
               7
  6
CONTINUOUS
  0
LAYER
  2
LAYER036
 70
               0
 62
               7
  6
CONTINUOUS
  0
LAYER
  2
LAYER037
 70
               0
 62
               7
  6
CONTINUOUS
  0
LAYER
  2
LAYER038
 70
               0
 62
               7
  6
CONTINUOUS
  0
LAYER
  2
LAYER039
 70
               0
 62
               7
  6
CONTINUOUS
  0
LAYER
  2
LAYER040
 70
               0
 62
               7
  6
CONTINUOUS
  0
LAYER
  2
LAYER041
 70
               0
 62
               7
  6
CONTINUOUS
  0
LAYER
  2
LAYER042
 70
               0
 62
               7
  6
CONTINUOUS
  0
LAYER
  2
LAYER043
 70
               0
 62
               7
  6
CONTINUOUS
  0
LAYER
  2
LAYER044
 70
               0
 62
               7
  6
CONTINUOUS
  0
LAYER
  2
LAYER045
 70
               0
 62
               7
  6
CONTINUOUS
  0
LAYER
  2
LAYER046
 70
               0
 62
               7
  6
CONTINUOUS
  0
LAYER
  2
LAYER047
 70
               0
 62
               7
  6
CONTINUOUS
  0
LAYER
  2
LAYER048
 70
               0
 62
               7
  6
CONTINUOUS
  0
LAYER
  2
LAYER049
 70
               0
 62
               7
  6
CONTINUOUS
  0
LAYER
  2
LAYER050
 70
               0
 62
               7
  6
CONTINUOUS
  0
LAYER
  2
LAYER051
 70
               0
 62
               7
  6
CONTINUOUS
  0
LAYER
  2
LAYER052
 70
               0
 62
               7
  6
CONTINUOUS
  0
LAYER
  2
LAYER053
 70
               0
 62
               7
  6
CONTINUOUS
  0
LAYER
  2
LAYER054
 70
               0
 62
               7
  6
CONTINUOUS
  0
LAYER
  2
LAYER055
 70
               0
 62
               7
  6
CONTINUOUS
  0
LAYER
  2
LAYER056
 70
               0
 62
               7
  6
CONTINUOUS
  0
LAYER
  2
LAYER057
 70
               0
 62
               7
  6
CONTINUOUS
  0
LAYER
  2
LAYER058
 70
               0
 62
               7
  6
CONTINUOUS
  0
LAYER
  2
LAYER059
 70
               0
 62
               7
  6
CONTINUOUS
  0
LAYER
  2
LAYER060
 70
               0
 62
               7
  6
CONTINUOUS
  0
LAYER
  2
LAYER061
 70
               0
 62
               7
  6
CONTINUOUS
  0
LAYER
  2
LAYER062
 70
               0
 62
               7
  6
CONTINUOUS
  0
LAYER
  2
LAYER063
 70
               0
 62
               7
  6
CONTINUOUS
  0
LAYER
  2
LAYER064
 70
               0
 62
               7
  6
CONTINUOUS
  0
LAYER
  2
LAYER065
 70
               0
 62
               7
  6
CONTINUOUS
  0
LAYER
  2
LAYER066
 70
               0
 62
               7
  6
CONTINUOUS
  0
LAYER
  2
LAYER067
 70
               0
 62
               7
  6
CONTINUOUS
  0
LAYER
  2
LAYER068
 70
               0
 62
               7
  6
CONTINUOUS
  0
LAYER
  2
LAYER069
 70
               0
 62
               7
  6
CONTINUOUS
  0
LAYER
  2
LAYER070
 70
               0
 62
               7
  6
CONTINUOUS
  0
LAYER
  2
LAYER071
 70
               0
 62
               7
  6
CONTINUOUS
  0
LAYER
  2
LAYER072
 70
               0
 62
               7
  6
CONTINUOUS
  0
LAYER
  2
LAYER073
 70
               0
 62
               7
  6
CONTINUOUS
  0
LAYER
  2
LAYER074
 70
               0
 62
               7
  6
CONTINUOUS
  0
LAYER
  2
LAYER075
 70
               0
 62
               7
  6
CONTINUOUS
  0
LAYER
  2
LAYER076
 70
               0
 62
               7
  6
CONTINUOUS
  0
LAYER
  2
LAYER077
 70
               0
 62
               7
  6
CONTINUOUS
  0
LAYER
  2
LAYER078
 70
               0
 62
               7
  6
CONTINUOUS
  0
LAYER
  2
LAYER079
 70
               0
 62
               7
  6
CONTINUOUS
  0
LAYER
  2
LAYER080
 70
               0
 62
               7
  6
CONTINUOUS
  0
LAYER
  2
LAYER081
 70
               0
 62
               7
  6
CONTINUOUS
  0
LAYER
  2
LAYER082
 70
               0
 62
               7
  6
CONTINUOUS
  0
LAYER
  2
LAYER083
 70
               0
 62
               7
  6
CONTINUOUS
  0
LAYER
  2
LAYER084
 70
               0
 62
               7
  6
CONTINUOUS
  0
LAYER
  2
LAYER085
 70
               0
 62
               7
  6
CONTINUOUS
  0
LAYER
  2
LAYER086
 70
               0
 62
               7
  6
CONTINUOUS
  0
LAYER
  2
LAYER087
 70
               0
 62
               7
  6
CONTINUOUS
  0
LAYER
  2
LAYER088
 70
               0
 62
               7
  6
CONTINUOUS
  0
LAYER
  2
LAYER089
 70
               0
 62
               7
  6
CONTINUOUS
  0
LAYER
  2
LAYER090
 70
               0
 62
               7
  6
CONTINUOUS
  0
LAYER
  2
LAYER091
 70
               0
 62
               7
  6
CONTINUOUS
  0
LAYER
  2
LAYER092
 70
               0
 62
               7
  6
CONTINUOUS
  0
LAYER
  2
LAYER093
 70
               0
 62
               7
  6
CONTINUOUS
  0
LAYER
  2
LAYER094
 70
               0
 62
               7
  6
CONTINUOUS
  0
LAYER
  2
LAYER095
 70
               0
 62
               7
  6
CONTINUOUS
  0
LAYER
  2
LAYER096
 70
               0
 62
               7
  6
CONTINUOUS
  0
LAYER
  2
LAYER097
 70
               0
 62
               7
  6
CONTINUOUS
  0
LAYER
  2
LAYER098
 70
               0
 62
               7
  6
CONTINUOUS
  0
LAYER
  2
LAYER099
 70
               0
 62
               7
  6
CONTINUOUS
  0
LAYER
  2
LAYER100
 70
               0
 62
               7
  6
CONTINUOUS
  0
LAYER
  2
LAYER101
 70
               0
 62
               7
  6
CONTINUOUS
  0
LAYER
  2
LAYER102
 70
               0
 62
               7
  6
CONTINUOUS
  0
LAYER
  2
LAYER103
 70
               0
 62
               7
  6
CONTINUOUS
  0
LAYER
  2
LAYER104
 70
               0
 62
               7
  6
CONTINUOUS
  0
LAYER
  2
LAYER105
 70
               0
 62
               7
  6
CONTINUOUS
  0
LAYER
  2
LAYER106
 70
               0
 62
               7
  6
CONTINUOUS
  0
LAYER
  2
LAYER107
 70
               0
 62
               7
  6
CONTINUOUS
  0
LAYER
  2
LAYER108
 70
               0
 62
               7
  6
CONTINUOUS
  0
LAYER
  2
LAYER109
 70
               0
 62
               7
  6
CONTINUOUS
  0
LAYER
  2
LAYER110
 70
               0
 62
               7
  6
CONTINUOUS
  0
LAYER
  2
LAYER111
 70
               0
 62
               7
  6
CONTINUOUS
  0
LAYER
  2
LAYER112
 70
               0
 62
               7
  6
CONTINUOUS
  0
LAYER
  2
LAYER113
 70
               0
 62
               7
  6
CONTINUOUS
  0
LAYER
  2
LAYER114
 70
               0
 62
               7
  6
CONTINUOUS
  0
LAYER
  2
LAYER115
 70
               0
 62
               7
  6
CONTINUOUS
  0
LAYER
  2
LAYER116
 70
               0
 62
               7
  6
CONTINUOUS
  0
LAYER
  2
LAYER117
 70
               0
 62
               7
  6
CONTINUOUS
  0
LAYER
  2
LAYER118
 70
               0
 62
               7
  6
CONTINUOUS
  0
LAYER
  2
LAYER119
 70
               0
 62
               7
  6
CONTINUOUS
  0
LAYER
  2
LAYER120
 70
               0
 62
               7
  6
CONTINUOUS
  0
LAYER
  2
LAYER121
 70
               0
 62
               7
  6
CONTINUOUS
  0
LAYER
  2
LAYER122
 70
               0
 62
               7
  6
CONTINUOUS
  0
LAYER
  2
LAYER123
 70
               0
 62
               7
  6
CONTINUOUS
  0
LAYER
  2
LAYER124
 70
               0
 62
               7
  6
CONTINUOUS
  0
LAYER
  2
LAYER125
 70
               0
 62
               7
  6
CONTINUOUS
  0
LAYER
  2
LAYER126
 70
               0
 62
               7
  6
CONTINUOUS
  0
LAYER
  2
LAYER127
 70
               0
 62
               7
  6
CONTINUOUS
  0
LAYER
  2
LAYER128
 70
               0
 62
               7
  6
CONTINUOUS
  0
LAYER
  2
LAYER129
 70
               0
 62
               7
  6
CONTINUOUS
  0
LAYER
  2
LAYER130
 70
               0
 62
               7
  6
CONTINUOUS
  0
LAYER
  2
LAYER131
 70
               0
 62
               7
  6
CONTINUOUS
  0
LAYER
  2
LAYER132
 70
               0
 62
               7
  6
CONTINUOUS
  0
LAYER
  2
LAYER133
 70
               0
 62
               7
  6
CONTINUOUS
  0
LAYER
  2
LAYER134
 70
               0
 62
               7
  6
CONTINUOUS
  0
LAYER
  2
LAYER135
 70
               0
 62
               7
  6
CONTINUOUS
  0
LAYER
  2
LAYER136
 70
               0
 62
               7
  6
CONTINUOUS
  0
LAYER
  2
LAYER137
 70
               0
 62
               7
  6
CONTINUOUS
  0
LAYER
  2
LAYER138
 70
               0
 62
               7
  6
CONTINUOUS
  0
LAYER
  2
LAYER139
 70
               0
 62
               7
  6
CONTINUOUS
  0
LAYER
  2
LAYER140
 70
               0
 62
               7
  6
CONTINUOUS
  0
LAYER
  2
LAYER141
 70
               0
 62
               7
  6
CONTINUOUS
  0
LAYER
  2
LAYER142
 70
               0
 62
               7
  6
CONTINUOUS
  0
LAYER
  2
LAYER143
 70
               0
 62
               7
  6
CONTINUOUS
  0
LAYER
  2
LAYER144
 70
               0
 62
               7
  6
CONTINUOUS
  0
LAYER
  2
LAYER145
 70
               0
 62
               7
  6
CONTINUOUS
  0
LAYER
  2
LAYER146
 70
               0
 62
               7
  6
CONTINUOUS
  0
LAYER
  2
LAYER147
 70
               0
 62
               7
  6
CONTINUOUS
  0
LAYER
  2
LAYER148
 70
               0
 62
               7
  6
CONTINUOUS
  0
LAYER
  2
LAYER149
 70
               0
 62
               7
  6
CONTINUOUS
  0
LAYER
  2
LAYER150
 70
               0
 62
               7
  6
CONTINUOUS
  0
LAYER
  2
LAYER151
 70
               0
 62
               7
  6
CONTINUOUS
  0
LAYER
  2
LAYER152
 70
               0
 62
               7
  6
CONTINUOUS
  0
LAYER
  2
LAYER153
 70
               0
 62
               7
  6
CONTINUOUS
  0
LAYER
  2
LAYER154
 70
               0
 62
               7
  6
CONTINUOUS
  0
LAYER
  2
LAYER155
 70
               0
 62
               7
  6
CONTINUOUS
  0
LAYER
  2
LAYER156
 70
               0
 62
               7
  6
CONTINUOUS
  0
LAYER
  2
LAYER157
 70
               0
 62
               7
  6
CONTINUOUS
  0
LAYER
  2
LAYER158
 70
               0
 62
               7
  6
CONTINUOUS
  0
LAYER
  2
LAYER159
 70
               0
 62
               7
  6
CONTINUOUS
  0
LAYER
  2
LAYER160
 70
               0
 62
               7
  6
CONTINUOUS
  0
LAYER
  2
LAYER161
 70
               0
 62
               7
  6
CONTINUOUS
  0
LAYER
  2
LAYER162
 70
               0
 62
               7
  6
CONTINUOUS
  0
LAYER
  2
LAYER163
 70
               0
 62
               7
  6
CONTINUOUS
  0
LAYER
  2
LAYER164
 70
               0
 62
               7
  6
CONTINUOUS
  0
LAYER
  2
LAYER165
 70
               0
 62
               7
  6
CONTINUOUS
  0
LAYER
  2
LAYER166
 70
               0
 62
               7
  6
CONTINUOUS
  0
LAYER
  2
LAYER167
 70
               0
 62
               7
  6
CONTINUOUS
  0
LAYER
  2
LAYER168
 70
               0
 62
               7
  6
CONTINUOUS
  0
LAYER
  2
LAYER169
 70
               0
 62
               7
  6
CONTINUOUS
  0
LAYER
  2
LAYER170
 70
               0
 62
               7
  6
CONTINUOUS
  0
LAYER
  2
LAYER171
 70
               0
 62
               7
  6
CONTINUOUS
  0
LAYER
  2
LAYER172
 70
               0
 62
               7
  6
CONTINUOUS
  0
LAYER
  2
LAYER173
 70
               0
 62
               7
  6
CONTINUOUS
  0
LAYER
  2
LAYER174
 70
               0
 62
               7
  6
CONTINUOUS
  0
LAYER
  2
LAYER175
 70
               0
 62
               7
  6
CONTINUOUS
  0
LAYER
  2
LAYER176
 70
               0
 62
               7
  6
CONTINUOUS
  0
LAYER
  2
LAYER177
 70
               0
 62
               7
  6
CONTINUOUS
  0
LAYER
  2
LAYER178
 70
               0
 62
               7
  6
CONTINUOUS
  0
LAYER
  2
LAYER179
 70
               0
 62
               7
  6
CONTINUOUS
  0
LAYER
  2
LAYER180
 70
               0
 62
               7
  6
CONTINUOUS
  0
LAYER
  2
LAYER181
 70
               0
 62
               7
  6
CONTINUOUS
  0
LAYER
  2
LAYER182
 70
               0
 62
               7
  6
CONTINUOUS
  0
LAYER
  2
LAYER183
 70
               0
 62
               7
  6
CONTINUOUS
  0
LAYER
  2
LAYER184
 70
               0
 62
               7
  6
CONTINUOUS
  0
LAYER
  2
LAYER185
 70
               0
 62
               7
  6
CONTINUOUS
  0
LAYER
  2
LAYER186
 70
               0
 62
               7
  6
CONTINUOUS
  0
LAYER
  2
LAYER187
 70
               0
 62
               7
  6
CONTINUOUS
  0
LAYER
  2
LAYER188
 70
               0
 62
               7
  6
CONTINUOUS
  0
LAYER
  2
LAYER189
 70
               0
 62
               7
  6
CONTINUOUS
  0
LAYER
  2
LAYER190
 70
               0
 62
               7
  6
CONTINUOUS
  0
LAYER
  2
LAYER191
 70
               0
 62
               7
  6
CONTINUOUS
  0
LAYER
  2
LAYER192
 70
               0
 62
               7
  6
CONTINUOUS
  0
LAYER
  2
LAYER193
 70
               0
 62
               7
  6
CONTINUOUS
  0
LAYER
  2
LAYER194
 70
               0
 62
               7
  6
CONTINUOUS
  0
LAYER
  2
LAYER195
 70
               0
 62
               7
  6
CONTINUOUS
  0
LAYER
  2
LAYER196
 70
               0
 62
               7
  6
CONTINUOUS
  0
LAYER
  2
LAYER197
 70
               0
 62
               7
  6
CONTINUOUS
  0
LAYER
  2
LAYER198
 70
               0
 62
               7
  6
CONTINUOUS
  0
LAYER
  2
LAYER199
 70
               0
 62
               7
  6
CONTINUOUS
  0
LAYER
  2
LAYER200
 70
               0
 62
               7
  6
CONTINUOUS
  0
LAYER
  2
LAYER201
 70
               0
 62
               7
  6
CONTINUOUS
  0
LAYER
  2
LAYER202
 70
               0
 62
               7
  6
CONTINUOUS
  0
LAYER
  2
LAYER203
 70
               0
 62
               7
  6
CONTINUOUS
  0
LAYER
  2
LAYER204
 70
               0
 62
               7
  6
CONTINUOUS
  0
LAYER
  2
LAYER205
 70
               0
 62
               7
  6
CONTINUOUS
  0
LAYER
  2
LAYER206
 70
               0
 62
               7
  6
CONTINUOUS
  0
LAYER
  2
LAYER207
 70
               0
 62
               7
  6
CONTINUOUS
  0
LAYER
  2
LAYER208
 70
               0
 62
               7
  6
CONTINUOUS
  0
LAYER
  2
LAYER209
 70
               0
 62
               7
  6
CONTINUOUS
  0
LAYER
  2
LAYER210
 70
               0
 62
               7
  6
CONTINUOUS
  0
LAYER
  2
LAYER211
 70
               0
 62
               7
  6
CONTINUOUS
  0
LAYER
  2
LAYER212
 70
               0
 62
               7
  6
CONTINUOUS
  0
LAYER
  2
LAYER213
 70
               0
 62
               7
  6
CONTINUOUS
  0
LAYER
  2
LAYER214
 70
               0
 62
               7
  6
CONTINUOUS
  0
LAYER
  2
LAYER215
 70
               0
 62
               7
  6
CONTINUOUS
  0
LAYER
  2
LAYER216
 70
               0
 62
               7
  6
CONTINUOUS
  0
LAYER
  2
LAYER217
 70
               0
 62
               7
  6
CONTINUOUS
  0
LAYER
  2
LAYER218
 70
               0
 62
               7
  6
CONTINUOUS
  0
LAYER
  2
LAYER219
 70
               0
 62
               7
  6
CONTINUOUS
  0
LAYER
  2
LAYER220
 70
               0
 62
               7
  6
CONTINUOUS
  0
LAYER
  2
LAYER221
 70
               0
 62
               7
  6
CONTINUOUS
  0
LAYER
  2
LAYER222
 70
               0
 62
               7
  6
CONTINUOUS
  0
LAYER
  2
LAYER223
 70
               0
 62
               7
  6
CONTINUOUS
  0
LAYER
  2
LAYER224
 70
               0
 62
               7
  6
CONTINUOUS
  0
LAYER
  2
LAYER225
 70
               0
 62
               7
  6
CONTINUOUS
  0
LAYER
  2
LAYER226
 70
               0
 62
               7
  6
CONTINUOUS
  0
LAYER
  2
LAYER227
 70
               0
 62
               7
  6
CONTINUOUS
  0
LAYER
  2
LAYER228
 70
               0
 62
               7
  6
CONTINUOUS
  0
LAYER
  2
LAYER229
 70
               0
 62
               7
  6
CONTINUOUS
  0
LAYER
  2
LAYER230
 70
               0
 62
               7
  6
CONTINUOUS
  0
LAYER
  2
LAYER231
 70
               0
 62
               7
  6
CONTINUOUS
  0
LAYER
  2
LAYER232
 70
               0
 62
               7
  6
CONTINUOUS
  0
LAYER
  2
LAYER233
 70
               0
 62
               7
  6
CONTINUOUS
  0
LAYER
  2
LAYER234
 70
               0
 62
               7
  6
CONTINUOUS
  0
LAYER
  2
LAYER235
 70
               0
 62
               7
  6
CONTINUOUS
  0
LAYER
  2
LAYER236
 70
               0
 62
               7
  6
CONTINUOUS
  0
LAYER
  2
LAYER237
 70
               0
 62
               7
  6
CONTINUOUS
  0
LAYER
  2
LAYER238
 70
               0
 62
               7
  6
CONTINUOUS
  0
LAYER
  2
LAYER239
 70
               0
 62
               7
  6
CONTINUOUS
  0
LAYER
  2
LAYER240
 70
               0
 62
               7
  6
CONTINUOUS
  0
LAYER
  2
LAYER241
 70
               0
 62
               7
  6
CONTINUOUS
  0
LAYER
  2
LAYER242
 70
               0
 62
               7
  6
CONTINUOUS
  0
LAYER
  2
LAYER243
 70
               0
 62
               7
  6
CONTINUOUS
  0
LAYER
  2
LAYER244
 70
               0
 62
               7
  6
CONTINUOUS
  0
LAYER
  2
LAYER245
 70
               0
 62
               7
  6
CONTINUOUS
  0
LAYER
  2
LAYER246
 70
               0
 62
               7
  6
CONTINUOUS
  0
LAYER
  2
LAYER247
 70
               0
 62
               7
  6
CONTINUOUS
  0
LAYER
  2
LAYER248
 70
               0
 62
               7
  6
CONTINUOUS
  0
LAYER
  2
LAYER249
 70
               0
 62
               7
  6
CONTINUOUS
  0
LAYER
  2
LAYER250
 70
               0
 62
               7
  6
CONTINUOUS
  0
LAYER
  2
LAYER251
 70
               0
 62
               7
  6
CONTINUOUS
  0
LAYER
  2
LAYER252
 70
               0
 62
               7
  6
CONTINUOUS
  0
LAYER
  2
LAYER253
 70
               0
 62
               7
  6
CONTINUOUS
  0
LAYER
  2
LAYER254
 70
               0
 62
               7
  6
CONTINUOUS
  0
LAYER
  2
LAYER255
 70
               0
 62
               7
  6
CONTINUOUS
  0
ENDTAB
  0
TABLE
  2
STYLE
 70
               1
  0
STYLE
  2
STANDARD
 70
               0
 40
0.0
 41
1.0
 50
0.0
 71
               0
 42
0.0
  3
txt
  4

  0
ENDTAB
  0
TABLE
  2
VIEW
 70
               0
  0
VIEW
  2
QQQQ
 70
               0
 40
266.96538461538455
 10
0.0
 20
0.0
 41
532.20391581765455
 11
0.0
 21
0.0
 31
1.0
 12
100.0
 22
100.0
 32
0.0
 42
50.0
 43
0.0
 44
0.0
 50
0.0
 71
               0
  0
ENDTAB
  0
TABLE
  2
UCS
 70
               0
  0
ENDTAB
  0
TABLE
  2
APPID
 70
               1
  0
APPID
  2
ACAD
 70
               0
  0
ENDTAB
  0
TABLE
  2
DIMSTYLE
 70
               1
  0
DIMSTYLE
  2
STANDARD
 70
               0
  3

  4

  5

  6

  7

 40
1.0
 41
0.18
 42
0.0625
 43
0.38
 44
0.18
 45
0.0
 46
0.0
 47
0.0
 48
0.0
140
0.18
141
0.09
142
0.0
143
25.399999999999999
144
1.0
145
0.0
146
1.0
147
0.09
 71
               0
 72
               0
 73
               1
 74
               1
 75
               0
 76
               0
 77
               0
 78
               0
170
               0
171
               2
172
               0
173
               0
174
               0
175
               0
176
               0
177
               0
178
               0
  0
ENDTAB
  0
ENDSEC
  0
SECTION
  2
BLOCKS
  0
BLOCK
  8
0
  5
13A
  2
GROUP_1
 70
               0
 10
0.0
 20
0.0
 30
0.0
  3
GROUP_1
  0
LINE
  8
0
  6
DIVIDE
 62
               4
  5
13B
 10
-195.3662515012013
 20
-80.798816568047414
 30
0.0
 11
-195.3662515012013
 21
-89.6729835431276
 31
0.0
  0
LINE
  8
0
  6
DIVIDE
 62
               4
  5
13C
 10
-200.85107905850271
 20
-89.6729835431276
 30
0.0
 11
-200.85107905850271
 21
-80.798816568047414
 31
0.0
  0
LINE
  8
0
  6
DIVIDE
 62
               4
  5
13D
 10
-195.3662515012013
 20
-80.798816568047414
 30
0.0
 11
-217.26625150120128
 21
-80.798816568047414
 31
0.0
  0
LINE
  8
0
  6
DIVIDE
 62
               4
  5
13E
 10
-198.10866527985195
 20
-90.798816568047414
 30
0.0
 11
-214.52383772255058
 21
-90.798816568047414
 31
0.0
  0
LINE
  8
0
  6
DIVIDE
 62
               4
  5
13F
 10
-217.26625150120128
 20
-80.798816568047414
 30
0.0
 11
-217.26625150120128
 21
-89.6729835431276
 31
0.0
  0
LINE
  8
0
  6
DIVIDE
 62
               4
  5
140
 10
-211.78142394389977
 20
-80.798816568047414
 30
0.0
 11
-211.78142394389977
 21
-89.6729835431276
 31
0.0
  0
ARC
  8
0
  6
DIVIDE
 62
               4
  5
141
 10
-198.10866527985195
 20
-86.895780709794963
 30
0.0
 40
3.9030358582524394
 50
225.36111921400638
 51
314.63888078588911
  0
ARC
  8
0
  6
DIVIDE
 62
               4
  5
142
 10
-214.52383772255058
 20
-86.895780709794963
 30
0.0
 40
3.9030358582524194
 50
225.36111921400669
 51
314.63888078588928
  0
ARC
  8
0
  6
DIVIDE
 62
               4
  5
143
 10
-206.31625150120124
 20
-76.971006786640999
 30
0.0
 40
13.827809781406318
 50
246.71964825748159
 51
293.28035174241398
  0
ENDBLK
  8
0
  5
144
  0
BLOCK
  8
0
  5
145
  2
GROUP_2
 70
               0
 10
0.0
 20
0.0
 30
0.0
  3
GROUP_2
  0
LINE
  8
0
  6
DIVIDE
 62
               4
  5
146
 10
-195.3662515012013
 20
-40.798816568047414
 30
0.0
 11
-195.3662515012013
 21
-31.924649592967171
 31
0.0
  0
LINE
  8
0
  6
DIVIDE
 62
               4
  5
147
 10
-200.85107905850271
 20
-31.924649592967171
 30
0.0
 11
-200.85107905850271
 21
-40.798816568047414
 31
0.0
  0
LINE
  8
0
  6
DIVIDE
 62
               4
  5
148
 10
-195.3662515012013
 20
-40.798816568047414
 30
0.0
 11
-217.26625150120128
 21
-40.798816568047414
 31
0.0
  0
LINE
  8
0
  6
DIVIDE
 62
               4
  5
149
 10
-198.10866527985195
 20
-30.798816568047414
 30
0.0
 11
-214.52383772255058
 21
-30.798816568047414
 31
0.0
  0
LINE
  8
0
  6
DIVIDE
 62
               4
  5
14A
 10
-217.26625150120128
 20
-40.798816568047414
 30
0.0
 11
-217.26625150120128
 21
-31.924649592967171
 31
0.0
  0
LINE
  8
0
  6
DIVIDE
 62
               4
  5
14B
 10
-211.78142394389977
 20
-40.798816568047414
 30
0.0
 11
-211.78142394389977
 21
-31.924649592967171
 31
0.0
  0
ARC
  8
0
  6
DIVIDE
 62
               4
  5
14C
 10
-198.10866527985195
 20
-34.701852426299865
 30
0.0
 40
3.9030358582524394
 50
45.361119214041416
 51
134.63888078592416
  0
ARC
  8
0
  6
DIVIDE
 62
               4
  5
14D
 10
-214.52383772255058
 20
-34.701852426299865
 30
0.0
 40
3.9030358582524194
 50
45.361119214041118
 51
134.63888078592382
  0
ARC
  8
0
  6
DIVIDE
 62
               4
  5
14E
 10
-206.31625150120124
 20
-44.626626349453716
 30
0.0
 40
13.827809781406318
 50
66.719648257516468
 51
113.28035174244877
  0
ENDBLK
  8
0
  5
14F
  0
BLOCK
  8
0
  5
150
  2
GROUP_3
 70
               0
 10
0.0
 20
0.0
 30
0.0
  3
GROUP_3
  0
LINE
  8
0
  6
DIVIDE
 62
               4
  5
151
 10
92.733748498798789
 20
-80.798816568047414
 30
0.0
 11
92.733748498798789
 21
-89.6729835431276
 31
0.0
  0
LINE
  8
0
  6
DIVIDE
 62
               4
  5
152
 10
98.218576056100218
 20
-89.6729835431276
 30
0.0
 11
98.218576056100218
 21
-80.798816568047414
 31
0.0
  0
LINE
  8
0
  6
DIVIDE
 62
               4
  5
153
 10
92.733748498798789
 20
-80.798816568047414
 30
0.0
 11
114.63374849879877
 21
-80.798816568047414
 31
0.0
  0
LINE
  8
0
  6
DIVIDE
 62
               4
  5
154
 10
95.47616227744949
 20
-90.798816568047414
 30
0.0
 11
111.89133472014807
 21
-90.798816568047414
 31
0.0
  0
LINE
  8
0
  6
DIVIDE
 62
               4
  5
155
 10
114.63374849879877
 20
-80.798816568047414
 30
0.0
 11
114.63374849879877
 21
-89.6729835431276
 31
0.0
  0
LINE
  8
0
  6
DIVIDE
 62
               4
  5
156
 10
109.14892094149731
 20
-80.798816568047414
 30
0.0
 11
109.14892094149731
 21
-89.6729835431276
 31
0.0
  0
ARC
  8
0
  6
DIVIDE
 62
               4
  5
157
 10
95.47616227744949
 20
-86.895780709794963
 30
0.0
 40
3.9030358582524394
 50
225.36111921400652
 51
314.63888078588928
  0
ARC
  8
0
  6
DIVIDE
 62
               4
  5
158
 10
111.89133472014807
 20
-86.895780709794963
 30
0.0
 40
3.9030358582524194
 50
225.36111921400621
 51
314.63888078588911
  0
ARC
  8
0
  6
DIVIDE
 62
               4
  5
159
 10
103.68374849879878
 20
-76.971006786640999
 30
0.0
 40
13.827809781406318
 50
246.71964825748165
 51
293.28035174241398
  0
ENDBLK
  8
0
  5
15A
  0
BLOCK
  8
0
  5
15B
  2
GROUP_4
 70
               0
 10
0.0
 20
0.0
 30
0.0
  3
GROUP_4
  0
LINE
  8
0
  6
DIVIDE
 62
               4
  5
15C
 10
92.733748498798789
 20
-40.798816568047414
 30
0.0
 11
92.733748498798789
 21
-31.924649592967171
 31
0.0
  0
LINE
  8
0
  6
DIVIDE
 62
               4
  5
15D
 10
98.218576056100218
 20
-31.924649592967171
 30
0.0
 11
98.218576056100218
 21
-40.798816568047414
 31
0.0
  0
LINE
  8
0
  6
DIVIDE
 62
               4
  5
15E
 10
92.733748498798789
 20
-40.798816568047414
 30
0.0
 11
114.63374849879877
 21
-40.798816568047414
 31
0.0
  0
LINE
  8
0
  6
DIVIDE
 62
               4
  5
15F
 10
95.47616227744949
 20
-30.798816568047414
 30
0.0
 11
111.89133472014807
 21
-30.798816568047414
 31
0.0
  0
LINE
  8
0
  6
DIVIDE
 62
               4
  5
160
 10
114.63374849879877
 20
-40.798816568047414
 30
0.0
 11
114.63374849879877
 21
-31.924649592967171
 31
0.0
  0
LINE
  8
0
  6
DIVIDE
 62
               4
  5
161
 10
109.14892094149731
 20
-40.798816568047414
 30
0.0
 11
109.14892094149731
 21
-31.924649592967171
 31
0.0
  0
ARC
  8
0
  6
DIVIDE
 62
               4
  5
162
 10
95.47616227744949
 20
-34.701852426299865
 30
0.0
 40
3.9030358582524394
 50
45.361119214040976
 51
134.63888078592382
  0
ARC
  8
0
  6
DIVIDE
 62
               4
  5
163
 10
111.89133472014807
 20
-34.701852426299865
 30
0.0
 40
3.9030358582524194
 50
45.361119214041267
 51
134.63888078592416
  0
ARC
  8
0
  6
DIVIDE
 62
               4
  5
164
 10
103.68374849879878
 20
-44.626626349453716
 30
0.0
 40
13.827809781406318
 50
66.719648257516411
 51
113.28035174244877
  0
ENDBLK
  8
0
  5
165
  0
ENDSEC
  0
SECTION
  2
ENTITIES
  0
LINE
  8
0
  6
DASHDOT
 62
               4
  5
166
 10
-240.81625150120118
 20
77.2988165680473
 30
0.0
 11
138.18374849879882
 21
77.2988165680473
 31
0.0
  0
LINE
  8
0
  6
DASHDOT
 62
               4
  5
167
 10
-51.316251501201222
 20
120.7988165680473
 30
0.0
 11
-51.316251501201222
 21
33.7988165680473
 31
0.0
  0
LINE
  8
0
  6
DASHDOT
 62
               4
  5
168
 10
-51.316251501201222
 20
-10.298816568047357
 30
0.0
 11
-51.316251501201222
 21
-100.79881656804741
 31
0.0
  0
LINE
  8
0
  6
DASHDOT
 62
               4
  5
169
 10
-206.31625150120118
 20
19.336863508039073
 30
0.0
 11
-206.31625150120118
 21
-120.7988165680473
 31
0.0
  0
LINE
  8
0
  6
DASHDOT
 62
               4
  5
16A
 10
-222.00165269988224
 20
-60.798816568047414
 30
0.0
 11
119.23229529409799
 21
-60.798816568047414
 31
0.0
  0
LINE
  8
0
  6
DASHDOT
 62
               4
  5
16B
 10
103.68374849879875
 20
19.336863508039073
 30
0.0
 11
103.68374849879875
 21
-120.7988165680473
 31
0.0
  0
LINE
  8
0
  6
DASHDOT
 62
               4
  5
16C
 10
214.31625150120118
 20
-10.298816568047357
 30
0.0
 11
214.31625150120118
 21
-100.79881656804741
 31
0.0
  0
LINE
  8
0
  6
DIVIDE
 62
               4
  5
16D
 10
-211.31625150120124
 20
-100.7988165680473
 30
0.0
 11
-201.31625150120124
 21
-100.7988165680473
 31
0.0
  0
LINE
  8
0
  6
DIVIDE
 62
               4
  5
16E
 10
-212.31625150120124
 20
-99.798816568047414
 30
0.0
 11
-211.31625150120124
 21
-100.7988165680473
 31
0.0
  0
LINE
  8
0
  6
DIVIDE
 62
               4
  5
16F
 10
-200.31625150120124
 20
-99.798816568047414
 30
0.0
 11
-201.31625150120124
 21
-100.7988165680473
 31
0.0
  0
LINE
  8
0
  6
DIVIDE
 62
               4
  5
170
 10
-212.31625150120124
 20
-90.798816568047414
 30
0.0
 11
-212.31625150120124
 21
-99.798816568047414
 31
0.0
  0
LINE
  8
0
  6
DIVIDE
 62
               4
  5
171
 10
-200.31625150120124
 20
-90.798816568047414
 30
0.0
 11
-200.31625150120124
 21
-99.798816568047414
 31
0.0
  0
LINE
  8
0
  6
DIVIDE
 62
               4
  5
172
 10
-200.31625150120124
 20
-0.6631364919609268
 30
0.0
 11
-200.31625150120124
 21
-30.798816568047414
 31
0.0
  0
LINE
  8
0
  6
DIVIDE
 62
               4
  5
173
 10
-200.31625150120124
 20
-40.798816568047414
 30
0.0
 11
-200.31625150120124
 21
-80.798816568047414
 31
0.0
  0
LINE
  8
0
  6
DIVIDE
 62
               4
  5
174
 10
-212.31625150120124
 20
-0.6631364919609268
 30
0.0
 11
-212.31625150120124
 21
-30.798816568047414
 31
0.0
  0
LINE
  8
0
  6
DIVIDE
 62
               4
  5
175
 10
-212.31625150120124
 20
-40.798816568047357
 30
0.0
 11
-212.31625150120124
 21
-80.798816568047414
 31
0.0
  0
LINE
  8
0
  6
DIVIDE
 62
               4
  5
176
 10
108.68374849879878
 20
-100.7988165680473
 30
0.0
 11
98.683748498798778
 21
-100.7988165680473
 31
0.0
  0
LINE
  8
0
  6
DIVIDE
 62
               4
  5
177
 10
109.68374849879875
 20
-99.798816568047414
 30
0.0
 11
108.68374849879878
 21
-100.7988165680473
 31
0.0
  0
LINE
  8
0
  6
DIVIDE
 62
               4
  5
178
 10
97.683748498798749
 20
-99.798816568047414
 30
0.0
 11
98.683748498798778
 21
-100.7988165680473
 31
0.0
  0
LINE
  8
0
  6
DIVIDE
 62
               4
  5
179
 10
109.68374849879875
 20
-90.798816568047414
 30
0.0
 11
109.68374849879875
 21
-99.798816568047414
 31
0.0
  0
LINE
  8
0
  6
DIVIDE
 62
               4
  5
17A
 10
97.683748498798749
 20
-90.798816568047414
 30
0.0
 11
97.683748498798749
 21
-99.798816568047414
 31
0.0
  0
LINE
  8
0
  6
DIVIDE
 62
               4
  5
17B
 10
97.683748498798749
 20
-0.6631364919609268
 30
0.0
 11
97.683748498798749
 21
-30.798816568047414
 31
0.0
  0
LINE
  8
0
  6
DIVIDE
 62
               4
  5
17C
 10
97.683748498798749
 20
-40.798816568047414
 30
0.0
 11
97.683748498798749
 21
-80.798816568047414
 31
0.0
  0
LINE
  8
0
  6
DIVIDE
 62
               4
  5
17D
 10
109.68374849879875
 20
-0.6631364919609268
 30
0.0
 11
109.68374849879875
 21
-30.798816568047414
 31
0.0
  0
LINE
  8
0
  6
DIVIDE
 62
               4
  5
17E
 10
109.68374849879875
 20
-40.798816568047357
 30
0.0
 11
109.68374849879875
 21
-80.798816568047414
 31
0.0
  0
LINE
  8
0
  6
DASHED
 62
               4
  5
17F
 10
-68.316251501201222
 20
-55.298816568047357
 30
0.0
 11
-34.316251501201222
 21
-55.298816568047357
 31
0.0
  0
LINE
  8
0
  6
DASHED
 62
               4
  5
180
 10
197.31625150120118
 20
-55.298816568047357
 30
0.0
 11
231.31625150120118
 21
-55.298816568047357
 31
0.0
  0
LINE
  8
0
  6
CONTINUOUS
 62
               3
  5
181
 10
-81.316251501201222
 20
77.2988165680473
 30
0.0
 11
-192.67044326830592
 21
77.2988165680473
 31
0.0
  0
ARC
  8
0
  6
CONTINUOUS
 62
               3
  5
182
 10
98.683748498798806
 20
77.2988165680473
 30
0.0
 40
6.5
 50
89.999999999982634
 51
163.87237978680901
  0
LINE
  8
0
  6
CONTINUOUS
 62
               3
  5
183
 10
-21.316251501201222
 20
77.2988165680473
 30
0.0
 11
90.037940265903487
 21
77.2988165680473
 31
0.0
  0
ARC
  8
0
  6
CONTINUOUS
 62
               3
  5
184
 10
90.037940265903487
 20
79.798816568047243
 30
0.0
 40
2.5
 50
269.99999999994793
 51
343.87237978676961
  0
ARC
  8
0
  6
CONTINUOUS
 62
               3
  5
185
 10
98.683748498798806
 20
77.2988165680473
 30
0.0
 40
6.5
 50
196.12762021312147
 51
269.99999999994782
  0
ARC
  8
0
  6
CONTINUOUS
 62
               3
  5
186
 10
90.037940265903487
 20
74.7988165680473
 30
0.0
 40
2.5
 50
16.127620213160998
 51
89.999999999982535
  0
ARC
  8
0
  6
CONTINUOUS
 62
               3
  5
187
 10
-51.316251501201222
 20
77.2988165680473
 30
0.0
 40
20.0
 50
186.37937020840675
 51
353.62062979148891
  0
LINE
  8
0
  6
CONTINUOUS
 62
               3
  5
188
 10
-220.81625150120124
 20
-80.798816568047414
 30
0.0
 11
118.18374849879878
 21
-80.798816568047414
 31
0.0
  0
LINE
  8
0
  6
CONTINUOUS
 62
               3
  5
189
 10
-73.676931276199085
 20
-50.798816568047414
 30
0.0
 11
-73.676931276199085
 21
-70.798816568047414
 31
0.0
  0
LINE
  8
0
  6
CONTINUOUS
 62
               3
  5
18A
 10
-71.316251501201222
 20
-30.298816568047357
 30
0.0
 11
-31.316251501201222
 21
-30.298816568047357
 31
0.0
  0
LINE
  8
0
  6
CONTINUOUS
 62
               3
  5
18B
 10
-71.316251501201222
 20
-30.298816568047357
 30
0.0
 11
-71.316251501201222
 21
-37.798816568047357
 31
0.0
  0
LINE
  8
0
  6
CONTINUOUS
 62
               3
  5
18C
 10
-31.316251501201222
 20
-30.298816568047357
 30
0.0
 11
-31.316251501201222
 21
-37.798816568047357
 31
0.0
  0
ARC
  8
0
  6
CONTINUOUS
 62
               3
  5
18D
 10
108.68374849879881
 20
77.2988165680473
 30
0.0
 40
6.5
 50
0.0
 51
89.999999999982634
  0
ARC
  8
0
  6
CONTINUOUS
 62
               3
  5
18E
 10
108.68374849879881
 20
77.2988165680473
 30
0.0
 40
6.5
 50
269.99999999994782
 51
359.99999999993042
  0
LINE
  8
0
  6
CONTINUOUS
 62
               3
  5
18F
 10
108.68374851752439
 20
83.7988165680473
 30
0.0
 11
98.683748517524393
 21
83.7988165680473
 31
0.0
  0
LINE
  8
0
  6
CONTINUOUS
 62
               3
  5
190
 10
98.683748498798806
 20
70.7988165680473
 30
0.0
 11
108.68374849879881
 21
70.7988165680473
 31
0.0
  0
LINE
  8
0
  6
CONTINUOUS
 62
               3
  5
191
 10
-21.316251501201222
 20
80.7988165680473
 30
0.0
 11
89.316251501201194
 21
80.7988165680473
 31
0.0
  0
ARC
  8
0
  6
CONTINUOUS
 62
               3
  5
192
 10
98.683748498798806
 20
77.7988165680473
 30
0.0
 40
9.5
 50
89.999999999982577
 51
159.51268488524633
  0
ARC
  8
0
  6
CONTINUOUS
 62
               3
  5
193
 10
108.68374849879881
 20
77.7988165680473
 30
0.0
 40
9.5
 50
0.0
 51
89.999999999982577
  0
LINE
  8
0
  6
CONTINUOUS
 62
               3
  5
194
 10
98.683748498798806
 20
87.2988165680473
 30
0.0
 11
108.68374849879881
 21
87.2988165680473
 31
0.0
  0
ARC
  8
0
  6
CONTINUOUS
 62
               3
  5
195
 10
89.316251501201194
 20
81.298816568047357
 30
0.0
 40
0.5
 50
269.99999999994731
 51
339.51268488521606
  0
LINE
  8
0
  6
CONTINUOUS
 62
               3
  5
196
 10
-21.316251501201222
 20
73.7988165680473
 30
0.0
 11
89.316251501201194
 21
73.7988165680473
 31
0.0
  0
ARC
  8
0
  6
CONTINUOUS
 62
               3
  5
197
 10
89.316251501201194
 20
73.298816568047357
 30
0.0
 40
0.5
 50
20.487315114715095
 51
89.999999999981881
  0
ARC
  8
0
  6
CONTINUOUS
 62
               3
  5
198
 10
98.683748498798806
 20
76.7988165680473
 30
0.0
 40
9.5
 50
200.48731511468407
 51
269.99999999994782
  0
LINE
  8
0
  6
CONTINUOUS
 62
               3
  5
199
 10
98.683748498798806
 20
67.2988165680473
 30
0.0
 11
108.68374849879881
 21
67.2988165680473
 31
0.0
  0
ARC
  8
0
  6
CONTINUOUS
 62
               3
  5
19A
 10
108.68374849879881
 20
76.7988165680473
 30
0.0
 40
9.5
 50
269.99999999994782
 51
359.99999999993042
  0
ARC
  8
0
  6
CONTINUOUS
 62
               3
  5
19B
 10
108.68374849879881
 20
77.298816568047357
 30
0.0
 40
6.5
 50
269.99999999994782
 51
355.588274214161
  0
LINE
  8
0
  6
CONTINUOUS
 62
               3
  5
19C
 10
108.68374851752439
 20
70.798816568047357
 30
0.0
 11
98.683748517524393
 21
70.798816568047357
 31
0.0
  0
ARC
  8
0
  6
CONTINUOUS
 62
               3
  5
19D
 10
98.683748498798806
 20
77.298816568047357
 30
0.0
 40
6.5
 50
196.12762021312147
 51
269.99999999994782
  0
ARC
  8
0
  6
CONTINUOUS
 62
               3
  5
19E
 10
90.037940265903487
 20
74.798816568047357
 30
0.0
 40
2.5
 50
16.127620213160998
 51
89.999999999982535
  0
ARC
  8
0
  6
CONTINUOUS
 62
               3
  5
19F
 10
-201.31625150120118
 20
77.298816568047357
 30
0.0
 40
6.5
 50
16.127620213156327
 51
89.999999999982521
  0
LINE
  8
0
  6
CONTINUOUS
 62
               3
  5
1A0
 10
-85.722133095345995
 20
77.2988165680473
 30
0.0
 11
-192.67044326830592
 21
77.298816568047357
 31
0.0
  0
ARC
  8
0
  6
CONTINUOUS
 62
               3
  5
1A1
 10
-192.67044326830592
 20
79.798816568047357
 30
0.0
 40
2.5
 50
196.12762021312605
 51
269.99999999994793
  0
ARC
  8
0
  6
CONTINUOUS
 62
               3
  5
1A2
 10
-201.31625150120118
 20
77.298816568047357
 30
0.0
 40
6.5
 50
269.99999999994782
 51
343.87237978677399
  0
ARC
  8
0
  6
CONTINUOUS
 62
               3
  5
1A3
 10
-192.67044326830592
 20
74.798816568047357
 30
0.0
 40
2.5
 50
89.999999999982862
 51
163.8723797868044
  0
ARC
  8
0
  6
CONTINUOUS
 62
               3
  5
1A4
 10
-211.31625150120118
 20
77.298816568047357
 30
0.0
 40
6.5
 50
89.999999999982521
 51
179.99999999996527
  0
ARC
  8
0
  6
CONTINUOUS
 62
               3
  5
1A5
 10
-211.31625150120118
 20
77.298816568047357
 30
0.0
 40
6.5
 50
179.99999999996527
 51
269.99999999994782
  0
LINE
  8
0
  6
CONTINUOUS
 62
               3
  5
1A6
 10
-211.31625151992677
 20
83.798816568047357
 30
0.0
 11
-201.31625151992677
 21
83.798816568047357
 31
0.0
  0
LINE
  8
0
  6
CONTINUOUS
 62
               3
  5
1A7
 10
-201.31625150120118
 20
70.798816568047357
 30
0.0
 11
-211.31625150120118
 21
70.798816568047357
 31
0.0
  0
LINE
  8
0
  6
CONTINUOUS
 62
               3
  5
1A8
 10
-81.316251501201222
 20
80.7988165680473
 30
0.0
 11
-191.94875450360365
 21
80.798816568047357
 31
0.0
  0
ARC
  8
0
  6
CONTINUOUS
 62
               3
  5
1A9
 10
-201.31625150120118
 20
77.798816568047357
 30
0.0
 40
9.5
 50
20.487315114718861
 51
89.999999999982663
  0
ARC
  8
0
  6
CONTINUOUS
 62
               3
  5
1AA
 10
-211.31625150120118
 20
77.798816568047357
 30
0.0
 40
9.5
 50
89.999999999982663
 51
179.99999999996524
  0
LINE
  8
0
  6
CONTINUOUS
 62
               3
  5
1AB
 10
-201.31625150120118
 20
87.298816568047357
 30
0.0
 11
-211.31625150120118
 21
87.298816568047357
 31
0.0
  0
ARC
  8
0
  6
CONTINUOUS
 62
               3
  5
1AC
 10
-191.94875450360365
 20
81.298816568047357
 30
0.0
 40
0.5
 50
200.4873151146802
 51
269.99999999994731
  0
LINE
  8
0
  6
CONTINUOUS
 62
               3
  5
1AD
 10
-81.316251501201222
 20
73.798816568047243
 30
0.0
 11
-191.94875450360365
 21
73.798816568047357
 31
0.0
  0
ARC
  8
0
  6
CONTINUOUS
 62
               3
  5
1AE
 10
-191.94875450360365
 20
73.298816568047357
 30
0.0
 40
0.5
 50
89.999999999983515
 51
159.51268488525
  0
ARC
  8
0
  6
CONTINUOUS
 62
               3
  5
1AF
 10
-201.31625150120118
 20
76.798816568047357
 30
0.0
 40
9.5
 50
269.99999999994782
 51
339.51268488521151
  0
LINE
  8
0
  6
CONTINUOUS
 62
               3
  5
1B0
 10
-201.31625150120118
 20
67.298816568047357
 30
0.0
 11
-211.31625150120118
 21
67.298816568047414
 31
0.0
  0
ARC
  8
0
  6
CONTINUOUS
 62
               3
  5
1B1
 10
-211.31625150120118
 20
76.798816568047357
 30
0.0
 40
9.5
 50
179.99999999996524
 51
269.99999999994782
  0
ARC
  8
0
  6
CONTINUOUS
 62
               3
  5
1B2
 10
-211.31625150120118
 20
77.298816568047357
 30
0.0
 40
6.5
 50
184.41172578573446
 51
269.99999999994782
  0
LINE
  8
0
  6
CONTINUOUS
 62
               3
  5
1B3
 10
-211.31625151992677
 20
70.798816568047414
 30
0.0
 11
-201.31625151992677
 21
70.798816568047357
 31
0.0
  0
ARC
  8
0
  6
CONTINUOUS
 62
               3
  5
1B4
 10
-201.31625150120118
 20
77.298816568047357
 30
0.0
 40
6.5
 50
269.99999999994782
 51
343.87237978677399
  0
ARC
  8
0
  6
CONTINUOUS
 62
               3
  5
1B5
 10
-192.67044326830592
 20
74.798816568047357
 30
0.0
 40
2.5
 50
89.999999999982862
 51
163.8723797868044
  0
LINE
  8
0
  6
CONTINUOUS
 62
               3
  5
1B6
 10
118.18374849879881
 20
77.2988165680473
 30
0.0
 11
115.18374849879881
 21
77.2988165680473
 31
0.0
  0
ARC
  8
0
  6
CONTINUOUS
 62
               3
  5
1B7
 10
118.18374849879881
 20
77.298816568047357
 30
0.0
 40
0.7818991915678519
 50
269.69347270871987
 51
450.30652729114109
  0
ARC
  8
0
  6
CONTINUOUS
 62
               3
  5
1B8
 10
-220.81625150120124
 20
77.298816568047414
 30
0.0
 40
0.7818991915678519
 50
89.693472708750463
 51
270.30652729118003
  0
LINE
  8
0
  6
CONTINUOUS
 62
               3
  5
1B9
 10
-220.81625150120124
 20
77.298816568047357
 30
0.0
 11
-217.81625148247559
 21
77.298816568047357
 31
0.0
  0
LINE
  8
0
  6
CONTINUOUS
 62
               3
  5
1BA
 10
118.18374849879878
 20
-50.798816568047414
 30
0.0
 11
-220.81625150120124
 21
-50.798816568047414
 31
0.0
  0
LINE
  8
0
  6
CONTINUOUS
 62
               3
  5
1BB
 10
-220.81625150120124
 20
-70.798816568047414
 30
0.0
 11
118.18374849879878
 21
-70.798816568047414
 31
0.0
  0
LINE
  8
0
  6
CONTINUOUS
 62
               3
  5
1BC
 10
-219.31625150120118
 20
-50.798816568047414
 30
0.0
 11
-219.31625150120118
 21
-70.798816568047414
 31
0.0
  0
LINE
  8
0
  6
CONTINUOUS
 62
               3
  5
1BD
 10
-220.81625150120124
 20
-40.798816568047357
 30
0.0
 11
-220.81625150120124
 21
-50.798816568047414
 31
0.0
  0
LINE
  8
0
  6
CONTINUOUS
 62
               3
  5
1BE
 10
-220.81625150120124
 20
-70.798816568047414
 30
0.0
 11
-220.81625150120124
 21
-80.798816568047414
 31
0.0
  0
LINE
  8
0
  6
CONTINUOUS
 62
               3
  5
1BF
 10
-192.67044326830592
 20
-50.798816568047414
 30
0.0
 11
-192.67044326830592
 21
-70.798816568047414
 31
0.0
  0
LINE
  8
0
  6
CONTINUOUS
 62
               3
  5
1C0
 10
-191.94875450360365
 20
-40.798816568047357
 30
0.0
 11
-191.94875450360365
 21
-50.798816568047414
 31
0.0
  0
LINE
  8
0
  6
CONTINUOUS
 62
               3
  5
1C1
 10
-191.94875450360365
 20
-70.798816568047414
 30
0.0
 11
-191.94875450360365
 21
-80.798816568047414
 31
0.0
  0
LINE
  8
0
  6
CONTINUOUS
 62
               3
  5
1C2
 10
-220.81625150120124
 20
-40.798816568047357
 30
0.0
 11
-220.81625150120124
 21
-50.798816568047414
 31
0.0
  0
LINE
  8
0
  6
CONTINUOUS
 62
               3
  5
1C3
 10
-220.81625150120124
 20
-70.798816568047414
 30
0.0
 11
-220.81625150120124
 21
-80.798816568047414
 31
0.0
  0
LINE
  8
0
  6
CONTINUOUS
 62
               3
  5
1C4
 10
-75.176931276199113
 20
-70.798816568047414
 30
0.0
 11
-75.176931276199113
 21
-80.798816568047414
 31
0.0
  0
LINE
  8
0
  6
CONTINUOUS
 62
               3
  5
1C5
 10
-28.95557172620336
 20
-50.798816568047414
 30
0.0
 11
-28.95557172620336
 21
-70.798816568047414
 31
0.0
  0
LINE
  8
0
  6
CONTINUOUS
 62
               3
  5
1C6
 10
-27.45557172620336
 20
-70.798816568047414
 30
0.0
 11
-27.45557172620336
 21
-80.798816568047414
 31
0.0
  0
LINE
  8
0
  6
CONTINUOUS
 62
               3
  5
1C7
 10
116.68374849879878
 20
-50.798816568047414
 30
0.0
 11
116.68374849879875
 21
-70.798816568047414
 31
0.0
  0
LINE
  8
0
  6
CONTINUOUS
 62
               3
  5
1C8
 10
118.18374849879881
 20
-40.798816568047357
 30
0.0
 11
118.18374849879881
 21
-50.798816568047414
 31
0.0
  0
LINE
  8
0
  6
CONTINUOUS
 62
               3
  5
1C9
 10
118.18374849879878
 20
-70.798816568047414
 30
0.0
 11
118.18374849879878
 21
-80.798816568047414
 31
0.0
  0
LINE
  8
0
  6
CONTINUOUS
 62
               3
  5
1CA
 10
90.037940265903458
 20
-50.798816568047414
 30
0.0
 11
90.03794026590343
 21
-70.798816568047414
 31
0.0
  0
LINE
  8
0
  6
CONTINUOUS
 62
               3
  5
1CB
 10
89.316251501201194
 20
-40.798816568047357
 30
0.0
 11
89.316251501201194
 21
-50.798816568047414
 31
0.0
  0
LINE
  8
0
  6
CONTINUOUS
 62
               3
  5
1CC
 10
89.316251501201165
 20
-70.798816568047414
 30
0.0
 11
89.316251501201165
 21
-80.798816568047414
 31
0.0
  0
LINE
  8
0
  6
CONTINUOUS
 62
               3
  5
1CD
 10
118.18374849879881
 20
-40.798816568047357
 30
0.0
 11
118.18374849879881
 21
-50.798816568047414
 31
0.0
  0
LINE
  8
0
  6
CONTINUOUS
 62
               3
  5
1CE
 10
118.18374849879878
 20
-70.798816568047414
 30
0.0
 11
118.18374849879875
 21
-80.798816568047414
 31
0.0
  0
LINE
  8
0
  6
CONTINUOUS
 62
               3
  5
1CF
 10
222.81625150120118
 20
-50.798816568047414
 30
0.0
 11
222.81625150120112
 21
-70.798816568047357
 31
0.0
  0
LINE
  8
0
  6
CONTINUOUS
 62
               3
  5
1D0
 10
224.31625150120118
 20
-40.798816568047357
 30
0.0
 11
224.31625150120118
 21
-50.798816568047414
 31
0.0
  0
LINE
  8
0
  6
CONTINUOUS
 62
               3
  5
1D1
 10
224.31625150120118
 20
-70.798816568047357
 30
0.0
 11
224.31625150120118
 21
-80.798816568047414
 31
0.0
  0
LINE
  8
0
  6
CONTINUOUS
 62
               3
  5
1D2
 10
224.31625150120118
 20
-40.798816568047357
 30
0.0
 11
224.31625150120118
 21
-50.798816568047414
 31
0.0
  0
LINE
  8
0
  6
CONTINUOUS
 62
               3
  5
1D3
 10
224.31625150120118
 20
-70.798816568047357
 30
0.0
 11
224.31625150120112
 21
-80.798816568047414
 31
0.0
  0
LINE
  8
0
  6
CONTINUOUS
 62
               3
  5
1D4
 10
205.81625150120124
 20
-50.798816568047414
 30
0.0
 11
205.81625150120124
 21
-70.798816568047357
 31
0.0
  0
LINE
  8
0
  6
CONTINUOUS
 62
               3
  5
1D5
 10
204.31625150120118
 20
-40.798816568047357
 30
0.0
 11
204.31625150120118
 21
-50.798816568047414
 31
0.0
  0
LINE
  8
0
  6
CONTINUOUS
 62
               3
  5
1D6
 10
204.31625150120124
 20
-70.798816568047357
 30
0.0
 11
204.31625150120124
 21
-80.798816568047414
 31
0.0
  0
LINE
  8
0
  6
CONTINUOUS
 62
               3
  5
1D7
 10
204.31625150120118
 20
-40.798816568047357
 30
0.0
 11
204.31625150120118
 21
-50.798816568047414
 31
0.0
  0
LINE
  8
0
  6
CONTINUOUS
 62
               3
  5
1D8
 10
204.31625150120124
 20
-70.798816568047357
 30
0.0
 11
204.31625150120124
 21
-80.798816568047414
 31
0.0
  0
LINE
  8
0
  6
CONTINUOUS
 62
               3
  5
1D9
 10
191.31625150120124
 20
-50.798816568047414
 30
0.0
 11
237.31625150120118
 21
-50.798816568047414
 31
0.0
  0
LINE
  8
0
  6
CONTINUOUS
 62
               3
  5
1DA
 10
237.31625150120118
 20
-70.798816568047357
 30
0.0
 11
191.31625150120124
 21
-70.798816568047357
 31
0.0
  0
LINE
  8
0
  6
CONTINUOUS
 62
               3
  5
1DB
 10
191.31625150120124
 20
-80.798816568047414
 30
0.0
 11
237.31625150120118
 21
-80.798816568047414
 31
0.0
  0
LINE
  8
0
  6
CONTINUOUS
 62
               3
  5
1DC
 10
192.81625150120124
 20
-50.798816568047414
 30
0.0
 11
192.81625150120124
 21
-70.798816568047357
 31
0.0
  0
LINE
  8
0
  6
CONTINUOUS
 62
               3
  5
1DD
 10
191.31625150120124
 20
-70.798816568047357
 30
0.0
 11
191.31625150120124
 21
-80.798816568047414
 31
0.0
  0
LINE
  8
0
  6
CONTINUOUS
 62
               3
  5
1DE
 10
191.31625150120124
 20
-70.798816568047357
 30
0.0
 11
191.31625150120124
 21
-80.798816568047414
 31
0.0
  0
LINE
  8
0
  6
CONTINUOUS
 62
               3
  5
1DF
 10
235.81625150120118
 20
-50.798816568047414
 30
0.0
 11
235.81625150120112
 21
-70.798816568047357
 31
0.0
  0
LINE
  8
0
  6
CONTINUOUS
 62
               3
  5
1E0
 10
237.31625150120118
 20
-40.798816568047357
 30
0.0
 11
237.31625150120118
 21
-50.798816568047414
 31
0.0
  0
LINE
  8
0
  6
CONTINUOUS
 62
               3
  5
1E1
 10
237.31625150120118
 20
-70.798816568047357
 30
0.0
 11
237.31625150120118
 21
-80.798816568047414
 31
0.0
  0
LINE
  8
0
  6
CONTINUOUS
 62
               3
  5
1E2
 10
237.31625150120118
 20
-40.798816568047357
 30
0.0
 11
237.31625150120118
 21
-50.798816568047414
 31
0.0
  0
LINE
  8
0
  6
CONTINUOUS
 62
               3
  5
1E3
 10
237.31625150120118
 20
-70.798816568047357
 30
0.0
 11
237.31625150120112
 21
-80.798816568047414
 31
0.0
  0
LINE
  8
0
  6
CONTINUOUS
 62
               3
  5
1E4
 10
194.31625150120118
 20
-30.298816568047357
 30
0.0
 11
234.31625150120118
 21
-30.298816568047357
 31
0.0
  0
LINE
  8
0
  6
CONTINUOUS
 62
               3
  5
1E5
 10
194.31625150120118
 20
-30.298816568047357
 30
0.0
 11
194.31625150120118
 21
-37.798816568047357
 31
0.0
  0
LINE
  8
0
  6
CONTINUOUS
 62
               3
  5
1E6
 10
234.31625150120118
 20
-30.298816568047357
 30
0.0
 11
234.31625150120118
 21
-37.798816568047357
 31
0.0
  0
CIRCLE
  8
0
  6
CONTINUOUS
 62
               3
  5
1E7
 10
-51.316251501201194
 20
77.2988165680473
 30
0.0
 40
17.0
  0
CIRCLE
  8
0
  6
CONTINUOUS
 62
               3
  5
1E8
 10
-51.316251501201194
 20
77.2988165680473
 30
0.0
 40
20.0
  0
LINE
  8
0
  6
CONTINUOUS
 62
               3
  5
1E9
 10
118.18374849879881
 20
76.7988165680473
 30
0.0
 11
118.18374849879881
 21
77.7988165680473
 31
0.0
  0
LINE
  8
0
  6
CONTINUOUS
 62
               3
  5
1EA
 10
-220.81625150120118
 20
76.798816568047357
 30
0.0
 11
-220.81625150120118
 21
77.798816568047357
 31
0.0
  0
CIRCLE
  8
0
  6
CONTINUOUS
 62
               3
  5
1EB
 10
-51.316251501201222
 20
77.2988165680473
 30
0.0
 40
23.5
  0
LINE
  8
0
  6
CONTINUOUS
 62
               3
  5
1EC
 10
-81.316251501201222
 20
-37.798816568047357
 30
0.0
 11
-21.316251501201222
 21
-37.798816568047357
 31
0.0
  0
LINE
  8
0
  6
CONTINUOUS
 62
               3
  5
1ED
 10
-57.61733018344836
 20
-50.798816568047414
 30
0.0
 11
-12.862652275459148
 21
-50.798816568047414
 31
0.0
  0
LINE
  8
0
  6
CONTINUOUS
 62
               3
  5
1EE
 10
-88.089203517595024
 20
-40.798816568047357
 30
0.0
 11
-81.316251501201222
 21
-40.798816568047357
 31
0.0
  0
LINE
  8
0
  6
CONTINUOUS
 62
               3
  5
1EF
 10
-21.316251501201222
 20
-40.798816568047357
 30
0.0
 11
118.18374849879878
 21
-40.798816568047357
 31
0.0
  0
LINE
  8
0
  6
CONTINUOUS
 62
               3
  5
1F0
 10
-220.81625150120124
 20
-40.798816568047357
 30
0.0
 11
-81.316251501201222
 21
-40.798816568047357
 31
0.0
  0
LINE
  8
0
  6
CONTINUOUS
 62
               3
  5
1F1
 10
190.81625150120118
 20
-37.798816568047357
 30
0.0
 11
237.81625150120118
 21
-37.798816568047357
 31
0.0
  0
LINE
  8
0
  6
CONTINUOUS
 62
               3
  5
1F2
 10
208.33121126858731
 20
-37.792118069116952
 30
0.0
 11
208.33121126858731
 21
-37.798816568047357
 31
0.0
  0
LINE
  8
0
  6
CONTINUOUS
 62
               3
  5
1F3
 10
-21.316251501201222
 20
102.59881656804731
 30
0.0
 11
-21.316251501201222
 21
51.998816568047289
 31
0.0
  0
LINE
  8
0
  6
CONTINUOUS
 62
               3
  5
1F4
 10
-81.316251501201222
 20
102.59881656804731
 30
0.0
 11
-81.316251501201222
 21
51.998816568047289
 31
0.0
  0
LINE
  8
0
  6
CONTINUOUS
 62
               3
  5
1F5
 10
-80.116251501201219
 20
103.7988165680473
 30
0.0
 11
-22.516251501201225
 21
103.7988165680473
 31
0.0
  0
LINE
  8
0
  6
CONTINUOUS
 62
               3
  5
1F6
 10
-80.116251501201219
 20
50.7988165680473
 30
0.0
 11
-22.516251501201225
 21
50.7988165680473
 31
0.0
  0
ARC
  8
0
  6
CONTINUOUS
 62
               3
  5
1F7
 10
-80.116251501201219
 20
102.59881656804731
 30
0.0
 40
1.2
 50
89.999999999982833
 51
179.99999999996498
  0
ARC
  8
0
  6
CONTINUOUS
 62
               3
  5
1F8
 10
-80.116251501201219
 20
51.998816568047289
 30
0.0
 40
1.2
 50
179.99999999996535
 51
269.99999999994782
  0
ARC
  8
0
  6
CONTINUOUS
 62
               3
  5
1F9
 10
-22.516251501201225
 20
51.998816568047289
 30
0.0
 40
1.2
 50
269.99999999994782
 51
359.99999999993037
  0
ARC
  8
0
  6
CONTINUOUS
 62
               3
  5
1FA
 10
-22.516251501201225
 20
102.59881656804731
 30
0.0
 40
1.2
 50
0.0
 51
89.999999999982492
  0
LINE
  8
0
  6
CONTINUOUS
 62
               3
  5
1FB
 10
-81.316251501201222
 20
-37.798816568047357
 30
0.0
 11
-81.316251501201222
 21
-49.598816568047425
 31
0.0
  0
LINE
  8
0
  6
CONTINUOUS
 62
               3
  5
1FC
 10
-21.316251501201222
 20
-49.598816568047425
 30
0.0
 11
-21.316251501201222
 21
-37.798816568047357
 31
0.0
  0
ARC
  8
0
  6
CONTINUOUS
 62
               3
  5
1FD
 10
-80.116251501201219
 20
-49.598816568047425
 30
0.0
 40
1.2
 50
179.99999999996535
 51
269.99999999994782
  0
ARC
  8
0
  6
CONTINUOUS
 62
               3
  5
1FE
 10
-22.516251501201225
 20
-49.598816568047425
 30
0.0
 40
1.2
 50
269.99999999994782
 51
359.99999999993037
  0
LINE
  8
0
  6
CONTINUOUS
 62
               3
  5
1FF
 10
192.81625150120124
 20
-50.798816568047414
 30
0.0
 11
237.31625150120118
 21
-50.798816568047414
 31
0.0
  0
LINE
  8
0
  6
CONTINUOUS
 62
               3
  5
200
 10
191.31625150120118
 20
-40.798816568047357
 30
0.0
 11
191.31625150120118
 21
-50.798816568047414
 31
0.0
  0
LINE
  8
0
  6
CONTINUOUS
 62
               3
  5
201
 10
187.81625150120118
 20
-40.798816568047357
 30
0.0
 11
187.81625150120118
 21
-50.798816568047414
 31
0.0
  0
LINE
  8
0
  6
CONTINUOUS
 62
               3
  5
202
 10
240.81625150120118
 20
-40.798816568047357
 30
0.0
 11
240.81625150120118
 21
-50.798816568047414
 31
0.0
  0
LINE
  8
0
  6
CONTINUOUS
 62
               3
  5
203
 10
237.81625150120118
 20
-40.798816568047357
 30
0.0
 11
237.81625150120118
 21
-50.798816568047414
 31
0.0
  0
LINE
  8
0
  6
CONTINUOUS
 62
               3
  5
204
 10
190.81625150120118
 20
-40.798816568047357
 30
0.0
 11
190.81625150120118
 21
-50.798816568047414
 31
0.0
  0
LINE
  8
0
  6
CONTINUOUS
 62
               3
  5
205
 10
190.81625150120118
 20
-40.798816568047357
 30
0.0
 11
237.31625150120118
 21
-40.798816568047357
 31
0.0
  0
LINE
  8
0
  6
CONTINUOUS
 62
               3
  5
206
 10
237.31625150120118
 20
-40.798816568047357
 30
0.0
 11
237.81625150120118
 21
-40.798816568047357
 31
0.0
  0
ARC
  8
0
  6
CONTINUOUS
 62
               3
  5
207
 10
190.81625150120118
 20
-40.798816568047357
 30
0.0
 40
3.0
 50
89.999999999982435
 51
179.99999999996527
  0
ARC
  8
0
  6
CONTINUOUS
 62
               3
  5
208
 10
237.81625150120118
 20
-40.798816568047357
 30
0.0
 40
3.0
 50
0.0
 51
89.999999999982435
  0
LINE
  8
0
  6
CONTINUOUS
 62
               3
  5
209
 10
187.81625150120118
 20
-50.798816568047414
 30
0.0
 11
190.81625150120118
 21
-50.798816568047414
 31
0.0
  0
LINE
  8
0
  6
CONTINUOUS
 62
               3
  5
20A
 10
237.81625150120118
 20
-50.798816568047414
 30
0.0
 11
240.81625150120118
 21
-50.798816568047414
 31
0.0
  0
POINT
  8
0
  6
CONTINUOUS
 62
               5
  5
20B
 10
107.16902987303739
 20
-70.798816568047414
 30
0.0
  0
POINT
  8
0
  6
CONTINUOUS
 62
               5
  5
20C
 10
-211.31625150120118
 20
-100.7988165680473
 30
0.0
  0
POINT
  8
0
  6
CONTINUOUS
 62
               5
  5
20D
 10
92.183748498798806
 20
77.2988165680473
 30
0.0
  0
POINT
  8
0
  6
CONTINUOUS
 62
               5
  5
20E
 10
108.68374849879878
 20
-100.7988165680473
 30
0.0
  0
ARC
  8
0
  6
CONTINUOUS
 62
               7
  5
20F
 10
56.849998397780766
 20
-59.159753568106112
 30
0.0
 40
6.1546302891769162
 50
325.70481105457242
 51
374.29518894529224
  0
ARC
  8
0
  6
CONTINUOUS
 62
               7
  5
210
 10
62.408947533843545
 20
-57.743292296108052
 30
0.0
 40
0.4180565702743607
 50
14.295188945362026
 51
145.70481105460709
  0
ARC
  8
0
  6
CONTINUOUS
 62
               7
  5
211
 10
67.148192729061904
 20
-60.975603081289933
 30
0.0
 40
6.1546302891769162
 50
145.70481105460721
 51
194.29518894532694
  0
ARC
  8
0
  6
CONTINUOUS
 62
               7
  5
212
 10
61.589243592999296
 20
-62.392064353287992
 30
0.0
 40
0.4180565702743607
 50
194.29518894532643
 51
325.70481105457293
  0
ARC
  8
0
  6
CONTINUOUS
 62
               7
  5
213
 10
51.934850433136646
 20
-47.260990595549288
 30
0.0
 40
18.521999999999998
 50
302.91314635241076
 51
327.08685364746816
  0
ARC
  8
0
  6
CONTINUOUS
 62
               7
  5
214
 10
77.548225891434882
 20
-72.874366053846984
 30
0.0
 40
18.521999999999998
 50
122.91314635244559
 51
147.08685364750301
  0
ARC
  8
0
  6
CONTINUOUS
 62
               7
  5
215
 10
66.432164783571281
 20
-70.94117364073054
 30
0.0
 40
9.2609999999999992
 50
91.400677007129943
 51
118.59932299284129
  0
ARC
  8
0
  6
CONTINUOUS
 62
               7
  5
216
 10
61.772719766221755
 20
-53.551888100909196
 30
0.0
 40
9.2609999999999992
 50
271.40067700708425
 51
298.59932299279563
  0
INSERT
  8
0
  6
CONTINUOUS
  5
217
  2
GROUP_1
 10
0.0
 20
0.0
 30
0.0
  0
INSERT
  8
0
  6
CONTINUOUS
  5
218
  2
GROUP_2
 10
0.0
 20
0.0
 30
0.0
  0
INSERT
  8
0
  6
CONTINUOUS
  5
219
  2
GROUP_3
 10
0.0
 20
0.0
 30
0.0
  0
INSERT
  8
0
  6
CONTINUOUS
  5
21A
  2
GROUP_4
 10
0.0
 20
0.0
 30
0.0
  0
ENDSEC
  0
EOF
