  0
SECTION
  2
HEADER
  9
$ACADVER
  1
AC1009
  9
$INSBASE
 10
0.0
 20
0.0
 30
0.0
  9
$EXTMIN
 10
-760.72188364533645
 20
-348.45075501790694
 30
0.0
  9
$EXTMAX
 10
846.50527075326067
 20
435.98482295770384
 30
0.0
  9
$LIMMIN
 10
-810.94773222029266
 20
-372.9643668296448
  9
$LIMMAX
 10
896.73111932821689
 20
460.4984347694417
  9
$ORTHOMODE
 70
               0
  9
$REGENMODE
 70
               1
  9
$FILLMODE
 70
               1
  9
$QTEXTMODE
 70
               0
  9
$MIRRTEXT
 70
               1
  9
$DRAGMODE
 70
               2
  9
$LTSCALE
 40
1.0
  9
$OSMODE
 70
               0
  9
$ATTMODE
 70
               1
  9
$TEXTSIZE
 40
0.2
  9
$TRACEWID
 40
0.05
  9
$TEXTSTYLE
  7
STANDARD
  9
$CLAYER
  8
0
  9
$CELTYPE
  6
CONTINUOUS
  9
$CECOLOR
 62
             256
  9
$DIMSCALE
 40
1.0
  9
$DIMASZ
 40
0.18
  9
$DIMEXO
 40
0.0625
  9
$DIMDLI
 40
0.38
  9
$DIMRND
 40
0.0
  9
$DIMDLE
 40
0.0
  9
$DIMEXE
 40
0.18
  9
$DIMTP
 40
0.0
  9
$DIMTM
 40
0.0
  9
$DIMTXT
 40
0.18
  9
$DIMCEN
 40
0.09
  9
$DIMTSZ
 40
0.0
  9
$DIMTOL
 70
               0
  9
$DIMLIM
 70
               0
  9
$DIMTIH
 70
               1
  9
$DIMTOH
 70
               1
  9
$DIMSE1
 70
               0
  9
$DIMSE2
 70
               0
  9
$DIMTAD
 70
               0
  9
$DIMZIN
 70
               0
  9
$DIMBLK
  1

  9
$DIMASO
 70
               1
  9
$DIMSHO
 70
               1
  9
$DIMPOST
  1

  9
$DIMAPOST
  1

  9
$DIMALT
 70
               0
  9
$DIMALTD
 70
               2
  9
$DIMALTF
 40
25.399999999999999
  9
$DIMLFAC
 40
1.0
  9
$DIMTOFL
 70
               0
  9
$DIMTVP
 40
0.0
  9
$DIMTIX
 70
               0
  9
$DIMSOXD
 70
               0
  9
$DIMSAH
 70
               0
  9
$DIMBLK1
  1

  9
$DIMBLK2
  1

  9
$DIMSTYLE
  2
STANDARD
  9
$DIMCLRD
 70
               0
  9
$DIMCLRE
 70
               0
  9
$DIMCLRT
 70
               0
  9
$DIMTFAC
 40
1.0
  9
$DIMGAP
 40
0.09
  9
$LUNITS
 70
               2
  9
$LUPREC
 70
               4
  9
$AXISMODE
 70
               0
  9
$AXISUNIT
 10
0.0
 20
0.0
  9
$SKETCHINC
 40
0.1
  9
$FILLETRAD
 40
0.0
  9
$AUNITS
 70
               0
  9
$AUPREC
 70
               0
  9
$MENU
  1
acad
  9
$ELEVATION
 40
0.0
  9
$PELEVATION
 40
0.0
  9
$THICKNESS
 40
0.0
  9
$LIMCHECK
 70
               0
  9
$BLIPMODE
 70
               1
  9
$CHAMFERA
 40
0.0
  9
$CHAMFERB
 40
0.0
  9
$SKPOLY
 70
               0
  9
$TDCREATE
 40
0.000000000
  9
$TDUPDATE
 40
0.000000000
  9
$TDINDWG
 40
0.0000000000
  9
$TDUSRTIMER
 40
0.0000000000
  9
$USRTIMER
 70
               1
  9
$ANGBASE
 50
0.0
  9
$ANGDIR
 70
               0
  9
$PDMODE
 70
               0
  9
$PDSIZE
 40
1.0
  9
$PLINEWID
 40
0.0
  9
$COORDS
 70
               1
  9
$SPLFRAME
 70
               0
  9
$SPLINETYPE
 70
               6
  9
$SPLINESEGS
 70
               8
  9
$ATTDIA
 70
               0
  9
$ATTREQ
 70
               1
  9
$HANDLING
 70
               1
  9
$HANDSEED
  5
6E4
  9
$SURFTAB1
 70
               6
  9
$SURFTAB2
 70
               6
  9
$SURFTYPE
 70
               6
  9
$SURFU
 70
               6
  9
$SURFV
 70
               6
  9
$UCSNAME
  2

  9
$UCSORG
 10
0.0
 20
0.0
 30
0.0
  9
$UCSXDIR
 10
1.0
 20
0.0
 30
0.0
  9
$UCSYDIR
 10
0.0
 20
1.0
 30
0.0
  9
$PUCSNAME
  2

  9
$PUCSORG
 10
0.0
 20
0.0
 30
0.0
  9
$PUCSXDIR
 10
1.0
 20
0.0
 30
0.0
  9
$PUCSYDIR
 10
0.0
 20
1.0
 30
0.0
  9
$USERI1
 70
               0
  9
$USERI2
 70
               0
  9
$USERI3
 70
               0
  9
$USERI4
 70
               0
  9
$USERI5
 70
               0
  9
$USERR1
 40
0.0
  9
$USERR2
 40
0.0
  9
$USERR3
 40
0.0
  9
$USERR4
 40
0.0
  9
$USERR5
 40
0.0
  9
$WORLDVIEW
 70
               1
  9
$SHADEDGE
 70
               3
  9
$SHADEDIF
 70
              70
  9
$TILEMODE
 70
               1
  9
$MAXACTVP
 70
              16
  9
$PINSBASE
 10
0.0
 20
0.0
 30
0.0
  9
$PLIMCHECK
 70
               0
  9
$PEXTMIN
 10
1.0000000000000000E+20
 20
1.0000000000000000E+20
 30
1.0000000000000000E+20
  9
$PEXTMAX
 10
-1.0000000000000000E+20
 20
-1.0000000000000000E+20
 30
-1.0000000000000000E+20
  9
$PLIMMIN
 10
0.0
 20
0.0
  9
$PLIMMAX
 10
12.0
 20
9.0
  9
$UNITMODE
 70
               0
  9
$VISRETAIN
 70
               0
  9
$PLINEGEN
 70
               1
  9
$PSLTSCALE
 70
               0
  9
$TREEDEPTH
 70
            3020
  9
$DWGCODEPAGE
  3
dos932
  0
ENDSEC
  0
SECTION
  2
TABLES
  0
TABLE
  2
VPORT
 70
               1
  0
VPORT
  2
*ACTIVE
 70
               0
 10
0.0
 20
0.0
 11
1.0
 21
1.0
 12
42.891693553962114
 22
43.767033969898449
 13
0.0
 23
0.0
 14
1.0
 24
1.0
 15
0.0
 25
0.0
 16
0.0
 26
0.0
 36
1.0
 17
0.0
 27
0.0
 37
0.0
 40
833.46280159908656
 41
2.0488963013971913
 42
50.0
 43
0.0
 44
0.0
 50
0.0
 51
0.0
 71
               0
 72
             100
 73
               1
 74
               1
 75
               0
 76
               0
 77
               0
 78
               0
  0
ENDTAB
  0
TABLE
  2
LTYPE
 70
              26
  0
LTYPE
  2
CONTINUOUS
 70
               0
  3
Solid line
 72
              65
 73
               0
 40
0.0
  0
LTYPE
  2
HIDDENX2
 70
               0
  3
CADPAC FUSION LINETYPE
 72
              65
 73
               2
 40
80.0
 49
60.0
 49
-20.0
  0
LTYPE
  2
HIDDEN
 70
               0
  3
CADPAC FUSION LINETYPE
 72
              65
 73
               2
 40
60.0
 49
40.0
 49
-20.0
  0
LTYPE
  2
HIDDEN2
 70
               0
  3
CADPAC FUSION LINETYPE
 72
              65
 73
               2
 40
50.0
 49
30.0
 49
-20.0
  0
LTYPE
  2
DASHED
 70
               0
  3
CADPAC FUSION LINETYPE
 72
              65
 73
               2
 40
60.0
 49
40.0
 49
-20.0
  0
LTYPE
  2
DASHED2
 70
               0
  3
CADPAC FUSION LINETYPE
 72
              65
 73
               2
 40
45.0
 49
30.0
 49
-15.0
  0
LTYPE
  2
DASHEDX2
 70
               0
  3
CADPAC FUSION LINETYPE
 72
              65
 73
               2
 40
90.0
 49
60.0
 49
-30.0
  0
LTYPE
  2
DOTX2
 70
               0
  3
CADPAC FUSION LINETYPE
 72
              65
 73
               2
 40
25.0
 49
0.0
 49
-25.0
  0
LTYPE
  2
DOT
 70
               0
  3
CADPAC FUSION LINETYPE
 72
              65
 73
               2
 40
20.0
 49
0.0
 49
-20.0
  0
LTYPE
  2
DOTS
 70
               0
  3
CADPAC FUSION LINETYPE
 72
              65
 73
               2
 40
20.0
 49
0.0
 49
-20.0
  0
LTYPE
  2
DOT2
 70
               0
  3
CADPAC FUSION LINETYPE
 72
              65
 73
               2
 40
15.0
 49
0.0
 49
-15.0
  0
LTYPE
  2
CENTERX2
 70
               0
  3
CADPAC FUSION LINETYPE
 72
              65
 73
               4
 40
120.0
 49
50.0
 49
-25.0
 49
20.0
 49
-25.0
  0
LTYPE
  2
CENTER
 70
               0
  3
CADPAC FUSION LINETYPE
 72
              65
 73
               4
 40
92.0
 49
40.0
 49
-20.0
 49
12.0
 49
-20.0
  0
LTYPE
  2
CENTER2
 70
               0
  3
CADPAC FUSION LINETYPE
 72
              65
 73
               4
 40
64.0
 49
30.0
 49
-15.0
 49
4.0
 49
-15.0
  0
LTYPE
  2
DASHDOTX2
 70
               0
  3
CADPAC FUSION LINETYPE
 72
              65
 73
               4
 40
100.0
 49
50.0
 49
-25.0
 49
0.0
 49
-25.0
  0
LTYPE
  2
DASHDOT
 70
               0
  3
CADPAC FUSION LINETYPE
 72
              65
 73
               4
 40
80.0
 49
40.0
 49
-20.0
 49
0.0
 49
-20.0
  0
LTYPE
  2
DASHDOT2
 70
               0
  3
CADPAC FUSION LINETYPE
 72
              65
 73
               4
 40
60.0
 49
30.0
 49
-15.0
 49
0.0
 49
-15.0
  0
LTYPE
  2
DIVIDEX2
 70
               0
  3
CADPAC FUSION LINETYPE
 72
              65
 73
               6
 40
125.0
 49
50.0
 49
-25.0
 49
0.0
 49
-25.0
 49
0.0
 49
-25.0
  0
LTYPE
  2
DIVIDE
 70
               0
  3
CADPAC FUSION LINETYPE
 72
              65
 73
               6
 40
100.0
 49
40.0
 49
-20.0
 49
0.0
 49
-20.0
 49
0.0
 49
-20.0
  0
LTYPE
  2
DIVIDE2
 70
               0
  3
CADPAC FUSION LINETYPE
 72
              65
 73
               6
 40
75.0
 49
30.0
 49
-15.0
 49
0.0
 49
-15.0
 49
0.0
 49
-15.0
  0
LTYPE
  2
BORDERX2
 70
               0
  3
CADPAC FUSION LINETYPE
 72
              65
 73
               6
 40
175.0
 49
50.0
 49
-25.0
 49
50.0
 49
-25.0
 49
0.0
 49
-25.0
  0
LTYPE
  2
BORDER
 70
               0
  3
CADPAC FUSION LINETYPE
 72
              65
 73
               6
 40
140.0
 49
40.0
 49
-20.0
 49
40.0
 49
-20.0
 49
0.0
 49
-20.0
  0
LTYPE
  2
BORDER2
 70
               0
  3
CADPAC FUSION LINETYPE
 72
              65
 73
               6
 40
105.0
 49
30.0
 49
-15.0
 49
30.0
 49
-15.0
 49
0.0
 49
-15.0
  0
LTYPE
  2
PHANTOMX2
 70
               0
  3
CADPAC FUSION LINETYPE
 72
              65
 73
               6
 40
150.0
 49
50.0
 49
-20.0
 49
20.0
 49
-20.0
 49
20.0
 49
-20.0
  0
LTYPE
  2
PHANTOM
 70
               0
  3
CADPAC FUSION LINETYPE
 72
              65
 73
               6
 40
124.0
 49
40.0
 49
-20.0
 49
12.0
 49
-20.0
 49
12.0
 49
-20.0
  0
LTYPE
  2
PHANTOM2
 70
               0
  3
CADPAC FUSION LINETYPE
 72
              65
 73
               6
 40
106.0
 49
30.0
 49
-20.0
 49
8.0
 49
-20.0
 49
8.0
 49
-20.0
  0
ENDTAB
  0
TABLE
  2
LAYER
 70
             256
  0
LAYER
  2
0
 70
               0
 62
               7
  6
CONTINUOUS
  0
LAYER
  2
LAYER001
 70
               0
 62
               7
  6
CONTINUOUS
  0
LAYER
  2
LAYER002
 70
               0
 62
               7
  6
CONTINUOUS
  0
LAYER
  2
LAYER003
 70
               0
 62
               7
  6
CONTINUOUS
  0
LAYER
  2
LAYER004
 70
               0
 62
               7
  6
CONTINUOUS
  0
LAYER
  2
LAYER005
 70
               0
 62
               7
  6
CONTINUOUS
  0
LAYER
  2
LAYER006
 70
               0
 62
               7
  6
CONTINUOUS
  0
LAYER
  2
LAYER007
 70
               0
 62
               7
  6
CONTINUOUS
  0
LAYER
  2
LAYER008
 70
               0
 62
               7
  6
CONTINUOUS
  0
LAYER
  2
LAYER009
 70
               0
 62
               7
  6
CONTINUOUS
  0
LAYER
  2
LAYER010
 70
               0
 62
               7
  6
CONTINUOUS
  0
LAYER
  2
LAYER011
 70
               0
 62
               7
  6
CONTINUOUS
  0
LAYER
  2
LAYER012
 70
               0
 62
               7
  6
CONTINUOUS
  0
LAYER
  2
LAYER013
 70
               0
 62
               7
  6
CONTINUOUS
  0
LAYER
  2
LAYER014
 70
               0
 62
               7
  6
CONTINUOUS
  0
LAYER
  2
LAYER015
 70
               0
 62
               7
  6
CONTINUOUS
  0
LAYER
  2
LAYER016
 70
               0
 62
               7
  6
CONTINUOUS
  0
LAYER
  2
LAYER017
 70
               0
 62
               7
  6
CONTINUOUS
  0
LAYER
  2
LAYER018
 70
               0
 62
               7
  6
CONTINUOUS
  0
LAYER
  2
LAYER019
 70
               0
 62
               7
  6
CONTINUOUS
  0
LAYER
  2
LAYER020
 70
               0
 62
               7
  6
CONTINUOUS
  0
LAYER
  2
LAYER021
 70
               0
 62
               7
  6
CONTINUOUS
  0
LAYER
  2
LAYER022
 70
               0
 62
               7
  6
CONTINUOUS
  0
LAYER
  2
LAYER023
 70
               0
 62
               7
  6
CONTINUOUS
  0
LAYER
  2
LAYER024
 70
               0
 62
               7
  6
CONTINUOUS
  0
LAYER
  2
LAYER025
 70
               0
 62
               7
  6
CONTINUOUS
  0
LAYER
  2
LAYER026
 70
               0
 62
               7
  6
CONTINUOUS
  0
LAYER
  2
LAYER027
 70
               0
 62
               7
  6
CONTINUOUS
  0
LAYER
  2
LAYER028
 70
               0
 62
               7
  6
CONTINUOUS
  0
LAYER
  2
LAYER029
 70
               0
 62
               7
  6
CONTINUOUS
  0
LAYER
  2
LAYER030
 70
               0
 62
               7
  6
CONTINUOUS
  0
LAYER
  2
LAYER031
 70
               0
 62
               7
  6
CONTINUOUS
  0
LAYER
  2
LAYER032
 70
               0
 62
               7
  6
CONTINUOUS
  0
LAYER
  2
LAYER033
 70
               0
 62
               7
  6
CONTINUOUS
  0
LAYER
  2
LAYER034
 70
               0
 62
               7
  6
CONTINUOUS
  0
LAYER
  2
LAYER035
 70
               0
 62
               7
  6
CONTINUOUS
  0
LAYER
  2
LAYER036
 70
               0
 62
               7
  6
CONTINUOUS
  0
LAYER
  2
LAYER037
 70
               0
 62
               7
  6
CONTINUOUS
  0
LAYER
  2
LAYER038
 70
               0
 62
               7
  6
CONTINUOUS
  0
LAYER
  2
LAYER039
 70
               0
 62
               7
  6
CONTINUOUS
  0
LAYER
  2
LAYER040
 70
               0
 62
               7
  6
CONTINUOUS
  0
LAYER
  2
LAYER041
 70
               0
 62
               7
  6
CONTINUOUS
  0
LAYER
  2
LAYER042
 70
               0
 62
               7
  6
CONTINUOUS
  0
LAYER
  2
LAYER043
 70
               0
 62
               7
  6
CONTINUOUS
  0
LAYER
  2
LAYER044
 70
               0
 62
               7
  6
CONTINUOUS
  0
LAYER
  2
LAYER045
 70
               0
 62
               7
  6
CONTINUOUS
  0
LAYER
  2
LAYER046
 70
               0
 62
               7
  6
CONTINUOUS
  0
LAYER
  2
LAYER047
 70
               0
 62
               7
  6
CONTINUOUS
  0
LAYER
  2
LAYER048
 70
               0
 62
               7
  6
CONTINUOUS
  0
LAYER
  2
LAYER049
 70
               0
 62
               7
  6
CONTINUOUS
  0
LAYER
  2
LAYER050
 70
               0
 62
               7
  6
CONTINUOUS
  0
LAYER
  2
LAYER051
 70
               0
 62
               7
  6
CONTINUOUS
  0
LAYER
  2
LAYER052
 70
               0
 62
               7
  6
CONTINUOUS
  0
LAYER
  2
LAYER053
 70
               0
 62
               7
  6
CONTINUOUS
  0
LAYER
  2
LAYER054
 70
               0
 62
               7
  6
CONTINUOUS
  0
LAYER
  2
LAYER055
 70
               0
 62
               7
  6
CONTINUOUS
  0
LAYER
  2
LAYER056
 70
               0
 62
               7
  6
CONTINUOUS
  0
LAYER
  2
LAYER057
 70
               0
 62
               7
  6
CONTINUOUS
  0
LAYER
  2
LAYER058
 70
               0
 62
               7
  6
CONTINUOUS
  0
LAYER
  2
LAYER059
 70
               0
 62
               7
  6
CONTINUOUS
  0
LAYER
  2
LAYER060
 70
               0
 62
               7
  6
CONTINUOUS
  0
LAYER
  2
LAYER061
 70
               0
 62
               7
  6
CONTINUOUS
  0
LAYER
  2
LAYER062
 70
               0
 62
               7
  6
CONTINUOUS
  0
LAYER
  2
LAYER063
 70
               0
 62
               7
  6
CONTINUOUS
  0
LAYER
  2
LAYER064
 70
               0
 62
               7
  6
CONTINUOUS
  0
LAYER
  2
LAYER065
 70
               0
 62
               7
  6
CONTINUOUS
  0
LAYER
  2
LAYER066
 70
               0
 62
               7
  6
CONTINUOUS
  0
LAYER
  2
LAYER067
 70
               0
 62
               7
  6
CONTINUOUS
  0
LAYER
  2
LAYER068
 70
               0
 62
               7
  6
CONTINUOUS
  0
LAYER
  2
LAYER069
 70
               0
 62
               7
  6
CONTINUOUS
  0
LAYER
  2
LAYER070
 70
               0
 62
               7
  6
CONTINUOUS
  0
LAYER
  2
LAYER071
 70
               0
 62
               7
  6
CONTINUOUS
  0
LAYER
  2
LAYER072
 70
               0
 62
               7
  6
CONTINUOUS
  0
LAYER
  2
LAYER073
 70
               0
 62
               7
  6
CONTINUOUS
  0
LAYER
  2
LAYER074
 70
               0
 62
               7
  6
CONTINUOUS
  0
LAYER
  2
LAYER075
 70
               0
 62
               7
  6
CONTINUOUS
  0
LAYER
  2
LAYER076
 70
               0
 62
               7
  6
CONTINUOUS
  0
LAYER
  2
LAYER077
 70
               0
 62
               7
  6
CONTINUOUS
  0
LAYER
  2
LAYER078
 70
               0
 62
               7
  6
CONTINUOUS
  0
LAYER
  2
LAYER079
 70
               0
 62
               7
  6
CONTINUOUS
  0
LAYER
  2
LAYER080
 70
               0
 62
               7
  6
CONTINUOUS
  0
LAYER
  2
LAYER081
 70
               0
 62
               7
  6
CONTINUOUS
  0
LAYER
  2
LAYER082
 70
               0
 62
               7
  6
CONTINUOUS
  0
LAYER
  2
LAYER083
 70
               0
 62
               7
  6
CONTINUOUS
  0
LAYER
  2
LAYER084
 70
               0
 62
               7
  6
CONTINUOUS
  0
LAYER
  2
LAYER085
 70
               0
 62
               7
  6
CONTINUOUS
  0
LAYER
  2
LAYER086
 70
               0
 62
               7
  6
CONTINUOUS
  0
LAYER
  2
LAYER087
 70
               0
 62
               7
  6
CONTINUOUS
  0
LAYER
  2
LAYER088
 70
               0
 62
               7
  6
CONTINUOUS
  0
LAYER
  2
LAYER089
 70
               0
 62
               7
  6
CONTINUOUS
  0
LAYER
  2
LAYER090
 70
               0
 62
               7
  6
CONTINUOUS
  0
LAYER
  2
LAYER091
 70
               0
 62
               7
  6
CONTINUOUS
  0
LAYER
  2
LAYER092
 70
               0
 62
               7
  6
CONTINUOUS
  0
LAYER
  2
LAYER093
 70
               0
 62
               7
  6
CONTINUOUS
  0
LAYER
  2
LAYER094
 70
               0
 62
               7
  6
CONTINUOUS
  0
LAYER
  2
LAYER095
 70
               0
 62
               7
  6
CONTINUOUS
  0
LAYER
  2
LAYER096
 70
               0
 62
               7
  6
CONTINUOUS
  0
LAYER
  2
LAYER097
 70
               0
 62
               7
  6
CONTINUOUS
  0
LAYER
  2
LAYER098
 70
               0
 62
               7
  6
CONTINUOUS
  0
LAYER
  2
LAYER099
 70
               0
 62
               7
  6
CONTINUOUS
  0
LAYER
  2
LAYER100
 70
               0
 62
               7
  6
CONTINUOUS
  0
LAYER
  2
LAYER101
 70
               0
 62
               7
  6
CONTINUOUS
  0
LAYER
  2
LAYER102
 70
               0
 62
               7
  6
CONTINUOUS
  0
LAYER
  2
LAYER103
 70
               0
 62
               7
  6
CONTINUOUS
  0
LAYER
  2
LAYER104
 70
               0
 62
               7
  6
CONTINUOUS
  0
LAYER
  2
LAYER105
 70
               0
 62
               7
  6
CONTINUOUS
  0
LAYER
  2
LAYER106
 70
               0
 62
               7
  6
CONTINUOUS
  0
LAYER
  2
LAYER107
 70
               0
 62
               7
  6
CONTINUOUS
  0
LAYER
  2
LAYER108
 70
               0
 62
               7
  6
CONTINUOUS
  0
LAYER
  2
LAYER109
 70
               0
 62
               7
  6
CONTINUOUS
  0
LAYER
  2
LAYER110
 70
               0
 62
               7
  6
CONTINUOUS
  0
LAYER
  2
LAYER111
 70
               0
 62
               7
  6
CONTINUOUS
  0
LAYER
  2
LAYER112
 70
               0
 62
               7
  6
CONTINUOUS
  0
LAYER
  2
LAYER113
 70
               0
 62
               7
  6
CONTINUOUS
  0
LAYER
  2
LAYER114
 70
               0
 62
               7
  6
CONTINUOUS
  0
LAYER
  2
LAYER115
 70
               0
 62
               7
  6
CONTINUOUS
  0
LAYER
  2
LAYER116
 70
               0
 62
               7
  6
CONTINUOUS
  0
LAYER
  2
LAYER117
 70
               0
 62
               7
  6
CONTINUOUS
  0
LAYER
  2
LAYER118
 70
               0
 62
               7
  6
CONTINUOUS
  0
LAYER
  2
LAYER119
 70
               0
 62
               7
  6
CONTINUOUS
  0
LAYER
  2
LAYER120
 70
               0
 62
               7
  6
CONTINUOUS
  0
LAYER
  2
LAYER121
 70
               0
 62
               7
  6
CONTINUOUS
  0
LAYER
  2
LAYER122
 70
               0
 62
               7
  6
CONTINUOUS
  0
LAYER
  2
LAYER123
 70
               0
 62
               7
  6
CONTINUOUS
  0
LAYER
  2
LAYER124
 70
               0
 62
               7
  6
CONTINUOUS
  0
LAYER
  2
LAYER125
 70
               0
 62
               7
  6
CONTINUOUS
  0
LAYER
  2
LAYER126
 70
               0
 62
               7
  6
CONTINUOUS
  0
LAYER
  2
LAYER127
 70
               0
 62
               7
  6
CONTINUOUS
  0
LAYER
  2
LAYER128
 70
               0
 62
               7
  6
CONTINUOUS
  0
LAYER
  2
LAYER129
 70
               0
 62
               7
  6
CONTINUOUS
  0
LAYER
  2
LAYER130
 70
               0
 62
               7
  6
CONTINUOUS
  0
LAYER
  2
LAYER131
 70
               0
 62
               7
  6
CONTINUOUS
  0
LAYER
  2
LAYER132
 70
               0
 62
               7
  6
CONTINUOUS
  0
LAYER
  2
LAYER133
 70
               0
 62
               7
  6
CONTINUOUS
  0
LAYER
  2
LAYER134
 70
               0
 62
               7
  6
CONTINUOUS
  0
LAYER
  2
LAYER135
 70
               0
 62
               7
  6
CONTINUOUS
  0
LAYER
  2
LAYER136
 70
               0
 62
               7
  6
CONTINUOUS
  0
LAYER
  2
LAYER137
 70
               0
 62
               7
  6
CONTINUOUS
  0
LAYER
  2
LAYER138
 70
               0
 62
               7
  6
CONTINUOUS
  0
LAYER
  2
LAYER139
 70
               0
 62
               7
  6
CONTINUOUS
  0
LAYER
  2
LAYER140
 70
               0
 62
               7
  6
CONTINUOUS
  0
LAYER
  2
LAYER141
 70
               0
 62
               7
  6
CONTINUOUS
  0
LAYER
  2
LAYER142
 70
               0
 62
               7
  6
CONTINUOUS
  0
LAYER
  2
LAYER143
 70
               0
 62
               7
  6
CONTINUOUS
  0
LAYER
  2
LAYER144
 70
               0
 62
               7
  6
CONTINUOUS
  0
LAYER
  2
LAYER145
 70
               0
 62
               7
  6
CONTINUOUS
  0
LAYER
  2
LAYER146
 70
               0
 62
               7
  6
CONTINUOUS
  0
LAYER
  2
LAYER147
 70
               0
 62
               7
  6
CONTINUOUS
  0
LAYER
  2
LAYER148
 70
               0
 62
               7
  6
CONTINUOUS
  0
LAYER
  2
LAYER149
 70
               0
 62
               7
  6
CONTINUOUS
  0
LAYER
  2
LAYER150
 70
               0
 62
               7
  6
CONTINUOUS
  0
LAYER
  2
LAYER151
 70
               0
 62
               7
  6
CONTINUOUS
  0
LAYER
  2
LAYER152
 70
               0
 62
               7
  6
CONTINUOUS
  0
LAYER
  2
LAYER153
 70
               0
 62
               7
  6
CONTINUOUS
  0
LAYER
  2
LAYER154
 70
               0
 62
               7
  6
CONTINUOUS
  0
LAYER
  2
LAYER155
 70
               0
 62
               7
  6
CONTINUOUS
  0
LAYER
  2
LAYER156
 70
               0
 62
               7
  6
CONTINUOUS
  0
LAYER
  2
LAYER157
 70
               0
 62
               7
  6
CONTINUOUS
  0
LAYER
  2
LAYER158
 70
               0
 62
               7
  6
CONTINUOUS
  0
LAYER
  2
LAYER159
 70
               0
 62
               7
  6
CONTINUOUS
  0
LAYER
  2
LAYER160
 70
               0
 62
               7
  6
CONTINUOUS
  0
LAYER
  2
LAYER161
 70
               0
 62
               7
  6
CONTINUOUS
  0
LAYER
  2
LAYER162
 70
               0
 62
               7
  6
CONTINUOUS
  0
LAYER
  2
LAYER163
 70
               0
 62
               7
  6
CONTINUOUS
  0
LAYER
  2
LAYER164
 70
               0
 62
               7
  6
CONTINUOUS
  0
LAYER
  2
LAYER165
 70
               0
 62
               7
  6
CONTINUOUS
  0
LAYER
  2
LAYER166
 70
               0
 62
               7
  6
CONTINUOUS
  0
LAYER
  2
LAYER167
 70
               0
 62
               7
  6
CONTINUOUS
  0
LAYER
  2
LAYER168
 70
               0
 62
               7
  6
CONTINUOUS
  0
LAYER
  2
LAYER169
 70
               0
 62
               7
  6
CONTINUOUS
  0
LAYER
  2
LAYER170
 70
               0
 62
               7
  6
CONTINUOUS
  0
LAYER
  2
LAYER171
 70
               0
 62
               7
  6
CONTINUOUS
  0
LAYER
  2
LAYER172
 70
               0
 62
               7
  6
CONTINUOUS
  0
LAYER
  2
LAYER173
 70
               0
 62
               7
  6
CONTINUOUS
  0
LAYER
  2
LAYER174
 70
               0
 62
               7
  6
CONTINUOUS
  0
LAYER
  2
LAYER175
 70
               0
 62
               7
  6
CONTINUOUS
  0
LAYER
  2
LAYER176
 70
               0
 62
               7
  6
CONTINUOUS
  0
LAYER
  2
LAYER177
 70
               0
 62
               7
  6
CONTINUOUS
  0
LAYER
  2
LAYER178
 70
               0
 62
               7
  6
CONTINUOUS
  0
LAYER
  2
LAYER179
 70
               0
 62
               7
  6
CONTINUOUS
  0
LAYER
  2
LAYER180
 70
               0
 62
               7
  6
CONTINUOUS
  0
LAYER
  2
LAYER181
 70
               0
 62
               7
  6
CONTINUOUS
  0
LAYER
  2
LAYER182
 70
               0
 62
               7
  6
CONTINUOUS
  0
LAYER
  2
LAYER183
 70
               0
 62
               7
  6
CONTINUOUS
  0
LAYER
  2
LAYER184
 70
               0
 62
               7
  6
CONTINUOUS
  0
LAYER
  2
LAYER185
 70
               0
 62
               7
  6
CONTINUOUS
  0
LAYER
  2
LAYER186
 70
               0
 62
               7
  6
CONTINUOUS
  0
LAYER
  2
LAYER187
 70
               0
 62
               7
  6
CONTINUOUS
  0
LAYER
  2
LAYER188
 70
               0
 62
               7
  6
CONTINUOUS
  0
LAYER
  2
LAYER189
 70
               0
 62
               7
  6
CONTINUOUS
  0
LAYER
  2
LAYER190
 70
               0
 62
               7
  6
CONTINUOUS
  0
LAYER
  2
LAYER191
 70
               0
 62
               7
  6
CONTINUOUS
  0
LAYER
  2
LAYER192
 70
               0
 62
               7
  6
CONTINUOUS
  0
LAYER
  2
LAYER193
 70
               0
 62
               7
  6
CONTINUOUS
  0
LAYER
  2
LAYER194
 70
               0
 62
               7
  6
CONTINUOUS
  0
LAYER
  2
LAYER195
 70
               0
 62
               7
  6
CONTINUOUS
  0
LAYER
  2
LAYER196
 70
               0
 62
               7
  6
CONTINUOUS
  0
LAYER
  2
LAYER197
 70
               0
 62
               7
  6
CONTINUOUS
  0
LAYER
  2
LAYER198
 70
               0
 62
               7
  6
CONTINUOUS
  0
LAYER
  2
LAYER199
 70
               0
 62
               7
  6
CONTINUOUS
  0
LAYER
  2
LAYER200
 70
               0
 62
               7
  6
CONTINUOUS
  0
LAYER
  2
LAYER201
 70
               0
 62
               7
  6
CONTINUOUS
  0
LAYER
  2
LAYER202
 70
               0
 62
               7
  6
CONTINUOUS
  0
LAYER
  2
LAYER203
 70
               0
 62
               7
  6
CONTINUOUS
  0
LAYER
  2
LAYER204
 70
               0
 62
               7
  6
CONTINUOUS
  0
LAYER
  2
LAYER205
 70
               0
 62
               7
  6
CONTINUOUS
  0
LAYER
  2
LAYER206
 70
               0
 62
               7
  6
CONTINUOUS
  0
LAYER
  2
LAYER207
 70
               0
 62
               7
  6
CONTINUOUS
  0
LAYER
  2
LAYER208
 70
               0
 62
               7
  6
CONTINUOUS
  0
LAYER
  2
LAYER209
 70
               0
 62
               7
  6
CONTINUOUS
  0
LAYER
  2
LAYER210
 70
               0
 62
               7
  6
CONTINUOUS
  0
LAYER
  2
LAYER211
 70
               0
 62
               7
  6
CONTINUOUS
  0
LAYER
  2
LAYER212
 70
               0
 62
               7
  6
CONTINUOUS
  0
LAYER
  2
LAYER213
 70
               0
 62
               7
  6
CONTINUOUS
  0
LAYER
  2
LAYER214
 70
               0
 62
               7
  6
CONTINUOUS
  0
LAYER
  2
LAYER215
 70
               0
 62
               7
  6
CONTINUOUS
  0
LAYER
  2
LAYER216
 70
               0
 62
               7
  6
CONTINUOUS
  0
LAYER
  2
LAYER217
 70
               0
 62
               7
  6
CONTINUOUS
  0
LAYER
  2
LAYER218
 70
               0
 62
               7
  6
CONTINUOUS
  0
LAYER
  2
LAYER219
 70
               0
 62
               7
  6
CONTINUOUS
  0
LAYER
  2
LAYER220
 70
               0
 62
               7
  6
CONTINUOUS
  0
LAYER
  2
LAYER221
 70
               0
 62
               7
  6
CONTINUOUS
  0
LAYER
  2
LAYER222
 70
               0
 62
               7
  6
CONTINUOUS
  0
LAYER
  2
LAYER223
 70
               0
 62
               7
  6
CONTINUOUS
  0
LAYER
  2
LAYER224
 70
               0
 62
               7
  6
CONTINUOUS
  0
LAYER
  2
LAYER225
 70
               0
 62
               7
  6
CONTINUOUS
  0
LAYER
  2
LAYER226
 70
               0
 62
               7
  6
CONTINUOUS
  0
LAYER
  2
LAYER227
 70
               0
 62
               7
  6
CONTINUOUS
  0
LAYER
  2
LAYER228
 70
               0
 62
               7
  6
CONTINUOUS
  0
LAYER
  2
LAYER229
 70
               0
 62
               7
  6
CONTINUOUS
  0
LAYER
  2
LAYER230
 70
               0
 62
               7
  6
CONTINUOUS
  0
LAYER
  2
LAYER231
 70
               0
 62
               7
  6
CONTINUOUS
  0
LAYER
  2
LAYER232
 70
               0
 62
               7
  6
CONTINUOUS
  0
LAYER
  2
LAYER233
 70
               0
 62
               7
  6
CONTINUOUS
  0
LAYER
  2
LAYER234
 70
               0
 62
               7
  6
CONTINUOUS
  0
LAYER
  2
LAYER235
 70
               0
 62
               7
  6
CONTINUOUS
  0
LAYER
  2
LAYER236
 70
               0
 62
               7
  6
CONTINUOUS
  0
LAYER
  2
LAYER237
 70
               0
 62
               7
  6
CONTINUOUS
  0
LAYER
  2
LAYER238
 70
               0
 62
               7
  6
CONTINUOUS
  0
LAYER
  2
LAYER239
 70
               0
 62
               7
  6
CONTINUOUS
  0
LAYER
  2
LAYER240
 70
               0
 62
               7
  6
CONTINUOUS
  0
LAYER
  2
LAYER241
 70
               0
 62
               7
  6
CONTINUOUS
  0
LAYER
  2
LAYER242
 70
               0
 62
               7
  6
CONTINUOUS
  0
LAYER
  2
LAYER243
 70
               0
 62
               7
  6
CONTINUOUS
  0
LAYER
  2
LAYER244
 70
               0
 62
               7
  6
CONTINUOUS
  0
LAYER
  2
LAYER245
 70
               0
 62
               7
  6
CONTINUOUS
  0
LAYER
  2
LAYER246
 70
               0
 62
               7
  6
CONTINUOUS
  0
LAYER
  2
LAYER247
 70
               0
 62
               7
  6
CONTINUOUS
  0
LAYER
  2
LAYER248
 70
               0
 62
               7
  6
CONTINUOUS
  0
LAYER
  2
LAYER249
 70
               0
 62
               7
  6
CONTINUOUS
  0
LAYER
  2
LAYER250
 70
               0
 62
               7
  6
CONTINUOUS
  0
LAYER
  2
LAYER251
 70
               0
 62
               7
  6
CONTINUOUS
  0
LAYER
  2
LAYER252
 70
               0
 62
               7
  6
CONTINUOUS
  0
LAYER
  2
LAYER253
 70
               0
 62
               7
  6
CONTINUOUS
  0
LAYER
  2
LAYER254
 70
               0
 62
               7
  6
CONTINUOUS
  0
LAYER
  2
LAYER255
 70
               0
 62
               7
  6
CONTINUOUS
  0
ENDTAB
  0
TABLE
  2
STYLE
 70
               1
  0
STYLE
  2
STANDARD
 70
               0
 40
0.0
 41
1.0
 50
0.0
 71
               0
 42
0.0
  3
txt
  4

  0
ENDTAB
  0
TABLE
  2
VIEW
 70
               0
  0
VIEW
  2
QQQQ
 70
               0
 40
833.46280159908656
 10
42.891693553962114
 20
43.767033969898449
 41
1707.6788515485096
 11
0.0
 21
0.0
 31
1.0
 12
100.0
 22
100.0
 32
0.0
 42
50.0
 43
0.0
 44
0.0
 50
0.0
 71
               0
  0
ENDTAB
  0
TABLE
  2
UCS
 70
               0
  0
ENDTAB
  0
TABLE
  2
APPID
 70
               1
  0
APPID
  2
ACAD
 70
               0
  0
ENDTAB
  0
TABLE
  2
DIMSTYLE
 70
               1
  0
DIMSTYLE
  2
STANDARD
 70
               0
  3

  4

  5

  6

  7

 40
1.0
 41
0.18
 42
0.0625
 43
0.38
 44
0.18
 45
0.0
 46
0.0
 47
0.0
 48
0.0
140
0.18
141
0.09
142
0.0
143
25.399999999999999
144
1.0
145
0.0
146
1.0
147
0.09
 71
               0
 72
               0
 73
               1
 74
               1
 75
               0
 76
               0
 77
               0
 78
               0
170
               0
171
               2
172
               0
173
               0
174
               0
175
               0
176
               0
177
               0
178
               0
  0
ENDTAB
  0
ENDSEC
  0
SECTION
  2
BLOCKS
  0
ENDSEC
  0
SECTION
  2
ENTITIES
  0
LINE
  8
0
  6
DASHDOT
 62
               4
  5
136
 10
-93.724458943735371
 20
-323.05663188048527
 30
0.0
 11
-93.724458943735357
 21
-10.180994952466833
 31
0.0
  0
ARC
  8
0
  6
DASHDOT
 62
               4
  5
137
 10
14.275541056264558
 20
-113.6004766187513
 30
0.0
 40
91.5
 50
179.9999999999996
 51
269.99999999999937
  0
LINE
  8
0
  6
DASHDOT
 62
               4
  5
138
 10
-604.30981939141589
 20
-10.180994952466833
 30
0.0
 11
-604.30981939141589
 21
-333.36545544145116
 31
0.0
  0
LINE
  8
0
  6
DASHDOT
 62
               4
  5
139
 10
-724.16653210503478
 20
-205.10047661875097
 30
0.0
 11
-485.428756469897
 21
-205.10047661875097
 31
0.0
  0
LINE
  8
0
  6
DASHDOT
 62
               4
  5
13A
 10
690.09320649934011
 20
-10.180994952466833
 30
0.0
 11
690.09320649934011
 21
-333.36545544145287
 31
0.0
  0
LINE
  8
0
  6
DASHDOT
 62
               4
  5
13B
 10
570.236493785721
 20
-205.10047661875268
 30
0.0
 11
808.97426942085917
 21
-205.10047661875268
 31
0.0
  0
LINE
  8
0
  6
DASHDOT
 62
               4
  5
13C
 10
-192.82387079011357
 20
295.39952338124766
 30
0.0
 11
194.20896736585388
 21
295.39952338124766
 31
0.0
  0
LINE
  8
0
  6
DASHDOT
 62
               4
  5
13D
 10
-93.724458943735357
 20
390.01490799663219
 30
0.0
 11
-93.724458943735357
 21
194.78413876586291
 31
0.0
  0
LINE
  8
0
  6
DASHDOT
 62
               4
  5
13E
 10
-51.131836203489328
 20
-244.27178515643237
 30
0.0
 11
-51.131836203489328
 21
-114.27178515643237
 31
0.0
  0
LINE
  8
0
  6
DASHDOT
 62
               4
  5
13F
 10
-116.13183620348933
 20
-179.27178515643237
 30
0.0
 11
13.868163796510672
 21
-179.27178515643237
 31
0.0
  0
LINE
  8
0
  6
CONTINUOUS
 62
               4
  5
140
 10
174.27554105626496
 20
-141.66547661875171
 30
0.0
 11
183.14220772293152
 21
-141.66547661875171
 31
0.0
  0
LINE
  8
0
  6
CONTINUOUS
 62
               4
  5
141
 10
174.27554105626496
 20
-163.53214328541827
 30
0.0
 11
183.14220772293152
 21
-163.53214328541827
 31
0.0
  0
LINE
  8
0
  6
CONTINUOUS
 62
               4
  5
142
 10
183.14220772293152
 20
-141.66547661875171
 30
0.0
 11
184.27554105626513
 21
-143.59880995208499
 31
0.0
  0
LINE
  8
0
  6
CONTINUOUS
 62
               4
  5
143
 10
183.14220772293152
 20
-163.53214328541827
 30
0.0
 11
184.27554105626513
 21
-161.59880995208488
 31
0.0
  0
LINE
  8
0
  6
CONTINUOUS
 62
               4
  5
144
 10
184.27554105626513
 20
-161.59880995208488
 30
0.0
 11
184.27554105626513
 21
-143.59880995208499
 31
0.0
  0
ARC
  8
0
  6
CONTINUOUS
 62
               4
  5
145
 10
165.60887438959821
 20
-152.59880995208476
 30
0.0
 40
18.133333333333333
 50
341.99999960920729
 51
377.99999997943115
  0
ARC
  8
0
  6
CONTINUOUS
 62
               4
  5
146
 10
178.94220772293164
 20
-144.33214328541823
 30
0.0
 40
4.8666666666666645
 50
325.99999962749001
 51
393.99999996114843
  0
ARC
  8
0
  6
CONTINUOUS
 62
               4
  5
147
 10
178.94220772293164
 20
-160.86547661875153
 30
0.0
 40
4.8666666666666645
 50
325.99999962749001
 51
393.99999996114843
  0
LINE
  8
0
  6
CONTINUOUS
 62
               4
  5
148
 10
174.27554105626496
 20
-147.06547661875157
 30
0.0
 11
183.14220772293152
 21
-147.06547661875157
 31
0.0
  0
LINE
  8
0
  6
CONTINUOUS
 62
               4
  5
149
 10
174.27554105626496
 20
-158.06547661875169
 30
0.0
 11
183.14220772293152
 21
-158.06547661875169
 31
0.0
  0
LINE
  8
0
  6
CONTINUOUS
 62
               4
  5
14A
 10
184.27554105626513
 20
-158.59880995208499
 30
0.0
 11
186.74220772293182
 21
-158.59880995208499
 31
0.0
  0
LINE
  8
0
  6
CONTINUOUS
 62
               4
  5
14B
 10
186.74220772293182
 20
-158.59880995208499
 30
0.0
 11
188.74220772293171
 21
-156.59880995208488
 31
0.0
  0
LINE
  8
0
  6
CONTINUOUS
 62
               4
  5
14C
 10
186.74220772293182
 20
-146.59880995208476
 30
0.0
 11
188.74220772293171
 21
-148.59880995208499
 31
0.0
  0
LINE
  8
0
  6
CONTINUOUS
 62
               4
  5
14D
 10
188.74220772293171
 20
-148.59880995208499
 30
0.0
 11
188.74220772293171
 21
-156.59880995208488
 31
0.0
  0
LINE
  8
0
  6
CONTINUOUS
 62
               4
  5
14E
 10
186.74220772293182
 20
-146.59880995208476
 30
0.0
 11
186.74220772293182
 21
-158.59880995208499
 31
0.0
  0
LINE
  8
0
  6
CONTINUOUS
 62
               4
  5
14F
 10
186.74220772293182
 20
-146.59880995208476
 30
0.0
 11
184.27554105626513
 21
-146.59880995208476
 31
0.0
  0
LINE
  8
0
  6
CONTINUOUS
 62
               4
  5
150
 10
174.27554105626467
 20
-299.16880995208527
 30
0.0
 11
183.14220772293123
 21
-299.16880995208527
 31
0.0
  0
LINE
  8
0
  6
CONTINUOUS
 62
               4
  5
151
 10
174.27554105626467
 20
-321.03547661875183
 30
0.0
 11
183.14220772293123
 21
-321.03547661875183
 31
0.0
  0
LINE
  8
0
  6
CONTINUOUS
 62
               4
  5
152
 10
183.14220772293123
 20
-299.16880995208527
 30
0.0
 11
184.27554105626467
 21
-301.10214328541855
 31
0.0
  0
LINE
  8
0
  6
CONTINUOUS
 62
               4
  5
153
 10
183.14220772293123
 20
-321.03547661875183
 30
0.0
 11
184.27554105626467
 21
-319.10214328541855
 31
0.0
  0
LINE
  8
0
  6
CONTINUOUS
 62
               4
  5
154
 10
184.27554105626467
 20
-319.10214328541855
 30
0.0
 11
184.27554105626467
 21
-301.10214328541855
 31
0.0
  0
ARC
  8
0
  6
CONTINUOUS
 62
               4
  5
155
 10
165.60887438959793
 20
-310.10214328541844
 30
0.0
 40
18.133333333333333
 50
341.99999960920729
 51
377.99999997943115
  0
ARC
  8
0
  6
CONTINUOUS
 62
               4
  5
156
 10
178.94220772293136
 20
-301.8354766187519
 30
0.0
 40
4.8666666666666645
 50
325.99999962749001
 51
393.99999996114843
  0
ARC
  8
0
  6
CONTINUOUS
 62
               4
  5
157
 10
178.94220772293136
 20
-318.36880995208514
 30
0.0
 40
4.8666666666666645
 50
325.99999962749001
 51
393.99999996114843
  0
LINE
  8
0
  6
CONTINUOUS
 62
               4
  5
158
 10
174.27554105626467
 20
-304.56880995208519
 30
0.0
 11
183.14220772293123
 21
-304.56880995208519
 31
0.0
  0
LINE
  8
0
  6
CONTINUOUS
 62
               4
  5
159
 10
174.27554105626467
 20
-315.56880995208525
 30
0.0
 11
183.14220772293123
 21
-315.56880995208525
 31
0.0
  0
LINE
  8
0
  6
CONTINUOUS
 62
               4
  5
15A
 10
184.27554105626467
 20
-316.10214328541855
 30
0.0
 11
186.74220772293137
 21
-316.10214328541855
 31
0.0
  0
LINE
  8
0
  6
CONTINUOUS
 62
               4
  5
15B
 10
186.74220772293137
 20
-316.10214328541855
 30
0.0
 11
188.74220772293125
 21
-314.10214328541855
 31
0.0
  0
LINE
  8
0
  6
CONTINUOUS
 62
               4
  5
15C
 10
186.74220772293137
 20
-304.10214328541855
 30
0.0
 11
188.74220772293125
 21
-306.10214328541855
 31
0.0
  0
LINE
  8
0
  6
CONTINUOUS
 62
               4
  5
15D
 10
188.74220772293125
 20
-306.10214328541855
 30
0.0
 11
188.74220772293125
 21
-314.10214328541855
 31
0.0
  0
LINE
  8
0
  6
CONTINUOUS
 62
               4
  5
15E
 10
186.74220772293137
 20
-304.10214328541855
 30
0.0
 11
186.74220772293137
 21
-316.10214328541855
 31
0.0
  0
LINE
  8
0
  6
CONTINUOUS
 62
               4
  5
15F
 10
186.74220772293137
 20
-304.10214328541855
 30
0.0
 11
184.27554105626467
 21
-304.10214328541855
 31
0.0
  0
LINE
  8
0
  6
CONTINUOUS
 62
               4
  5
160
 10
142.27554105626467
 20
-146.53214328541964
 30
0.0
 11
155.27554105626461
 21
-146.53214328541964
 31
0.0
  0
LINE
  8
0
  6
CONTINUOUS
 62
               4
  5
161
 10
155.27554105626461
 20
-158.53214328541964
 30
0.0
 11
142.27554105626467
 21
-158.53214328541964
 31
0.0
  0
LINE
  8
0
  6
CONTINUOUS
 62
               4
  5
162
 10
155.27554105626433
 20
-304.03547661875331
 30
0.0
 11
142.06601643931407
 21
-304.03547661875331
 31
0.0
  0
LINE
  8
0
  6
CONTINUOUS
 62
               4
  5
163
 10
142.27554105626427
 20
-316.03547661875336
 30
0.0
 11
155.27554105626433
 21
-316.03547661875336
 31
0.0
  0
ARC
  8
0
  6
CONTINUOUS
 62
               4
  5
164
 10
122.34073284741606
 20
-136.89880995208449
 30
0.0
 40
1.8000000000000007
 50
89.999999999999773
 51
179.99999999999957
  0
ARC
  8
0
  6
CONTINUOUS
 62
               4
  5
165
 10
122.34073284741606
 20
-139.10175141130622
 30
0.0
 40
1.8000000000000007
 50
89.999999999999773
 51
179.99999999999957
  0
LINE
  8
0
  6
CONTINUOUS
 62
               4
  5
166
 10
117.14073284741605
 20
-160.59880995208454
 30
0.0
 11
117.14073284741605
 21
-144.59880995208465
 31
0.0
  0
LINE
  8
0
  6
CONTINUOUS
 62
               4
  5
167
 10
117.64073284741607
 20
-161.09880995208465
 30
0.0
 11
123.14073284741605
 21
-161.09880995208465
 31
0.0
  0
LINE
  8
0
  6
CONTINUOUS
 62
               4
  5
168
 10
124.14073284741598
 20
-160.09880995208465
 30
0.0
 11
124.14073284741598
 21
-136.09880995208465
 31
0.0
  0
LINE
  8
0
  6
CONTINUOUS
 62
               4
  5
169
 10
117.14073284741605
 20
-144.59880995208465
 30
0.0
 11
120.54073284741608
 21
-138.62536554642185
 31
0.0
  0
LINE
  8
0
  6
CONTINUOUS
 62
               4
  5
16A
 10
117.14073284741605
 20
-160.59880995208454
 30
0.0
 11
117.64073284741607
 21
-161.09880995208465
 31
0.0
  0
LINE
  8
0
  6
CONTINUOUS
 62
               4
  5
16B
 10
117.64073284741607
 20
-161.09880995208465
 30
0.0
 11
117.64073284741607
 21
-152.59880995208465
 31
0.0
  0
ARC
  8
0
  6
CONTINUOUS
 62
               4
  5
16C
 10
140.42693974396781
 20
-152.59880995208465
 30
0.0
 40
22.786206896551708
 50
150.77745261990586
 51
179.99999999999957
  0
LINE
  8
0
  6
CONTINUOUS
 62
               4
  5
16D
 10
123.14073284741599
 20
-135.09880995208465
 30
0.0
 11
122.34073284741606
 21
-135.09880995208465
 31
0.0
  0
LINE
  8
0
  6
CONTINUOUS
 62
               4
  5
16E
 10
122.34073284741606
 20
-137.30175141130627
 30
0.0
 11
123.14073284741605
 21
-137.30175141130627
 31
0.0
  0
ARC
  8
0
  6
CONTINUOUS
 62
               4
  5
16F
 10
123.14073284741599
 20
-136.09880995208465
 30
0.0
 40
1.0
 50
359.99999999999915
 51
449.99999999999892
  0
ARC
  8
0
  6
CONTINUOUS
 62
               4
  5
170
 10
123.14073284741605
 20
-160.09880995208465
 30
0.0
 40
1.0
 50
269.99999999999932
 51
350.40593177314673
  0
ARC
  8
0
  6
CONTINUOUS
 62
               4
  5
171
 10
123.14073284741605
 20
-138.30175141130627
 30
0.0
 40
1.0
 50
359.99999999999915
 51
449.99999999999892
  0
LINE
  8
0
  6
CONTINUOUS
 62
               4
  5
172
 10
117.64073284741607
 20
-161.09880995208465
 30
0.0
 11
124.14073284741598
 21
-161.09880995208465
 31
0.0
  0
LINE
  8
0
  6
CONTINUOUS
 62
               4
  5
173
 10
120.54073284741608
 20
-136.89880995208449
 30
0.0
 11
120.54073284741608
 21
-141.4745122214411
 31
0.0
  0
LINE
  8
0
  6
CONTINUOUS
 62
               4
  5
174
 10
123.43993822430389
 20
-318.10214328541844
 30
0.0
 11
123.43993822430389
 21
-302.10214328541849
 31
0.0
  0
LINE
  8
0
  6
CONTINUOUS
 62
               4
  5
175
 10
116.43993822430389
 20
-302.10214328541849
 30
0.0
 11
116.43993822430389
 21
-318.10214328541844
 31
0.0
  0
LINE
  8
0
  6
CONTINUOUS
 62
               4
  5
176
 10
116.43993822430389
 20
-318.10214328541844
 30
0.0
 11
123.43993822430389
 21
-318.10214328541844
 31
0.0
  0
LINE
  8
0
  6
CONTINUOUS
 62
               4
  5
177
 10
123.43993822430389
 20
-302.10214328541849
 30
0.0
 11
116.43993822430389
 21
-302.10214328541849
 31
0.0
  0
LINE
  8
0
  6
CONTINUOUS
 62
               4
  5
178
 10
119.83993822430389
 20
-318.10214328541844
 30
0.0
 11
119.83993822430389
 21
-302.10214328541849
 31
0.0
  0
ARC
  8
0
  6
CONTINUOUS
 62
               4
  5
179
 10
-604.30981939141589
 20
-205.10047661875097
 30
0.0
 40
90.499999999999986
 50
193.23323480919379
 51
226.76676519080488
  0
LINE
  8
0
  6
CONTINUOUS
 62
               4
  5
17A
 10
-614.21217781452333
 20
-320.00641433719261
 30
0.0
 11
-666.29958936705486
 21
-271.03619090446529
 31
0.0
  0
LINE
  8
0
  6
CONTINUOUS
 62
               4
  5
17B
 10
-594.72024171562612
 20
-320.30047661875108
 30
0.0
 11
-542.32004941577679
 21
-271.03619090446529
 31
0.0
  0
ARC
  8
0
  6
CONTINUOUS
 62
               4
  5
17C
 10
-604.30981939141589
 20
-205.10047661875097
 30
0.0
 40
90.499999999999986
 50
313.23323480919379
 51
347.94085475883332
  0
ARC
  8
0
  6
CONTINUOUS
 62
               4
  5
17D
 10
-604.30981939141589
 20
-310.10047661875103
 30
0.0
 40
14.0
 50
7.6168015821361594
 51
82.383198417865188
  0
LINE
  8
0
  6
CONTINUOUS
 62
               4
  5
17E
 10
-601.33063467158729
 20
-295.10047661875097
 30
0.0
 11
-610.32022703150153
 21
-304.09006897866533
 31
0.0
  0
ARC
  8
0
  6
CONTINUOUS
 62
               4
  5
17F
 10
-604.30981939141589
 20
-310.10047661875097
 30
0.0
 40
17.5
 50
15.940718931959738
 51
58.997280866125834
  0
LINE
  8
0
  6
CONTINUOUS
 62
               4
  5
180
 10
-587.48275792493826
 20
-305.29423043244452
 30
0.0
 11
-598.29941175133035
 21
-316.11088425883651
 31
0.0
  0
ARC
  8
0
  6
CONTINUOUS
 62
               4
  5
181
 10
-604.30981939141589
 20
-310.10047661875097
 30
0.0
 40
8.5
 50
134.99999999999986
 51
314.99999999999943
  0
CIRCLE
  8
0
  6
CONTINUOUS
 62
               4
  5
182
 10
-604.30981939141589
 20
-310.10047661875097
 30
0.0
 40
8.0
  0
LINE
  8
0
  6
CONTINUOUS
 62
               4
  5
183
 10
599.16053910197411
 20
-141.63082661875268
 30
0.0
 11
589.66054353135007
 21
-147.11565161875279
 31
0.0
  0
LINE
  8
0
  6
CONTINUOUS
 62
               4
  5
184
 10
589.66054353135007
 20
-147.11565161875279
 30
0.0
 11
589.66054353135007
 21
-158.08530161875291
 31
0.0
  0
LINE
  8
0
  6
CONTINUOUS
 62
               4
  5
185
 10
589.66054353135007
 20
-158.08530161875291
 30
0.0
 11
599.16053910197411
 21
-163.57012661875291
 31
0.0
  0
LINE
  8
0
  6
CONTINUOUS
 62
               4
  5
186
 10
599.16053910197411
 20
-163.57012661875291
 30
0.0
 11
608.66053467259792
 21
-158.08530161875291
 31
0.0
  0
LINE
  8
0
  6
CONTINUOUS
 62
               4
  5
187
 10
608.66053467259792
 20
-158.08530161875291
 30
0.0
 11
608.66053467259803
 21
-147.11565161875279
 31
0.0
  0
LINE
  8
0
  6
CONTINUOUS
 62
               4
  5
188
 10
608.66053467259803
 20
-147.11565161875279
 30
0.0
 11
599.16053910197411
 21
-141.63082661875268
 31
0.0
  0
CIRCLE
  8
0
  6
CONTINUOUS
 62
               4
  5
189
 10
599.16053910197411
 20
-152.60047661875279
 30
0.0
 40
9.0
  0
CIRCLE
  8
0
  6
CONTINUOUS
 62
               4
  5
18A
 10
599.16053910197411
 20
-152.60047661875279
 30
0.0
 40
6.0
  0
CIRCLE
  8
0
  6
CONTINUOUS
 62
               4
  5
18B
 10
599.16053910197411
 20
-152.60047661875279
 30
0.0
 40
5.0999999999999979
  0
LINE
  8
0
  6
CONTINUOUS
 62
               4
  5
18C
 10
781.025873896706
 20
-141.63082661875279
 30
0.0
 11
771.52587832608208
 21
-147.11565161875291
 31
0.0
  0
LINE
  8
0
  6
CONTINUOUS
 62
               4
  5
18D
 10
771.52587832608208
 20
-147.11565161875291
 30
0.0
 11
771.52587832608208
 21
-158.08530161875291
 31
0.0
  0
LINE
  8
0
  6
CONTINUOUS
 62
               4
  5
18E
 10
771.52587832608208
 20
-158.08530161875291
 30
0.0
 11
781.025873896706
 21
-163.57012661875291
 31
0.0
  0
LINE
  8
0
  6
CONTINUOUS
 62
               4
  5
18F
 10
781.025873896706
 20
-163.57012661875291
 30
0.0
 11
790.52586946733004
 21
-158.08530161875291
 31
0.0
  0
LINE
  8
0
  6
CONTINUOUS
 62
               4
  5
190
 10
790.52586946733004
 20
-158.08530161875291
 30
0.0
 11
790.52586946733004
 21
-147.11565161875291
 31
0.0
  0
LINE
  8
0
  6
CONTINUOUS
 62
               4
  5
191
 10
790.52586946733004
 20
-147.11565161875291
 30
0.0
 11
781.025873896706
 21
-141.63082661875279
 31
0.0
  0
CIRCLE
  8
0
  6
CONTINUOUS
 62
               4
  5
192
 10
781.025873896706
 20
-152.60047661875279
 30
0.0
 40
9.0
  0
CIRCLE
  8
0
  6
CONTINUOUS
 62
               4
  5
193
 10
781.025873896706
 20
-152.60047661875279
 30
0.0
 40
6.0
  0
CIRCLE
  8
0
  6
CONTINUOUS
 62
               4
  5
194
 10
781.025873896706
 20
-152.60047661875279
 30
0.0
 40
5.0999999999999979
  0
LINE
  8
0
  6
CONTINUOUS
 62
               4
  5
195
 10
690.09320649934011
 20
-299.13082661875285
 30
0.0
 11
680.59321092871619
 21
-304.61565161875291
 31
0.0
  0
LINE
  8
0
  6
CONTINUOUS
 62
               4
  5
196
 10
680.59321092871619
 20
-304.61565161875291
 30
0.0
 11
680.59321092871619
 21
-315.58530161875291
 31
0.0
  0
LINE
  8
0
  6
CONTINUOUS
 62
               4
  5
197
 10
680.59321092871619
 20
-315.58530161875291
 30
0.0
 11
690.09320649934011
 21
-321.07012661875291
 31
0.0
  0
LINE
  8
0
  6
CONTINUOUS
 62
               4
  5
198
 10
690.09320649934011
 20
-321.07012661875291
 30
0.0
 11
699.59320206996392
 21
-315.58530161875291
 31
0.0
  0
LINE
  8
0
  6
CONTINUOUS
 62
               4
  5
199
 10
699.59320206996392
 20
-315.58530161875291
 30
0.0
 11
699.59320206996392
 21
-304.61565161875291
 31
0.0
  0
LINE
  8
0
  6
CONTINUOUS
 62
               4
  5
19A
 10
699.59320206996392
 20
-304.61565161875291
 30
0.0
 11
690.09320649934011
 21
-299.13082661875285
 31
0.0
  0
CIRCLE
  8
0
  6
CONTINUOUS
 62
               4
  5
19B
 10
690.09320649934011
 20
-310.10047661875279
 30
0.0
 40
9.0
  0
CIRCLE
  8
0
  6
CONTINUOUS
 62
               4
  5
19C
 10
690.09320649934011
 20
-310.10047661875279
 30
0.0
 40
6.0
  0
CIRCLE
  8
0
  6
CONTINUOUS
 62
               4
  5
19D
 10
690.09320649934011
 20
-310.10047661875279
 30
0.0
 40
5.0999999999999979
  0
ARC
  8
0
  6
CONTINUOUS
 62
               4
  5
19E
 10
172.27554105626535
 20
389.82082253887296
 30
0.0
 40
1.9999999999999996
 50
0.0
 51
32.275644314577384
  0
LINE
  8
0
  6
CONTINUOUS
 62
               4
  5
19F
 10
174.27554105626467
 20
397.33119004791382
 30
0.0
 11
183.14220772293123
 21
397.33119004791382
 31
0.0
  0
LINE
  8
0
  6
CONTINUOUS
 62
               4
  5
1A0
 10
174.27554105626467
 20
375.46452338124749
 30
0.0
 11
183.14220772293123
 21
375.46452338124749
 31
0.0
  0
LINE
  8
0
  6
CONTINUOUS
 62
               4
  5
1A1
 10
183.14220772293123
 20
397.33119004791382
 30
0.0
 11
184.27554105626467
 21
395.39785671458066
 31
0.0
  0
LINE
  8
0
  6
CONTINUOUS
 62
               4
  5
1A2
 10
183.14220772293123
 20
375.46452338124749
 30
0.0
 11
184.27554105626467
 21
377.39785671458088
 31
0.0
  0
LINE
  8
0
  6
CONTINUOUS
 62
               4
  5
1A3
 10
184.27554105626467
 20
377.39785671458088
 30
0.0
 11
184.27554105626467
 21
395.39785671458066
 31
0.0
  0
ARC
  8
0
  6
CONTINUOUS
 62
               4
  5
1A4
 10
165.60887438959793
 20
386.39785671458088
 30
0.0
 40
18.133333333333333
 50
341.99999960920729
 51
377.99999997943115
  0
ARC
  8
0
  6
CONTINUOUS
 62
               4
  5
1A5
 10
178.94220772293164
 20
394.66452338124731
 30
0.0
 40
4.8666666666666645
 50
325.99999962749001
 51
393.99999996114843
  0
ARC
  8
0
  6
CONTINUOUS
 62
               4
  5
1A6
 10
178.94220772293164
 20
378.131190047914
 30
0.0
 40
4.8666666666666645
 50
325.99999962749001
 51
393.99999996114843
  0
LINE
  8
0
  6
CONTINUOUS
 62
               4
  5
1A7
 10
174.27554105626467
 20
391.93119004791396
 30
0.0
 11
183.14220772293123
 21
391.93119004791396
 31
0.0
  0
LINE
  8
0
  6
CONTINUOUS
 62
               4
  5
1A8
 10
174.27554105626467
 20
380.93119004791396
 30
0.0
 11
183.14220772293123
 21
380.93119004791396
 31
0.0
  0
LINE
  8
0
  6
CONTINUOUS
 62
               4
  5
1A9
 10
184.27554105626467
 20
380.39785671458066
 30
0.0
 11
186.74220772293137
 21
380.39785671458066
 31
0.0
  0
LINE
  8
0
  6
CONTINUOUS
 62
               4
  5
1AA
 10
186.74220772293137
 20
380.39785671458066
 30
0.0
 11
188.74220772293125
 21
382.39785671458088
 31
0.0
  0
LINE
  8
0
  6
CONTINUOUS
 62
               4
  5
1AB
 10
186.74220772293137
 20
392.39785671458088
 30
0.0
 11
188.74220772293125
 21
390.39785671458066
 31
0.0
  0
LINE
  8
0
  6
CONTINUOUS
 62
               4
  5
1AC
 10
188.74220772293125
 20
390.39785671458066
 30
0.0
 11
188.74220772293125
 21
382.39785671458088
 31
0.0
  0
LINE
  8
0
  6
CONTINUOUS
 62
               4
  5
1AD
 10
186.74220772293137
 20
392.39785671458088
 30
0.0
 11
186.74220772293137
 21
380.39785671458066
 31
0.0
  0
LINE
  8
0
  6
CONTINUOUS
 62
               4
  5
1AE
 10
186.74220772293137
 20
392.39785671458088
 30
0.0
 11
184.27554105626467
 21
392.39785671458088
 31
0.0
  0
LINE
  8
0
  6
CONTINUOUS
 62
               4
  5
1AF
 10
174.27554105626467
 20
215.33119004791405
 30
0.0
 11
183.14220772293123
 21
215.33119004791405
 31
0.0
  0
LINE
  8
0
  6
CONTINUOUS
 62
               4
  5
1B0
 10
174.27554105626467
 20
193.46452338124749
 30
0.0
 11
183.14220772293123
 21
193.46452338124749
 31
0.0
  0
LINE
  8
0
  6
CONTINUOUS
 62
               4
  5
1B1
 10
183.14220772293123
 20
215.33119004791405
 30
0.0
 11
184.27554105626467
 21
213.39785671458066
 31
0.0
  0
LINE
  8
0
  6
CONTINUOUS
 62
               4
  5
1B2
 10
183.14220772293123
 20
193.46452338124749
 30
0.0
 11
184.27554105626467
 21
195.39785671458077
 31
0.0
  0
LINE
  8
0
  6
CONTINUOUS
 62
               4
  5
1B3
 10
184.27554105626467
 20
195.39785671458077
 30
0.0
 11
184.27554105626467
 21
213.39785671458066
 31
0.0
  0
ARC
  8
0
  6
CONTINUOUS
 62
               4
  5
1B4
 10
165.60887438959793
 20
204.39785671458077
 30
0.0
 40
18.133333333333333
 50
341.99999960920729
 51
377.99999997943115
  0
ARC
  8
0
  6
CONTINUOUS
 62
               4
  5
1B5
 10
178.94220772293164
 20
212.66452338124731
 30
0.0
 40
4.8666666666666645
 50
325.99999962749001
 51
393.99999996114843
  0
ARC
  8
0
  6
CONTINUOUS
 62
               4
  5
1B6
 10
178.94220772293164
 20
196.13119004791412
 30
0.0
 40
4.8666666666666645
 50
325.99999962749001
 51
393.99999996114843
  0
LINE
  8
0
  6
CONTINUOUS
 62
               4
  5
1B7
 10
174.27554105626467
 20
209.93119004791407
 30
0.0
 11
183.14220772293123
 21
209.93119004791407
 31
0.0
  0
LINE
  8
0
  6
CONTINUOUS
 62
               4
  5
1B8
 10
174.27554105626467
 20
198.93119004791396
 30
0.0
 11
183.14220772293123
 21
198.93119004791396
 31
0.0
  0
LINE
  8
0
  6
CONTINUOUS
 62
               4
  5
1B9
 10
184.27554105626467
 20
198.39785671458066
 30
0.0
 11
186.74220772293137
 21
198.39785671458066
 31
0.0
  0
LINE
  8
0
  6
CONTINUOUS
 62
               4
  5
1BA
 10
186.74220772293137
 20
198.39785671458066
 30
0.0
 11
188.74220772293125
 21
200.39785671458077
 31
0.0
  0
LINE
  8
0
  6
CONTINUOUS
 62
               4
  5
1BB
 10
186.74220772293137
 20
210.39785671458077
 30
0.0
 11
188.74220772293125
 21
208.39785671458066
 31
0.0
  0
LINE
  8
0
  6
CONTINUOUS
 62
               4
  5
1BC
 10
188.74220772293125
 20
208.39785671458066
 30
0.0
 11
188.74220772293125
 21
200.39785671458077
 31
0.0
  0
LINE
  8
0
  6
CONTINUOUS
 62
               4
  5
1BD
 10
186.74220772293137
 20
210.39785671458077
 30
0.0
 11
186.74220772293137
 21
198.39785671458066
 31
0.0
  0
LINE
  8
0
  6
CONTINUOUS
 62
               4
  5
1BE
 10
186.74220772293137
 20
210.39785671458077
 30
0.0
 11
184.27554105626467
 21
210.39785671458077
 31
0.0
  0
LINE
  8
0
  6
CONTINUOUS
 62
               4
  5
1BF
 10
142.27554105626467
 20
392.4645233812459
 30
0.0
 11
155.27554105626433
 21
392.4645233812459
 31
0.0
  0
LINE
  8
0
  6
CONTINUOUS
 62
               4
  5
1C0
 10
155.27554105626433
 20
380.46452338124612
 30
0.0
 11
142.27554105626467
 21
380.46452338124612
 31
0.0
  0
LINE
  8
0
  6
CONTINUOUS
 62
               4
  5
1C1
 10
155.27554105626433
 20
210.46452338124612
 30
0.0
 11
142.06601643931435
 21
210.4645233812459
 31
0.0
  0
LINE
  8
0
  6
CONTINUOUS
 62
               4
  5
1C2
 10
142.27554105626439
 20
198.46452338124601
 30
0.0
 11
155.27554105626433
 21
198.46452338124601
 31
0.0
  0
LINE
  8
0
  6
CONTINUOUS
 62
               4
  5
1C3
 10
174.27554105626467
 20
306.26619004791945
 30
0.0
 11
183.14220772293123
 21
306.26619004791945
 31
0.0
  0
LINE
  8
0
  6
CONTINUOUS
 62
               4
  5
1C4
 10
174.27554105626467
 20
284.39952338125312
 30
0.0
 11
183.14220772293123
 21
284.39952338125312
 31
0.0
  0
LINE
  8
0
  6
CONTINUOUS
 62
               4
  5
1C5
 10
183.14220772293123
 20
306.26619004791945
 30
0.0
 11
184.27554105626467
 21
304.33285671458628
 31
0.0
  0
LINE
  8
0
  6
CONTINUOUS
 62
               4
  5
1C6
 10
183.14220772293123
 20
284.39952338125312
 30
0.0
 11
184.27554105626467
 21
286.33285671458628
 31
0.0
  0
LINE
  8
0
  6
CONTINUOUS
 62
               4
  5
1C7
 10
184.27554105626467
 20
286.33285671458628
 30
0.0
 11
184.27554105626467
 21
304.33285671458628
 31
0.0
  0
ARC
  8
0
  6
CONTINUOUS
 62
               4
  5
1C8
 10
165.60887438959793
 20
295.33285671458628
 30
0.0
 40
18.133333333333333
 50
341.99999960920729
 51
377.99999997943115
  0
ARC
  8
0
  6
CONTINUOUS
 62
               4
  5
1C9
 10
178.94220772293164
 20
303.59952338125294
 30
0.0
 40
4.8666666666666645
 50
325.99999962749001
 51
393.99999996114843
  0
ARC
  8
0
  6
CONTINUOUS
 62
               4
  5
1CA
 10
178.94220772293164
 20
287.06619004791963
 30
0.0
 40
4.8666666666666645
 50
325.99999962749001
 51
393.99999996114843
  0
LINE
  8
0
  6
CONTINUOUS
 62
               4
  5
1CB
 10
174.27554105626467
 20
300.86619004791959
 30
0.0
 11
183.14220772293123
 21
300.86619004791959
 31
0.0
  0
LINE
  8
0
  6
CONTINUOUS
 62
               4
  5
1CC
 10
174.27554105626467
 20
289.86619004791959
 30
0.0
 11
183.14220772293123
 21
289.86619004791959
 31
0.0
  0
LINE
  8
0
  6
CONTINUOUS
 62
               4
  5
1CD
 10
184.27554105626467
 20
289.33285671458628
 30
0.0
 11
186.74220772293137
 21
289.33285671458628
 31
0.0
  0
LINE
  8
0
  6
CONTINUOUS
 62
               4
  5
1CE
 10
186.74220772293137
 20
289.33285671458628
 30
0.0
 11
188.74220772293125
 21
291.33285671458628
 31
0.0
  0
LINE
  8
0
  6
CONTINUOUS
 62
               4
  5
1CF
 10
186.74220772293137
 20
301.33285671458628
 30
0.0
 11
188.74220772293125
 21
299.33285671458628
 31
0.0
  0
LINE
  8
0
  6
CONTINUOUS
 62
               4
  5
1D0
 10
188.74220772293125
 20
299.33285671458628
 30
0.0
 11
188.74220772293125
 21
291.33285671458628
 31
0.0
  0
LINE
  8
0
  6
CONTINUOUS
 62
               4
  5
1D1
 10
186.74220772293137
 20
301.33285671458628
 30
0.0
 11
186.74220772293137
 21
289.33285671458628
 31
0.0
  0
LINE
  8
0
  6
CONTINUOUS
 62
               4
  5
1D2
 10
186.74220772293137
 20
301.33285671458628
 30
0.0
 11
184.27554105626467
 21
301.33285671458628
 31
0.0
  0
LINE
  8
0
  6
CONTINUOUS
 62
               4
  5
1D3
 10
124.27554105626446
 20
402.87053113646419
 30
0.0
 11
120.27554105626442
 21
402.87053113646419
 31
0.0
  0
LINE
  8
0
  6
CONTINUOUS
 62
               4
  5
1D4
 10
120.27554105626442
 20
402.87053113646419
 30
0.0
 11
120.27554105626442
 21
400.14963731147071
 31
0.0
  0
LINE
  8
0
  6
CONTINUOUS
 62
               4
  5
1D5
 10
118.77554105626442
 20
380.1524266388505
 30
0.0
 11
118.77554105626442
 21
394.1524266388505
 31
0.0
  0
LINE
  8
0
  6
CONTINUOUS
 62
               4
  5
1D6
 10
118.77554105626442
 20
378.39785671457997
 30
0.0
 11
124.27554105626446
 21
378.39785671457997
 31
0.0
  0
LINE
  8
0
  6
CONTINUOUS
 62
               4
  5
1D7
 10
118.77554105626442
 20
394.1524266388505
 30
0.0
 11
120.27554105626442
 21
400.14963731147071
 31
0.0
  0
LINE
  8
0
  6
CONTINUOUS
 62
               4
  5
1D8
 10
118.77554105626442
 20
378.39785671457997
 30
0.0
 11
118.77554105626442
 21
380.1524266388505
 31
0.0
  0
LINE
  8
0
  6
CONTINUOUS
 62
               4
  5
1D9
 10
124.27554105626452
 20
378.39785671457997
 30
0.0
 11
124.27554105626446
 21
402.87053113646419
 31
0.0
  0
LINE
  8
0
  6
CONTINUOUS
 62
               4
  5
1DA
 10
118.77554105626453
 20
196.39785671458009
 30
0.0
 11
118.77554105626453
 21
198.1524266388505
 31
0.0
  0
LINE
  8
0
  6
CONTINUOUS
 62
               4
  5
1DB
 10
118.77554105626453
 20
198.1524266388505
 30
0.0
 11
118.77554105626453
 21
212.15242663885061
 31
0.0
  0
LINE
  8
0
  6
CONTINUOUS
 62
               4
  5
1DC
 10
118.77554105626453
 20
212.15242663885061
 30
0.0
 11
120.27554105626447
 21
218.14963731147083
 31
0.0
  0
LINE
  8
0
  6
CONTINUOUS
 62
               4
  5
1DD
 10
120.27554105626447
 20
220.87053113646431
 30
0.0
 11
120.27554105626447
 21
208.14260907510646
 31
0.0
  0
LINE
  8
0
  6
CONTINUOUS
 62
               4
  5
1DE
 10
120.27554105626447
 20
208.14260907510646
 30
0.0
 11
120.27554105626447
 21
205.4217151888825
 31
0.0
  0
LINE
  8
0
  6
CONTINUOUS
 62
               4
  5
1DF
 10
118.77554105626453
 20
198.1524266388505
 30
0.0
 11
120.27554105626447
 21
205.4217151888825
 31
0.0
  0
LINE
  8
0
  6
CONTINUOUS
 62
               4
  5
1E0
 10
118.77554105626453
 20
196.39785671458009
 30
0.0
 11
124.27554105626452
 21
196.39785671458009
 31
0.0
  0
LINE
  8
0
  6
CONTINUOUS
 62
               4
  5
1E1
 10
124.27554105626457
 20
196.39785671457997
 30
0.0
 11
124.27554105626452
 21
220.87053113646431
 31
0.0
  0
LINE
  8
0
  6
CONTINUOUS
 62
               4
  5
1E2
 10
120.27554105626447
 20
208.14260907510646
 30
0.0
 11
124.27554105626452
 21
208.14260907510646
 31
0.0
  0
LINE
  8
0
  6
CONTINUOUS
 62
               4
  5
1E3
 10
124.27554105626452
 20
220.87053113646431
 30
0.0
 11
120.27554105626447
 21
220.87053113646431
 31
0.0
  0
LINE
  8
0
  6
CONTINUOUS
 62
               4
  5
1E4
 10
-13.688419424961012
 20
420.89952338124976
 30
0.0
 11
-24.935642675228436
 21
420.89952338124976
 31
0.0
  0
ARC
  8
0
  6
CONTINUOUS
 62
               4
  5
1E5
 10
-13.688419424961012
 20
418.01217062877123
 30
0.0
 40
2.8873527524785398
 50
49.46860505810487
 51
130.53139494189463
  0
ARC
  8
0
  6
CONTINUOUS
 62
               4
  5
1E6
 10
-24.935642675228436
 20
418.01217062877123
 30
0.0
 40
2.8873527524785354
 50
49.468605058104977
 51
130.53139494189475
  0
ARC
  8
0
  6
CONTINUOUS
 62
               4
  5
1E7
 10
-19.312031050094724
 20
410.41940205348141
 30
0.0
 40
10.480121327768362
 50
69.049863773639913
 51
110.9501362263597
  0
LINE
  8
0
  6
CONTINUOUS
 62
               4
  5
1E8
 10
-11.812031050094724
 20
415.39952338124976
 30
0.0
 11
-26.812031050094724
 21
415.39952338124976
 31
0.0
  0
LINE
  8
0
  6
CONTINUOUS
 62
               4
  5
1E9
 10
-11.812031050094724
 20
415.39952338124976
 30
0.0
 11
-11.812031050094724
 21
420.20670305822222
 31
0.0
  0
LINE
  8
0
  6
CONTINUOUS
 62
               4
  5
1EA
 10
-15.564807799827292
 20
415.39952338124976
 30
0.0
 11
-15.564807799827292
 21
420.20670305822222
 31
0.0
  0
LINE
  8
0
  6
CONTINUOUS
 62
               4
  5
1EB
 10
-26.812031050094724
 20
415.39952338124976
 30
0.0
 11
-26.812031050094724
 21
420.20670305822222
 31
0.0
  0
LINE
  8
0
  6
CONTINUOUS
 62
               4
  5
1EC
 10
-23.059254300362156
 20
415.39952338124976
 30
0.0
 11
-23.059254300362156
 21
420.20670305822222
 31
0.0
  0
LINE
  8
0
  6
CONTINUOUS
 62
               4
  5
1ED
 10
-77.328029731750235
 20
420.89952338124976
 30
0.0
 11
-88.575252982017659
 21
420.89952338124976
 31
0.0
  0
ARC
  8
0
  6
CONTINUOUS
 62
               4
  5
1EE
 10
-77.328029731750235
 20
418.01217062877123
 30
0.0
 40
2.8873527524785398
 50
49.46860505810487
 51
130.53139494189463
  0
ARC
  8
0
  6
CONTINUOUS
 62
               4
  5
1EF
 10
-88.575252982017659
 20
418.01217062877123
 30
0.0
 40
2.8873527524785354
 50
49.468605058104977
 51
130.53139494189475
  0
ARC
  8
0
  6
CONTINUOUS
 62
               4
  5
1F0
 10
-82.951641356883954
 20
410.41940205348141
 30
0.0
 40
10.480121327768362
 50
69.049863773639913
 51
110.9501362263597
  0
LINE
  8
0
  6
CONTINUOUS
 62
               4
  5
1F1
 10
-75.451641356883954
 20
415.39952338124976
 30
0.0
 11
-90.451641356883954
 21
415.39952338124976
 31
0.0
  0
LINE
  8
0
  6
CONTINUOUS
 62
               4
  5
1F2
 10
-75.451641356883954
 20
415.39952338124976
 30
0.0
 11
-75.451641356883954
 21
420.20670305822222
 31
0.0
  0
LINE
  8
0
  6
CONTINUOUS
 62
               4
  5
1F3
 10
-79.204418106616515
 20
415.39952338124976
 30
0.0
 11
-79.204418106616515
 21
420.20670305822222
 31
0.0
  0
LINE
  8
0
  6
CONTINUOUS
 62
               4
  5
1F4
 10
-90.451641356883954
 20
415.39952338124976
 30
0.0
 11
-90.451641356883954
 21
420.20670305822222
 31
0.0
  0
LINE
  8
0
  6
CONTINUOUS
 62
               4
  5
1F5
 10
-86.698864607151378
 20
415.39952338124976
 30
0.0
 11
-86.698864607151378
 21
420.20670305822222
 31
0.0
  0
LINE
  8
0
  6
CONTINUOUS
 62
               4
  5
1F6
 10
-24.935642675228436
 20
169.8995233812455
 30
0.0
 11
-13.688419424961012
 21
169.8995233812455
 31
0.0
  0
ARC
  8
0
  6
CONTINUOUS
 62
               4
  5
1F7
 10
-24.935642675228436
 20
172.78687613372404
 30
0.0
 40
2.8873527524785398
 50
229.46860505810449
 51
310.53139494189418
  0
ARC
  8
0
  6
CONTINUOUS
 62
               4
  5
1F8
 10
-13.688419424961012
 20
172.78687613372404
 30
0.0
 40
2.8873527524785354
 50
229.4686050581046
 51
310.53139494189429
  0
ARC
  8
0
  6
CONTINUOUS
 62
               4
  5
1F9
 10
-19.312031050094724
 20
180.37964470901386
 30
0.0
 40
10.480121327768362
 50
249.04986377363952
 51
290.95013622635929
  0
LINE
  8
0
  6
CONTINUOUS
 62
               4
  5
1FA
 10
-26.812031050094724
 20
175.3995233812455
 30
0.0
 11
-11.812031050094724
 21
175.3995233812455
 31
0.0
  0
LINE
  8
0
  6
CONTINUOUS
 62
               4
  5
1FB
 10
-26.812031050094724
 20
175.3995233812455
 30
0.0
 11
-26.812031050094724
 21
170.59234370427305
 31
0.0
  0
LINE
  8
0
  6
CONTINUOUS
 62
               4
  5
1FC
 10
-23.059254300362156
 20
175.3995233812455
 30
0.0
 11
-23.059254300362156
 21
170.59234370427305
 31
0.0
  0
LINE
  8
0
  6
CONTINUOUS
 62
               4
  5
1FD
 10
-11.812031050094724
 20
175.3995233812455
 30
0.0
 11
-11.812031050094724
 21
170.59234370427305
 31
0.0
  0
LINE
  8
0
  6
CONTINUOUS
 62
               4
  5
1FE
 10
-15.564807799827292
 20
175.3995233812455
 30
0.0
 11
-15.564807799827292
 21
170.59234370427305
 31
0.0
  0
LINE
  8
0
  6
CONTINUOUS
 62
               4
  5
1FF
 10
-88.575252982017659
 20
169.8995233812455
 30
0.0
 11
-77.328029731750235
 21
169.8995233812455
 31
0.0
  0
ARC
  8
0
  6
CONTINUOUS
 62
               4
  5
200
 10
-88.575252982017659
 20
172.78687613372404
 30
0.0
 40
2.8873527524785398
 50
229.46860505810449
 51
310.53139494189418
  0
ARC
  8
0
  6
CONTINUOUS
 62
               4
  5
201
 10
-77.328029731750235
 20
172.78687613372404
 30
0.0
 40
2.8873527524785354
 50
229.4686050581046
 51
310.53139494189429
  0
ARC
  8
0
  6
CONTINUOUS
 62
               4
  5
202
 10
-82.951641356883954
 20
180.37964470901386
 30
0.0
 40
10.480121327768362
 50
249.04986377363952
 51
290.95013622635929
  0
LINE
  8
0
  6
CONTINUOUS
 62
               4
  5
203
 10
-90.451641356883954
 20
175.3995233812455
 30
0.0
 11
-75.451641356883954
 21
175.3995233812455
 31
0.0
  0
LINE
  8
0
  6
CONTINUOUS
 62
               4
  5
204
 10
-90.451641356883954
 20
175.3995233812455
 30
0.0
 11
-90.451641356883954
 21
170.59234370427305
 31
0.0
  0
LINE
  8
0
  6
CONTINUOUS
 62
               4
  5
205
 10
-86.698864607151378
 20
175.3995233812455
 30
0.0
 11
-86.698864607151378
 21
170.59234370427305
 31
0.0
  0
LINE
  8
0
  6
CONTINUOUS
 62
               4
  5
206
 10
-75.451641356883954
 20
175.3995233812455
 30
0.0
 11
-75.451641356883954
 21
170.59234370427305
 31
0.0
  0
LINE
  8
0
  6
CONTINUOUS
 62
               4
  5
207
 10
-79.204418106616515
 20
175.3995233812455
 30
0.0
 11
-79.204418106616515
 21
170.59234370427305
 31
0.0
  0
LINE
  8
0
  6
CONTINUOUS
 62
               4
  5
208
 10
-11.806477550629594
 20
-147.45198000303776
 30
0.0
 11
-15.559254300362156
 21
-140.95198000303776
 31
0.0
  0
LINE
  8
0
  6
CONTINUOUS
 62
               4
  5
209
 10
-15.559254300362156
 20
-140.95198000303776
 30
0.0
 11
-23.064807799827278
 21
-140.95198000303776
 31
0.0
  0
LINE
  8
0
  6
CONTINUOUS
 62
               4
  5
20A
 10
-23.064807799827278
 20
-140.95198000303776
 30
0.0
 11
-26.81758454955984
 21
-147.45198000303776
 31
0.0
  0
LINE
  8
0
  6
CONTINUOUS
 62
               4
  5
20B
 10
-26.81758454955984
 20
-147.45198000303776
 30
0.0
 11
-23.064807799827278
 21
-153.95198000303776
 31
0.0
  0
LINE
  8
0
  6
CONTINUOUS
 62
               4
  5
20C
 10
-23.064807799827278
 20
-153.95198000303776
 30
0.0
 11
-15.559254300362158
 21
-153.95198000303776
 31
0.0
  0
LINE
  8
0
  6
CONTINUOUS
 62
               4
  5
20D
 10
-15.559254300362158
 20
-153.95198000303776
 30
0.0
 11
-11.806477550629594
 21
-147.45198000303776
 31
0.0
  0
CIRCLE
  8
0
  6
CONTINUOUS
 62
               4
  5
20E
 10
-19.312031050094717
 20
-147.45198000303776
 30
0.0
 40
6.5
  0
LINE
  8
0
  6
CONTINUOUS
 62
               4
  5
20F
 10
-75.446087857418817
 20
-211.09159030982698
 30
0.0
 11
-79.198864607151378
 21
-204.59159030982698
 31
0.0
  0
LINE
  8
0
  6
CONTINUOUS
 62
               4
  5
210
 10
-79.198864607151378
 20
-204.59159030982698
 30
0.0
 11
-86.704418106616501
 21
-204.59159030982698
 31
0.0
  0
LINE
  8
0
  6
CONTINUOUS
 62
               4
  5
211
 10
-86.704418106616501
 20
-204.59159030982698
 30
0.0
 11
-90.457194856349062
 21
-211.09159030982698
 31
0.0
  0
LINE
  8
0
  6
CONTINUOUS
 62
               4
  5
212
 10
-90.457194856349062
 20
-211.09159030982698
 30
0.0
 11
-86.704418106616501
 21
-217.59159030982698
 31
0.0
  0
LINE
  8
0
  6
CONTINUOUS
 62
               4
  5
213
 10
-86.704418106616501
 20
-217.59159030982698
 30
0.0
 11
-79.198864607151378
 21
-217.59159030982698
 31
0.0
  0
LINE
  8
0
  6
CONTINUOUS
 62
               4
  5
214
 10
-79.198864607151378
 20
-217.59159030982698
 30
0.0
 11
-75.446087857418817
 21
-211.09159030982698
 31
0.0
  0
CIRCLE
  8
0
  6
CONTINUOUS
 62
               4
  5
215
 10
-82.95164135688394
 20
-211.09159030982698
 30
0.0
 40
6.5
  0
LINE
  8
0
  6
CONTINUOUS
 62
               4
  5
216
 10
-729.80982019544308
 20
-140.95198000303768
 30
0.0
 11
-729.80982019544308
 21
-153.95198000303768
 31
0.0
  0
ARC
  8
0
  6
CONTINUOUS
 62
               4
  5
217
 10
-721.8846211545515
 20
-144.20198000303768
 30
0.0
 40
7.9290479831196299
 50
155.80237194245751
 51
204.19762805754166
  0
ARC
  8
0
  6
CONTINUOUS
 62
               4
  5
218
 10
-721.8846211545515
 20
-150.70198000303768
 30
0.0
 40
7.9290479831196299
 50
155.80237194245751
 51
204.19762805754166
  0
LINE
  8
0
  6
CONTINUOUS
 62
               4
  5
219
 10
-724.30982019544308
 20
-153.95198000303768
 30
0.0
 11
-724.30982019544308
 21
-140.95198000303768
 31
0.0
  0
LINE
  8
0
  6
CONTINUOUS
 62
               4
  5
21A
 10
-724.30982019544308
 20
-147.45198000303768
 30
0.0
 11
-729.11699987241559
 21
-147.45198000303768
 31
0.0
  0
LINE
  8
0
  6
CONTINUOUS
 62
               4
  5
21B
 10
-724.30982019544308
 20
-140.95198000303768
 30
0.0
 11
-729.80982019544308
 21
-140.95198000303768
 31
0.0
  0
LINE
  8
0
  6
CONTINUOUS
 62
               4
  5
21C
 10
-729.80982019544308
 20
-153.95198000303768
 30
0.0
 11
-724.30982019544308
 21
-153.95198000303768
 31
0.0
  0
LINE
  8
0
  6
CONTINUOUS
 62
               4
  5
21D
 10
-729.80982019544308
 20
-204.5915903098269
 30
0.0
 11
-729.80982019544308
 21
-217.5915903098269
 31
0.0
  0
ARC
  8
0
  6
CONTINUOUS
 62
               4
  5
21E
 10
-721.8846211545515
 20
-207.8415903098269
 30
0.0
 40
7.9290479831196299
 50
155.80237194245751
 51
204.19762805754166
  0
ARC
  8
0
  6
CONTINUOUS
 62
               4
  5
21F
 10
-721.8846211545515
 20
-214.3415903098269
 30
0.0
 40
7.9290479831196299
 50
155.80237194245751
 51
204.19762805754166
  0
LINE
  8
0
  6
CONTINUOUS
 62
               4
  5
220
 10
-724.30982019544308
 20
-217.5915903098269
 30
0.0
 11
-724.30982019544308
 21
-204.5915903098269
 31
0.0
  0
LINE
  8
0
  6
CONTINUOUS
 62
               4
  5
221
 10
-724.30982019544308
 20
-211.0915903098269
 30
0.0
 11
-729.11699987241559
 21
-211.0915903098269
 31
0.0
  0
LINE
  8
0
  6
CONTINUOUS
 62
               4
  5
222
 10
-724.30982019544308
 20
-204.5915903098269
 30
0.0
 11
-729.80982019544308
 21
-204.5915903098269
 31
0.0
  0
LINE
  8
0
  6
CONTINUOUS
 62
               4
  5
223
 10
-729.80982019544308
 20
-217.5915903098269
 30
0.0
 11
-724.30982019544308
 21
-217.5915903098269
 31
0.0
  0
LINE
  8
0
  6
CONTINUOUS
 62
               4
  5
224
 10
-478.80981858738869
 20
-153.95198000303776
 30
0.0
 11
-478.80981858738869
 21
-140.95198000303776
 31
0.0
  0
ARC
  8
0
  6
CONTINUOUS
 62
               4
  5
225
 10
-486.73501762828033
 20
-150.70198000303776
 30
0.0
 40
7.9290479831196299
 50
335.80237194245711
 51
384.19762805754129
  0
ARC
  8
0
  6
CONTINUOUS
 62
               4
  5
226
 10
-486.73501762828033
 20
-144.20198000303776
 30
0.0
 40
7.9290479831196299
 50
335.80237194245711
 51
384.19762805754129
  0
LINE
  8
0
  6
CONTINUOUS
 62
               4
  5
227
 10
-484.30981858738869
 20
-140.95198000303776
 30
0.0
 11
-484.30981858738869
 21
-153.95198000303776
 31
0.0
  0
LINE
  8
0
  6
CONTINUOUS
 62
               4
  5
228
 10
-484.30981858738869
 20
-147.45198000303776
 30
0.0
 11
-479.50263891041624
 21
-147.45198000303776
 31
0.0
  0
LINE
  8
0
  6
CONTINUOUS
 62
               4
  5
229
 10
-484.30981858738869
 20
-153.95198000303776
 30
0.0
 11
-478.80981858738869
 21
-153.95198000303776
 31
0.0
  0
LINE
  8
0
  6
CONTINUOUS
 62
               4
  5
22A
 10
-478.80981858738869
 20
-140.95198000303776
 30
0.0
 11
-484.30981858738869
 21
-140.95198000303776
 31
0.0
  0
LINE
  8
0
  6
CONTINUOUS
 62
               4
  5
22B
 10
-478.80981858738869
 20
-217.59159030982698
 30
0.0
 11
-478.80981858738869
 21
-204.59159030982698
 31
0.0
  0
ARC
  8
0
  6
CONTINUOUS
 62
               4
  5
22C
 10
-486.73501762828033
 20
-214.34159030982698
 30
0.0
 40
7.9290479831196299
 50
335.80237194245711
 51
384.19762805754129
  0
ARC
  8
0
  6
CONTINUOUS
 62
               4
  5
22D
 10
-486.73501762828033
 20
-207.84159030982698
 30
0.0
 40
7.9290479831196299
 50
335.80237194245711
 51
384.19762805754129
  0
LINE
  8
0
  6
CONTINUOUS
 62
               4
  5
22E
 10
-484.30981858738869
 20
-204.59159030982698
 30
0.0
 11
-484.30981858738869
 21
-217.59159030982698
 31
0.0
  0
LINE
  8
0
  6
CONTINUOUS
 62
               4
  5
22F
 10
-484.30981858738869
 20
-211.09159030982698
 30
0.0
 11
-479.50263891041624
 21
-211.09159030982698
 31
0.0
  0
LINE
  8
0
  6
CONTINUOUS
 62
               4
  5
230
 10
-484.30981858738869
 20
-217.59159030982698
 30
0.0
 11
-478.80981858738869
 21
-217.59159030982698
 31
0.0
  0
LINE
  8
0
  6
CONTINUOUS
 62
               4
  5
231
 10
-478.80981858738869
 20
-204.59159030982698
 30
0.0
 11
-484.30981858738869
 21
-204.59159030982698
 31
0.0
  0
LINE
  8
0
  6
CONTINUOUS
 62
               4
  5
232
 10
564.59320569531292
 20
-140.95198000303938
 30
0.0
 11
564.59320569531292
 21
-153.95198000303938
 31
0.0
  0
ARC
  8
0
  6
CONTINUOUS
 62
               4
  5
233
 10
572.5184047362045
 20
-144.20198000303938
 30
0.0
 40
7.9290479831196299
 50
155.80237194245751
 51
204.19762805754166
  0
ARC
  8
0
  6
CONTINUOUS
 62
               4
  5
234
 10
572.5184047362045
 20
-150.70198000303938
 30
0.0
 40
7.9290479831196299
 50
155.80237194245751
 51
204.19762805754166
  0
LINE
  8
0
  6
CONTINUOUS
 62
               4
  5
235
 10
570.09320569531292
 20
-153.95198000303938
 30
0.0
 11
570.09320569531292
 21
-140.95198000303938
 31
0.0
  0
LINE
  8
0
  6
CONTINUOUS
 62
               4
  5
236
 10
570.09320569531292
 20
-147.45198000303938
 30
0.0
 11
565.28602601834041
 21
-147.45198000303938
 31
0.0
  0
LINE
  8
0
  6
CONTINUOUS
 62
               4
  5
237
 10
570.09320569531292
 20
-140.95198000303938
 30
0.0
 11
564.59320569531292
 21
-140.95198000303938
 31
0.0
  0
LINE
  8
0
  6
CONTINUOUS
 62
               4
  5
238
 10
564.59320569531292
 20
-153.95198000303938
 30
0.0
 11
570.09320569531292
 21
-153.95198000303938
 31
0.0
  0
LINE
  8
0
  6
CONTINUOUS
 62
               4
  5
239
 10
564.59320569531292
 20
-204.5915903098286
 30
0.0
 11
564.59320569531292
 21
-217.5915903098286
 31
0.0
  0
ARC
  8
0
  6
CONTINUOUS
 62
               4
  5
23A
 10
572.5184047362045
 20
-207.8415903098286
 30
0.0
 40
7.9290479831196299
 50
155.80237194245751
 51
204.19762805754166
  0
ARC
  8
0
  6
CONTINUOUS
 62
               4
  5
23B
 10
572.5184047362045
 20
-214.3415903098286
 30
0.0
 40
7.9290479831196299
 50
155.80237194245751
 51
204.19762805754166
  0
LINE
  8
0
  6
CONTINUOUS
 62
               4
  5
23C
 10
570.09320569531292
 20
-217.5915903098286
 30
0.0
 11
570.09320569531292
 21
-204.5915903098286
 31
0.0
  0
LINE
  8
0
  6
CONTINUOUS
 62
               4
  5
23D
 10
570.09320569531292
 20
-211.0915903098286
 30
0.0
 11
565.28602601834041
 21
-211.0915903098286
 31
0.0
  0
LINE
  8
0
  6
CONTINUOUS
 62
               4
  5
23E
 10
570.09320569531292
 20
-204.5915903098286
 30
0.0
 11
564.59320569531292
 21
-204.5915903098286
 31
0.0
  0
LINE
  8
0
  6
CONTINUOUS
 62
               4
  5
23F
 10
564.59320569531292
 20
-217.5915903098286
 30
0.0
 11
570.09320569531292
 21
-217.5915903098286
 31
0.0
  0
LINE
  8
0
  6
CONTINUOUS
 62
               4
  5
240
 10
815.59320730336731
 20
-153.95198000303947
 30
0.0
 11
815.59320730336731
 21
-140.95198000303947
 31
0.0
  0
ARC
  8
0
  6
CONTINUOUS
 62
               4
  5
241
 10
807.66800826247572
 20
-150.70198000303947
 30
0.0
 40
7.9290479831196299
 50
335.80237194245711
 51
384.19762805754129
  0
ARC
  8
0
  6
CONTINUOUS
 62
               4
  5
242
 10
807.66800826247572
 20
-144.20198000303947
 30
0.0
 40
7.9290479831196299
 50
335.80237194245711
 51
384.19762805754129
  0
LINE
  8
0
  6
CONTINUOUS
 62
               4
  5
243
 10
810.09320730336731
 20
-140.95198000303947
 30
0.0
 11
810.09320730336731
 21
-153.95198000303947
 31
0.0
  0
LINE
  8
0
  6
CONTINUOUS
 62
               4
  5
244
 10
810.09320730336731
 20
-147.45198000303947
 30
0.0
 11
814.90038698033982
 21
-147.45198000303947
 31
0.0
  0
LINE
  8
0
  6
CONTINUOUS
 62
               4
  5
245
 10
810.09320730336731
 20
-153.95198000303947
 30
0.0
 11
815.59320730336731
 21
-153.95198000303947
 31
0.0
  0
LINE
  8
0
  6
CONTINUOUS
 62
               4
  5
246
 10
815.59320730336731
 20
-140.95198000303947
 30
0.0
 11
810.09320730336731
 21
-140.95198000303947
 31
0.0
  0
LINE
  8
0
  6
CONTINUOUS
 62
               4
  5
247
 10
815.59320730336731
 20
-217.59159030982869
 30
0.0
 11
815.59320730336731
 21
-204.59159030982869
 31
0.0
  0
ARC
  8
0
  6
CONTINUOUS
 62
               4
  5
248
 10
807.66800826247572
 20
-214.34159030982869
 30
0.0
 40
7.9290479831196299
 50
335.80237194245711
 51
384.19762805754129
  0
ARC
  8
0
  6
CONTINUOUS
 62
               4
  5
249
 10
807.66800826247572
 20
-207.84159030982869
 30
0.0
 40
7.9290479831196299
 50
335.80237194245711
 51
384.19762805754129
  0
LINE
  8
0
  6
CONTINUOUS
 62
               4
  5
24A
 10
810.09320730336731
 20
-204.59159030982869
 30
0.0
 11
810.09320730336731
 21
-217.59159030982869
 31
0.0
  0
LINE
  8
0
  6
CONTINUOUS
 62
               4
  5
24B
 10
810.09320730336731
 20
-211.09159030982869
 30
0.0
 11
814.90038698033982
 21
-211.09159030982869
 31
0.0
  0
LINE
  8
0
  6
CONTINUOUS
 62
               4
  5
24C
 10
810.09320730336731
 20
-217.59159030982869
 30
0.0
 11
815.59320730336731
 21
-217.59159030982869
 31
0.0
  0
LINE
  8
0
  6
CONTINUOUS
 62
               4
  5
24D
 10
815.59320730336731
 20
-204.59159030982869
 30
0.0
 11
810.09320730336731
 21
-204.59159030982869
 31
0.0
  0
LINE
  8
0
  6
DASHED
 62
               4
  5
24E
 10
103.27554105626461
 20
-122.60047661875198
 30
0.0
 11
103.27554105626461
 21
-287.600476618752
 31
0.0
  0
LINE
  8
0
  6
DASHED
 62
               4
  5
24F
 10
103.27554105626461
 20
377.89952338124834
 30
0.0
 11
103.27554105626461
 21
212.89952338124834
 31
0.0
  0
LINE
  8
0
  6
DASHED
 62
               4
  5
250
 10
-660.80981939141589
 20
-102.60047712494057
 30
0.0
 11
-547.80981939141589
 21
-102.60047712494057
 31
0.0
  0
LINE
  8
0
  6
DASHED
 62
               4
  5
251
 10
-150.22445894373533
 20
-102.60047661875208
 30
0.0
 11
-37.224458943735357
 21
-102.60047661875208
 31
0.0
  0
LINE
  8
0
  6
DASHED
 62
               4
  5
252
 10
633.59320649934011
 20
-102.60047712494239
 30
0.0
 11
746.59320649934011
 21
-102.60047712494239
 31
0.0
  0
ARC
  8
0
  6
DASHED
 62
               4
  5
253
 10
10.275541056264615
 20
-113.600476618752
 30
0.0
 40
166.49999999999852
 50
179.99999999999915
 51
269.99999999999937
  0
LINE
  8
0
  6
DASHED
 62
               4
  5
254
 10
10.275541056264615
 20
-280.10047661875211
 30
0.0
 11
103.27554105626461
 21
-280.10047661875211
 31
0.0
  0
LINE
  8
0
  6
CONTINUOUS
 62
               3
  5
255
 10
-70.923856531668974
 20
-265.10047661875143
 30
0.0
 11
-115.22445894373536
 21
-265.10047661875143
 31
0.0
  0
LINE
  8
0
  6
CONTINUOUS
 62
               3
  5
256
 10
-115.22445894373536
 20
-265.10047661875143
 30
0.0
 11
-118.42907470209192
 21
-228.47155089048312
 31
0.0
  0
LINE
  8
0
  6
CONTINUOUS
 62
               3
  5
257
 10
-109.72445894373536
 20
-295.10047661875143
 30
0.0
 11
-77.724458943735357
 21
-295.10047661875143
 31
0.0
  0
LINE
  8
0
  6
CONTINUOUS
 62
               3
  5
258
 10
-110.72445894373536
 20
-265.10047661875143
 30
0.0
 11
-109.72445894373536
 21
-295.10047661875143
 31
0.0
  0
LINE
  8
0
  6
CONTINUOUS
 62
               3
  5
259
 10
-77.724458943735357
 20
-295.10047661875143
 30
0.0
 11
-76.724458943735357
 21
-265.10047661875143
 31
0.0
  0
LINE
  8
0
  6
CONTINUOUS
 62
               3
  5
25A
 10
-98.724458943735357
 20
-265.10047661875143
 30
0.0
 11
-97.724458943735357
 21
-295.10047661875143
 31
0.0
  0
LINE
  8
0
  6
CONTINUOUS
 62
               3
  5
25B
 10
-89.724458943735357
 20
-295.10047661875143
 30
0.0
 11
-88.724458943735357
 21
-265.10047661875143
 31
0.0
  0
ARC
  8
0
  6
CONTINUOUS
 62
               3
  5
25C
 10
-1.2244589437353568
 20
-112.6004766187521
 30
0.0
 40
5.0
 50
0.0
 51
89.999999999999801
  0
ARC
  8
0
  6
CONTINUOUS
 62
               3
  5
25D
 10
92.951174329614901
 20
-119.1001497380784
 30
0.0
 40
4.9999999999999991
 50
269.85422881554967
 51
341.24924640066655
  0
LINE
  8
0
  6
CONTINUOUS
 62
               3
  5
25E
 10
106.20813695184069
 20
-114.60047661875187
 30
0.0
 11
124.89080230492148
 21
-114.60047661875187
 31
0.0
  0
LINE
  8
0
  6
CONTINUOUS
 62
               3
  5
25F
 10
126.1395145014542
 20
-324.10047661875154
 30
0.0
 11
140.27675940222639
 21
-324.10047661875177
 31
0.0
  0
ARC
  8
0
  6
CONTINUOUS
 62
               3
  5
260
 10
140.27675940222639
 20
-322.10047661875177
 30
0.0
 40
1.9999999999999998
 50
269.99999999999693
 51
357.99999999999915
  0
ARC
  8
0
  6
CONTINUOUS
 62
               3
  5
261
 10
126.1395145014542
 20
-322.10047661875149
 30
0.0
 40
1.9999999999999998
 50
182.00000000000014
 51
269.99999999999739
  0
LINE
  8
0
  6
CONTINUOUS
 62
               3
  5
262
 10
132.13951450145476
 20
-100.60047661875153
 30
0.0
 11
140.27675940222679
 21
-100.60047661875232
 31
0.0
  0
ARC
  8
0
  6
CONTINUOUS
 62
               3
  5
263
 10
106.20813695184054
 20
-123.60047661875198
 30
0.0
 40
9.0
 50
89.99999999999973
 51
161.24924640066692
  0
LINE
  8
0
  6
CONTINUOUS
 62
               3
  5
264
 10
106.20813695184069
 20
-295.600476618752
 30
0.0
 11
118.38445114728998
 21
-295.60047661875171
 31
0.0
  0
ARC
  8
0
  6
CONTINUOUS
 62
               3
  5
265
 10
106.20813695184054
 20
-286.60047661875188
 30
0.0
 40
9.0
 50
207.66097941985353
 51
269.99999999999949
  0
LINE
  8
0
  6
CONTINUOUS
 62
               3
  5
266
 10
124.14073284741603
 20
-322.17027561215656
 30
0.0
 11
123.38140528238512
 21
-300.42597913523917
 31
0.0
  0
ARC
  8
0
  6
CONTINUOUS
 62
               3
  5
267
 10
118.3844511472897
 20
-300.60047661875171
 30
0.0
 40
4.9999999999999991
 50
1.9999999999999301
 51
89.999999999997101
  0
LINE
  8
0
  6
CONTINUOUS
 62
               3
  5
268
 10
130.14073284741642
 20
-102.53067762534663
 30
0.0
 11
129.88775644001691
 21
-109.77497410226412
 31
0.0
  0
ARC
  8
0
  6
CONTINUOUS
 62
               3
  5
269
 10
124.89080230492148
 20
-109.60047661875187
 30
0.0
 40
4.9999999999999991
 50
269.99999999999932
 51
358.00000000000136
  0
ARC
  8
0
  6
CONTINUOUS
 62
               3
  5
26A
 10
132.13951450145458
 20
-102.60047661875164
 30
0.0
 40
1.9999999999999998
 50
89.999999999998153
 51
177.99999999999955
  0
ARC
  8
0
  6
CONTINUOUS
 62
               3
  5
26B
 10
140.27675940222679
 20
-102.60047661875232
 30
0.0
 40
1.9999999999999998
 50
357.99999999974705
 51
449.99999999999602
  0
LINE
  8
0
  6
CONTINUOUS
 62
               3
  5
26C
 10
124.14073284741603
 20
-129.46849788705316
 30
0.0
 11
124.14073284741603
 21
-322.17027561215656
 31
0.0
  0
LINE
  8
0
  6
CONTINUOUS
 62
               3
  5
26D
 10
142.27554105626467
 20
-322.17027561215667
 30
0.0
 11
142.27554105626467
 21
-102.67027561216612
 31
0.0
  0
LINE
  8
0
  6
CONTINUOUS
 62
               3
  5
26E
 10
155.27554105626507
 20
-113.60047661875198
 30
0.0
 11
151.27554105626487
 21
-113.60047661875221
 31
0.0
  0
LINE
  8
0
  6
CONTINUOUS
 62
               3
  5
26F
 10
146.27554105626487
 20
-113.60047661875221
 30
0.0
 11
142.27554105626513
 21
-113.60047661875221
 31
0.0
  0
LINE
  8
0
  6
CONTINUOUS
 62
               3
  5
270
 10
155.27554105626461
 20
-296.60047661875251
 30
0.0
 11
151.27554105626413
 21
-296.60047661875251
 31
0.0
  0
LINE
  8
0
  6
CONTINUOUS
 62
               3
  5
271
 10
146.27554105626413
 20
-296.60047661875251
 30
0.0
 11
142.27554105626467
 21
-296.60047661875251
 31
0.0
  0
LINE
  8
0
  6
CONTINUOUS
 62
               3
  5
272
 10
146.27554105626487
 20
-109.60047661875221
 30
0.0
 11
146.27554105626442
 21
-146.53214328541929
 31
0.0
  0
LINE
  8
0
  6
CONTINUOUS
 62
               3
  5
273
 10
146.27554105626442
 20
-158.53214328541964
 30
0.0
 11
146.27554105626442
 21
-300.60047661875245
 31
0.0
  0
LINE
  8
0
  6
CONTINUOUS
 62
               3
  5
274
 10
151.27554105626487
 20
-109.60047661875221
 30
0.0
 11
151.27554105626442
 21
-146.53214328541929
 31
0.0
  0
LINE
  8
0
  6
CONTINUOUS
 62
               3
  5
275
 10
151.27554105626442
 20
-158.53214328541964
 30
0.0
 11
151.27554105626442
 21
-300.60047661875245
 31
0.0
  0
LINE
  8
0
  6
CONTINUOUS
 62
               3
  5
276
 10
151.27554105626487
 20
-109.60047661875221
 30
0.0
 11
146.27554105626487
 21
-109.60047661875221
 31
0.0
  0
LINE
  8
0
  6
CONTINUOUS
 62
               3
  5
277
 10
151.27554105626442
 20
-300.60047661875245
 30
0.0
 11
146.27554105626442
 21
-300.60047661875245
 31
0.0
  0
LINE
  8
0
  6
CONTINUOUS
 62
               3
  5
278
 10
167.17320368213421
 20
-100.60047661875244
 30
0.0
 11
155.27554105626507
 21
-100.6004766187521
 31
0.0
  0
LINE
  8
0
  6
CONTINUOUS
 62
               3
  5
279
 10
172.27554105626479
 20
-324.10047661875268
 30
0.0
 11
155.27554105626461
 21
-324.10047661875234
 31
0.0
  0
LINE
  8
0
  6
CONTINUOUS
 62
               3
  5
27A
 10
155.27554105626507
 20
-100.6004766187521
 30
0.0
 11
155.27554105626461
 21
-324.10047661875234
 31
0.0
  0
LINE
  8
0
  6
CONTINUOUS
 62
               3
  5
27B
 10
174.27554105626467
 20
-322.10047661875279
 30
0.0
 11
174.27554105626513
 21
-110.67917746112634
 31
0.0
  0
ARC
  8
0
  6
CONTINUOUS
 62
               3
  5
27C
 10
172.27554105626479
 20
-322.10047661875279
 30
0.0
 40
1.9999999999999996
 50
269.99999999999932
 51
359.9999999999992
  0
LINE
  8
0
  6
CONTINUOUS
 62
               3
  5
27D
 10
168.86418148819644
 20
-101.5324906359762
 30
0.0
 11
173.96651886232718
 21
-109.61119147835034
 31
0.0
  0
ARC
  8
0
  6
CONTINUOUS
 62
               3
  5
27E
 10
172.27554105626524
 20
-110.67917746112634
 30
0.0
 40
1.9999999999999996
 50
0.0
 51
32.275644314577384
  0
ARC
  8
0
  6
CONTINUOUS
 62
               3
  5
27F
 10
167.17320368213421
 20
-102.60047661875232
 30
0.0
 40
1.9999999999999996
 50
32.275644314577548
 51
89.999999999999787
  0
LINE
  8
0
  6
CONTINUOUS
 62
               3
  5
280
 10
98.236746994025594
 20
-290.77862718334956
 30
0.0
 11
97.685803837552641
 21
-120.70740933831898
 31
0.0
  0
LINE
  8
0
  6
CONTINUOUS
 62
               3
  5
281
 10
124.14073284741598
 20
-158.59880995208476
 30
0.0
 11
124.14073284741598
 21
-146.59880995208476
 31
0.0
  0
LINE
  8
0
  6
CONTINUOUS
 62
               3
  5
282
 10
123.43993822430389
 20
-316.10214328541838
 30
0.0
 11
123.43993822430389
 21
-304.10214328541849
 31
0.0
  0
LINE
  8
0
  6
CONTINUOUS
 62
               3
  5
283
 10
123.43993822430389
 20
-316.03547661875336
 30
0.0
 11
123.92650094588913
 21
-316.03547661875336
 31
0.0
  0
ARC
  8
0
  6
CONTINUOUS
 62
               3
  5
284
 10
-604.30981939141589
 20
-205.10047661875097
 30
0.0
 40
104.5
 50
300.46887311825162
 51
353.62080389927928
  0
LINE
  8
0
  6
CONTINUOUS
 62
               3
  5
285
 10
-611.40880210413991
 20
-322.16714328541764
 30
0.0
 11
-657.29865463996362
 21
-295.16952423779861
 31
0.0
  0
LINE
  8
0
  6
CONTINUOUS
 62
               3
  5
286
 10
-597.21083667869175
 20
-322.16714328541775
 30
0.0
 11
-551.32098414286816
 21
-295.16952423779861
 31
0.0
  0
ARC
  8
0
  6
CONTINUOUS
 62
               3
  5
287
 10
-604.30981939141589
 20
-205.10047661875097
 30
0.0
 40
104.5
 50
186.3791961007195
 51
239.53112688174707
  0
LINE
  8
0
  6
CONTINUOUS
 62
               3
  5
288
 10
-582.80981939141611
 20
-265.10047661875097
 30
0.0
 11
-625.80981939141611
 21
-265.10047661875097
 31
0.0
  0
LINE
  8
0
  6
CONTINUOUS
 62
               3
  5
289
 10
-620.30981939141611
 20
-295.10047661875097
 30
0.0
 11
-588.30981939141611
 21
-295.10047661875097
 31
0.0
  0
LINE
  8
0
  6
CONTINUOUS
 62
               3
  5
28A
 10
-621.30981939141634
 20
-265.10047661875097
 30
0.0
 11
-620.30981939141611
 21
-295.10047661875097
 31
0.0
  0
LINE
  8
0
  6
CONTINUOUS
 62
               3
  5
28B
 10
-588.30981939141611
 20
-295.10047661875097
 30
0.0
 11
-587.30981939141623
 21
-265.10047661875097
 31
0.0
  0
LINE
  8
0
  6
CONTINUOUS
 62
               3
  5
28C
 10
-609.30981939141611
 20
-265.10047661875097
 30
0.0
 11
-608.30981939141611
 21
-295.10047661875097
 31
0.0
  0
LINE
  8
0
  6
CONTINUOUS
 62
               3
  5
28D
 10
-600.30981939141611
 20
-295.10047661875097
 30
0.0
 11
-599.30981939141611
 21
-265.10047661875097
 31
0.0
  0
LINE
  8
0
  6
CONTINUOUS
 62
               3
  5
28E
 10
-625.80981939141611
 20
-265.10047661875097
 30
0.0
 11
-630.2140547239477
 21
-214.75983641424563
 31
0.0
  0
LINE
  8
0
  6
CONTINUOUS
 62
               3
  5
28F
 10
-582.80981939141577
 20
-265.10047661875097
 30
0.0
 11
-578.40558405888396
 21
-214.75983641424563
 31
0.0
  0
ARC
  8
0
  6
CONTINUOUS
 62
               3
  5
290
 10
-604.30981939141589
 20
-310.10047661875097
 30
0.0
 40
14.0
 50
239.53112688174716
 51
300.46887311825162
  0
ARC
  8
0
  6
CONTINUOUS
 62
               3
  5
291
 10
-686.30379588042979
 20
-111.46437939384673
 30
0.0
 40
1.0
 50
91.999999999998479
 51
179.9999999999996
  0
ARC
  8
0
  6
CONTINUOUS
 62
               3
  5
292
 10
-522.31584451045831
 20
-111.46437939384673
 30
0.0
 40
1.0
 50
0.0
 51
88.0000000000027
  0
ARC
  8
0
  6
CONTINUOUS
 62
               3
  5
293
 10
-675.80982019544399
 20
-77.100477124941264
 30
0.0
 40
5.0
 50
0.0
 51
89.999999999999801
  0
ARC
  8
0
  6
CONTINUOUS
 62
               3
  5
294
 10
-675.80982019544399
 20
-105.09426442210649
 30
0.0
 40
5.0
 50
271.99999999999977
 51
359.9999999999992
  0
ARC
  8
0
  6
CONTINUOUS
 62
               3
  5
295
 10
-532.80982019544399
 20
-105.09426442210649
 30
0.0
 40
5.0
 50
179.9999999999996
 51
267.99999999999903
  0
ARC
  8
0
  6
CONTINUOUS
 62
               3
  5
296
 10
-604.30981939141589
 20
-205.10047661875097
 30
0.0
 40
83.499999999999943
 50
193.08731461224639
 51
258.76401091716201
  0
ARC
  8
0
  6
CONTINUOUS
 62
               3
  5
297
 10
-532.80981858738778
 20
-77.100477124941264
 30
0.0
 40
5.0
 50
89.999999999999801
 51
179.9999999999996
  0
ARC
  8
0
  6
CONTINUOUS
 62
               3
  5
298
 10
690.09320649934011
 20
-205.10047661875279
 30
0.0
 40
104.5
 50
300.46887311825162
 51
359.9999999999992
  0
CIRCLE
  8
0
  6
CONTINUOUS
 62
               3
  5
299
 10
690.09320649934011
 20
-205.10047661875279
 30
0.0
 40
84.5
  0
CIRCLE
  8
0
  6
CONTINUOUS
 62
               3
  5
29A
 10
690.09320649934011
 20
-205.10047661875279
 30
0.0
 40
77.499999999999986
  0
ARC
  8
0
  6
CONTINUOUS
 62
               3
  5
29B
 10
690.09320649934011
 20
-310.10047661875279
 30
0.0
 40
14.0
 50
239.53112688174707
 51
300.46887311825162
  0
LINE
  8
0
  6
CONTINUOUS
 62
               3
  5
29C
 10
682.99422378661586
 20
-322.16714328541929
 30
0.0
 11
637.10437125079238
 21
-295.16952423780043
 31
0.0
  0
LINE
  8
0
  6
CONTINUOUS
 62
               3
  5
29D
 10
697.19218921206425
 20
-322.16714328541929
 30
0.0
 11
743.08204174788773
 21
-295.16952423780043
 31
0.0
  0
ARC
  8
0
  6
CONTINUOUS
 62
               3
  5
29E
 10
781.025873896706
 20
-152.60047661875279
 30
0.0
 40
14.0
 50
359.53112688174679
 51
420.46887311825134
  0
LINE
  8
0
  6
CONTINUOUS
 62
               3
  5
29F
 10
795.0254051254002
 20
-152.71504265566494
 30
0.0
 11
794.58970745637941
 21
-205.95563025141945
 31
0.0
  0
LINE
  8
0
  6
CONTINUOUS
 62
               3
  5
2A0
 10
787.92642241267629
 20
-140.41924391517392
 30
0.0
 11
741.60087220783169
 21
-114.17627536703837
 31
0.0
  0
ARC
  8
0
  6
CONTINUOUS
 62
               3
  5
2A1
 10
599.16053910197411
 20
-152.60047661875268
 30
0.0
 40
14.0
 50
119.53112688174727
 51
180.46887311825185
  0
LINE
  8
0
  6
CONTINUOUS
 62
               3
  5
2A2
 10
592.25999058600394
 20
-140.41924391517358
 30
0.0
 11
638.58554079084843
 21
-114.17627536703826
 31
0.0
  0
LINE
  8
0
  6
CONTINUOUS
 62
               3
  5
2A3
 10
585.16100787327991
 20
-152.71504265566494
 30
0.0
 11
585.5967055423007
 21
-205.95563025141945
 31
0.0
  0
ARC
  8
0
  6
CONTINUOUS
 62
               3
  5
2A4
 10
690.09320649934011
 20
-205.10047661875279
 30
0.0
 40
104.5
 50
180.46887311825188
 51
239.53112688174707
  0
ARC
  8
0
  6
CONTINUOUS
 62
               3
  5
2A5
 10
690.09320649934011
 20
-205.10047661875279
 30
0.0
 40
104.5
 50
60.468873118252176
 51
119.53112688174731
  0
ARC
  8
0
  6
CONTINUOUS
 62
               3
  5
2A6
 10
608.09923001032621
 20
-111.46437939384855
 30
0.0
 40
1.0
 50
91.999999999998479
 51
179.9999999999996
  0
ARC
  8
0
  6
CONTINUOUS
 62
               3
  5
2A7
 10
772.08718138029781
 20
-111.46437939384866
 30
0.0
 40
1.0
 50
0.0
 51
88.0000000000027
  0
ARC
  8
0
  6
CONTINUOUS
 62
               3
  5
2A8
 10
618.59320569531201
 20
-77.100477124943083
 30
0.0
 40
5.0
 50
0.0
 51
89.999999999999801
  0
ARC
  8
0
  6
CONTINUOUS
 62
               3
  5
2A9
 10
618.59320569531201
 20
-105.09426442210831
 30
0.0
 40
5.0
 50
271.99999999999977
 51
359.9999999999992
  0
ARC
  8
0
  6
CONTINUOUS
 62
               3
  5
2AA
 10
761.59320569531201
 20
-105.09426442210831
 30
0.0
 40
5.0
 50
179.9999999999996
 51
267.99999999999903
  0
ARC
  8
0
  6
CONTINUOUS
 62
               3
  5
2AB
 10
761.59320730336822
 20
-77.100477124943083
 30
0.0
 40
5.0
 50
89.999999999999801
 51
179.9999999999996
  0
LINE
  8
0
  6
CONTINUOUS
 62
               3
  5
2AC
 10
-6.1318362034911473
 20
376.39952338124743
 30
0.0
 11
93.018578434038631
 21
376.39952338124743
 31
0.0
  0
LINE
  8
0
  6
CONTINUOUS
 62
               3
  5
2AD
 10
-6.1318362034911473
 20
214.39952338124755
 30
0.0
 11
93.018578434038631
 21
214.39952338124755
 31
0.0
  0
LINE
  8
0
  6
CONTINUOUS
 62
               3
  5
2AE
 10
142.27554105626467
 20
398.46932237465188
 30
0.0
 11
142.27554105626467
 21
192.32972438784287
 31
0.0
  0
ARC
  8
0
  6
CONTINUOUS
 62
               3
  5
2AF
 10
93.018578434038631
 20
381.39985026192102
 30
0.0
 40
4.9999999999999991
 50
269.85422881554967
 51
341.24924640066655
  0
LINE
  8
0
  6
CONTINUOUS
 62
               3
  5
2B0
 10
106.27554105626442
 20
385.89952338124743
 30
0.0
 11
118.77554105626442
 21
385.89952338124698
 31
0.0
  0
ARC
  8
0
  6
CONTINUOUS
 62
               3
  5
2B1
 10
106.27554105626442
 20
376.89952338124743
 30
0.0
 40
9.0
 50
89.99999999999973
 51
161.24924640066692
  0
LINE
  8
0
  6
CONTINUOUS
 62
               3
  5
2B2
 10
126.20691860587893
 20
400.39952338124812
 30
0.0
 11
140.34416350665055
 21
400.39952338124698
 31
0.0
  0
ARC
  8
0
  6
CONTINUOUS
 62
               3
  5
2B3
 10
126.20691860587893
 20
398.39952338124834
 30
0.0
 40
1.9999999999999998
 50
89.99999999999838
 51
177.99999999999963
  0
ARC
  8
0
  6
CONTINUOUS
 62
               3
  5
2B4
 10
140.34416350665055
 20
398.39952338124721
 30
0.0
 40
1.9999999999999998
 50
2.0000000000000444
 51
89.999999999999787
  0
LINE
  8
0
  6
CONTINUOUS
 62
               3
  5
2B5
 10
124.27554105626452
 20
398.46932237465347
 30
0.0
 11
124.27554105626452
 21
343.93689844805607
 31
0.0
  0
LINE
  8
0
  6
CONTINUOUS
 62
               3
  5
2B6
 10
124.27554105626452
 20
249.7464788460133
 30
0.0
 11
124.27554105626452
 21
192.32972438784174
 31
0.0
  0
ARC
  8
0
  6
CONTINUOUS
 62
               3
  5
2B7
 10
93.018578434038631
 20
209.39919650057408
 30
0.0
 40
4.9999999999999991
 50
18.750753599332658
 51
90.145771184449529
  0
ARC
  8
0
  6
CONTINUOUS
 62
               3
  5
2B8
 10
106.27554105626442
 20
213.89952338124755
 30
0.0
 40
9.0
 50
198.75075359933226
 51
269.99999999999949
  0
LINE
  8
0
  6
CONTINUOUS
 62
               3
  5
2B9
 10
126.20691860587893
 20
190.39952338124675
 30
0.0
 11
140.34416350665055
 21
190.39952338124789
 31
0.0
  0
ARC
  8
0
  6
CONTINUOUS
 62
               3
  5
2BA
 10
126.20691860587893
 20
192.39952338124664
 30
0.0
 40
1.9999999999999998
 50
181.99999999999957
 51
270.0000000000008
  0
ARC
  8
0
  6
CONTINUOUS
 62
               3
  5
2BB
 10
140.34416350665055
 20
192.39952338124777
 30
0.0
 40
1.9999999999999998
 50
269.99999999999943
 51
357.99999999999915
  0
LINE
  8
0
  6
CONTINUOUS
 62
               3
  5
2BC
 10
130.2755410562645
 20
371.50482613645903
 30
0.0
 11
130.2755410562645
 21
219.88122385024354
 31
0.0
  0
LINE
  8
0
  6
CONTINUOUS
 62
               3
  5
2BD
 10
146.27554105626479
 20
380.46452338124612
 30
0.0
 11
146.2755410562645
 21
210.46452338124658
 31
0.0
  0
LINE
  8
0
  6
CONTINUOUS
 62
               3
  5
2BE
 10
151.27554105626479
 20
380.46452338124612
 30
0.0
 11
151.2755410562645
 21
210.46452338124658
 31
0.0
  0
LINE
  8
0
  6
CONTINUOUS
 62
               3
  5
2BF
 10
172.27554105626479
 20
400.1495233812463
 30
0.0
 11
155.2755410562649
 21
400.14952338124721
 31
0.0
  0
LINE
  8
0
  6
CONTINUOUS
 62
               3
  5
2C0
 10
172.27554105626479
 20
190.14952338124777
 30
0.0
 11
155.27554105626461
 21
190.149523381248
 31
0.0
  0
LINE
  8
0
  6
CONTINUOUS
 62
               3
  5
2C1
 10
155.2755410562649
 20
400.14952338124721
 30
0.0
 11
155.27554105626461
 21
190.149523381248
 31
0.0
  0
LINE
  8
0
  6
CONTINUOUS
 62
               3
  5
2C2
 10
174.27554105626467
 20
192.14952338124777
 30
0.0
 11
174.27554105626467
 21
398.14952338124652
 31
0.0
  0
ARC
  8
0
  6
CONTINUOUS
 62
               3
  5
2C3
 10
172.27554105626479
 20
398.14952338124652
 30
0.0
 40
1.9999999999999998
 50
0.0
 51
89.999999999998408
  0
ARC
  8
0
  6
CONTINUOUS
 62
               3
  5
2C4
 10
172.27554105626479
 20
192.14952338124777
 30
0.0
 40
1.9999999999999996
 50
269.99999999999932
 51
359.9999999999992
  0
LINE
  8
0
  6
CONTINUOUS
 62
               3
  5
2C5
 10
124.27554105626423
 20
373.96452338124544
 30
0.0
 11
124.27554105626423
 21
393.96452338124612
 31
0.0
  0
LINE
  8
0
  6
CONTINUOUS
 62
               3
  5
2C6
 10
97.753207941976513
 20
379.79259066168032
 30
0.0
 11
97.753207941976513
 21
211.00645610081455
 31
0.0
  0
LINE
  8
0
  6
CONTINUOUS
 62
               3
  5
2C7
 10
120.27554105626447
 20
216.14963731147083
 30
0.0
 11
120.27554105626447
 21
212.15242663885061
 31
0.0
  0
LINE
  8
0
  6
CONTINUOUS
 62
               3
  5
2C8
 10
120.27554105626447
 20
219.1524266388505
 30
0.0
 11
120.27554105626447
 21
216.15242663885073
 31
0.0
  0
LINE
  8
0
  6
CONTINUOUS
 62
               3
  5
2C9
 10
120.27554105626447
 20
218.14963731147083
 30
0.0
 11
120.27554105626447
 21
220.87053113646431
 31
0.0
  0
LINE
  8
0
  6
CONTINUOUS
 62
               3
  5
2CA
 10
106.27554105626442
 20
204.89952338124766
 30
0.0
 11
118.77554105626453
 21
204.89952338124789
 31
0.0
  0
ARC
  8
0
  6
CONTINUOUS
 62
               3
  5
2CB
 10
10.275541056264615
 20
-113.600476618752
 30
0.0
 40
172.49999999999852
 50
180.00000000000003
 51
269.99999999999932
  0
LINE
  8
0
  6
CONTINUOUS
 62
               3
  5
2CC
 10
-160.22445894373533
 20
-77.600476618751983
 30
0.0
 11
-160.22445894373533
 21
-105.6004766187521
 31
0.0
  0
LINE
  8
0
  6
CONTINUOUS
 62
               3
  5
2CD
 10
-162.22445894373396
 20
-113.60047661875332
 30
0.0
 11
-162.22445894373396
 21
-107.60047661875073
 31
0.0
  0
LINE
  8
0
  6
CONTINUOUS
 62
               3
  5
2CE
 10
-162.22445894373521
 20
-107.60047661875194
 30
0.0
 11
-160.22445894373533
 21
-105.60047661875205
 31
0.0
  0
ARC
  8
0
  6
CONTINUOUS
 62
               3
  5
2CF
 10
92.951174329613991
 20
-291.10080349942609
 30
0.0
 40
4.9999999999999991
 50
18.750753599332054
 51
90.145771184448932
  0
ARC
  8
0
  6
CONTINUOUS
 62
               3
  5
2D0
 10
-532.30981939141589
 20
-69.100477124941264
 30
0.0
 40
3.0
 50
269.99999999999937
 51
359.9999999999992
  0
ARC
  8
0
  6
CONTINUOUS
 62
               3
  5
2D1
 10
-676.30981939141589
 20
-69.100477124941264
 30
0.0
 40
3.0
 50
179.9999999999996
 51
269.99999999999937
  0
ARC
  8
0
  6
CONTINUOUS
 62
               3
  5
2D2
 10
618.09320649934011
 20
-69.100477124943083
 30
0.0
 40
3.0
 50
179.9999999999996
 51
269.99999999999937
  0
ARC
  8
0
  6
CONTINUOUS
 62
               3
  5
2D3
 10
762.09320649934011
 20
-69.100477124943083
 30
0.0
 40
3.0
 50
269.99999999999937
 51
359.9999999999992
  0
LINE
  8
0
  6
CONTINUOUS
 62
               3
  5
2D4
 10
-6.1318362034911473
 20
217.72852507595979
 30
0.0
 11
-6.1330727234107343
 21
217.77479965791707
 31
0.0
  0
LINE
  8
0
  6
CONTINUOUS
 62
               3
  5
2D5
 10
-6.1330727234107343
 20
217.77479965791707
 30
0.0
 11
-6.1344050332061641
 21
217.82106738849137
 31
0.0
  0
LINE
  8
0
  6
CONTINUOUS
 62
               3
  5
2D6
 10
-6.1344050332061641
 20
217.82106738849137
 30
0.0
 11
-6.1359289227533367
 21
217.8673214163004
 31
0.0
  0
LINE
  8
0
  6
CONTINUOUS
 62
               3
  5
2D7
 10
-6.1359289227533367
 20
217.8673214163004
 30
0.0
 11
-6.1377401819281516
 21
217.91355488996118
 31
0.0
  0
LINE
  8
0
  6
CONTINUOUS
 62
               3
  5
2D8
 10
-6.1377401819281516
 20
217.91355488996118
 30
0.0
 11
-6.1399346006065088
 21
217.95976095809141
 31
0.0
  0
LINE
  8
0
  6
CONTINUOUS
 62
               3
  5
2D9
 10
-6.1399346006065088
 20
217.95976095809141
 30
0.0
 11
-6.142607968664251
 21
218.00593276930812
 31
0.0
  0
LINE
  8
0
  6
CONTINUOUS
 62
               3
  5
2DA
 10
-6.142607968664251
 20
218.00593276930812
 30
0.0
 11
-6.1458560759772212
 21
218.05206347222855
 31
0.0
  0
LINE
  8
0
  6
CONTINUOUS
 62
               3
  5
2DB
 10
-6.1458560759772212
 20
218.05206347222855
 30
0.0
 11
-6.1497564113603147
 21
218.09814677991989
 31
0.0
  0
LINE
  8
0
  6
CONTINUOUS
 62
               3
  5
2DC
 10
-6.1497564113603147
 20
218.09814677991989
 30
0.0
 11
-6.1542988374401233
 21
218.14417910805508
 31
0.0
  0
LINE
  8
0
  6
CONTINUOUS
 62
               3
  5
2DD
 10
-6.1542988374401233
 20
218.14417910805508
 30
0.0
 11
-6.1594470215581367
 21
218.19015768023445
 31
0.0
  0
LINE
  8
0
  6
CONTINUOUS
 62
               3
  5
2DE
 10
-6.1594470215581367
 20
218.19015768023445
 30
0.0
 11
-6.1651646263424453
 21
218.23607972020312
 31
0.0
  0
LINE
  8
0
  6
CONTINUOUS
 62
               3
  5
2DF
 10
-6.1651646263424453
 20
218.23607972020312
 30
0.0
 11
-6.1714153144210258
 21
218.2819424517067
 31
0.0
  0
LINE
  8
0
  6
CONTINUOUS
 62
               3
  5
2E0
 10
-6.1714153144210258
 20
218.2819424517067
 30
0.0
 11
-6.1781627484219115
 21
218.32774309849077
 31
0.0
  0
LINE
  8
0
  6
CONTINUOUS
 62
               3
  5
2E1
 10
-6.1781627484219115
 20
218.32774309849077
 30
0.0
 11
-6.1853705909730792
 21
218.37347888430048
 31
0.0
  0
LINE
  8
0
  6
CONTINUOUS
 62
               3
  5
2E2
 10
-6.1853705909730792
 20
218.37347888430048
 30
0.0
 11
-6.1930025047025055
 21
218.4191470328812
 31
0.0
  0
LINE
  8
0
  6
CONTINUOUS
 62
               3
  5
2E3
 10
-6.1930025047025055
 20
218.4191470328812
 30
0.0
 11
-6.2010252837805382
 21
218.46474450691579
 31
0.0
  0
LINE
  8
0
  6
CONTINUOUS
 62
               3
  5
2E4
 10
-6.2010252837805382
 20
218.46474450691579
 30
0.0
 11
-6.2094357083959011
 21
218.51026576928592
 31
0.0
  0
LINE
  8
0
  6
CONTINUOUS
 62
               3
  5
2E5
 10
-6.2094357083959011
 20
218.51026576928592
 30
0.0
 11
-6.2182472373553281
 21
218.55570389245048
 31
0.0
  0
LINE
  8
0
  6
CONTINUOUS
 62
               3
  5
2E6
 10
-6.2182472373553281
 20
218.55570389245048
 30
0.0
 11
-6.2274735089125528
 21
218.60105193390945
 31
0.0
  0
LINE
  8
0
  6
CONTINUOUS
 62
               3
  5
2E7
 10
-6.2274735089125528
 20
218.60105193390945
 30
0.0
 11
-6.2371281613212517
 21
218.64630295116211
 31
0.0
  0
LINE
  8
0
  6
CONTINUOUS
 62
               3
  5
2E8
 10
-6.2371281613212517
 20
218.64630295116211
 30
0.0
 11
-6.2472248328352151
 21
218.69145000170823
 31
0.0
  0
LINE
  8
0
  6
CONTINUOUS
 62
               3
  5
2E9
 10
-6.2472248328352151
 20
218.69145000170823
 30
0.0
 11
-6.2577771617081197
 21
218.73648614304733
 31
0.0
  0
LINE
  8
0
  6
CONTINUOUS
 62
               3
  5
2EA
 10
-6.2577771617081197
 20
218.73648614304733
 30
0.0
 11
-6.2687987849992481
 21
218.78140443304841
 31
0.0
  0
LINE
  8
0
  6
CONTINUOUS
 62
               3
  5
2EB
 10
-6.2687987849992481
 20
218.78140443304841
 30
0.0
 11
-6.2802905211620299
 21
218.82620189311518
 31
0.0
  0
LINE
  8
0
  6
CONTINUOUS
 62
               3
  5
2EC
 10
-6.2802905211620299
 20
218.82620189311518
 30
0.0
 11
-6.2922087064032297
 21
218.87088929863688
 31
0.0
  0
LINE
  8
0
  6
CONTINUOUS
 62
               3
  5
2ED
 10
-6.2922087064032297
 20
218.87088929863688
 30
0.0
 11
-6.3045000345879174
 21
218.9154804064321
 31
0.0
  0
LINE
  8
0
  6
CONTINUOUS
 62
               3
  5
2EE
 10
-6.3045000345879174
 20
218.9154804064321
 30
0.0
 11
-6.3171111995813902
 21
218.95998897331873
 31
0.0
  0
LINE
  8
0
  6
CONTINUOUS
 62
               3
  5
2EF
 10
-6.3171111995813902
 20
218.95998897331873
 30
0.0
 11
-6.3299888952488317
 21
219.00442875611515
 31
0.0
  0
LINE
  8
0
  6
CONTINUOUS
 62
               3
  5
2F0
 10
-6.3299888952488317
 20
219.00442875611515
 30
0.0
 11
-6.3430798154554253
 21
219.04881351163903
 31
0.0
  0
LINE
  8
0
  6
CONTINUOUS
 62
               3
  5
2F1
 10
-6.3430798154554253
 20
219.04881351163903
 30
0.0
 11
-6.3563306540664115
 21
219.0931569967085
 31
0.0
  0
LINE
  8
0
  6
CONTINUOUS
 62
               3
  5
2F2
 10
-6.3563306540664115
 20
219.0931569967085
 30
0.0
 11
-6.3696881049469738
 21
219.13747296814194
 31
0.0
  0
LINE
  8
0
  6
CONTINUOUS
 62
               3
  5
2F3
 10
-6.3696881049469738
 20
219.13747296814194
 30
0.0
 11
-6.3830988619623525
 21
219.18177518275724
 31
0.0
  0
LINE
  8
0
  6
CONTINUOUS
 62
               3
  5
2F4
 10
-6.3830988619623525
 20
219.18177518275724
 30
0.0
 11
-6.5064419196988723
 21
219.59691353425995
 31
0.0
  0
LINE
  8
0
  6
CONTINUOUS
 62
               3
  5
2F5
 10
-6.5064419196988723
 20
219.59691353425995
 30
0.0
 11
-6.6292041293831829
 21
220.01220633671932
 31
0.0
  0
LINE
  8
0
  6
CONTINUOUS
 62
               3
  5
2F6
 10
-6.6292041293831829
 20
220.01220633671932
 30
0.0
 11
-6.7508046429629616
 21
220.42780804109242
 31
0.0
  0
LINE
  8
0
  6
CONTINUOUS
 62
               3
  5
2F7
 10
-6.7508046429629616
 20
220.42780804109242
 30
0.0
 11
-6.8706626123859422
 21
220.84387309833613
 31
0.0
  0
LINE
  8
0
  6
CONTINUOUS
 62
               3
  5
2F8
 10
-6.8706626123859422
 20
220.84387309833613
 30
0.0
 11
-6.9881971895999726
 21
221.2605559594071
 31
0.0
  0
LINE
  8
0
  6
CONTINUOUS
 62
               3
  5
2F9
 10
-6.9881971895999726
 20
221.2605559594071
 30
0.0
 11
-7.102827526552673
 21
221.67801107526219
 31
0.0
  0
LINE
  8
0
  6
CONTINUOUS
 62
               3
  5
2FA
 10
-7.102827526552673
 20
221.67801107526219
 30
0.0
 11
-7.213974672235949
 21
222.09639236645893
 31
0.0
  0
LINE
  8
0
  6
CONTINUOUS
 62
               3
  5
2FB
 10
-7.213974672235949
 20
222.09639236645893
 30
0.0
 11
-7.3213439727966119
 21
222.51577426616649
 31
0.0
  0
LINE
  8
0
  6
CONTINUOUS
 62
               3
  5
2FC
 10
-7.3213439727966119
 20
222.51577426616649
 30
0.0
 11
-7.4252251380698198
 21
222.936067823776
 31
0.0
  0
LINE
  8
0
  6
CONTINUOUS
 62
               3
  5
2FD
 10
-7.4252251380698198
 20
222.936067823776
 30
0.0
 11
-7.5259797435968352
 21
223.3571639955573
 31
0.0
  0
LINE
  8
0
  6
CONTINUOUS
 62
               3
  5
2FE
 10
-7.5259797435968352
 20
223.3571639955573
 30
0.0
 11
-7.6239693649188069
 21
223.77895373778023
 31
0.0
  0
LINE
  8
0
  6
CONTINUOUS
 62
               3
  5
2FF
 10
-7.6239693649188069
 20
223.77895373778023
 30
0.0
 11
-7.719555577576827
 21
224.20132800671439
 31
0.0
  0
LINE
  8
0
  6
CONTINUOUS
 62
               3
  5
300
 10
-7.719555577576827
 20
224.20132800671439
 30
0.0
 11
-7.8130999571119872
 21
224.62417775862963
 31
0.0
  0
LINE
  8
0
  6
CONTINUOUS
 62
               3
  5
301
 10
-7.8130999571119872
 20
224.62417775862963
 30
0.0
 11
-7.9049640790654934
 21
225.047393949796
 31
0.0
  0
LINE
  8
0
  6
CONTINUOUS
 62
               3
  5
302
 10
-7.9049640790654934
 20
225.047393949796
 30
0.0
 11
-7.9954724722321515
 21
225.47087889065727
 31
0.0
  0
LINE
  8
0
  6
CONTINUOUS
 62
               3
  5
303
 10
-7.9954724722321515
 20
225.47087889065727
 30
0.0
 11
-8.084724989807782
 21
225.89460375076413
 31
0.0
  0
LINE
  8
0
  6
CONTINUOUS
 62
               3
  5
304
 10
-8.084724989807782
 20
225.89460375076413
 30
0.0
 11
-8.1727372356829022
 21
226.31856552059338
 31
0.0
  0
LINE
  8
0
  6
CONTINUOUS
 62
               3
  5
305
 10
-8.1727372356829022
 20
226.31856552059338
 30
0.0
 11
-8.259524664641944
 21
226.74276123631961
 31
0.0
  0
LINE
  8
0
  6
CONTINUOUS
 62
               3
  5
306
 10
-8.259524664641944
 20
226.74276123631961
 30
0.0
 11
-8.345102731469396
 21
227.16718793411809
 31
0.0
  0
LINE
  8
0
  6
CONTINUOUS
 62
               3
  5
307
 10
-8.345102731469396
 20
227.16718793411809
 30
0.0
 11
-8.4294868909497467
 21
227.59184265016364
 31
0.0
  0
LINE
  8
0
  6
CONTINUOUS
 62
               3
  5
308
 10
-8.4294868909497467
 20
227.59184265016364
 30
0.0
 11
-8.5126925978673142
 21
228.01672242063086
 31
0.0
  0
LINE
  8
0
  6
CONTINUOUS
 62
               3
  5
309
 10
-46.383098861961955
 20
219.18177518275633
 30
0.0
 11
-46.727111581980111
 21
219.07119398820845
 31
0.0
  0
LINE
  8
0
  6
CONTINUOUS
 62
               3
  5
30A
 10
-46.727111581980111
 20
219.07119398820845
 30
0.0
 11
-47.071176834529055
 21
218.96078379543241
 31
0.0
  0
LINE
  8
0
  6
CONTINUOUS
 62
               3
  5
30B
 10
-47.071176834529055
 20
218.96078379543241
 30
0.0
 11
-47.415347152139518
 21
218.85071560620048
 31
0.0
  0
LINE
  8
0
  6
CONTINUOUS
 62
               3
  5
30C
 10
-47.415347152139518
 20
218.85071560620048
 30
0.0
 11
-47.759675067342286
 21
218.74116042228474
 31
0.0
  0
LINE
  8
0
  6
CONTINUOUS
 62
               3
  5
30D
 10
-47.759675067342286
 20
218.74116042228474
 30
0.0
 11
-48.104213112668035
 21
218.63228924545723
 31
0.0
  0
LINE
  8
0
  6
CONTINUOUS
 62
               3
  5
30E
 10
-48.104213112668035
 20
218.63228924545723
 30
0.0
 11
-48.449013820647664
 21
218.5242730774898
 31
0.0
  0
LINE
  8
0
  6
CONTINUOUS
 62
               3
  5
30F
 10
-48.449013820647664
 20
218.5242730774898
 30
0.0
 11
-48.794129723811906
 21
218.41728292015449
 31
0.0
  0
LINE
  8
0
  6
CONTINUOUS
 62
               3
  5
310
 10
-48.794129723811906
 20
218.41728292015449
 30
0.0
 11
-49.139613325776324
 21
218.31148968634255
 31
0.0
  0
LINE
  8
0
  6
CONTINUOUS
 62
               3
  5
311
 10
-49.139613325776324
 20
218.31148968634255
 30
0.0
 11
-49.485500606472314
 21
218.20701349750806
 31
0.0
  0
LINE
  8
0
  6
CONTINUOUS
 62
               3
  5
312
 10
-49.485500606472314
 20
218.20701349750806
 30
0.0
 11
-49.831783406496115
 21
218.10383879711679
 31
0.0
  0
LINE
  8
0
  6
CONTINUOUS
 62
               3
  5
313
 10
-49.831783406496115
 20
218.10383879711679
 30
0.0
 11
-50.178446275161761
 21
218.00192761627835
 31
0.0
  0
LINE
  8
0
  6
CONTINUOUS
 62
               3
  5
314
 10
-50.178446275161761
 20
218.00192761627835
 30
0.0
 11
-50.525473761783346
 21
217.90124198610232
 31
0.0
  0
LINE
  8
0
  6
CONTINUOUS
 62
               3
  5
315
 10
-50.525473761783346
 20
217.90124198610232
 30
0.0
 11
-50.872850415674961
 21
217.80174393769852
 31
0.0
  0
LINE
  8
0
  6
CONTINUOUS
 62
               3
  5
316
 10
-50.872850415674961
 20
217.80174393769852
 30
0.0
 11
-51.220560786150699
 21
217.70339550217653
 31
0.0
  0
LINE
  8
0
  6
CONTINUOUS
 62
               3
  5
317
 10
-51.220560786150699
 20
217.70339550217653
 30
0.0
 11
-51.568589422524596
 21
217.60615871064596
 31
0.0
  0
LINE
  8
0
  6
CONTINUOUS
 62
               3
  5
318
 10
-51.568589422524596
 20
217.60615871064596
 30
0.0
 11
-51.916920874110801
 21
217.50999559421638
 31
0.0
  0
LINE
  8
0
  6
CONTINUOUS
 62
               3
  5
319
 10
-51.916920874110801
 20
217.50999559421638
 30
0.0
 11
-52.265544453573384
 21
217.41488735379806
 31
0.0
  0
LINE
  8
0
  6
CONTINUOUS
 62
               3
  5
31A
 10
-52.265544453573384
 20
217.41488735379806
 30
0.0
 11
-52.614470052234807
 21
217.32089800781154
 31
0.0
  0
LINE
  8
0
  6
CONTINUOUS
 62
               3
  5
31B
 10
-52.614470052234807
 20
217.32089800781154
 30
0.0
 11
-52.963713117434949
 21
217.22811393451724
 31
0.0
  0
LINE
  8
0
  6
CONTINUOUS
 62
               3
  5
31C
 10
-52.963713117434949
 20
217.22811393451724
 30
0.0
 11
-53.313289096600542
 21
217.13662151252578
 31
0.0
  0
LINE
  8
0
  6
CONTINUOUS
 62
               3
  5
31D
 10
-53.313289096600542
 20
217.13662151252578
 30
0.0
 11
-53.663213437158433
 21
217.04650712044753
 31
0.0
  0
LINE
  8
0
  6
CONTINUOUS
 62
               3
  5
31E
 10
-53.663213437158433
 20
217.04650712044753
 30
0.0
 11
-54.013501586535412
 21
216.95785713689332
 31
0.0
  0
LINE
  8
0
  6
CONTINUOUS
 62
               3
  5
31F
 10
-54.013501586535412
 20
216.95785713689332
 30
0.0
 11
-54.364168992158383
 21
216.87075794047331
 31
0.0
  0
LINE
  8
0
  6
CONTINUOUS
 62
               3
  5
320
 10
-54.364168992158383
 20
216.87075794047331
 30
0.0
 11
-54.715231058899846
 21
216.78529571728581
 31
0.0
  0
LINE
  8
0
  6
CONTINUOUS
 62
               3
  5
321
 10
-54.715231058899846
 20
216.78529571728581
 30
0.0
 11
-55.066686453173119
 21
216.70148092937751
 31
0.0
  0
LINE
  8
0
  6
CONTINUOUS
 62
               3
  5
322
 10
-55.066686453173119
 20
216.70148092937751
 30
0.0
 11
-55.418491716348214
 21
216.61913346696332
 31
0.0
  0
LINE
  8
0
  6
CONTINUOUS
 62
               3
  5
323
 10
-55.418491716348214
 20
216.61913346696332
 30
0.0
 11
-55.770596867153401
 21
216.53804371211544
 31
0.0
  0
LINE
  8
0
  6
CONTINUOUS
 62
               3
  5
324
 10
-55.770596867153401
 20
216.53804371211544
 30
0.0
 11
-56.122951924316951
 21
216.4580020469063
 31
0.0
  0
LINE
  8
0
  6
CONTINUOUS
 62
               3
  5
325
 10
-56.122951924316951
 20
216.4580020469063
 30
0.0
 11
-56.475506906567247
 21
216.37879885340789
 31
0.0
  0
LINE
  8
0
  6
CONTINUOUS
 62
               3
  5
326
 10
-56.475506906567247
 20
216.37879885340789
 30
0.0
 11
-56.828211832632618
 21
216.30022451369285
 31
0.0
  0
LINE
  8
0
  6
CONTINUOUS
 62
               3
  5
327
 10
-56.828211832632618
 20
216.30022451369285
 30
0.0
 11
-57.181016721241335
 21
216.22206940983295
 31
0.0
  0
LINE
  8
0
  6
CONTINUOUS
 62
               3
  5
328
 10
-57.181016721241335
 20
216.22206940983295
 30
0.0
 11
-57.533871591121724
 21
216.14412392390108
 31
0.0
  0
LINE
  8
0
  6
CONTINUOUS
 62
               3
  5
329
 10
-26.710790117432211
 20
227.7989076715582
 30
0.0
 11
-27.571345957242542
 21
227.33549686023588
 31
0.0
  0
LINE
  8
0
  6
CONTINUOUS
 62
               3
  5
32A
 10
-27.571345957242542
 20
227.33549686023588
 30
0.0
 11
-28.435127431355895
 21
226.87800629769771
 31
0.0
  0
LINE
  8
0
  6
CONTINUOUS
 62
               3
  5
32B
 10
-28.435127431355895
 20
226.87800629769771
 30
0.0
 11
-29.302080747188128
 21
226.42642032334487
 31
0.0
  0
LINE
  8
0
  6
CONTINUOUS
 62
               3
  5
32C
 10
-29.302080747188128
 20
226.42642032334487
 30
0.0
 11
-30.172152112155274
 21
225.98072327657763
 31
0.0
  0
LINE
  8
0
  6
CONTINUOUS
 62
               3
  5
32D
 10
-30.172152112155274
 20
225.98072327657763
 30
0.0
 11
-31.045287733673078
 21
225.54089949679718
 31
0.0
  0
LINE
  8
0
  6
CONTINUOUS
 62
               3
  5
32E
 10
-31.045287733673078
 20
225.54089949679718
 30
0.0
 11
-31.921433819157571
 21
225.10693332340423
 31
0.0
  0
LINE
  8
0
  6
CONTINUOUS
 62
               3
  5
32F
 10
-31.921433819157571
 20
225.10693332340423
 30
0.0
 11
-32.800570500373382
 21
224.67890855905961
 31
0.0
  0
LINE
  8
0
  6
CONTINUOUS
 62
               3
  5
330
 10
-32.800570500373382
 20
224.67890855905961
 30
0.0
 11
-33.682813832814176
 21
224.25730752305884
 31
0.0
  0
LINE
  8
0
  6
CONTINUOUS
 62
               3
  5
331
 10
-33.682813832814176
 20
224.25730752305884
 30
0.0
 11
-34.568313909584035
 21
223.84271233003
 31
0.0
  0
LINE
  8
0
  6
CONTINUOUS
 62
               3
  5
332
 10
-34.568313909584035
 20
223.84271233003
 30
0.0
 11
-35.457220823786756
 21
223.43570509460091
 31
0.0
  0
LINE
  8
0
  6
CONTINUOUS
 62
               3
  5
333
 10
-35.457220823786756
 20
223.43570509460091
 30
0.0
 11
-36.349684668526422
 21
223.03686793140008
 31
0.0
  0
LINE
  8
0
  6
CONTINUOUS
 62
               3
  5
334
 10
-36.349684668526422
 20
223.03686793140008
 30
0.0
 11
-37.245855536906831
 21
222.64678295505536
 31
0.0
  0
LINE
  8
0
  6
CONTINUOUS
 62
               3
  5
335
 10
-37.245855536906831
 20
222.64678295505536
 30
0.0
 11
-38.145883522031895
 21
222.26603228019525
 31
0.0
  0
LINE
  8
0
  6
CONTINUOUS
 62
               3
  5
336
 10
-38.145883522031895
 20
222.26603228019525
 30
0.0
 11
-39.049916088029576
 21
221.89519058528589
 31
0.0
  0
LINE
  8
0
  6
CONTINUOUS
 62
               3
  5
337
 10
-39.049916088029576
 20
221.89519058528589
 30
0.0
 11
-39.957879937702657
 21
221.53420811675022
 31
0.0
  0
LINE
  8
0
  6
CONTINUOUS
 62
               3
  5
338
 10
-39.957879937702657
 20
221.53420811675022
 30
0.0
 11
-40.869317386203178
 21
221.1819478655022
 31
0.0
  0
LINE
  8
0
  6
CONTINUOUS
 62
               3
  5
339
 10
-40.869317386203178
 20
221.1819478655022
 30
0.0
 11
-41.78373220512718
 21
220.83716380050095
 31
0.0
  0
LINE
  8
0
  6
CONTINUOUS
 62
               3
  5
33A
 10
-41.78373220512718
 20
220.83716380050095
 30
0.0
 11
-42.7006281660707
 21
220.49860989070538
 31
0.0
  0
LINE
  8
0
  6
CONTINUOUS
 62
               3
  5
33B
 10
-42.7006281660707
 20
220.49860989070538
 30
0.0
 11
-43.619509040629836
 21
220.16504010507418
 31
0.0
  0
LINE
  8
0
  6
CONTINUOUS
 62
               3
  5
33C
 10
-43.619509040629836
 20
220.16504010507418
 30
0.0
 11
-44.539878600400684
 21
219.83520841256649
 31
0.0
  0
LINE
  8
0
  6
CONTINUOUS
 62
               3
  5
33D
 10
-44.539878600400684
 20
219.83520841256649
 30
0.0
 11
-45.461240616979339
 21
219.50786878214097
 31
0.0
  0
LINE
  8
0
  6
CONTINUOUS
 62
               3
  5
33E
 10
-45.461240616979339
 20
219.50786878214097
 30
0.0
 11
-46.383098861961955
 21
219.18177518275633
 31
0.0
  0
LINE
  8
0
  6
CONTINUOUS
 62
               3
  5
33F
 10
-6.1318362034908915
 20
187.39952338124573
 30
0.0
 11
-6.1318362034908915
 21
175.39952338124556
 31
0.0
  0
LINE
  8
0
  6
CONTINUOUS
 62
               3
  5
340
 10
-96.13183620349146
 20
187.39952338124544
 30
0.0
 11
-6.1318362034908915
 21
187.39952338124544
 31
0.0
  0
LINE
  8
0
  6
CONTINUOUS
 62
               3
  5
341
 10
-96.13183620349146
 20
175.39952338124556
 30
0.0
 11
-6.1318362034908915
 21
175.39952338124556
 31
0.0
  0
LINE
  8
0
  6
CONTINUOUS
 62
               3
  5
342
 10
-96.13183620349146
 20
187.39952338124573
 30
0.0
 11
-96.13183620349146
 21
175.39952338124556
 31
0.0
  0
LINE
  8
0
  6
CONTINUOUS
 62
               3
  5
343
 10
-13.132882224017081
 20
187.39952338124544
 30
0.0
 11
-13.132882224017081
 21
195.39952338124561
 31
0.0
  0
LINE
  8
0
  6
CONTINUOUS
 62
               3
  5
344
 10
-89.132882224017308
 20
187.39952338124544
 30
0.0
 11
-89.132882224017308
 21
195.39952338124561
 31
0.0
  0
LINE
  8
0
  6
CONTINUOUS
 62
               3
  5
345
 10
-8.5126925978673142
 20
228.01672242063086
 30
0.0
 11
-8.5947353070066441
 21
228.44182428169523
 31
0.0
  0
LINE
  8
0
  6
CONTINUOUS
 62
               3
  5
346
 10
-8.5947353070066441
 20
228.44182428169523
 30
0.0
 11
-8.6756304731522249
 21
228.86714526953091
 31
0.0
  0
LINE
  8
0
  6
CONTINUOUS
 62
               3
  5
347
 10
-8.6756304731522249
 20
228.86714526953091
 30
0.0
 11
-8.7554096135215644
 21
229.29267935519573
 31
0.0
  0
LINE
  8
0
  6
CONTINUOUS
 62
               3
  5
348
 10
-8.7554096135215644
 20
229.29267935519573
 30
0.0
 11
-8.8341779496096677
 21
229.71840644511229
 31
0.0
  0
LINE
  8
0
  6
CONTINUOUS
 62
               3
  5
349
 10
-8.8341779496096677
 20
229.71840644511229
 30
0.0
 11
-8.9120618304076373
 21
230.14430241404369
 31
0.0
  0
LINE
  8
0
  6
CONTINUOUS
 62
               3
  5
34A
 10
-8.9120618304076373
 20
230.14430241404369
 30
0.0
 11
-8.9891876066712229
 21
230.57034313641606
 31
0.0
  0
LINE
  8
0
  6
CONTINUOUS
 62
               3
  5
34B
 10
-8.9891876066712229
 20
230.57034313641606
 30
0.0
 11
-9.0656816291560602
 21
230.99650448665619
 31
0.0
  0
LINE
  8
0
  6
CONTINUOUS
 62
               3
  5
34C
 10
-9.0656816291560602
 20
230.99650448665619
 30
0.0
 11
-9.1416702486180128
 21
231.42276233919046
 31
0.0
  0
LINE
  8
0
  6
CONTINUOUS
 62
               3
  5
34D
 10
-9.1416702486180128
 20
231.42276233919046
 30
0.0
 11
-9.2172798158127165
 21
231.8490925684452
 31
0.0
  0
LINE
  8
0
  6
CONTINUOUS
 62
               3
  5
34E
 10
-9.2172798158127165
 20
231.8490925684452
 30
0.0
 11
-9.2926366814959778
 21
232.27547104884724
 31
0.0
  0
LINE
  8
0
  6
CONTINUOUS
 62
               3
  5
34F
 10
-9.2926366814959778
 20
232.27547104884724
 30
0.0
 11
-9.3678671964234326
 21
232.70187365482269
 31
0.0
  0
LINE
  8
0
  6
CONTINUOUS
 62
               3
  5
350
 10
-9.3678671964234326
 20
232.70187365482269
 30
0.0
 11
-9.3969711456227145
 21
232.83106971516571
 31
0.0
  0
LINE
  8
0
  6
CONTINUOUS
 62
               3
  5
351
 10
-9.3969711456227145
 20
232.83106971516571
 30
0.0
 11
-9.427589495224808
 21
232.95977111673818
 31
0.0
  0
LINE
  8
0
  6
CONTINUOUS
 62
               3
  5
352
 10
-9.427589495224808
 20
232.95977111673818
 30
0.0
 11
-9.4612366456326384
 21
233.08748320076955
 31
0.0
  0
LINE
  8
0
  6
CONTINUOUS
 62
               3
  5
353
 10
-9.4612366456326384
 20
233.08748320076955
 30
0.0
 11
-9.4994269972488468
 21
233.21371130848928
 31
0.0
  0
LINE
  8
0
  6
CONTINUOUS
 62
               3
  5
354
 10
-9.4994269972488468
 20
233.21371130848928
 30
0.0
 11
-9.5436394486776948
 21
233.33796569800114
 31
0.0
  0
LINE
  8
0
  6
CONTINUOUS
 62
               3
  5
355
 10
-9.5436394486776948
 20
233.33796569800114
 30
0.0
 11
-9.5944446208940661
 21
233.45988242065522
 31
0.0
  0
LINE
  8
0
  6
CONTINUOUS
 62
               3
  5
356
 10
-9.5944446208940661
 20
233.45988242065522
 30
0.0
 11
-9.6514507657445137
 21
233.57923081253301
 31
0.0
  0
LINE
  8
0
  6
CONTINUOUS
 62
               3
  5
357
 10
-9.6514507657445137
 20
233.57923081253301
 30
0.0
 11
-9.7142199714519251
 21
233.69578655287222
 31
0.0
  0
LINE
  8
0
  6
CONTINUOUS
 62
               3
  5
358
 10
-9.7142199714519251
 20
233.69578655287222
 30
0.0
 11
-9.7824155982938663
 21
233.80928091700042
 31
0.0
  0
LINE
  8
0
  6
CONTINUOUS
 62
               3
  5
359
 10
-9.7824155982938663
 20
233.80928091700042
 30
0.0
 11
-9.8559737008346104
 21
233.91932561426273
 31
0.0
  0
LINE
  8
0
  6
CONTINUOUS
 62
               3
  5
35A
 10
-9.8559737008346104
 20
233.91932561426273
 30
0.0
 11
-9.934875767106675
 21
234.02551243317265
 31
0.0
  0
LINE
  8
0
  6
CONTINUOUS
 62
               3
  5
35B
 10
-9.934875767106675
 20
234.02551243317265
 30
0.0
 11
-10.019103285142521
 21
234.12743316224322
 31
0.0
  0
LINE
  8
0
  6
CONTINUOUS
 62
               3
  5
35C
 10
-10.019103285142521
 20
234.12743316224322
 30
0.0
 11
-10.108629185316531
 21
234.22468443399811
 31
0.0
  0
LINE
  8
0
  6
CONTINUOUS
 62
               3
  5
35D
 10
-10.108629185316531
 20
234.22468443399811
 30
0.0
 11
-10.20331754395805
 21
234.31692449714518
 31
0.0
  0
LINE
  8
0
  6
CONTINUOUS
 62
               3
  5
35E
 10
-10.20331754395805
 20
234.31692449714518
 30
0.0
 11
-10.302957486789452
 21
234.40385402573628
 31
0.0
  0
LINE
  8
0
  6
CONTINUOUS
 62
               3
  5
35F
 10
-10.302957486789452
 20
234.40385402573628
 30
0.0
 11
-10.407336261335999
 21
234.48517510576374
 31
0.0
  0
LINE
  8
0
  6
CONTINUOUS
 62
               3
  5
360
 10
-10.407336261335999
 20
234.48517510576374
 30
0.0
 11
-10.516177589319042
 21
234.5606813649278
 31
0.0
  0
LINE
  8
0
  6
CONTINUOUS
 62
               3
  5
361
 10
-10.516177589319042
 20
234.5606813649278
 30
0.0
 11
-10.629072593372527
 21
234.63035750834996
 31
0.0
  0
LINE
  8
0
  6
CONTINUOUS
 62
               3
  5
362
 10
-10.629072593372527
 20
234.63035750834996
 30
0.0
 11
-10.745595790059937
 21
234.69421217076723
 31
0.0
  0
LINE
  8
0
  6
CONTINUOUS
 62
               3
  5
363
 10
-10.745595790059937
 20
234.69421217076723
 30
0.0
 11
-10.865321695944928
 21
234.75225398691617
 31
0.0
  0
LINE
  8
0
  6
CONTINUOUS
 62
               3
  5
364
 10
-10.865321695944928
 20
234.75225398691617
 30
0.0
 11
-10.98782482759087
 21
234.80449159153312
 31
0.0
  0
LINE
  8
0
  6
CONTINUOUS
 62
               3
  5
365
 10
-10.98782482759087
 20
234.80449159153312
 30
0.0
 11
-11.112679701561419
 21
234.85093361935554
 31
0.0
  0
LINE
  8
0
  6
CONTINUOUS
 62
               3
  5
366
 10
-13.595306474532705
 20
234.8500096533341
 30
0.0
 11
-13.723632096457024
 21
234.81808395449133
 31
0.0
  0
LINE
  8
0
  6
CONTINUOUS
 62
               3
  5
367
 10
-13.723632096457024
 20
234.81808395449133
 30
0.0
 11
-13.85137397513158
 21
234.7841127694175
 31
0.0
  0
LINE
  8
0
  6
CONTINUOUS
 62
               3
  5
368
 10
-13.85137397513158
 20
234.7841127694175
 30
0.0
 11
-13.978544431408736
 21
234.74819084780273
 31
0.0
  0
LINE
  8
0
  6
CONTINUOUS
 62
               3
  5
369
 10
-13.978544431408736
 20
234.74819084780273
 30
0.0
 11
-14.105155786140799
 21
234.71041293933712
 31
0.0
  0
LINE
  8
0
  6
CONTINUOUS
 62
               3
  5
36A
 10
-14.105155786140799
 20
234.71041293933712
 30
0.0
 11
-14.231220360180018
 21
234.67087379370986
 31
0.0
  0
LINE
  8
0
  6
CONTINUOUS
 62
               3
  5
36B
 10
-14.231220360180018
 20
234.67087379370986
 30
0.0
 11
-14.3567504743787
 21
234.62966816061174
 31
0.0
  0
LINE
  8
0
  6
CONTINUOUS
 62
               3
  5
36C
 10
-14.3567504743787
 20
234.62966816061174
 30
0.0
 11
-14.481758449589094
 21
234.58689078973219
 31
0.0
  0
LINE
  8
0
  6
CONTINUOUS
 62
               3
  5
36D
 10
-14.481758449589094
 20
234.58689078973219
 30
0.0
 11
-14.606256606663564
 21
234.54263643076132
 31
0.0
  0
LINE
  8
0
  6
CONTINUOUS
 62
               3
  5
36E
 10
-14.606256606663564
 20
234.54263643076132
 30
0.0
 11
-14.730257266454416
 21
234.496999833389
 31
0.0
  0
LINE
  8
0
  6
CONTINUOUS
 62
               3
  5
36F
 10
-14.730257266454416
 20
234.496999833389
 30
0.0
 11
-14.853772670732141
 21
234.45007522042096
 31
0.0
  0
LINE
  8
0
  6
CONTINUOUS
 62
               3
  5
370
 10
-14.853772670732141
 20
234.45007522042096
 30
0.0
 11
-14.976811340003778
 21
234.4019320216625
 31
0.0
  0
LINE
  8
0
  6
CONTINUOUS
 62
               3
  5
371
 10
-14.976811340003778
 20
234.4019320216625
 30
0.0
 11
-15.099376549100654
 21
234.35260471748524
 31
0.0
  0
LINE
  8
0
  6
CONTINUOUS
 62
               3
  5
372
 10
-15.099376549100654
 20
234.35260471748524
 30
0.0
 11
-15.221471177578323
 21
234.30212515472812
 31
0.0
  0
LINE
  8
0
  6
CONTINUOUS
 62
               3
  5
373
 10
-15.221471177578323
 20
234.30212515472812
 30
0.0
 11
-15.343098104992563
 21
234.25052518023102
 31
0.0
  0
LINE
  8
0
  6
CONTINUOUS
 62
               3
  5
374
 10
-15.343098104992563
 20
234.25052518023102
 30
0.0
 11
-15.464260210898814
 21
234.19783664083246
 31
0.0
  0
LINE
  8
0
  6
CONTINUOUS
 62
               3
  5
375
 10
-15.464260210898814
 20
234.19783664083246
 30
0.0
 11
-15.584960374852798
 21
234.14409138337231
 31
0.0
  0
LINE
  8
0
  6
CONTINUOUS
 62
               3
  5
376
 10
-15.584960374852798
 20
234.14409138337231
 30
0.0
 11
-15.705201476410124
 21
234.08932125468908
 31
0.0
  0
LINE
  8
0
  6
CONTINUOUS
 62
               3
  5
377
 10
-15.705201476410124
 20
234.08932125468908
 30
0.0
 11
-15.824986395126402
 21
234.03355810162265
 31
0.0
  0
LINE
  8
0
  6
CONTINUOUS
 62
               3
  5
378
 10
-15.824986395126402
 20
234.03355810162265
 30
0.0
 11
-15.94431801055724
 21
233.97683377101174
 31
0.0
  0
LINE
  8
0
  6
CONTINUOUS
 62
               3
  5
379
 10
-15.94431801055724
 20
233.97683377101174
 30
0.0
 11
-16.063199202258303
 21
233.91918010969556
 31
0.0
  0
LINE
  8
0
  6
CONTINUOUS
 62
               3
  5
37A
 10
-16.063199202258303
 20
233.91918010969556
 30
0.0
 11
-16.181632849785203
 21
233.86062896451375
 31
0.0
  0
LINE
  8
0
  6
CONTINUOUS
 62
               3
  5
37B
 10
-16.181632849785203
 20
233.86062896451375
 30
0.0
 11
-16.299621832693546
 21
233.80121218230505
 31
0.0
  0
LINE
  8
0
  6
CONTINUOUS
 62
               3
  5
37C
 10
-16.299621832693546
 20
233.80121218230505
 30
0.0
 11
-16.417169030538943
 21
233.74096160990888
 31
0.0
  0
LINE
  8
0
  6
CONTINUOUS
 62
               3
  5
37D
 10
-16.417169030538943
 20
233.74096160990888
 30
0.0
 11
-16.5342803861124
 21
233.67991137419762
 31
0.0
  0
LINE
  8
0
  6
CONTINUOUS
 62
               3
  5
37E
 10
-16.5342803861124
 20
233.67991137419762
 30
0.0
 11
-16.650978099694427
 21
233.61810770284904
 31
0.0
  0
LINE
  8
0
  6
CONTINUOUS
 62
               3
  5
37F
 10
-16.650978099694427
 20
233.61810770284904
 30
0.0
 11
-16.767289744248373
 21
233.55560082254664
 31
0.0
  0
LINE
  8
0
  6
CONTINUOUS
 62
               3
  5
380
 10
-16.767289744248373
 20
233.55560082254664
 30
0.0
 11
-16.883242896133467
 21
233.49244096250158
 31
0.0
  0
LINE
  8
0
  6
CONTINUOUS
 62
               3
  5
381
 10
-16.883242896133467
 20
233.49244096250158
 30
0.0
 11
-16.998865131708939
 21
233.42867835192482
 31
0.0
  0
LINE
  8
0
  6
CONTINUOUS
 62
               3
  5
382
 10
-16.998865131708939
 20
233.42867835192482
 30
0.0
 11
-17.114184027333735
 21
233.36436322002709
 31
0.0
  0
LINE
  8
0
  6
CONTINUOUS
 62
               3
  5
383
 10
-17.114184027333735
 20
233.36436322002709
 30
0.0
 11
-17.229227159367198
 21
233.29954579601957
 31
0.0
  0
LINE
  8
0
  6
CONTINUOUS
 62
               3
  5
384
 10
-17.229227159367198
 20
233.29954579601957
 30
0.0
 11
-17.344022104168332
 21
233.23427630911345
 31
0.0
  0
LINE
  8
0
  6
CONTINUOUS
 62
               3
  5
385
 10
-17.344022104168332
 20
233.23427630911345
 30
0.0
 11
-17.458596438096365
 21
233.16860498851901
 31
0.0
  0
LINE
  8
0
  6
CONTINUOUS
 62
               3
  5
386
 10
-17.458596438096365
 20
233.16860498851901
 30
0.0
 11
-17.572977737510357
 21
233.1025820634481
 31
0.0
  0
LINE
  8
0
  6
CONTINUOUS
 62
               3
  5
387
 10
-17.572977737510357
 20
233.1025820634481
 30
0.0
 11
-17.687193578769538
 21
233.036257763111
 31
0.0
  0
LINE
  8
0
  6
CONTINUOUS
 62
               3
  5
388
 10
-17.687193578769538
 20
233.036257763111
 30
0.0
 11
-17.801271538232967
 21
232.96968231671934
 31
0.0
  0
LINE
  8
0
  6
CONTINUOUS
 62
               3
  5
389
 10
-17.801271538232967
 20
232.96968231671934
 30
0.0
 11
-17.915239192259818
 21
232.90290595348341
 31
0.0
  0
LINE
  8
0
  6
CONTINUOUS
 62
               3
  5
38A
 10
-17.915239192259818
 20
232.90290595348341
 30
0.0
 11
-18.029124117209321
 21
232.83597890261484
 31
0.0
  0
LINE
  8
0
  6
CONTINUOUS
 62
               3
  5
38B
 10
-18.029124117209321
 20
232.83597890261484
 30
0.0
 11
-18.14295388944042
 21
232.76895139332436
 31
0.0
  0
LINE
  8
0
  6
CONTINUOUS
 62
               3
  5
38C
 10
-18.14295388944042
 20
232.76895139332436
 30
0.0
 11
-18.25675608531246
 21
232.70187365482269
 31
0.0
  0
LINE
  8
0
  6
CONTINUOUS
 62
               3
  5
38D
 10
-18.25675608531246
 20
232.70187365482269
 30
0.0
 11
-19.094967376743668
 21
232.19894022884745
 31
0.0
  0
LINE
  8
0
  6
CONTINUOUS
 62
               3
  5
38E
 10
-19.094967376743668
 20
232.19894022884745
 30
0.0
 11
-19.933620648289647
 21
231.69678239815261
 31
0.0
  0
LINE
  8
0
  6
CONTINUOUS
 62
               3
  5
38F
 10
-19.933620648289647
 20
231.69678239815261
 30
0.0
 11
-20.77315788006517
 21
231.1961757580188
 31
0.0
  0
LINE
  8
0
  6
CONTINUOUS
 62
               3
  5
390
 10
-20.77315788006517
 20
231.1961757580188
 30
0.0
 11
-21.614021052185066
 21
230.69789590372619
 31
0.0
  0
LINE
  8
0
  6
CONTINUOUS
 62
               3
  5
391
 10
-21.614021052185066
 20
230.69789590372619
 30
0.0
 11
-22.456652144764163
 21
230.20271843055588
 31
0.0
  0
LINE
  8
0
  6
CONTINUOUS
 62
               3
  5
392
 10
-22.456652144764163
 20
230.20271843055588
 30
0.0
 11
-23.301493137917177
 21
229.71141893378734
 31
0.0
  0
LINE
  8
0
  6
CONTINUOUS
 62
               3
  5
393
 10
-23.301493137917177
 20
229.71141893378734
 30
0.0
 11
-24.148986011758993
 21
229.22477300870167
 31
0.0
  0
LINE
  8
0
  6
CONTINUOUS
 62
               3
  5
394
 10
-24.148986011758993
 20
229.22477300870167
 30
0.0
 11
-24.999570511056945
 21
228.74355268295284
 31
0.0
  0
LINE
  8
0
  6
CONTINUOUS
 62
               3
  5
395
 10
-24.999570511056945
 20
228.74355268295284
 30
0.0
 11
-25.853513704508984
 21
228.26825439226394
 31
0.0
  0
LINE
  8
0
  6
CONTINUOUS
 62
               3
  5
396
 10
-25.853513704508984
 20
228.26825439226394
 30
0.0
 11
-26.710790117432211
 21
227.7989076715582
 31
0.0
  0
LINE
  8
0
  6
CONTINUOUS
 62
               3
  5
397
 10
-11.112679701561419
 20
234.85093361935554
 30
0.0
 11
-11.239460834420058
 21
234.89158870511955
 31
0.0
  0
LINE
  8
0
  6
CONTINUOUS
 62
               3
  5
398
 10
-11.239460834420058
 20
234.89158870511955
 30
0.0
 11
-11.367742742730897
 21
234.92646548356282
 31
0.0
  0
LINE
  8
0
  6
CONTINUOUS
 62
               3
  5
399
 10
-11.367742742730897
 20
234.92646548356282
 30
0.0
 11
-11.497142565888211
 21
234.95561924788325
 31
0.0
  0
LINE
  8
0
  6
CONTINUOUS
 62
               3
  5
39A
 10
-11.497142565888211
 20
234.95561924788325
 30
0.0
 11
-11.627446705365898
 21
234.97929057949449
 31
0.0
  0
LINE
  8
0
  6
CONTINUOUS
 62
               3
  5
39B
 10
-11.627446705365898
 20
234.97929057949449
 30
0.0
 11
-11.758483573060104
 21
234.9977660478782
 31
0.0
  0
LINE
  8
0
  6
CONTINUOUS
 62
               3
  5
39C
 10
-11.758483573060104
 20
234.9977660478782
 30
0.0
 11
-11.890081580866976
 21
235.01133222251627
 31
0.0
  0
LINE
  8
0
  6
CONTINUOUS
 62
               3
  5
39D
 10
-11.890081580866976
 20
235.01133222251627
 30
0.0
 11
-12.02206914068266
 21
235.02027567289082
 31
0.0
  0
LINE
  8
0
  6
CONTINUOUS
 62
               3
  5
39E
 10
-12.02206914068266
 20
235.02027567289082
 30
0.0
 11
-12.154274664403189
 21
235.02488296848395
 31
0.0
  0
LINE
  8
0
  6
CONTINUOUS
 62
               3
  5
39F
 10
-12.154274664403189
 20
235.02488296848395
 30
0.0
 11
-12.286527363172624
 21
235.02543988451174
 31
0.0
  0
LINE
  8
0
  6
CONTINUOUS
 62
               3
  5
3A0
 10
-12.286527363172624
 20
235.02543988451174
 30
0.0
 11
-12.418700454112113
 21
235.02218846453178
 31
0.0
  0
LINE
  8
0
  6
CONTINUOUS
 62
               3
  5
3A1
 10
-12.418700454112113
 20
235.02218846453178
 30
0.0
 11
-12.550733184988232
 21
235.01530513306915
 31
0.0
  0
LINE
  8
0
  6
CONTINUOUS
 62
               3
  5
3A2
 10
-12.550733184988232
 20
235.01530513306915
 30
0.0
 11
-12.68257023640858
 21
235.00496091567373
 31
0.0
  0
LINE
  8
0
  6
CONTINUOUS
 62
               3
  5
3A3
 10
-12.68257023640858
 20
235.00496091567373
 30
0.0
 11
-12.814156288980925
 21
234.99132683789611
 31
0.0
  0
LINE
  8
0
  6
CONTINUOUS
 62
               3
  5
3A4
 10
-12.814156288980925
 20
234.99132683789611
 30
0.0
 11
-12.945436023312865
 21
234.97457392528594
 31
0.0
  0
LINE
  8
0
  6
CONTINUOUS
 62
               3
  5
3A5
 10
-12.945436023312865
 20
234.97457392528594
 30
0.0
 11
-13.076354120012113
 21
234.95487320339424
 31
0.0
  0
LINE
  8
0
  6
CONTINUOUS
 62
               3
  5
3A6
 10
-13.076354120012113
 20
234.95487320339424
 30
0.0
 11
-13.206855259686265
 21
234.93239569777069
 31
0.0
  0
LINE
  8
0
  6
CONTINUOUS
 62
               3
  5
3A7
 10
-13.206855259686265
 20
234.93239569777069
 30
0.0
 11
-13.336884122943033
 21
234.90731243396584
 31
0.0
  0
LINE
  8
0
  6
CONTINUOUS
 62
               3
  5
3A8
 10
-13.336884122943033
 20
234.90731243396584
 30
0.0
 11
-13.466385390390073
 21
234.8797944375296
 31
0.0
  0
LINE
  8
0
  6
CONTINUOUS
 62
               3
  5
3A9
 10
-13.466385390390073
 20
234.8797944375296
 30
0.0
 11
-13.595306474532705
 21
234.8500096533341
 31
0.0
  0
LINE
  8
0
  6
CONTINUOUS
 62
               3
  5
3AA
 10
-6.1318362034911473
 20
373.07052168653553
 30
0.0
 11
-6.1330727234107343
 21
373.02424710457825
 31
0.0
  0
LINE
  8
0
  6
CONTINUOUS
 62
               3
  5
3AB
 10
-6.1330727234107343
 20
373.02424710457825
 30
0.0
 11
-6.1344050332061641
 21
372.97797937400395
 31
0.0
  0
LINE
  8
0
  6
CONTINUOUS
 62
               3
  5
3AC
 10
-6.1344050332061641
 20
372.97797937400395
 30
0.0
 11
-6.1359289227533367
 21
372.93172534619492
 31
0.0
  0
LINE
  8
0
  6
CONTINUOUS
 62
               3
  5
3AD
 10
-6.1359289227533367
 20
372.93172534619492
 30
0.0
 11
-6.1377401819281516
 21
372.88549187253415
 31
0.0
  0
LINE
  8
0
  6
CONTINUOUS
 62
               3
  5
3AE
 10
-6.1377401819281516
 20
372.88549187253415
 30
0.0
 11
-6.1399346006065088
 21
372.83928580440391
 31
0.0
  0
LINE
  8
0
  6
CONTINUOUS
 62
               3
  5
3AF
 10
-6.1399346006065088
 20
372.83928580440391
 30
0.0
 11
-6.142607968664251
 21
372.79311399318721
 31
0.0
  0
LINE
  8
0
  6
CONTINUOUS
 62
               3
  5
3B0
 10
-6.142607968664251
 20
372.79311399318721
 30
0.0
 11
-6.1458560759772212
 21
372.74698329026677
 31
0.0
  0
LINE
  8
0
  6
CONTINUOUS
 62
               3
  5
3B1
 10
-6.1458560759772212
 20
372.74698329026677
 30
0.0
 11
-6.1497564113603147
 21
372.70089998257544
 31
0.0
  0
LINE
  8
0
  6
CONTINUOUS
 62
               3
  5
3B2
 10
-6.1497564113603147
 20
372.70089998257544
 30
0.0
 11
-6.1542988374401233
 21
372.65486765444024
 31
0.0
  0
LINE
  8
0
  6
CONTINUOUS
 62
               3
  5
3B3
 10
-6.1542988374401233
 20
372.65486765444024
 30
0.0
 11
-6.1594470215581367
 21
372.60888908226087
 31
0.0
  0
LINE
  8
0
  6
CONTINUOUS
 62
               3
  5
3B4
 10
-6.1594470215581367
 20
372.60888908226087
 30
0.0
 11
-6.1651646263424453
 21
372.5629670422922
 31
0.0
  0
LINE
  8
0
  6
CONTINUOUS
 62
               3
  5
3B5
 10
-6.1651646263424453
 20
372.5629670422922
 30
0.0
 11
-6.1714153144210258
 21
372.51710431078862
 31
0.0
  0
LINE
  8
0
  6
CONTINUOUS
 62
               3
  5
3B6
 10
-6.1714153144210258
 20
372.51710431078862
 30
0.0
 11
-6.1781627484219115
 21
372.47130366400455
 31
0.0
  0
LINE
  8
0
  6
CONTINUOUS
 62
               3
  5
3B7
 10
-6.1781627484219115
 20
372.47130366400455
 30
0.0
 11
-6.1853705909730792
 21
372.42556787819484
 31
0.0
  0
LINE
  8
0
  6
CONTINUOUS
 62
               3
  5
3B8
 10
-6.1853705909730792
 20
372.42556787819484
 30
0.0
 11
-6.1930025047025055
 21
372.37989972961412
 31
0.0
  0
LINE
  8
0
  6
CONTINUOUS
 62
               3
  5
3B9
 10
-6.1930025047025055
 20
372.37989972961412
 30
0.0
 11
-6.2010252837805382
 21
372.33430225557953
 31
0.0
  0
LINE
  8
0
  6
CONTINUOUS
 62
               3
  5
3BA
 10
-6.2010252837805382
 20
372.33430225557953
 30
0.0
 11
-6.2094357083959011
 21
372.2887809932094
 31
0.0
  0
LINE
  8
0
  6
CONTINUOUS
 62
               3
  5
3BB
 10
-6.2094357083959011
 20
372.2887809932094
 30
0.0
 11
-6.2182472373553281
 21
372.24334287004484
 31
0.0
  0
LINE
  8
0
  6
CONTINUOUS
 62
               3
  5
3BC
 10
-6.2182472373553281
 20
372.24334287004484
 30
0.0
 11
-6.2274735089125528
 21
372.19799482858588
 31
0.0
  0
LINE
  8
0
  6
CONTINUOUS
 62
               3
  5
3BD
 10
-6.2274735089125528
 20
372.19799482858588
 30
0.0
 11
-6.2371281613212517
 21
372.15274381133321
 31
0.0
  0
LINE
  8
0
  6
CONTINUOUS
 62
               3
  5
3BE
 10
-6.2371281613212517
 20
372.15274381133321
 30
0.0
 11
-6.2472248328352151
 21
372.10759676078709
 31
0.0
  0
LINE
  8
0
  6
CONTINUOUS
 62
               3
  5
3BF
 10
-6.2472248328352151
 20
372.10759676078709
 30
0.0
 11
-6.2577771617081197
 21
372.06256061944799
 31
0.0
  0
LINE
  8
0
  6
CONTINUOUS
 62
               3
  5
3C0
 10
-6.2577771617081197
 20
372.06256061944799
 30
0.0
 11
-6.2687987849992481
 21
372.01764232944691
 31
0.0
  0
LINE
  8
0
  6
CONTINUOUS
 62
               3
  5
3C1
 10
-6.2687987849992481
 20
372.01764232944691
 30
0.0
 11
-6.2802905211620299
 21
371.97284486938014
 31
0.0
  0
LINE
  8
0
  6
CONTINUOUS
 62
               3
  5
3C2
 10
-6.2802905211620299
 20
371.97284486938014
 30
0.0
 11
-6.2922087064032297
 21
371.92815746385844
 31
0.0
  0
LINE
  8
0
  6
CONTINUOUS
 62
               3
  5
3C3
 10
-6.2922087064032297
 20
371.92815746385844
 30
0.0
 11
-6.3045000345879174
 21
371.88356635606323
 31
0.0
  0
LINE
  8
0
  6
CONTINUOUS
 62
               3
  5
3C4
 10
-6.3045000345879174
 20
371.88356635606323
 30
0.0
 11
-6.3171111995813902
 21
371.83905778917659
 31
0.0
  0
LINE
  8
0
  6
CONTINUOUS
 62
               3
  5
3C5
 10
-6.3171111995813902
 20
371.83905778917659
 30
0.0
 11
-6.3299888952488317
 21
371.79461800638018
 31
0.0
  0
LINE
  8
0
  6
CONTINUOUS
 62
               3
  5
3C6
 10
-6.3299888952488317
 20
371.79461800638018
 30
0.0
 11
-6.3430798154554253
 21
371.7502332508563
 31
0.0
  0
LINE
  8
0
  6
CONTINUOUS
 62
               3
  5
3C7
 10
-6.3430798154554253
 20
371.7502332508563
 30
0.0
 11
-6.3563306540664115
 21
371.70588976578682
 31
0.0
  0
LINE
  8
0
  6
CONTINUOUS
 62
               3
  5
3C8
 10
-6.3563306540664115
 20
371.70588976578682
 30
0.0
 11
-6.3696881049469738
 21
371.66157379435339
 31
0.0
  0
LINE
  8
0
  6
CONTINUOUS
 62
               3
  5
3C9
 10
-6.3696881049469738
 20
371.66157379435339
 30
0.0
 11
-6.3830988619623525
 21
371.61727157973809
 31
0.0
  0
LINE
  8
0
  6
CONTINUOUS
 62
               3
  5
3CA
 10
-6.3830988619623525
 20
371.61727157973809
 30
0.0
 11
-6.5064419196988723
 21
371.20213322823537
 31
0.0
  0
LINE
  8
0
  6
CONTINUOUS
 62
               3
  5
3CB
 10
-6.5064419196988723
 20
371.20213322823537
 30
0.0
 11
-6.6292041293831829
 21
370.78684042577601
 31
0.0
  0
LINE
  8
0
  6
CONTINUOUS
 62
               3
  5
3CC
 10
-6.6292041293831829
 20
370.78684042577601
 30
0.0
 11
-6.7508046429629616
 21
370.3712387214029
 31
0.0
  0
LINE
  8
0
  6
CONTINUOUS
 62
               3
  5
3CD
 10
-6.7508046429629616
 20
370.3712387214029
 30
0.0
 11
-6.8706626123859422
 21
369.95517366415919
 31
0.0
  0
LINE
  8
0
  6
CONTINUOUS
 62
               3
  5
3CE
 10
-6.8706626123859422
 20
369.95517366415919
 30
0.0
 11
-6.9881971895999726
 21
369.53849080308822
 31
0.0
  0
LINE
  8
0
  6
CONTINUOUS
 62
               3
  5
3CF
 10
-6.9881971895999726
 20
369.53849080308822
 30
0.0
 11
-7.102827526552673
 21
369.12103568723313
 31
0.0
  0
LINE
  8
0
  6
CONTINUOUS
 62
               3
  5
3D0
 10
-7.102827526552673
 20
369.12103568723313
 30
0.0
 11
-7.213974672235949
 21
368.70265439603639
 31
0.0
  0
LINE
  8
0
  6
CONTINUOUS
 62
               3
  5
3D1
 10
-7.213974672235949
 20
368.70265439603639
 30
0.0
 11
-7.3213439727966119
 21
368.28327249632883
 31
0.0
  0
LINE
  8
0
  6
CONTINUOUS
 62
               3
  5
3D2
 10
-7.3213439727966119
 20
368.28327249632883
 30
0.0
 11
-7.4252251380698198
 21
367.86297893871932
 31
0.0
  0
LINE
  8
0
  6
CONTINUOUS
 62
               3
  5
3D3
 10
-7.4252251380698198
 20
367.86297893871932
 30
0.0
 11
-7.5259797435968352
 21
367.44188276693802
 31
0.0
  0
LINE
  8
0
  6
CONTINUOUS
 62
               3
  5
3D4
 10
-7.5259797435968352
 20
367.44188276693802
 30
0.0
 11
-7.6239693649188069
 21
367.02009302471509
 31
0.0
  0
LINE
  8
0
  6
CONTINUOUS
 62
               3
  5
3D5
 10
-7.6239693649188069
 20
367.02009302471509
 30
0.0
 11
-7.719555577576827
 21
366.59771875578093
 31
0.0
  0
LINE
  8
0
  6
CONTINUOUS
 62
               3
  5
3D6
 10
-7.719555577576827
 20
366.59771875578093
 30
0.0
 11
-7.8130999571119872
 21
366.17486900386569
 31
0.0
  0
LINE
  8
0
  6
CONTINUOUS
 62
               3
  5
3D7
 10
-7.8130999571119872
 20
366.17486900386569
 30
0.0
 11
-7.9049640790654934
 21
365.75165281269932
 31
0.0
  0
LINE
  8
0
  6
CONTINUOUS
 62
               3
  5
3D8
 10
-7.9049640790654934
 20
365.75165281269932
 30
0.0
 11
-7.9954724722321515
 21
365.32816787183805
 31
0.0
  0
LINE
  8
0
  6
CONTINUOUS
 62
               3
  5
3D9
 10
-7.9954724722321515
 20
365.32816787183805
 30
0.0
 11
-8.084724989807782
 21
364.90444301173119
 31
0.0
  0
LINE
  8
0
  6
CONTINUOUS
 62
               3
  5
3DA
 10
-8.084724989807782
 20
364.90444301173119
 30
0.0
 11
-8.1727372356829022
 21
364.48048124190194
 31
0.0
  0
LINE
  8
0
  6
CONTINUOUS
 62
               3
  5
3DB
 10
-8.1727372356829022
 20
364.48048124190194
 30
0.0
 11
-8.259524664641944
 21
364.05628552617571
 31
0.0
  0
LINE
  8
0
  6
CONTINUOUS
 62
               3
  5
3DC
 10
-8.259524664641944
 20
364.05628552617571
 30
0.0
 11
-8.345102731469396
 21
363.63185882837723
 31
0.0
  0
LINE
  8
0
  6
CONTINUOUS
 62
               3
  5
3DD
 10
-8.345102731469396
 20
363.63185882837723
 30
0.0
 11
-8.4294868909497467
 21
363.20720411233168
 31
0.0
  0
LINE
  8
0
  6
CONTINUOUS
 62
               3
  5
3DE
 10
-8.4294868909497467
 20
363.20720411233168
 30
0.0
 11
-8.5126925978673142
 21
362.78232434186447
 31
0.0
  0
LINE
  8
0
  6
CONTINUOUS
 62
               3
  5
3DF
 10
-46.383098861961955
 20
371.617271579739
 30
0.0
 11
-46.727111581980111
 21
371.72785277428687
 31
0.0
  0
LINE
  8
0
  6
CONTINUOUS
 62
               3
  5
3E0
 10
-46.727111581980111
 20
371.72785277428687
 30
0.0
 11
-47.071176834529055
 21
371.83826296706292
 31
0.0
  0
LINE
  8
0
  6
CONTINUOUS
 62
               3
  5
3E1
 10
-47.071176834529055
 20
371.83826296706292
 30
0.0
 11
-47.415347152139518
 21
371.94833115629484
 31
0.0
  0
LINE
  8
0
  6
CONTINUOUS
 62
               3
  5
3E2
 10
-47.415347152139518
 20
371.94833115629484
 30
0.0
 11
-47.759675067342286
 21
372.05788634021059
 31
0.0
  0
LINE
  8
0
  6
CONTINUOUS
 62
               3
  5
3E3
 10
-47.759675067342286
 20
372.05788634021059
 30
0.0
 11
-48.104213112668035
 21
372.16675751703809
 31
0.0
  0
LINE
  8
0
  6
CONTINUOUS
 62
               3
  5
3E4
 10
-48.104213112668035
 20
372.16675751703809
 30
0.0
 11
-48.449013820647664
 21
372.27477368500553
 31
0.0
  0
LINE
  8
0
  6
CONTINUOUS
 62
               3
  5
3E5
 10
-48.449013820647664
 20
372.27477368500553
 30
0.0
 11
-48.794129723811906
 21
372.38176384234083
 31
0.0
  0
LINE
  8
0
  6
CONTINUOUS
 62
               3
  5
3E6
 10
-48.794129723811906
 20
372.38176384234083
 30
0.0
 11
-49.139613325776324
 21
372.48755707615277
 31
0.0
  0
LINE
  8
0
  6
CONTINUOUS
 62
               3
  5
3E7
 10
-49.139613325776324
 20
372.48755707615277
 30
0.0
 11
-49.485500606472314
 21
372.59203326498726
 31
0.0
  0
LINE
  8
0
  6
CONTINUOUS
 62
               3
  5
3E8
 10
-49.485500606472314
 20
372.59203326498726
 30
0.0
 11
-49.831783406496115
 21
372.69520796537853
 31
0.0
  0
LINE
  8
0
  6
CONTINUOUS
 62
               3
  5
3E9
 10
-49.831783406496115
 20
372.69520796537853
 30
0.0
 11
-50.178446275161761
 21
372.79711914621697
 31
0.0
  0
LINE
  8
0
  6
CONTINUOUS
 62
               3
  5
3EA
 10
-50.178446275161761
 20
372.79711914621697
 30
0.0
 11
-50.525473761783346
 21
372.897804776393
 31
0.0
  0
LINE
  8
0
  6
CONTINUOUS
 62
               3
  5
3EB
 10
-50.525473761783346
 20
372.897804776393
 30
0.0
 11
-50.872850415674961
 21
372.9973028247968
 31
0.0
  0
LINE
  8
0
  6
CONTINUOUS
 62
               3
  5
3EC
 10
-50.872850415674961
 20
372.9973028247968
 30
0.0
 11
-51.220560786150699
 21
373.09565126031879
 31
0.0
  0
LINE
  8
0
  6
CONTINUOUS
 62
               3
  5
3ED
 10
-51.220560786150699
 20
373.09565126031879
 30
0.0
 11
-51.568589422524596
 21
373.19288805184937
 31
0.0
  0
LINE
  8
0
  6
CONTINUOUS
 62
               3
  5
3EE
 10
-51.568589422524596
 20
373.19288805184937
 30
0.0
 11
-51.916920874110801
 21
373.28905116827895
 31
0.0
  0
LINE
  8
0
  6
CONTINUOUS
 62
               3
  5
3EF
 10
-51.916920874110801
 20
373.28905116827895
 30
0.0
 11
-52.265544453573384
 21
373.38415940869726
 31
0.0
  0
LINE
  8
0
  6
CONTINUOUS
 62
               3
  5
3F0
 10
-52.265544453573384
 20
373.38415940869726
 30
0.0
 11
-52.614470052234807
 21
373.47814875468379
 31
0.0
  0
LINE
  8
0
  6
CONTINUOUS
 62
               3
  5
3F1
 10
-52.614470052234807
 20
373.47814875468379
 30
0.0
 11
-52.963713117434949
 21
373.57093282797808
 31
0.0
  0
LINE
  8
0
  6
CONTINUOUS
 62
               3
  5
3F2
 10
-52.963713117434949
 20
373.57093282797808
 30
0.0
 11
-53.313289096600542
 21
373.66242524996954
 31
0.0
  0
LINE
  8
0
  6
CONTINUOUS
 62
               3
  5
3F3
 10
-53.313289096600542
 20
373.66242524996954
 30
0.0
 11
-53.663213437158433
 21
373.75253964204779
 31
0.0
  0
LINE
  8
0
  6
CONTINUOUS
 62
               3
  5
3F4
 10
-53.663213437158433
 20
373.75253964204779
 30
0.0
 11
-54.013501586535412
 21
373.841189625602
 31
0.0
  0
LINE
  8
0
  6
CONTINUOUS
 62
               3
  5
3F5
 10
-54.013501586535412
 20
373.841189625602
 30
0.0
 11
-54.364168992158383
 21
373.92828882202201
 31
0.0
  0
LINE
  8
0
  6
CONTINUOUS
 62
               3
  5
3F6
 10
-54.364168992158383
 20
373.92828882202201
 30
0.0
 11
-54.715231058899846
 21
374.01375104520952
 31
0.0
  0
LINE
  8
0
  6
CONTINUOUS
 62
               3
  5
3F7
 10
-54.715231058899846
 20
374.01375104520952
 30
0.0
 11
-55.066686453173119
 21
374.09756583311781
 31
0.0
  0
LINE
  8
0
  6
CONTINUOUS
 62
               3
  5
3F8
 10
-55.066686453173119
 20
374.09756583311781
 30
0.0
 11
-55.418491716348214
 21
374.179913295532
 31
0.0
  0
LINE
  8
0
  6
CONTINUOUS
 62
               3
  5
3F9
 10
-55.418491716348214
 20
374.179913295532
 30
0.0
 11
-55.770596867153401
 21
374.26100305037988
 31
0.0
  0
LINE
  8
0
  6
CONTINUOUS
 62
               3
  5
3FA
 10
-55.770596867153401
 20
374.26100305037988
 30
0.0
 11
-56.122951924316951
 21
374.34104471558902
 31
0.0
  0
LINE
  8
0
  6
CONTINUOUS
 62
               3
  5
3FB
 10
-56.122951924316951
 20
374.34104471558902
 30
0.0
 11
-56.475506906567247
 21
374.42024790908744
 31
0.0
  0
LINE
  8
0
  6
CONTINUOUS
 62
               3
  5
3FC
 10
-56.475506906567247
 20
374.42024790908744
 30
0.0
 11
-56.828211832632618
 21
374.49882224880247
 31
0.0
  0
LINE
  8
0
  6
CONTINUOUS
 62
               3
  5
3FD
 10
-56.828211832632618
 20
374.49882224880247
 30
0.0
 11
-57.181016721241335
 21
374.57697735266237
 31
0.0
  0
LINE
  8
0
  6
CONTINUOUS
 62
               3
  5
3FE
 10
-57.181016721241335
 20
374.57697735266237
 30
0.0
 11
-57.533871591121724
 21
374.65492283859425
 31
0.0
  0
LINE
  8
0
  6
CONTINUOUS
 62
               3
  5
3FF
 10
-26.710790117432211
 20
363.00013909093713
 30
0.0
 11
-27.571345957242542
 21
363.46354990225944
 31
0.0
  0
LINE
  8
0
  6
CONTINUOUS
 62
               3
  5
400
 10
-27.571345957242542
 20
363.46354990225944
 30
0.0
 11
-28.435127431355895
 21
363.92104046479761
 31
0.0
  0
LINE
  8
0
  6
CONTINUOUS
 62
               3
  5
401
 10
-28.435127431355895
 20
363.92104046479761
 30
0.0
 11
-29.302080747188128
 21
364.37262643915045
 31
0.0
  0
LINE
  8
0
  6
CONTINUOUS
 62
               3
  5
402
 10
-29.302080747188128
 20
364.37262643915045
 30
0.0
 11
-30.172152112155274
 21
364.81832348591769
 31
0.0
  0
LINE
  8
0
  6
CONTINUOUS
 62
               3
  5
403
 10
-30.172152112155274
 20
364.81832348591769
 30
0.0
 11
-31.045287733673078
 21
365.25814726569814
 31
0.0
  0
LINE
  8
0
  6
CONTINUOUS
 62
               3
  5
404
 10
-31.045287733673078
 20
365.25814726569814
 30
0.0
 11
-31.921433819157571
 21
365.69211343909109
 31
0.0
  0
LINE
  8
0
  6
CONTINUOUS
 62
               3
  5
405
 10
-31.921433819157571
 20
365.69211343909109
 30
0.0
 11
-32.800570500373382
 21
366.12013820343572
 31
0.0
  0
LINE
  8
0
  6
CONTINUOUS
 62
               3
  5
406
 10
-32.800570500373382
 20
366.12013820343572
 30
0.0
 11
-33.682813832814176
 21
366.54173923943648
 31
0.0
  0
LINE
  8
0
  6
CONTINUOUS
 62
               3
  5
407
 10
-33.682813832814176
 20
366.54173923943648
 30
0.0
 11
-34.568313909584035
 21
366.95633443246533
 31
0.0
  0
LINE
  8
0
  6
CONTINUOUS
 62
               3
  5
408
 10
-34.568313909584035
 20
366.95633443246533
 30
0.0
 11
-35.457220823786756
 21
367.36334166789442
 31
0.0
  0
LINE
  8
0
  6
CONTINUOUS
 62
               3
  5
409
 10
-35.457220823786756
 20
367.36334166789442
 30
0.0
 11
-36.349684668526422
 21
367.76217883109524
 31
0.0
  0
LINE
  8
0
  6
CONTINUOUS
 62
               3
  5
40A
 10
-36.349684668526422
 20
367.76217883109524
 30
0.0
 11
-37.245855536906831
 21
368.15226380743997
 31
0.0
  0
LINE
  8
0
  6
CONTINUOUS
 62
               3
  5
40B
 10
-37.245855536906831
 20
368.15226380743997
 30
0.0
 11
-38.145883522031895
 21
368.53301448230008
 31
0.0
  0
LINE
  8
0
  6
CONTINUOUS
 62
               3
  5
40C
 10
-38.145883522031895
 20
368.53301448230008
 30
0.0
 11
-39.049916088029576
 21
368.90385617720943
 31
0.0
  0
LINE
  8
0
  6
CONTINUOUS
 62
               3
  5
40D
 10
-39.049916088029576
 20
368.90385617720943
 30
0.0
 11
-39.957879937702657
 21
369.2648386457451
 31
0.0
  0
LINE
  8
0
  6
CONTINUOUS
 62
               3
  5
40E
 10
-39.957879937702657
 20
369.2648386457451
 30
0.0
 11
-40.869317386203178
 21
369.61709889699313
 31
0.0
  0
LINE
  8
0
  6
CONTINUOUS
 62
               3
  5
40F
 10
-40.869317386203178
 20
369.61709889699313
 30
0.0
 11
-41.78373220512718
 21
369.96188296199438
 31
0.0
  0
LINE
  8
0
  6
CONTINUOUS
 62
               3
  5
410
 10
-41.78373220512718
 20
369.96188296199438
 30
0.0
 11
-42.7006281660707
 21
370.30043687178994
 31
0.0
  0
LINE
  8
0
  6
CONTINUOUS
 62
               3
  5
411
 10
-42.7006281660707
 20
370.30043687178994
 30
0.0
 11
-43.619509040629836
 21
370.63400665742114
 31
0.0
  0
LINE
  8
0
  6
CONTINUOUS
 62
               3
  5
412
 10
-43.619509040629836
 20
370.63400665742114
 30
0.0
 11
-44.539878600400684
 21
370.96383834992884
 31
0.0
  0
LINE
  8
0
  6
CONTINUOUS
 62
               3
  5
413
 10
-44.539878600400684
 20
370.96383834992884
 30
0.0
 11
-45.461240616979339
 21
371.29117798035435
 31
0.0
  0
LINE
  8
0
  6
CONTINUOUS
 62
               3
  5
414
 10
-45.461240616979339
 20
371.29117798035435
 30
0.0
 11
-46.383098861961955
 21
371.617271579739
 31
0.0
  0
LINE
  8
0
  6
CONTINUOUS
 62
               3
  5
415
 10
-6.1318362034908915
 20
403.39952338124959
 30
0.0
 11
-6.1318362034908915
 21
415.39952338124976
 31
0.0
  0
LINE
  8
0
  6
CONTINUOUS
 62
               3
  5
416
 10
-96.13183620349146
 20
403.39952338124988
 30
0.0
 11
-6.1318362034908915
 21
403.39952338124988
 31
0.0
  0
LINE
  8
0
  6
CONTINUOUS
 62
               3
  5
417
 10
-96.13183620349146
 20
415.39952338124976
 30
0.0
 11
-6.1318362034908915
 21
415.39952338124976
 31
0.0
  0
LINE
  8
0
  6
CONTINUOUS
 62
               3
  5
418
 10
-96.13183620349146
 20
403.39952338124959
 30
0.0
 11
-96.13183620349146
 21
415.39952338124976
 31
0.0
  0
LINE
  8
0
  6
CONTINUOUS
 62
               3
  5
419
 10
-13.132882224017081
 20
403.39952338124988
 30
0.0
 11
-13.132882224017081
 21
395.39952338124971
 31
0.0
  0
LINE
  8
0
  6
CONTINUOUS
 62
               3
  5
41A
 10
-89.132882224017308
 20
403.39952338124988
 30
0.0
 11
-89.132882224017308
 21
395.39952338124971
 31
0.0
  0
LINE
  8
0
  6
CONTINUOUS
 62
               3
  5
41B
 10
-8.5126925978673142
 20
362.78232434186447
 30
0.0
 11
-8.5947353070066441
 21
362.35722248080009
 31
0.0
  0
LINE
  8
0
  6
CONTINUOUS
 62
               3
  5
41C
 10
-8.5947353070066441
 20
362.35722248080009
 30
0.0
 11
-8.6756304731522249
 21
361.93190149296441
 31
0.0
  0
LINE
  8
0
  6
CONTINUOUS
 62
               3
  5
41D
 10
-8.6756304731522249
 20
361.93190149296441
 30
0.0
 11
-8.7554096135215644
 21
361.50636740729959
 31
0.0
  0
LINE
  8
0
  6
CONTINUOUS
 62
               3
  5
41E
 10
-8.7554096135215644
 20
361.50636740729959
 30
0.0
 11
-8.8341779496096677
 21
361.08064031738303
 31
0.0
  0
LINE
  8
0
  6
CONTINUOUS
 62
               3
  5
41F
 10
-8.8341779496096677
 20
361.08064031738303
 30
0.0
 11
-8.9120618304076373
 21
360.65474434845163
 31
0.0
  0
LINE
  8
0
  6
CONTINUOUS
 62
               3
  5
420
 10
-8.9120618304076373
 20
360.65474434845163
 30
0.0
 11
-8.9891876066712229
 21
360.22870362607927
 31
0.0
  0
LINE
  8
0
  6
CONTINUOUS
 62
               3
  5
421
 10
-8.9891876066712229
 20
360.22870362607927
 30
0.0
 11
-9.0656816291560602
 21
359.80254227583913
 31
0.0
  0
LINE
  8
0
  6
CONTINUOUS
 62
               3
  5
422
 10
-9.0656816291560602
 20
359.80254227583913
 30
0.0
 11
-9.1416702486180128
 21
359.37628442330487
 31
0.0
  0
LINE
  8
0
  6
CONTINUOUS
 62
               3
  5
423
 10
-9.1416702486180128
 20
359.37628442330487
 30
0.0
 11
-9.2172798158127165
 21
358.94995419405012
 31
0.0
  0
LINE
  8
0
  6
CONTINUOUS
 62
               3
  5
424
 10
-9.2172798158127165
 20
358.94995419405012
 30
0.0
 11
-9.2926366814959778
 21
358.52357571364809
 31
0.0
  0
LINE
  8
0
  6
CONTINUOUS
 62
               3
  5
425
 10
-9.2926366814959778
 20
358.52357571364809
 30
0.0
 11
-9.3678671964234326
 21
358.09717310767263
 31
0.0
  0
LINE
  8
0
  6
CONTINUOUS
 62
               3
  5
426
 10
-9.3678671964234326
 20
358.09717310767263
 30
0.0
 11
-9.3969711456227145
 21
357.96797704732961
 31
0.0
  0
LINE
  8
0
  6
CONTINUOUS
 62
               3
  5
427
 10
-9.3969711456227145
 20
357.96797704732961
 30
0.0
 11
-9.427589495224808
 21
357.83927564575714
 31
0.0
  0
LINE
  8
0
  6
CONTINUOUS
 62
               3
  5
428
 10
-9.427589495224808
 20
357.83927564575714
 30
0.0
 11
-9.4612366456326384
 21
357.71156356172577
 31
0.0
  0
LINE
  8
0
  6
CONTINUOUS
 62
               3
  5
429
 10
-9.4612366456326384
 20
357.71156356172577
 30
0.0
 11
-9.4994269972488468
 21
357.58533545400604
 31
0.0
  0
LINE
  8
0
  6
CONTINUOUS
 62
               3
  5
42A
 10
-9.4994269972488468
 20
357.58533545400604
 30
0.0
 11
-9.5436394486776948
 21
357.46108106449418
 31
0.0
  0
LINE
  8
0
  6
CONTINUOUS
 62
               3
  5
42B
 10
-9.5436394486776948
 20
357.46108106449418
 30
0.0
 11
-9.5944446208940661
 21
357.3391643418401
 31
0.0
  0
LINE
  8
0
  6
CONTINUOUS
 62
               3
  5
42C
 10
-9.5944446208940661
 20
357.3391643418401
 30
0.0
 11
-9.6514507657445137
 21
357.21981594996231
 31
0.0
  0
LINE
  8
0
  6
CONTINUOUS
 62
               3
  5
42D
 10
-9.6514507657445137
 20
357.21981594996231
 30
0.0
 11
-9.7142199714519251
 21
357.1032602096231
 31
0.0
  0
LINE
  8
0
  6
CONTINUOUS
 62
               3
  5
42E
 10
-9.7142199714519251
 20
357.1032602096231
 30
0.0
 11
-9.7824155982938663
 21
356.9897658454949
 31
0.0
  0
LINE
  8
0
  6
CONTINUOUS
 62
               3
  5
42F
 10
-9.7824155982938663
 20
356.9897658454949
 30
0.0
 11
-9.8559737008346104
 21
356.87972114823259
 31
0.0
  0
LINE
  8
0
  6
CONTINUOUS
 62
               3
  5
430
 10
-9.8559737008346104
 20
356.87972114823259
 30
0.0
 11
-9.934875767106675
 21
356.77353432932267
 31
0.0
  0
LINE
  8
0
  6
CONTINUOUS
 62
               3
  5
431
 10
-9.934875767106675
 20
356.77353432932267
 30
0.0
 11
-10.019103285142521
 21
356.6716136002521
 31
0.0
  0
LINE
  8
0
  6
CONTINUOUS
 62
               3
  5
432
 10
-10.019103285142521
 20
356.6716136002521
 30
0.0
 11
-10.108629185316531
 21
356.57436232849722
 31
0.0
  0
LINE
  8
0
  6
CONTINUOUS
 62
               3
  5
433
 10
-10.108629185316531
 20
356.57436232849722
 30
0.0
 11
-10.20331754395805
 21
356.48212226535014
 31
0.0
  0
LINE
  8
0
  6
CONTINUOUS
 62
               3
  5
434
 10
-10.20331754395805
 20
356.48212226535014
 30
0.0
 11
-10.302957486789452
 21
356.39519273675904
 31
0.0
  0
LINE
  8
0
  6
CONTINUOUS
 62
               3
  5
435
 10
-10.302957486789452
 20
356.39519273675904
 30
0.0
 11
-10.407336261335999
 21
356.31387165673158
 31
0.0
  0
LINE
  8
0
  6
CONTINUOUS
 62
               3
  5
436
 10
-10.407336261335999
 20
356.31387165673158
 30
0.0
 11
-10.516177589319042
 21
356.23836539756752
 31
0.0
  0
LINE
  8
0
  6
CONTINUOUS
 62
               3
  5
437
 10
-10.516177589319042
 20
356.23836539756752
 30
0.0
 11
-10.629072593372527
 21
356.16868925414536
 31
0.0
  0
LINE
  8
0
  6
CONTINUOUS
 62
               3
  5
438
 10
-10.629072593372527
 20
356.16868925414536
 30
0.0
 11
-10.745595790059937
 21
356.10483459172809
 31
0.0
  0
LINE
  8
0
  6
CONTINUOUS
 62
               3
  5
439
 10
-10.745595790059937
 20
356.10483459172809
 30
0.0
 11
-10.865321695944928
 21
356.04679277557915
 31
0.0
  0
LINE
  8
0
  6
CONTINUOUS
 62
               3
  5
43A
 10
-10.865321695944928
 20
356.04679277557915
 30
0.0
 11
-10.98782482759087
 21
355.9945551709622
 31
0.0
  0
LINE
  8
0
  6
CONTINUOUS
 62
               3
  5
43B
 10
-10.98782482759087
 20
355.9945551709622
 30
0.0
 11
-11.112679701561419
 21
355.94811314313978
 31
0.0
  0
LINE
  8
0
  6
CONTINUOUS
 62
               3
  5
43C
 10
-13.595306474532705
 20
355.94903710916122
 30
0.0
 11
-13.723632096457024
 21
355.98096280800399
 31
0.0
  0
LINE
  8
0
  6
CONTINUOUS
 62
               3
  5
43D
 10
-13.723632096457024
 20
355.98096280800399
 30
0.0
 11
-13.85137397513158
 21
356.01493399307782
 31
0.0
  0
LINE
  8
0
  6
CONTINUOUS
 62
               3
  5
43E
 10
-13.85137397513158
 20
356.01493399307782
 30
0.0
 11
-13.978544431408736
 21
356.05085591469259
 31
0.0
  0
LINE
  8
0
  6
CONTINUOUS
 62
               3
  5
43F
 10
-13.978544431408736
 20
356.05085591469259
 30
0.0
 11
-14.105155786140799
 21
356.0886338231582
 31
0.0
  0
LINE
  8
0
  6
CONTINUOUS
 62
               3
  5
440
 10
-14.105155786140799
 20
356.0886338231582
 30
0.0
 11
-14.231220360180018
 21
356.12817296878546
 31
0.0
  0
LINE
  8
0
  6
CONTINUOUS
 62
               3
  5
441
 10
-14.231220360180018
 20
356.12817296878546
 30
0.0
 11
-14.3567504743787
 21
356.16937860188358
 31
0.0
  0
LINE
  8
0
  6
CONTINUOUS
 62
               3
  5
442
 10
-14.3567504743787
 20
356.16937860188358
 30
0.0
 11
-14.481758449589094
 21
356.21215597276313
 31
0.0
  0
LINE
  8
0
  6
CONTINUOUS
 62
               3
  5
443
 10
-14.481758449589094
 20
356.21215597276313
 30
0.0
 11
-14.606256606663564
 21
356.256410331734
 31
0.0
  0
LINE
  8
0
  6
CONTINUOUS
 62
               3
  5
444
 10
-14.606256606663564
 20
356.256410331734
 30
0.0
 11
-14.730257266454416
 21
356.30204692910633
 31
0.0
  0
LINE
  8
0
  6
CONTINUOUS
 62
               3
  5
445
 10
-14.730257266454416
 20
356.30204692910633
 30
0.0
 11
-14.853772670732141
 21
356.34897154207437
 31
0.0
  0
LINE
  8
0
  6
CONTINUOUS
 62
               3
  5
446
 10
-14.853772670732141
 20
356.34897154207437
 30
0.0
 11
-14.976811340003778
 21
356.39711474083282
 31
0.0
  0
LINE
  8
0
  6
CONTINUOUS
 62
               3
  5
447
 10
-14.976811340003778
 20
356.39711474083282
 30
0.0
 11
-15.099376549100654
 21
356.44644204501009
 31
0.0
  0
LINE
  8
0
  6
CONTINUOUS
 62
               3
  5
448
 10
-15.099376549100654
 20
356.44644204501009
 30
0.0
 11
-15.221471177578323
 21
356.49692160776721
 31
0.0
  0
LINE
  8
0
  6
CONTINUOUS
 62
               3
  5
449
 10
-15.221471177578323
 20
356.49692160776721
 30
0.0
 11
-15.343098104992563
 21
356.5485215822643
 31
0.0
  0
LINE
  8
0
  6
CONTINUOUS
 62
               3
  5
44A
 10
-15.343098104992563
 20
356.5485215822643
 30
0.0
 11
-15.464260210898814
 21
356.60121012166286
 31
0.0
  0
LINE
  8
0
  6
CONTINUOUS
 62
               3
  5
44B
 10
-15.464260210898814
 20
356.60121012166286
 30
0.0
 11
-15.584960374852798
 21
356.65495537912301
 31
0.0
  0
LINE
  8
0
  6
CONTINUOUS
 62
               3
  5
44C
 10
-15.584960374852798
 20
356.65495537912301
 30
0.0
 11
-15.705201476410124
 21
356.70972550780624
 31
0.0
  0
LINE
  8
0
  6
CONTINUOUS
 62
               3
  5
44D
 10
-15.705201476410124
 20
356.70972550780624
 30
0.0
 11
-15.824986395126402
 21
356.76548866087268
 31
0.0
  0
LINE
  8
0
  6
CONTINUOUS
 62
               3
  5
44E
 10
-15.824986395126402
 20
356.76548866087268
 30
0.0
 11
-15.94431801055724
 21
356.82221299148358
 31
0.0
  0
LINE
  8
0
  6
CONTINUOUS
 62
               3
  5
44F
 10
-15.94431801055724
 20
356.82221299148358
 30
0.0
 11
-16.063199202258303
 21
356.87986665279976
 31
0.0
  0
LINE
  8
0
  6
CONTINUOUS
 62
               3
  5
450
 10
-16.063199202258303
 20
356.87986665279976
 30
0.0
 11
-16.181632849785203
 21
356.93841779798157
 31
0.0
  0
LINE
  8
0
  6
CONTINUOUS
 62
               3
  5
451
 10
-16.181632849785203
 20
356.93841779798157
 30
0.0
 11
-16.299621832693546
 21
356.99783458019027
 31
0.0
  0
LINE
  8
0
  6
CONTINUOUS
 62
               3
  5
452
 10
-16.299621832693546
 20
356.99783458019027
 30
0.0
 11
-16.417169030538943
 21
357.05808515258644
 31
0.0
  0
LINE
  8
0
  6
CONTINUOUS
 62
               3
  5
453
 10
-16.417169030538943
 20
357.05808515258644
 30
0.0
 11
-16.5342803861124
 21
357.11913538829771
 31
0.0
  0
LINE
  8
0
  6
CONTINUOUS
 62
               3
  5
454
 10
-16.5342803861124
 20
357.11913538829771
 30
0.0
 11
-16.650978099694427
 21
357.18093905964628
 31
0.0
  0
LINE
  8
0
  6
CONTINUOUS
 62
               3
  5
455
 10
-16.650978099694427
 20
357.18093905964628
 30
0.0
 11
-16.767289744248373
 21
357.24344593994869
 31
0.0
  0
LINE
  8
0
  6
CONTINUOUS
 62
               3
  5
456
 10
-16.767289744248373
 20
357.24344593994869
 30
0.0
 11
-16.883242896133467
 21
357.30660579999375
 31
0.0
  0
LINE
  8
0
  6
CONTINUOUS
 62
               3
  5
457
 10
-16.883242896133467
 20
357.30660579999375
 30
0.0
 11
-16.998865131708939
 21
357.37036841057051
 31
0.0
  0
LINE
  8
0
  6
CONTINUOUS
 62
               3
  5
458
 10
-16.998865131708939
 20
357.37036841057051
 30
0.0
 11
-17.114184027333735
 21
357.43468354246824
 31
0.0
  0
LINE
  8
0
  6
CONTINUOUS
 62
               3
  5
459
 10
-17.114184027333735
 20
357.43468354246824
 30
0.0
 11
-17.229227159367198
 21
357.49950096647575
 31
0.0
  0
LINE
  8
0
  6
CONTINUOUS
 62
               3
  5
45A
 10
-17.229227159367198
 20
357.49950096647575
 30
0.0
 11
-17.344022104168332
 21
357.56477045338187
 31
0.0
  0
LINE
  8
0
  6
CONTINUOUS
 62
               3
  5
45B
 10
-17.344022104168332
 20
357.56477045338187
 30
0.0
 11
-17.458596438096365
 21
357.63044177397632
 31
0.0
  0
LINE
  8
0
  6
CONTINUOUS
 62
               3
  5
45C
 10
-17.458596438096365
 20
357.63044177397632
 30
0.0
 11
-17.572977737510357
 21
357.69646469904723
 31
0.0
  0
LINE
  8
0
  6
CONTINUOUS
 62
               3
  5
45D
 10
-17.572977737510357
 20
357.69646469904723
 30
0.0
 11
-17.687193578769538
 21
357.76278899938433
 31
0.0
  0
LINE
  8
0
  6
CONTINUOUS
 62
               3
  5
45E
 10
-17.687193578769538
 20
357.76278899938433
 30
0.0
 11
-17.801271538232967
 21
357.82936444577598
 31
0.0
  0
LINE
  8
0
  6
CONTINUOUS
 62
               3
  5
45F
 10
-17.801271538232967
 20
357.82936444577598
 30
0.0
 11
-17.915239192259818
 21
357.89614080901191
 31
0.0
  0
LINE
  8
0
  6
CONTINUOUS
 62
               3
  5
460
 10
-17.915239192259818
 20
357.89614080901191
 30
0.0
 11
-18.029124117209321
 21
357.96306785988048
 31
0.0
  0
LINE
  8
0
  6
CONTINUOUS
 62
               3
  5
461
 10
-18.029124117209321
 20
357.96306785988048
 30
0.0
 11
-18.14295388944042
 21
358.03009536917097
 31
0.0
  0
LINE
  8
0
  6
CONTINUOUS
 62
               3
  5
462
 10
-18.14295388944042
 20
358.03009536917097
 30
0.0
 11
-18.25675608531246
 21
358.09717310767263
 31
0.0
  0
LINE
  8
0
  6
CONTINUOUS
 62
               3
  5
463
 10
-18.25675608531246
 20
358.09717310767263
 30
0.0
 11
-19.094967376743668
 21
358.60010653364787
 31
0.0
  0
LINE
  8
0
  6
CONTINUOUS
 62
               3
  5
464
 10
-19.094967376743668
 20
358.60010653364787
 30
0.0
 11
-19.933620648289647
 21
359.10226436434272
 31
0.0
  0
LINE
  8
0
  6
CONTINUOUS
 62
               3
  5
465
 10
-19.933620648289647
 20
359.10226436434272
 30
0.0
 11
-20.77315788006517
 21
359.60287100447653
 31
0.0
  0
LINE
  8
0
  6
CONTINUOUS
 62
               3
  5
466
 10
-20.77315788006517
 20
359.60287100447653
 30
0.0
 11
-21.614021052185066
 21
360.10115085876913
 31
0.0
  0
LINE
  8
0
  6
CONTINUOUS
 62
               3
  5
467
 10
-21.614021052185066
 20
360.10115085876913
 30
0.0
 11
-22.456652144764163
 21
360.59632833193945
 31
0.0
  0
LINE
  8
0
  6
CONTINUOUS
 62
               3
  5
468
 10
-22.456652144764163
 20
360.59632833193945
 30
0.0
 11
-23.301493137917177
 21
361.08762782870798
 31
0.0
  0
LINE
  8
0
  6
CONTINUOUS
 62
               3
  5
469
 10
-23.301493137917177
 20
361.08762782870798
 30
0.0
 11
-24.148986011758993
 21
361.57427375379365
 31
0.0
  0
LINE
  8
0
  6
CONTINUOUS
 62
               3
  5
46A
 10
-24.148986011758993
 20
361.57427375379365
 30
0.0
 11
-24.999570511056945
 21
362.05549407954248
 31
0.0
  0
LINE
  8
0
  6
CONTINUOUS
 62
               3
  5
46B
 10
-24.999570511056945
 20
362.05549407954248
 30
0.0
 11
-25.853513704508984
 21
362.53079237023138
 31
0.0
  0
LINE
  8
0
  6
CONTINUOUS
 62
               3
  5
46C
 10
-25.853513704508984
 20
362.53079237023138
 30
0.0
 11
-26.710790117432211
 21
363.00013909093713
 31
0.0
  0
LINE
  8
0
  6
CONTINUOUS
 62
               3
  5
46D
 10
-11.112679701561419
 20
355.94811314313978
 30
0.0
 11
-11.239460834420058
 21
355.90745805737578
 31
0.0
  0
LINE
  8
0
  6
CONTINUOUS
 62
               3
  5
46E
 10
-11.239460834420058
 20
355.90745805737578
 30
0.0
 11
-11.367742742730897
 21
355.8725812789325
 31
0.0
  0
LINE
  8
0
  6
CONTINUOUS
 62
               3
  5
46F
 10
-11.367742742730897
 20
355.8725812789325
 30
0.0
 11
-11.497142565888211
 21
355.84342751461207
 31
0.0
  0
LINE
  8
0
  6
CONTINUOUS
 62
               3
  5
470
 10
-11.497142565888211
 20
355.84342751461207
 30
0.0
 11
-11.627446705365898
 21
355.81975618300083
 31
0.0
  0
LINE
  8
0
  6
CONTINUOUS
 62
               3
  5
471
 10
-11.627446705365898
 20
355.81975618300083
 30
0.0
 11
-11.758483573060104
 21
355.80128071461712
 31
0.0
  0
LINE
  8
0
  6
CONTINUOUS
 62
               3
  5
472
 10
-11.758483573060104
 20
355.80128071461712
 30
0.0
 11
-11.890081580866976
 21
355.78771453997905
 31
0.0
  0
LINE
  8
0
  6
CONTINUOUS
 62
               3
  5
473
 10
-11.890081580866976
 20
355.78771453997905
 30
0.0
 11
-12.02206914068266
 21
355.7787710896045
 31
0.0
  0
LINE
  8
0
  6
CONTINUOUS
 62
               3
  5
474
 10
-12.02206914068266
 20
355.7787710896045
 30
0.0
 11
-12.154274664403189
 21
355.77416379401137
 31
0.0
  0
LINE
  8
0
  6
CONTINUOUS
 62
               3
  5
475
 10
-12.154274664403189
 20
355.77416379401137
 30
0.0
 11
-12.286527363172624
 21
355.77360687798358
 31
0.0
  0
LINE
  8
0
  6
CONTINUOUS
 62
               3
  5
476
 10
-12.286527363172624
 20
355.77360687798358
 30
0.0
 11
-12.418700454112113
 21
355.77685829796354
 31
0.0
  0
LINE
  8
0
  6
CONTINUOUS
 62
               3
  5
477
 10
-12.418700454112113
 20
355.77685829796354
 30
0.0
 11
-12.550733184988232
 21
355.78374162942617
 31
0.0
  0
LINE
  8
0
  6
CONTINUOUS
 62
               3
  5
478
 10
-12.550733184988232
 20
355.78374162942617
 30
0.0
 11
-12.68257023640858
 21
355.79408584682159
 31
0.0
  0
LINE
  8
0
  6
CONTINUOUS
 62
               3
  5
479
 10
-12.68257023640858
 20
355.79408584682159
 30
0.0
 11
-12.814156288980925
 21
355.80771992459921
 31
0.0
  0
LINE
  8
0
  6
CONTINUOUS
 62
               3
  5
47A
 10
-12.814156288980925
 20
355.80771992459921
 30
0.0
 11
-12.945436023312865
 21
355.82447283720938
 31
0.0
  0
LINE
  8
0
  6
CONTINUOUS
 62
               3
  5
47B
 10
-12.945436023312865
 20
355.82447283720938
 30
0.0
 11
-13.076354120012113
 21
355.84417355910108
 31
0.0
  0
LINE
  8
0
  6
CONTINUOUS
 62
               3
  5
47C
 10
-13.076354120012113
 20
355.84417355910108
 30
0.0
 11
-13.206855259686265
 21
355.86665106472464
 31
0.0
  0
LINE
  8
0
  6
CONTINUOUS
 62
               3
  5
47D
 10
-13.206855259686265
 20
355.86665106472464
 30
0.0
 11
-13.336884122943033
 21
355.89173432852948
 31
0.0
  0
LINE
  8
0
  6
CONTINUOUS
 62
               3
  5
47E
 10
-13.336884122943033
 20
355.89173432852948
 30
0.0
 11
-13.466385390390073
 21
355.91925232496573
 31
0.0
  0
LINE
  8
0
  6
CONTINUOUS
 62
               3
  5
47F
 10
-13.466385390390073
 20
355.91925232496573
 30
0.0
 11
-13.595306474532705
 21
355.94903710916122
 31
0.0
  0
ARC
  8
0
  6
CONTINUOUS
 62
               3
  5
480
 10
-82.95164135688394
 20
-211.09159030982698
 30
0.0
 40
9.9999999999999964
 50
117.72027269076911
 51
332.2797273091445
  0
ARC
  8
0
  6
CONTINUOUS
 62
               3
  5
481
 10
-69.673204894314424
 20
-218.06891967782309
 30
0.0
 40
4.9999999999999982
 50
64.456602312026305
 51
152.27972730917895
  0
ARC
  8
0
  6
CONTINUOUS
 62
               3
  5
482
 10
-89.928970724880045
 20
-197.81315384725733
 30
0.0
 40
4.9999999999999982
 50
297.7202726907351
 51
385.5433976878868
  0
ARC
  8
0
  6
CONTINUOUS
 62
               3
  5
483
 10
-19.312031050094717
 20
-147.45198000303776
 30
0.0
 40
9.9999999999999964
 50
297.72027269073504
 51
512.27972730910938
  0
ARC
  8
0
  6
CONTINUOUS
 62
               3
  5
484
 10
-32.590467512664233
 20
-140.47465063504151
 30
0.0
 40
4.9999999999999982
 50
244.45660231199182
 51
332.2797273091445
  0
ARC
  8
0
  6
CONTINUOUS
 62
               3
  5
485
 10
-12.334701682098611
 20
-160.73041646560742
 30
0.0
 40
4.9999999999999982
 50
117.72027269076949
 51
205.54339768792224
  0
LINE
  8
0
  6
CONTINUOUS
 62
               3
  5
486
 10
-92.895805210557086
 20
-212.14686527461112
 30
0.0
 11
-95.880573545018692
 21
-184.02052249796145
 31
0.0
  0
LINE
  8
0
  6
CONTINUOUS
 62
               3
  5
487
 10
-46.383098861960249
 20
-134.52304781490318
 30
0.0
 11
-18.256756085310421
 21
-137.5078161493646
 31
0.0
  0
LINE
  8
0
  6
CONTINUOUS
 62
               3
  5
488
 10
-84.006916321668243
 20
-221.0357541635
 30
0.0
 11
-55.880573545018407
 21
-224.02052249796145
 31
0.0
  0
LINE
  8
0
  6
CONTINUOUS
 62
               3
  5
489
 10
-6.3830988619602493
 20
-174.52304781490315
 30
0.0
 11
-9.367867196421571
 21
-146.39670503825346
 31
0.0
  0
ARC
  8
0
  6
CONTINUOUS
 62
               3
  5
48A
 10
-51.131836203489328
 20
-179.27178515643237
 30
0.0
 40
45.0
 50
83.942441268965311
 51
186.057558730983
  0
ARC
  8
0
  6
CONTINUOUS
 62
               3
  5
48B
 10
-51.131836203489328
 20
-179.27178515643237
 30
0.0
 40
38.0
 50
64.45660231202632
 51
205.54339768792207
  0
ARC
  8
0
  6
CONTINUOUS
 62
               3
  5
48C
 10
-51.131836203489328
 20
-179.27178515643237
 30
0.0
 40
45.0
 50
263.94244126893096
 51
366.0575587309479
  0
ARC
  8
0
  6
CONTINUOUS
 62
               3
  5
48D
 10
-51.131836203489328
 20
-179.27178515643237
 30
0.0
 40
38.0
 50
244.45660231199182
 51
385.54339768788691
  0
LINE
  8
0
  6
CONTINUOUS
 62
               3
  5
48E
 10
582.09320569531315
 20
-134.00785438469731
 30
0.0
 11
570.09320569531292
 21
-134.00785438469731
 31
0.0
  0
LINE
  8
0
  6
CONTINUOUS
 62
               3
  5
48F
 10
582.09320569531315
 20
-224.00785438469887
 30
0.0
 11
570.09320569531292
 21
-224.0078543846974
 31
0.0
  0
LINE
  8
0
  6
CONTINUOUS
 62
               3
  5
490
 10
582.09320569531315
 20
-134.00785438469731
 30
0.0
 11
582.09320569531315
 21
-224.00785438469887
 31
0.0
  0
LINE
  8
0
  6
CONTINUOUS
 62
               3
  5
491
 10
570.09320569531292
 20
-134.00785438469731
 30
0.0
 11
570.09320569531292
 21
-224.0078543846974
 31
0.0
  0
ARC
  8
0
  6
CONTINUOUS
 62
               3
  5
492
 10
592.09320649933989
 20
-136.08257986706809
 30
0.0
 40
2.0
 50
89.999999999999801
 51
179.9999999999996
  0
LINE
  8
0
  6
CONTINUOUS
 62
               3
  5
493
 10
582.09320569531315
 20
-141.30443662300385
 30
0.0
 11
590.09320569531201
 21
-141.30443662300385
 31
0.0
  0
LINE
  8
0
  6
CONTINUOUS
 62
               3
  5
494
 10
582.09320569531315
 20
-216.71127214639083
 30
0.0
 11
586.24023626153041
 21
-216.71127214639083
 31
0.0
  0
LINE
  8
0
  6
CONTINUOUS
 62
               3
  5
495
 10
798.09320730336708
 20
-224.00785438469887
 30
0.0
 11
810.09320730336731
 21
-224.0078543846974
 31
0.0
  0
LINE
  8
0
  6
CONTINUOUS
 62
               3
  5
496
 10
798.09320730336708
 20
-216.71127214639083
 30
0.0
 11
793.94617673714981
 21
-216.71127214639083
 31
0.0
  0
ARC
  8
0
  6
CONTINUOUS
 62
               3
  5
497
 10
788.09320649934034
 20
-136.08257986706809
 30
0.0
 40
2.0
 50
0.0
 51
89.999999999999801
  0
LINE
  8
0
  6
CONTINUOUS
 62
               3
  5
498
 10
798.09320730336708
 20
-134.00785438469731
 30
0.0
 11
810.09320730336731
 21
-134.00785438469731
 31
0.0
  0
LINE
  8
0
  6
CONTINUOUS
 62
               3
  5
499
 10
798.09320730336708
 20
-141.30443662300385
 30
0.0
 11
790.09320730336822
 21
-141.30443662300385
 31
0.0
  0
LINE
  8
0
  6
CONTINUOUS
 62
               3
  5
49A
 10
798.09320730336708
 20
-134.00785438469731
 30
0.0
 11
798.09320730336708
 21
-224.00785438469887
 31
0.0
  0
LINE
  8
0
  6
CONTINUOUS
 62
               3
  5
49B
 10
810.09320730336731
 20
-134.00785438469731
 30
0.0
 11
810.09320730336731
 21
-224.0078543846974
 31
0.0
  0
ARC
  8
0
  6
CONTINUOUS
 62
               3
  5
49C
 10
-702.30982019544399
 20
-136.00785438469637
 30
0.0
 40
2.0
 50
89.999999999999801
 51
179.9999999999996
  0
LINE
  8
0
  6
CONTINUOUS
 62
               3
  5
49D
 10
-677.52336356341948
 20
-183.75659172622539
 30
0.0
 11
-677.68617562640475
 21
-183.08061363918335
 31
0.0
  0
LINE
  8
0
  6
CONTINUOUS
 62
               3
  5
49E
 10
-677.68617562640475
 20
-183.08061363918335
 30
0.0
 11
-677.84966460391752
 21
-182.40480001623888
 31
0.0
  0
LINE
  8
0
  6
CONTINUOUS
 62
               3
  5
49F
 10
-677.84966460391752
 20
-182.40480001623888
 30
0.0
 11
-678.01447897526054
 21
-181.72930852881456
 31
0.0
  0
LINE
  8
0
  6
CONTINUOUS
 62
               3
  5
4A0
 10
-678.01447897526054
 20
-181.72930852881456
 30
0.0
 11
-678.18079035847836
 21
-181.05418293456393
 31
0.0
  0
LINE
  8
0
  6
CONTINUOUS
 62
               3
  5
4A1
 10
-678.18079035847836
 20
-181.05418293456393
 30
0.0
 11
-678.34837516346568
 21
-180.37937258149719
 31
0.0
  0
LINE
  8
0
  6
CONTINUOUS
 62
               3
  5
4A2
 10
-678.34837516346568
 20
-180.37937258149719
 30
0.0
 11
-678.51704077984061
 21
-179.70483344519499
 31
0.0
  0
LINE
  8
0
  6
CONTINUOUS
 62
               3
  5
4A3
 10
-678.51704077984061
 20
-179.70483344519499
 30
0.0
 11
-678.68670907839237
 21
-179.03054678706434
 31
0.0
  0
LINE
  8
0
  6
CONTINUOUS
 62
               3
  5
4A4
 10
-678.68670907839237
 20
-179.03054678706434
 30
0.0
 11
-678.85732081102196
 21
-178.35649803884399
 31
0.0
  0
LINE
  8
0
  6
CONTINUOUS
 62
               3
  5
4A5
 10
-678.85732081102196
 20
-178.35649803884399
 30
0.0
 11
-679.02881672963031
 21
-177.68267263227307
 31
0.0
  0
LINE
  8
0
  6
CONTINUOUS
 62
               3
  5
4A6
 10
-679.02881672963031
 20
-177.68267263227307
 30
0.0
 11
-679.20113758611774
 21
-177.00905599909044
 31
0.0
  0
LINE
  8
0
  6
CONTINUOUS
 62
               3
  5
4A7
 10
-679.20113758611774
 20
-177.00905599909044
 30
0.0
 11
-679.37422413238573
 21
-176.33563357103486
 31
0.0
  0
LINE
  8
0
  6
CONTINUOUS
 62
               3
  5
4A8
 10
-679.37422413238573
 20
-176.33563357103486
 30
0.0
 11
-679.54801712033463
 21
-175.66239077984534
 31
0.0
  0
LINE
  8
0
  6
CONTINUOUS
 62
               3
  5
4A9
 10
-679.54801712033463
 20
-175.66239077984534
 30
0.0
 11
-679.72245730186546
 21
-174.98931305726074
 31
0.0
  0
LINE
  8
0
  6
CONTINUOUS
 62
               3
  5
4AA
 10
-679.72245730186546
 20
-174.98931305726074
 30
0.0
 11
-679.89748542887924
 21
-174.31638583502018
 31
0.0
  0
LINE
  8
0
  6
CONTINUOUS
 62
               3
  5
4AB
 10
-679.89748542887924
 20
-174.31638583502018
 30
0.0
 11
-680.07304225327653
 21
-173.64359454486242
 31
0.0
  0
LINE
  8
0
  6
CONTINUOUS
 62
               3
  5
4AC
 10
-680.07304225327653
 20
-173.64359454486242
 30
0.0
 11
-680.24906852695813
 21
-172.97092461852634
 31
0.0
  0
LINE
  8
0
  6
CONTINUOUS
 62
               3
  5
4AD
 10
-680.24906852695813
 20
-172.97092461852634
 30
0.0
 11
-680.42550500182506
 21
-172.29836148775104
 31
0.0
  0
LINE
  8
0
  6
CONTINUOUS
 62
               3
  5
4AE
 10
-680.42550500182506
 20
-172.29836148775104
 30
0.0
 11
-680.60229242977823
 21
-171.62589058427517
 31
0.0
  0
LINE
  8
0
  6
CONTINUOUS
 62
               3
  5
4AF
 10
-680.60229242977823
 20
-171.62589058427517
 30
0.0
 11
-680.77937156271832
 21
-170.95349733983784
 31
0.0
  0
LINE
  8
0
  6
CONTINUOUS
 62
               3
  5
4B0
 10
-680.77937156271832
 20
-170.95349733983784
 30
0.0
 11
-680.95668315254602
 21
-170.28116718617792
 31
0.0
  0
LINE
  8
0
  6
CONTINUOUS
 62
               3
  5
4B1
 10
-680.95668315254602
 20
-170.28116718617792
 30
0.0
 11
-681.13416795116245
 21
-169.60888555503431
 31
0.0
  0
LINE
  8
0
  6
CONTINUOUS
 62
               3
  5
4B2
 10
-681.13416795116245
 20
-169.60888555503431
 30
0.0
 11
-681.31176462685198
 21
-168.93663712560698
 31
0.0
  0
LINE
  8
0
  6
CONTINUOUS
 62
               3
  5
4B3
 10
-681.31176462685198
 20
-168.93663712560698
 30
0.0
 11
-681.4894009332869
 21
-168.26440263506998
 31
0.0
  0
LINE
  8
0
  6
CONTINUOUS
 62
               3
  5
4B4
 10
-681.4894009332869
 20
-168.26440263506998
 30
0.0
 11
-681.66700106238636
 21
-167.59216153420022
 31
0.0
  0
LINE
  8
0
  6
CONTINUOUS
 62
               3
  5
4B5
 10
-681.66700106238636
 20
-167.59216153420022
 30
0.0
 11
-681.84448920409091
 21
-166.91989327306015
 31
0.0
  0
LINE
  8
0
  6
CONTINUOUS
 62
               3
  5
4B6
 10
-681.84448920409091
 20
-166.91989327306015
 30
0.0
 11
-682.0217895483413
 21
-166.24757730171217
 31
0.0
  0
LINE
  8
0
  6
CONTINUOUS
 62
               3
  5
4B7
 10
-682.0217895483413
 20
-166.24757730171217
 30
0.0
 11
-682.19882628507844
 21
-165.57519307021863
 31
0.0
  0
LINE
  8
0
  6
CONTINUOUS
 62
               3
  5
4B8
 10
-682.19882628507844
 20
-165.57519307021863
 30
0.0
 11
-682.3755236042432
 21
-164.90272002864214
 31
0.0
  0
LINE
  8
0
  6
CONTINUOUS
 62
               3
  5
4B9
 10
-682.3755236042432
 20
-164.90272002864214
 30
0.0
 11
-682.55180569577601
 21
-164.23013762704505
 31
0.0
  0
LINE
  8
0
  6
CONTINUOUS
 62
               3
  5
4BA
 10
-682.55180569577601
 20
-164.23013762704505
 30
0.0
 11
-682.72759674961799
 21
-163.55742531548975
 31
0.0
  0
LINE
  8
0
  6
CONTINUOUS
 62
               3
  5
4BB
 10
-682.72759674961799
 20
-163.55742531548975
 30
0.0
 11
-682.90282095570956
 21
-162.88456254403872
 31
0.0
  0
LINE
  8
0
  6
CONTINUOUS
 62
               3
  5
4BC
 10
-682.90282095570956
 20
-162.88456254403872
 30
0.0
 11
-683.07740250399183
 21
-162.21152876275443
 31
0.0
  0
LINE
  8
0
  6
CONTINUOUS
 62
               3
  5
4BD
 10
-683.07740250399183
 20
-162.21152876275443
 30
0.0
 11
-683.25126558440525
 21
-161.53830342169937
 31
0.0
  0
LINE
  8
0
  6
CONTINUOUS
 62
               3
  5
4BE
 10
-683.25126558440525
 20
-161.53830342169937
 30
0.0
 11
-683.42433438689068
 21
-160.8648659709358
 31
0.0
  0
LINE
  8
0
  6
CONTINUOUS
 62
               3
  5
4BF
 10
-683.42433438689068
 20
-160.8648659709358
 30
0.0
 11
-683.5965331013889
 21
-160.19119586052631
 31
0.0
  0
LINE
  8
0
  6
CONTINUOUS
 62
               3
  5
4C0
 10
-683.5965331013889
 20
-160.19119586052631
 30
0.0
 11
-683.76778591784068
 21
-159.51727254053327
 31
0.0
  0
LINE
  8
0
  6
CONTINUOUS
 62
               3
  5
4C1
 10
-683.76778591784068
 20
-159.51727254053327
 30
0.0
 11
-683.93801546252098
 21
-158.84307528036157
 31
0.0
  0
LINE
  8
0
  6
CONTINUOUS
 62
               3
  5
4C2
 10
-683.93801546252098
 20
-158.84307528036157
 30
0.0
 11
-684.10709200882968
 21
-158.1685773008474
 31
0.0
  0
LINE
  8
0
  6
CONTINUOUS
 62
               3
  5
4C3
 10
-684.10709200882968
 20
-158.1685773008474
 30
0.0
 11
-684.27482233498654
 21
-157.49374448693624
 31
0.0
  0
LINE
  8
0
  6
CONTINUOUS
 62
               3
  5
4C4
 10
-684.27482233498654
 20
-157.49374448693624
 30
0.0
 11
-684.44100940104295
 21
-156.81854228244282
 31
0.0
  0
LINE
  8
0
  6
CONTINUOUS
 62
               3
  5
4C5
 10
-684.44100940104295
 20
-156.81854228244282
 30
0.0
 11
-684.60545616705008
 21
-156.14293613118213
 31
0.0
  0
LINE
  8
0
  6
CONTINUOUS
 62
               3
  5
4C6
 10
-684.60545616705008
 20
-156.14293613118213
 30
0.0
 11
-684.76796559305944
 21
-155.4668914769689
 31
0.0
  0
LINE
  8
0
  6
CONTINUOUS
 62
               3
  5
4C7
 10
-684.76796559305944
 20
-155.4668914769689
 30
0.0
 11
-684.92834063912233
 21
-154.79037376361811
 31
0.0
  0
LINE
  8
0
  6
CONTINUOUS
 62
               3
  5
4C8
 10
-684.92834063912233
 20
-154.79037376361811
 30
0.0
 11
-685.08638426529637
 21
-154.11334843494473
 31
0.0
  0
LINE
  8
0
  6
CONTINUOUS
 62
               3
  5
4C9
 10
-685.08638426529637
 20
-154.11334843494473
 30
0.0
 11
-685.24192862454788
 21
-153.43578166928233
 31
0.0
  0
LINE
  8
0
  6
CONTINUOUS
 62
               3
  5
4CA
 10
-685.24192862454788
 20
-153.43578166928233
 30
0.0
 11
-685.39492051537627
 21
-152.7576425295436
 31
0.0
  0
LINE
  8
0
  6
CONTINUOUS
 62
               3
  5
4CB
 10
-685.39492051537627
 20
-152.7576425295436
 30
0.0
 11
-685.54533487578283
 21
-152.07890078665577
 31
0.0
  0
LINE
  8
0
  6
CONTINUOUS
 62
               3
  5
4CC
 10
-685.54533487578283
 20
-152.07890078665577
 30
0.0
 11
-685.69314664376884
 21
-151.39952621154526
 31
0.0
  0
LINE
  8
0
  6
CONTINUOUS
 62
               3
  5
4CD
 10
-685.69314664376884
 20
-151.39952621154526
 30
0.0
 11
-685.83833075733583
 21
-150.71948857513888
 31
0.0
  0
LINE
  8
0
  6
CONTINUOUS
 62
               3
  5
4CE
 10
-685.83833075733583
 20
-150.71948857513888
 30
0.0
 11
-685.98086215448495
 21
-150.03875764836363
 31
0.0
  0
LINE
  8
0
  6
CONTINUOUS
 62
               3
  5
4CF
 10
-685.98086215448495
 20
-150.03875764836363
 30
0.0
 11
-686.12071466673933
 21
-149.35730314140193
 31
0.0
  0
LINE
  8
0
  6
CONTINUOUS
 62
               3
  5
4D0
 10
-686.12071466673933
 20
-149.35730314140193
 30
0.0
 11
-686.25751370821331
 21
-148.67507563678038
 31
0.0
  0
LINE
  8
0
  6
CONTINUOUS
 62
               3
  5
4D1
 10
-686.25751370821331
 20
-148.67507563678038
 30
0.0
 11
-686.39004218111882
 21
-147.99197946423379
 31
0.0
  0
LINE
  8
0
  6
CONTINUOUS
 62
               3
  5
4D2
 10
-686.39004218111882
 20
-147.99197946423379
 30
0.0
 11
-686.51695815816595
 21
-147.30791210052172
 31
0.0
  0
LINE
  8
0
  6
CONTINUOUS
 62
               3
  5
4D3
 10
-686.51695815816595
 20
-147.30791210052172
 30
0.0
 11
-686.63691971206504
 21
-146.62277102240404
 31
0.0
  0
LINE
  8
0
  6
CONTINUOUS
 62
               3
  5
4D4
 10
-686.63691971206504
 20
-146.62277102240404
 30
0.0
 11
-686.74858491552595
 21
-145.93645370664041
 31
0.0
  0
LINE
  8
0
  6
CONTINUOUS
 62
               3
  5
4D5
 10
-686.74858491552595
 20
-145.93645370664041
 30
0.0
 11
-686.85061184125902
 21
-145.24885762999048
 31
0.0
  0
LINE
  8
0
  6
CONTINUOUS
 62
               3
  5
4D6
 10
-686.85061184125902
 20
-145.24885762999048
 30
0.0
 11
-686.94165856197424
 21
-144.55988026921415
 31
0.0
  0
LINE
  8
0
  6
CONTINUOUS
 62
               3
  5
4D7
 10
-686.94165856197424
 20
-144.55988026921415
 30
0.0
 11
-687.02092372421077
 21
-143.86947479227757
 31
0.0
  0
LINE
  8
0
  6
CONTINUOUS
 62
               3
  5
4D8
 10
-687.02092372421077
 20
-143.86947479227757
 30
0.0
 11
-687.08987491909238
 21
-143.17782811923513
 31
0.0
  0
LINE
  8
0
  6
CONTINUOUS
 62
               3
  5
4D9
 10
-687.08987491909238
 20
-143.17782811923513
 30
0.0
 11
-687.15057493821496
 21
-142.48518848911459
 31
0.0
  0
LINE
  8
0
  6
CONTINUOUS
 62
               3
  5
4DA
 10
-687.15057493821496
 20
-142.48518848911459
 30
0.0
 11
-687.20508657551773
 21
-141.79180414118576
 31
0.0
  0
LINE
  8
0
  6
CONTINUOUS
 62
               3
  5
4DB
 10
-687.20508657551773
 20
-141.79180414118576
 30
0.0
 11
-687.25547262494115
 21
-141.09792331471789
 31
0.0
  0
LINE
  8
0
  6
CONTINUOUS
 62
               3
  5
4DC
 10
-687.25547262494115
 20
-141.09792331471789
 30
0.0
 11
-687.30379588042456
 21
-140.40379424898066
 31
0.0
  0
LINE
  8
0
  6
CONTINUOUS
 62
               3
  5
4DD
 10
-667.41540554308017
 20
-211.88293450286454
 30
0.0
 11
-667.82343340513421
 21
-211.04005657666227
 31
0.0
  0
LINE
  8
0
  6
CONTINUOUS
 62
               3
  5
4DE
 10
-667.82343340513421
 20
-211.04005657666227
 30
0.0
 11
-668.23033201553221
 21
-210.19668262023748
 31
0.0
  0
LINE
  8
0
  6
CONTINUOUS
 62
               3
  5
4DF
 10
-668.23033201553221
 20
-210.19668262023748
 30
0.0
 11
-668.63497212261768
 21
-209.35231660336825
 31
0.0
  0
LINE
  8
0
  6
CONTINUOUS
 62
               3
  5
4E0
 10
-668.63497212261768
 20
-209.35231660336825
 30
0.0
 11
-669.03622447473435
 21
-208.50646249583195
 31
0.0
  0
LINE
  8
0
  6
CONTINUOUS
 62
               3
  5
4E1
 10
-669.03622447473435
 20
-208.50646249583195
 30
0.0
 11
-669.43295982022607
 21
-207.65862426740642
 31
0.0
  0
LINE
  8
0
  6
CONTINUOUS
 62
               3
  5
4E2
 10
-669.43295982022607
 20
-207.65862426740642
 30
0.0
 11
-669.82404890743669
 21
-206.80830588786915
 31
0.0
  0
LINE
  8
0
  6
CONTINUOUS
 62
               3
  5
4E3
 10
-669.82404890743669
 20
-206.80830588786915
 30
0.0
 11
-670.20836248470982
 21
-205.95501132699798
 31
0.0
  0
LINE
  8
0
  6
CONTINUOUS
 62
               3
  5
4E4
 10
-670.20836248470982
 20
-205.95501132699798
 30
0.0
 11
-670.58477130038932
 21
-205.09824455457061
 31
0.0
  0
LINE
  8
0
  6
CONTINUOUS
 62
               3
  5
4E5
 10
-670.58477130038932
 20
-205.09824455457061
 30
0.0
 11
-670.95230420761459
 21
-204.23758564569192
 31
0.0
  0
LINE
  8
0
  6
CONTINUOUS
 62
               3
  5
4E6
 10
-670.95230420761459
 20
-204.23758564569192
 30
0.0
 11
-671.31101322158906
 21
-203.37310718477619
 31
0.0
  0
LINE
  8
0
  6
CONTINUOUS
 62
               3
  5
4E7
 10
-671.31101322158906
 20
-203.37310718477619
 30
0.0
 11
-671.66135766720049
 21
-202.50507781883476
 31
0.0
  0
LINE
  8
0
  6
CONTINUOUS
 62
               3
  5
4E8
 10
-671.66135766720049
 20
-202.50507781883476
 30
0.0
 11
-672.00379791605314
 21
-201.63376669872633
 31
0.0
  0
LINE
  8
0
  6
CONTINUOUS
 62
               3
  5
4E9
 10
-672.00379791605314
 20
-201.63376669872633
 30
0.0
 11
-672.33879433975176
 21
-200.75944297530981
 31
0.0
  0
LINE
  8
0
  6
CONTINUOUS
 62
               3
  5
4EA
 10
-672.33879433975176
 20
-200.75944297530981
 30
0.0
 11
-672.66680730990026
 21
-199.88237579944388
 31
0.0
  0
LINE
  8
0
  6
CONTINUOUS
 62
               3
  5
4EB
 10
-672.66680730990026
 20
-199.88237579944388
 30
0.0
 11
-672.98829719810351
 21
-199.00283432198734
 31
0.0
  0
LINE
  8
0
  6
CONTINUOUS
 62
               3
  5
4EC
 10
-672.98829719810351
 20
-199.00283432198734
 30
0.0
 11
-673.30372437535175
 21
-198.12108769354126
 31
0.0
  0
LINE
  8
0
  6
CONTINUOUS
 62
               3
  5
4ED
 10
-673.30372437535175
 20
-198.12108769354126
 30
0.0
 11
-673.61342663231153
 21
-197.23735355256673
 31
0.0
  0
LINE
  8
0
  6
CONTINUOUS
 62
               3
  5
4EE
 10
-673.61342663231153
 20
-197.23735355256673
 30
0.0
 11
-673.9172763756394
 21
-196.35165396840597
 31
0.0
  0
LINE
  8
0
  6
CONTINUOUS
 62
               3
  5
4EF
 10
-673.9172763756394
 20
-196.35165396840597
 30
0.0
 11
-674.21503558631787
 21
-195.46396460603097
 31
0.0
  0
LINE
  8
0
  6
CONTINUOUS
 62
               3
  5
4F0
 10
-674.21503558631787
 20
-195.46396460603097
 30
0.0
 11
-674.50646624532942
 21
-194.57426113041362
 31
0.0
  0
LINE
  8
0
  6
CONTINUOUS
 62
               3
  5
4F1
 10
-674.50646624532942
 20
-194.57426113041362
 30
0.0
 11
-674.79133033365656
 21
-193.68251920652602
 31
0.0
  0
LINE
  8
0
  6
CONTINUOUS
 62
               3
  5
4F2
 10
-674.79133033365656
 20
-193.68251920652602
 30
0.0
 11
-675.06938983228179
 21
-192.7887144993403
 31
0.0
  0
LINE
  8
0
  6
CONTINUOUS
 62
               3
  5
4F3
 10
-675.06938983228179
 20
-192.7887144993403
 30
0.0
 11
-675.34040672218748
 21
-191.89282267382822
 31
0.0
  0
LINE
  8
0
  6
CONTINUOUS
 62
               3
  5
4F4
 10
-675.34040672218748
 20
-191.89282267382822
 30
0.0
 11
-675.60414298435626
 21
-190.99481939496189
 31
0.0
  0
LINE
  8
0
  6
CONTINUOUS
 62
               3
  5
4F5
 10
-675.60414298435626
 20
-190.99481939496189
 30
0.0
 11
-675.86054555401529
 21
-190.09472607102856
 31
0.0
  0
LINE
  8
0
  6
CONTINUOUS
 62
               3
  5
4F6
 10
-675.86054555401529
 20
-190.09472607102856
 30
0.0
 11
-676.11034812586604
 21
-189.19275869350446
 31
0.0
  0
LINE
  8
0
  6
CONTINUOUS
 62
               3
  5
4F7
 10
-676.11034812586604
 20
-189.19275869350446
 30
0.0
 11
-676.35449355528499
 21
-188.28918498397144
 31
0.0
  0
LINE
  8
0
  6
CONTINUOUS
 62
               3
  5
4F8
 10
-676.35449355528499
 20
-188.28918498397144
 30
0.0
 11
-676.59392469934392
 21
-187.38427266443108
 31
0.0
  0
LINE
  8
0
  6
CONTINUOUS
 62
               3
  5
4F9
 10
-676.59392469934392
 20
-187.38427266443108
 30
0.0
 11
-676.82958441511482
 21
-186.47828945688485
 31
0.0
  0
LINE
  8
0
  6
CONTINUOUS
 62
               3
  5
4FA
 10
-676.82958441511482
 20
-186.47828945688485
 30
0.0
 11
-677.06241555966972
 21
-185.57150308333411
 31
0.0
  0
LINE
  8
0
  6
CONTINUOUS
 62
               3
  5
4FB
 10
-677.06241555966972
 20
-185.57150308333411
 30
0.0
 11
-677.2933609900806
 21
-184.66418126578054
 31
0.0
  0
LINE
  8
0
  6
CONTINUOUS
 62
               3
  5
4FC
 10
-677.2933609900806
 20
-184.66418126578054
 30
0.0
 11
-677.52336356341948
 21
-183.75659172622539
 31
0.0
  0
LINE
  8
0
  6
CONTINUOUS
 62
               3
  5
4FD
 10
-678.69224285709493
 20
-224.00785438469524
 30
0.0
 11
-678.65459999856375
 21
-224.00671641897219
 31
0.0
  0
LINE
  8
0
  6
CONTINUOUS
 62
               3
  5
4FE
 10
-678.65459999856375
 20
-224.00671641897219
 30
0.0
 11
-678.61696424398519
 21
-224.0054973269776
 31
0.0
  0
LINE
  8
0
  6
CONTINUOUS
 62
               3
  5
4FF
 10
-678.61696424398519
 20
-224.0054973269776
 30
0.0
 11
-678.57934269731186
 21
-224.00411598244028
 31
0.0
  0
LINE
  8
0
  6
CONTINUOUS
 62
               3
  5
500
 10
-678.57934269731186
 20
-224.00411598244028
 30
0.0
 11
-678.54174246249613
 21
-224.00249125908846
 31
0.0
  0
LINE
  8
0
  6
CONTINUOUS
 62
               3
  5
501
 10
-678.54174246249613
 20
-224.00249125908846
 30
0.0
 11
-678.50417064349085
 21
-224.00054203065071
 31
0.0
  0
LINE
  8
0
  6
CONTINUOUS
 62
               3
  5
502
 10
-678.50417064349085
 20
-224.00054203065071
 30
0.0
 11
-678.4666343442484
 21
-223.99818717085583
 31
0.0
  0
LINE
  8
0
  6
CONTINUOUS
 62
               3
  5
503
 10
-678.4666343442484
 20
-223.99818717085583
 30
0.0
 11
-678.4291406687214
 21
-223.99534555343206
 31
0.0
  0
LINE
  8
0
  6
CONTINUOUS
 62
               3
  5
504
 10
-678.4291406687214
 20
-223.99534555343206
 30
0.0
 11
-678.39169672064781
 21
-223.99193606100181
 31
0.0
  0
LINE
  8
0
  6
CONTINUOUS
 62
               3
  5
505
 10
-678.39169672064781
 20
-223.99193606100181
 30
0.0
 11
-678.35430905662793
 21
-223.98790024277747
 31
0.0
  0
LINE
  8
0
  6
CONTINUOUS
 62
               3
  5
506
 10
-678.35430905662793
 20
-223.98790024277747
 30
0.0
 11
-678.31698250376849
 21
-223.98325129670189
 31
0.0
  0
LINE
  8
0
  6
CONTINUOUS
 62
               3
  5
507
 10
-678.31698250376849
 20
-223.98325129670189
 30
0.0
 11
-678.27972154827455
 21
-223.97801654346034
 31
0.0
  0
LINE
  8
0
  6
CONTINUOUS
 62
               3
  5
508
 10
-678.27972154827455
 20
-223.97801654346034
 30
0.0
 11
-678.24253067635095
 21
-223.97222330373751
 31
0.0
  0
LINE
  8
0
  6
CONTINUOUS
 62
               3
  5
509
 10
-678.24253067635095
 20
-223.97222330373751
 30
0.0
 11
-678.20541437420275
 21
-223.96589889821843
 31
0.0
  0
LINE
  8
0
  6
CONTINUOUS
 62
               3
  5
50A
 10
-678.20541437420275
 20
-223.96589889821843
 30
0.0
 11
-678.16837712803476
 21
-223.95907064758791
 31
0.0
  0
LINE
  8
0
  6
CONTINUOUS
 62
               3
  5
50B
 10
-678.16837712803476
 20
-223.95907064758791
 30
0.0
 11
-678.13142342405206
 21
-223.95176587253087
 31
0.0
  0
LINE
  8
0
  6
CONTINUOUS
 62
               3
  5
50C
 10
-678.13142342405206
 20
-223.95176587253087
 30
0.0
 11
-678.0945577550558
 21
-223.94401185942894
 31
0.0
  0
LINE
  8
0
  6
CONTINUOUS
 62
               3
  5
50D
 10
-678.0945577550558
 20
-223.94401185942894
 30
0.0
 11
-678.05778688234091
 21
-223.93582409767652
 31
0.0
  0
LINE
  8
0
  6
CONTINUOUS
 62
               3
  5
50E
 10
-678.05778688234091
 20
-223.93582409767652
 30
0.0
 11
-678.02112314254487
 21
-223.92718908286844
 31
0.0
  0
LINE
  8
0
  6
CONTINUOUS
 62
               3
  5
50F
 10
-678.02112314254487
 20
-223.92718908286844
 30
0.0
 11
-677.98457971337552
 21
-223.91808893672766
 31
0.0
  0
LINE
  8
0
  6
CONTINUOUS
 62
               3
  5
510
 10
-677.98457971337552
 20
-223.91808893672766
 30
0.0
 11
-677.94816977254118
 21
-223.9085057809769
 31
0.0
  0
LINE
  8
0
  6
CONTINUOUS
 62
               3
  5
511
 10
-677.94816977254118
 20
-223.9085057809769
 30
0.0
 11
-677.9119064977499
 21
-223.89842173733911
 31
0.0
  0
LINE
  8
0
  6
CONTINUOUS
 62
               3
  5
512
 10
-677.9119064977499
 20
-223.89842173733911
 30
0.0
 11
-677.87580306670975
 21
-223.88781892753724
 31
0.0
  0
LINE
  8
0
  6
CONTINUOUS
 62
               3
  5
513
 10
-677.87580306670975
 20
-223.88781892753724
 30
0.0
 11
-677.83987265712881
 21
-223.87667947329413
 31
0.0
  0
LINE
  8
0
  6
CONTINUOUS
 62
               3
  5
514
 10
-677.83987265712881
 20
-223.87667947329413
 30
0.0
 11
-677.80412844671537
 21
-223.86498549633262
 31
0.0
  0
LINE
  8
0
  6
CONTINUOUS
 62
               3
  5
515
 10
-677.80412844671537
 20
-223.86498549633262
 30
0.0
 11
-677.76858020131658
 21
-223.85272712674083
 31
0.0
  0
LINE
  8
0
  6
CONTINUOUS
 62
               3
  5
516
 10
-677.76858020131658
 20
-223.85272712674083
 30
0.0
 11
-677.73321297919745
 21
-223.83995248857474
 31
0.0
  0
LINE
  8
0
  6
CONTINUOUS
 62
               3
  5
517
 10
-677.73321297919745
 20
-223.83995248857474
 30
0.0
 11
-677.69800096039262
 21
-223.82673523941838
 31
0.0
  0
LINE
  8
0
  6
CONTINUOUS
 62
               3
  5
518
 10
-677.69800096039262
 20
-223.82673523941838
 30
0.0
 11
-677.66291827768327
 21
-223.81314914777005
 31
0.0
  0
LINE
  8
0
  6
CONTINUOUS
 62
               3
  5
519
 10
-677.66291827768327
 20
-223.81314914777005
 30
0.0
 11
-677.62793906385002
 21
-223.79926798212801
 31
0.0
  0
LINE
  8
0
  6
CONTINUOUS
 62
               3
  5
51A
 10
-677.62793906385002
 20
-223.79926798212801
 30
0.0
 11
-677.59303745167404
 21
-223.78516551099079
 31
0.0
  0
LINE
  8
0
  6
CONTINUOUS
 62
               3
  5
51B
 10
-677.59303745167404
 20
-223.78516551099079
 30
0.0
 11
-677.55818757393604
 21
-223.77091550285678
 31
0.0
  0
LINE
  8
0
  6
CONTINUOUS
 62
               3
  5
51C
 10
-677.55818757393604
 20
-223.77091550285678
 30
0.0
 11
-677.52336356341721
 21
-223.75659172622449
 31
0.0
  0
LINE
  8
0
  6
CONTINUOUS
 62
               3
  5
51D
 10
-677.52336356341721
 20
-223.75659172622449
 30
0.0
 11
-677.21855925557907
 21
-223.63006710627798
 31
0.0
  0
LINE
  8
0
  6
CONTINUOUS
 62
               3
  5
51E
 10
-677.21855925557907
 20
-223.63006710627798
 30
0.0
 11
-676.91352370769243
 21
-223.50415986119759
 31
0.0
  0
LINE
  8
0
  6
CONTINUOUS
 62
               3
  5
51F
 10
-676.91352370769243
 20
-223.50415986119759
 30
0.0
 11
-676.60802567970904
 21
-223.37948736584912
 31
0.0
  0
LINE
  8
0
  6
CONTINUOUS
 62
               3
  5
520
 10
-676.60802567970904
 20
-223.37948736584912
 30
0.0
 11
-676.30183393158063
 21
-223.25666699509867
 31
0.0
  0
LINE
  8
0
  6
CONTINUOUS
 62
               3
  5
521
 10
-676.30183393158063
 20
-223.25666699509867
 30
0.0
 11
-675.9947172232587
 21
-223.13631612381215
 31
0.0
  0
LINE
  8
0
  6
CONTINUOUS
 62
               3
  5
522
 10
-675.9947172232587
 20
-223.13631612381215
 30
0.0
 11
-675.68644431469477
 21
-223.01905212685557
 31
0.0
  0
LINE
  8
0
  6
CONTINUOUS
 62
               3
  5
523
 10
-675.68644431469477
 20
-223.01905212685557
 30
0.0
 11
-675.37681061958165
 21
-222.90542559899023
 31
0.0
  0
LINE
  8
0
  6
CONTINUOUS
 62
               3
  5
524
 10
-675.37681061958165
 20
-222.90542559899023
 30
0.0
 11
-675.06583529444538
 21
-222.79542655438928
 31
0.0
  0
LINE
  8
0
  6
CONTINUOUS
 62
               3
  5
525
 10
-675.06583529444538
 20
-222.79542655438928
 30
0.0
 11
-674.75364929635361
 21
-222.68876489450469
 31
0.0
  0
LINE
  8
0
  6
CONTINUOUS
 62
               3
  5
526
 10
-674.75364929635361
 20
-222.68876489450469
 30
0.0
 11
-674.44038440946224
 21
-222.58514844854739
 31
0.0
  0
LINE
  8
0
  6
CONTINUOUS
 62
               3
  5
527
 10
-674.44038440946224
 20
-222.58514844854739
 30
0.0
 11
-674.12617241792691
 21
-222.48428504572809
 31
0.0
  0
LINE
  8
0
  6
CONTINUOUS
 62
               3
  5
528
 10
-674.12617241792691
 20
-222.48428504572809
 30
0.0
 11
-673.81114510590282
 21
-222.38588251525772
 31
0.0
  0
LINE
  8
0
  6
CONTINUOUS
 62
               3
  5
529
 10
-673.81114510590282
 20
-222.38588251525772
 30
0.0
 11
-673.49543425754587
 21
-222.28964868634699
 31
0.0
  0
LINE
  8
0
  6
CONTINUOUS
 62
               3
  5
52A
 10
-673.49543425754587
 20
-222.28964868634699
 30
0.0
 11
-673.17917031896513
 21
-222.19529459302345
 31
0.0
  0
LINE
  8
0
  6
CONTINUOUS
 62
               3
  5
52B
 10
-673.17917031896513
 20
-222.19529459302345
 30
0.0
 11
-672.86243048858864
 21
-222.10265880530261
 31
0.0
  0
LINE
  8
0
  6
CONTINUOUS
 62
               3
  5
52C
 10
-672.86243048858864
 20
-222.10265880530261
 30
0.0
 11
-672.54522207344667
 21
-222.01174729332519
 31
0.0
  0
LINE
  8
0
  6
CONTINUOUS
 62
               3
  5
52D
 10
-672.54522207344667
 20
-222.01174729332519
 30
0.0
 11
-672.22754763639387
 21
-221.92257739022608
 31
0.0
  0
LINE
  8
0
  6
CONTINUOUS
 62
               3
  5
52E
 10
-672.22754763639387
 20
-221.92257739022608
 30
0.0
 11
-671.9094097402849
 21
-221.8351664291402
 31
0.0
  0
LINE
  8
0
  6
CONTINUOUS
 62
               3
  5
52F
 10
-671.9094097402849
 20
-221.8351664291402
 30
0.0
 11
-671.59081094797466
 21
-221.74953174320268
 31
0.0
  0
LINE
  8
0
  6
CONTINUOUS
 62
               3
  5
530
 10
-671.59081094797466
 20
-221.74953174320268
 30
0.0
 11
-671.27175382231758
 21
-221.66569066554808
 31
0.0
  0
LINE
  8
0
  6
CONTINUOUS
 62
               3
  5
531
 10
-671.27175382231758
 20
-221.66569066554808
 30
0.0
 11
-670.95224092616866
 21
-221.58366052931166
 31
0.0
  0
LINE
  8
0
  6
CONTINUOUS
 62
               3
  5
532
 10
-670.95224092616866
 20
-221.58366052931166
 30
0.0
 11
-670.63227482325374
 21
-221.50345866348977
 31
0.0
  0
LINE
  8
0
  6
CONTINUOUS
 62
               3
  5
533
 10
-670.63227482325374
 20
-221.50345866348977
 30
0.0
 11
-670.31186622896325
 21
-221.42506367452489
 31
0.0
  0
LINE
  8
0
  6
CONTINUOUS
 62
               3
  5
534
 10
-670.31186622896325
 20
-221.42506367452489
 30
0.0
 11
-669.99105395033791
 21
-221.34832072612613
 31
0.0
  0
LINE
  8
0
  6
CONTINUOUS
 62
               3
  5
535
 10
-669.99105395033791
 20
-221.34832072612613
 30
0.0
 11
-669.66988284119248
 21
-221.27304625823041
 31
0.0
  0
LINE
  8
0
  6
CONTINUOUS
 62
               3
  5
536
 10
-669.66988284119248
 20
-221.27304625823041
 30
0.0
 11
-669.34839775534215
 21
-221.19905671077487
 31
0.0
  0
LINE
  8
0
  6
CONTINUOUS
 62
               3
  5
537
 10
-669.34839775534215
 20
-221.19905671077487
 30
0.0
 11
-669.02664354660169
 21
-221.12616852369666
 31
0.0
  0
LINE
  8
0
  6
CONTINUOUS
 62
               3
  5
538
 10
-669.02664354660169
 20
-221.12616852369666
 30
0.0
 11
-668.70466506878631
 21
-221.05419813693294
 31
0.0
  0
LINE
  8
0
  6
CONTINUOUS
 62
               3
  5
539
 10
-668.70466506878631
 20
-221.05419813693294
 30
0.0
 11
-668.382507175711
 21
-220.98296199042062
 31
0.0
  0
LINE
  8
0
  6
CONTINUOUS
 62
               3
  5
53A
 10
-668.382507175711
 20
-220.98296199042062
 30
0.0
 11
-668.0602147211905
 21
-220.91227652409697
 31
0.0
  0
LINE
  8
0
  6
CONTINUOUS
 62
               3
  5
53B
 10
-668.0602147211905
 20
-220.91227652409697
 30
0.0
 11
-667.73783255904004
 21
-220.84195817789913
 31
0.0
  0
LINE
  8
0
  6
CONTINUOUS
 62
               3
  5
53C
 10
-667.73783255904004
 20
-220.84195817789913
 30
0.0
 11
-667.41540554307471
 21
-220.77182339176414
 31
0.0
  0
LINE
  8
0
  6
CONTINUOUS
 62
               3
  5
53D
 10
-667.41540554307471
 20
-220.77182339176414
 30
0.0
 11
-667.26370321011836
 21
-220.72722126852244
 31
0.0
  0
LINE
  8
0
  6
CONTINUOUS
 62
               3
  5
53E
 10
-667.26370321011836
 20
-220.72722126852244
 30
0.0
 11
-667.11351191480071
 21
-220.67935436309273
 31
0.0
  0
LINE
  8
0
  6
CONTINUOUS
 62
               3
  5
53F
 10
-667.11351191480071
 20
-220.67935436309273
 30
0.0
 11
-666.96634269476044
 21
-220.62495789328688
 31
0.0
  0
LINE
  8
0
  6
CONTINUOUS
 62
               3
  5
540
 10
-666.96634269476044
 20
-220.62495789328688
 30
0.0
 11
-666.82370658763602
 21
-220.56076707691687
 31
0.0
  0
LINE
  8
0
  6
CONTINUOUS
 62
               3
  5
541
 10
-666.82370658763602
 20
-220.56076707691687
 30
0.0
 11
-666.6870161208451
 21
-220.48400130573015
 31
0.0
  0
LINE
  8
0
  6
CONTINUOUS
 62
               3
  5
542
 10
-666.6870161208451
 20
-220.48400130573015
 30
0.0
 11
-666.5570808532658
 21
-220.39484353857603
 31
0.0
  0
LINE
  8
0
  6
CONTINUOUS
 62
               3
  5
543
 10
-666.5570808532658
 20
-220.39484353857603
 30
0.0
 11
-666.4344822952396
 21
-220.29459758405966
 31
0.0
  0
LINE
  8
0
  6
CONTINUOUS
 62
               3
  5
544
 10
-666.4344822952396
 20
-220.29459758405966
 30
0.0
 11
-666.31980152985398
 21
-220.18456935072362
 31
0.0
  0
LINE
  8
0
  6
CONTINUOUS
 62
               3
  5
545
 10
-666.31980152985398
 20
-220.18456935072362
 30
0.0
 11
-666.21361964019616
 21
-220.06606474711117
 31
0.0
  0
LINE
  8
0
  6
CONTINUOUS
 62
               3
  5
546
 10
-666.21361964019616
 20
-220.06606474711117
 30
0.0
 11
-666.11651616562563
 21
-219.94038869681509
 31
0.0
  0
LINE
  8
0
  6
CONTINUOUS
 62
               3
  5
547
 10
-666.11651616562563
 20
-219.94038869681509
 30
0.0
 11
-666.02878961948841
 21
-219.80866681951528
 31
0.0
  0
LINE
  8
0
  6
CONTINUOUS
 62
               3
  5
548
 10
-666.02878961948841
 20
-219.80866681951528
 30
0.0
 11
-665.95013282711125
 21
-219.67163828585234
 31
0.0
  0
LINE
  8
0
  6
CONTINUOUS
 62
               3
  5
549
 10
-665.95013282711125
 20
-219.67163828585234
 30
0.0
 11
-665.88015986554478
 21
-219.52999202245593
 31
0.0
  0
LINE
  8
0
  6
CONTINUOUS
 62
               3
  5
54A
 10
-665.88015986554478
 20
-219.52999202245593
 30
0.0
 11
-665.8184848118392
 21
-219.38441695595583
 31
0.0
  0
LINE
  8
0
  6
CONTINUOUS
 62
               3
  5
54B
 10
-665.8184848118392
 20
-219.38441695595583
 30
0.0
 11
-665.7647217430449
 21
-219.2356020129817
 31
0.0
  0
LINE
  8
0
  6
CONTINUOUS
 62
               3
  5
54C
 10
-665.7647217430449
 20
-219.2356020129817
 30
0.0
 11
-665.7184847362123
 21
-219.08423612016333
 31
0.0
  0
LINE
  8
0
  6
CONTINUOUS
 62
               3
  5
54D
 10
-665.7184847362123
 20
-219.08423612016333
 30
0.0
 11
-665.67938786839204
 21
-218.93100820413025
 31
0.0
  0
LINE
  8
0
  6
CONTINUOUS
 62
               3
  5
54E
 10
-665.67938786839204
 20
-218.93100820413025
 30
0.0
 11
-665.64704367165655
 21
-218.77657692189615
 31
0.0
  0
LINE
  8
0
  6
CONTINUOUS
 62
               3
  5
54F
 10
-665.64704367165655
 20
-218.77657692189615
 30
0.0
 11
-665.6210487685205
 21
-218.62128922613698
 31
0.0
  0
LINE
  8
0
  6
CONTINUOUS
 62
               3
  5
550
 10
-665.6210487685205
 20
-218.62128922613698
 30
0.0
 11
-665.6009904139712
 21
-218.46530853842552
 31
0.0
  0
LINE
  8
0
  6
CONTINUOUS
 62
               3
  5
551
 10
-665.6009904139712
 20
-218.46530853842552
 30
0.0
 11
-665.58645574262755
 21
-218.30879592205139
 31
0.0
  0
LINE
  8
0
  6
CONTINUOUS
 62
               3
  5
552
 10
-665.58645574262755
 20
-218.30879592205139
 30
0.0
 11
-665.57703188910909
 21
-218.15191244030399
 31
0.0
  0
LINE
  8
0
  6
CONTINUOUS
 62
               3
  5
553
 10
-665.57703188910909
 20
-218.15191244030399
 30
0.0
 11
-665.57230598803505
 21
-217.99481915647249
 31
0.0
  0
LINE
  8
0
  6
CONTINUOUS
 62
               3
  5
554
 10
-665.57230598803505
 20
-217.99481915647249
 30
0.0
 11
-665.57186748477875
 21
-217.83767605131771
 31
0.0
  0
LINE
  8
0
  6
CONTINUOUS
 62
               3
  5
555
 10
-665.57186748477875
 20
-217.83767605131771
 30
0.0
 11
-665.57540188456505
 21
-217.68059810404037
 31
0.0
  0
LINE
  8
0
  6
CONTINUOUS
 62
               3
  5
556
 10
-665.57540188456505
 20
-217.68059810404037
 30
0.0
 11
-665.58272320608239
 21
-217.52364008860167
 31
0.0
  0
LINE
  8
0
  6
CONTINUOUS
 62
               3
  5
557
 10
-665.58272320608239
 20
-217.52364008860167
 30
0.0
 11
-665.59365444235914
 21
-217.36685257471601
 31
0.0
  0
LINE
  8
0
  6
CONTINUOUS
 62
               3
  5
558
 10
-665.59365444235914
 20
-217.36685257471601
 30
0.0
 11
-665.60801858642412
 21
-217.21028613209779
 31
0.0
  0
LINE
  8
0
  6
CONTINUOUS
 62
               3
  5
559
 10
-665.60801858642412
 20
-217.21028613209779
 30
0.0
 11
-665.62563863130572
 21
-217.05399133046188
 31
0.0
  0
LINE
  8
0
  6
CONTINUOUS
 62
               3
  5
55A
 10
-665.62563863130572
 20
-217.05399133046188
 30
0.0
 11
-665.64633757003253
 21
-216.89801873952257
 31
0.0
  0
LINE
  8
0
  6
CONTINUOUS
 62
               3
  5
55B
 10
-665.64633757003253
 20
-216.89801873952257
 30
0.0
 11
-665.66993839563315
 21
-216.74241892899437
 31
0.0
  0
LINE
  8
0
  6
CONTINUOUS
 62
               3
  5
55C
 10
-665.66993839563315
 20
-216.74241892899437
 30
0.0
 11
-665.69626410113619
 21
-216.58724246859202
 31
0.0
  0
LINE
  8
0
  6
CONTINUOUS
 62
               3
  5
55D
 10
-665.69626410113619
 20
-216.58724246859202
 30
0.0
 11
-665.72513767957003
 21
-216.43253992802983
 31
0.0
  0
LINE
  8
0
  6
CONTINUOUS
 62
               3
  5
55E
 10
-665.72513767957003
 20
-216.43253992802983
 30
0.0
 11
-665.75638215684273
 21
-216.27836185430868
 31
0.0
  0
LINE
  8
0
  6
CONTINUOUS
 62
               3
  5
55F
 10
-665.75638215684273
 20
-216.27836185430868
 30
0.0
 11
-665.7898422281296
 21
-216.12474382493684
 31
0.0
  0
LINE
  8
0
  6
CONTINUOUS
 62
               3
  5
560
 10
-665.7898422281296
 20
-216.12474382493684
 30
0.0
 11
-665.82542167528027
 21
-215.97168059935819
 31
0.0
  0
LINE
  8
0
  6
CONTINUOUS
 62
               3
  5
561
 10
-665.82542167528027
 20
-215.97168059935819
 30
0.0
 11
-665.86303425783603
 21
-215.81916004426017
 31
0.0
  0
LINE
  8
0
  6
CONTINUOUS
 62
               3
  5
562
 10
-665.86303425783603
 20
-215.81916004426017
 30
0.0
 11
-665.90259373533831
 21
-215.66717002633021
 31
0.0
  0
LINE
  8
0
  6
CONTINUOUS
 62
               3
  5
563
 10
-665.90259373533831
 20
-215.66717002633021
 30
0.0
 11
-665.94401386732852
 21
-215.51569841225552
 31
0.0
  0
LINE
  8
0
  6
CONTINUOUS
 62
               3
  5
564
 10
-665.94401386732852
 20
-215.51569841225552
 30
0.0
 11
-665.9872084133483
 21
-215.36473306872364
 31
0.0
  0
LINE
  8
0
  6
CONTINUOUS
 62
               3
  5
565
 10
-665.9872084133483
 20
-215.36473306872364
 30
0.0
 11
-666.0320911329386
 21
-215.21426186242178
 31
0.0
  0
LINE
  8
0
  6
CONTINUOUS
 62
               3
  5
566
 10
-666.0320911329386
 20
-215.21426186242178
 30
0.0
 11
-666.07857578564108
 21
-215.06427266003749
 31
0.0
  0
LINE
  8
0
  6
CONTINUOUS
 62
               3
  5
567
 10
-666.07857578564108
 20
-215.06427266003749
 30
0.0
 11
-666.12657613099736
 21
-214.91475332825797
 31
0.0
  0
LINE
  8
0
  6
CONTINUOUS
 62
               3
  5
568
 10
-666.12657613099736
 20
-214.91475332825797
 30
0.0
 11
-666.17601232668903
 21
-214.76569397686995
 31
0.0
  0
LINE
  8
0
  6
CONTINUOUS
 62
               3
  5
569
 10
-666.17601232668903
 20
-214.76569397686995
 30
0.0
 11
-666.22685165022096
 21
-214.61710123521385
 31
0.0
  0
LINE
  8
0
  6
CONTINUOUS
 62
               3
  5
56A
 10
-666.22685165022096
 20
-214.61710123521385
 30
0.0
 11
-666.27908243338993
 21
-214.46898911397244
 31
0.0
  0
LINE
  8
0
  6
CONTINUOUS
 62
               3
  5
56B
 10
-666.27908243338993
 20
-214.46898911397244
 30
0.0
 11
-666.33269310592141
 21
-214.32137165816113
 31
0.0
  0
LINE
  8
0
  6
CONTINUOUS
 62
               3
  5
56C
 10
-666.33269310592141
 20
-214.32137165816113
 30
0.0
 11
-666.3876720975411
 21
-214.17426291279497
 31
0.0
  0
LINE
  8
0
  6
CONTINUOUS
 62
               3
  5
56D
 10
-666.3876720975411
 20
-214.17426291279497
 30
0.0
 11
-666.4440078379746
 21
-214.02767692288904
 31
0.0
  0
LINE
  8
0
  6
CONTINUOUS
 62
               3
  5
56E
 10
-666.4440078379746
 20
-214.02767692288904
 30
0.0
 11
-666.50168875694749
 21
-213.88162773345852
 31
0.0
  0
LINE
  8
0
  6
CONTINUOUS
 62
               3
  5
56F
 10
-666.50168875694749
 20
-213.88162773345852
 30
0.0
 11
-666.56070328418537
 21
-213.73612938951857
 31
0.0
  0
LINE
  8
0
  6
CONTINUOUS
 62
               3
  5
570
 10
-666.56070328418537
 20
-213.73612938951857
 30
0.0
 11
-666.62103983418933
 21
-213.59119592637165
 31
0.0
  0
LINE
  8
0
  6
CONTINUOUS
 62
               3
  5
571
 10
-666.62103983418933
 20
-213.59119592637165
 30
0.0
 11
-666.68266551199122
 21
-213.44682778425437
 31
0.0
  0
LINE
  8
0
  6
CONTINUOUS
 62
               3
  5
572
 10
-666.68266551199122
 20
-213.44682778425437
 30
0.0
 11
-666.74548374577716
 21
-213.30298477870002
 31
0.0
  0
LINE
  8
0
  6
CONTINUOUS
 62
               3
  5
573
 10
-666.74548374577716
 20
-213.30298477870002
 30
0.0
 11
-666.80938612136686
 21
-213.15961917002136
 31
0.0
  0
LINE
  8
0
  6
CONTINUOUS
 62
               3
  5
574
 10
-666.80938612136686
 20
-213.15961917002136
 30
0.0
 11
-666.87426422457997
 21
-213.01668321853055
 31
0.0
  0
LINE
  8
0
  6
CONTINUOUS
 62
               3
  5
575
 10
-666.87426422457997
 20
-213.01668321853055
 30
0.0
 11
-666.94000964123597
 21
-212.87412918454021
 31
0.0
  0
LINE
  8
0
  6
CONTINUOUS
 62
               3
  5
576
 10
-666.94000964123597
 20
-212.87412918454021
 30
0.0
 11
-667.00651395715454
 21
-212.73190932836263
 31
0.0
  0
LINE
  8
0
  6
CONTINUOUS
 62
               3
  5
577
 10
-667.00651395715454
 20
-212.73190932836263
 30
0.0
 11
-667.07366875815546
 21
-212.58997591031044
 31
0.0
  0
LINE
  8
0
  6
CONTINUOUS
 62
               3
  5
578
 10
-667.07366875815546
 20
-212.58997591031044
 30
0.0
 11
-667.14136563005809
 21
-212.44828119069592
 31
0.0
  0
LINE
  8
0
  6
CONTINUOUS
 62
               3
  5
579
 10
-667.14136563005809
 20
-212.44828119069592
 30
0.0
 11
-667.20949615868233
 21
-212.3067774298317
 31
0.0
  0
LINE
  8
0
  6
CONTINUOUS
 62
               3
  5
57A
 10
-667.20949615868233
 20
-212.3067774298317
 30
0.0
 11
-667.27795192984763
 21
-212.16541688803005
 31
0.0
  0
LINE
  8
0
  6
CONTINUOUS
 62
               3
  5
57B
 10
-667.27795192984763
 20
-212.16541688803005
 30
0.0
 11
-667.34662452937368
 21
-212.0241518256035
 31
0.0
  0
LINE
  8
0
  6
CONTINUOUS
 62
               3
  5
57C
 10
-667.34662452937368
 20
-212.0241518256035
 30
0.0
 11
-667.41540554308017
 21
-211.88293450286454
 31
0.0
  0
LINE
  8
0
  6
CONTINUOUS
 62
               3
  5
57D
 10
-690.82529329579938
 20
-134.00785438469637
 30
0.0
 11
-687.30379588042456
 21
-132.01296073517943
 31
0.0
  0
LINE
  8
0
  6
CONTINUOUS
 62
               3
  5
57E
 10
-712.30982019544285
 20
-134.00785438469549
 30
0.0
 11
-724.30982019544308
 21
-134.00785438469549
 31
0.0
  0
LINE
  8
0
  6
CONTINUOUS
 62
               3
  5
57F
 10
-712.30982019544285
 20
-224.00785438469705
 30
0.0
 11
-724.30982019544308
 21
-224.00785438469558
 31
0.0
  0
LINE
  8
0
  6
CONTINUOUS
 62
               3
  5
580
 10
-712.30982019544285
 20
-134.00785438469549
 30
0.0
 11
-712.30982019544285
 21
-224.00785438469705
 31
0.0
  0
LINE
  8
0
  6
CONTINUOUS
 62
               3
  5
581
 10
-724.30982019544308
 20
-134.00785438469549
 30
0.0
 11
-724.30982019544308
 21
-224.00785438469558
 31
0.0
  0
LINE
  8
0
  6
CONTINUOUS
 62
               3
  5
582
 10
-712.30982019544285
 20
-141.30443662300203
 30
0.0
 11
-704.30982019544399
 21
-141.30443662300203
 31
0.0
  0
LINE
  8
0
  6
CONTINUOUS
 62
               3
  5
583
 10
-712.30982019544285
 20
-216.71127214638901
 30
0.0
 11
-704.30982019544399
 21
-216.71127214638901
 31
0.0
  0
LINE
  8
0
  6
CONTINUOUS
 62
               3
  5
584
 10
-521.31584451046342
 20
-140.40379424898066
 30
0.0
 11
-521.36417209623858
 21
-141.09792307634399
 31
0.0
  0
LINE
  8
0
  6
CONTINUOUS
 62
               3
  5
585
 10
-521.36417209623858
 20
-141.09792307634399
 30
0.0
 11
-521.41456197019329
 21
-141.79180370425712
 31
0.0
  0
LINE
  8
0
  6
CONTINUOUS
 62
               3
  5
586
 10
-521.41456197019329
 20
-141.79180370425712
 30
0.0
 11
-521.46907642050724
 21
-142.48518793327008
 31
0.0
  0
LINE
  8
0
  6
CONTINUOUS
 62
               3
  5
587
 10
-521.46907642050724
 20
-142.48518793327008
 30
0.0
 11
-521.52977773536008
 21
-143.17782756393234
 31
0.0
  0
LINE
  8
0
  6
CONTINUOUS
 62
               3
  5
588
 10
-521.52977773536008
 20
-143.17782756393234
 30
0.0
 11
-521.5987282029314
 21
-143.86947439679392
 31
0.0
  0
LINE
  8
0
  6
CONTINUOUS
 62
               3
  5
589
 10
-521.5987282029314
 20
-143.86947439679392
 30
0.0
 11
-521.67799010944202
 21
-144.55988023260642
 31
0.0
  0
LINE
  8
0
  6
CONTINUOUS
 62
               3
  5
58A
 10
-521.67799010944202
 20
-144.55988023260642
 30
0.0
 11
-521.76903230785445
 21
-145.24885801553665
 31
0.0
  0
LINE
  8
0
  6
CONTINUOUS
 62
               3
  5
58B
 10
-521.76903230785445
 20
-145.24885801553665
 30
0.0
 11
-521.87105511723189
 21
-145.93645442439293
 31
0.0
  0
LINE
  8
0
  6
CONTINUOUS
 62
               3
  5
58C
 10
-521.87105511723189
 20
-145.93645442439293
 30
0.0
 11
-521.98271686733449
 21
-146.62277198095609
 31
0.0
  0
LINE
  8
0
  6
CONTINUOUS
 62
               3
  5
58D
 10
-521.98271686733449
 20
-146.62277198095609
 30
0.0
 11
-522.10267588792237
 21
-147.30791320700649
 31
0.0
  0
LINE
  8
0
  6
CONTINUOUS
 62
               3
  5
58E
 10
-522.10267588792237
 20
-147.30791320700649
 30
0.0
 11
-522.22959050875579
 21
-147.99198062432498
 31
0.0
  0
LINE
  8
0
  6
CONTINUOUS
 62
               3
  5
58F
 10
-522.22959050875579
 20
-147.99198062432498
 30
0.0
 11
-522.36211905959487
 21
-148.67507675469204
 31
0.0
  0
LINE
  8
0
  6
CONTINUOUS
 62
               3
  5
590
 10
-522.36211905959487
 20
-148.67507675469204
 30
0.0
 11
-522.49891987019976
 21
-149.3573041198884
 31
0.0
  0
LINE
  8
0
  6
CONTINUOUS
 62
               3
  5
591
 10
-522.49891987019976
 20
-149.3573041198884
 30
0.0
 11
-522.63877510310181
 21
-150.03875844203077
 31
0.0
  0
LINE
  8
0
  6
CONTINUOUS
 62
               3
  5
592
 10
-522.63877510310181
 20
-150.03875844203077
 30
0.0
 11
-522.78130847779437
 21
-150.71948923330007
 31
0.0
  0
LINE
  8
0
  6
CONTINUOUS
 62
               3
  5
593
 10
-522.78130847779437
 20
-150.71948923330007
 30
0.0
 11
-522.92649389623273
 21
-151.39952677733976
 31
0.0
  0
LINE
  8
0
  6
CONTINUOUS
 62
               3
  5
594
 10
-522.92649389623273
 20
-151.39952677733976
 30
0.0
 11
-523.07430640948485
 21
-152.07890129469598
 31
0.0
  0
LINE
  8
0
  6
CONTINUOUS
 62
               3
  5
595
 10
-523.07430640948485
 20
-152.07890129469598
 30
0.0
 11
-523.22472106861915
 21
-152.75764300591476
 31
0.0
  0
LINE
  8
0
  6
CONTINUOUS
 62
               3
  5
596
 10
-523.22472106861915
 20
-152.75764300591476
 30
0.0
 11
-523.37771292470381
 21
-153.43578213154166
 31
0.0
  0
LINE
  8
0
  6
CONTINUOUS
 62
               3
  5
597
 10
-523.37771292470381
 20
-153.43578213154166
 30
0.0
 11
-523.53325702880704
 21
-154.11334889212281
 31
0.0
  0
LINE
  8
0
  6
CONTINUOUS
 62
               3
  5
598
 10
-523.53325702880704
 20
-154.11334889212281
 30
0.0
 11
-523.69130037183982
 21
-154.79037421525828
 31
0.0
  0
LINE
  8
0
  6
CONTINUOUS
 62
               3
  5
599
 10
-523.69130037183982
 20
-154.79037421525828
 30
0.0
 11
-523.85167521649953
 21
-155.46689191944535
 31
0.0
  0
LINE
  8
0
  6
CONTINUOUS
 62
               3
  5
59A
 10
-523.85167521649953
 20
-155.46689191944535
 30
0.0
 11
-524.01418450781307
 21
-156.1429365619228
 31
0.0
  0
LINE
  8
0
  6
CONTINUOUS
 62
               3
  5
59B
 10
-524.01418450781307
 20
-156.1429365619228
 30
0.0
 11
-524.17863119079618
 21
-156.81854269992874
 31
0.0
  0
LINE
  8
0
  6
CONTINUOUS
 62
               3
  5
59C
 10
-524.17863119079618
 20
-156.81854269992874
 30
0.0
 11
-524.34481821046461
 21
-157.49374489070209
 31
0.0
  0
ARC
  8
0
  6
CONTINUOUS
 62
               3
  5
59D
 10
-506.30982019544405
 20
-136.00785438469637
 30
0.0
 40
2.0
 50
0.0
 51
89.999999999999801
  0
LINE
  8
0
  6
CONTINUOUS
 62
               3
  5
59E
 10
-524.34481821046461
 20
-157.49374489070209
 30
0.0
 11
-524.51254851183398
 21
-158.16857769148129
 31
0.0
  0
LINE
  8
0
  6
CONTINUOUS
 62
               3
  5
59F
 10
-524.51254851183398
 20
-158.16857769148129
 30
0.0
 11
-524.68162503992016
 21
-158.84307565950479
 31
0.0
  0
LINE
  8
0
  6
CONTINUOUS
 62
               3
  5
5A0
 10
-524.68162503992016
 20
-158.84307565950479
 30
0.0
 11
-524.8518545592583
 21
-159.51727291073627
 31
0.0
  0
LINE
  8
0
  6
CONTINUOUS
 62
               3
  5
5A1
 10
-524.8518545592583
 20
-159.51727291073627
 30
0.0
 11
-525.02310734152547
 21
-160.19119622406168
 31
0.0
  0
LINE
  8
0
  6
CONTINUOUS
 62
               3
  5
5A2
 10
-525.02310734152547
 20
-160.19119622406168
 30
0.0
 11
-525.19530601562758
 21
-160.86486632945588
 31
0.0
  0
LINE
  8
0
  6
CONTINUOUS
 62
               3
  5
5A3
 10
-525.19530601562758
 20
-160.86486632945588
 30
0.0
 11
-525.36837477391998
 21
-161.53830377626588
 31
0.0
  0
LINE
  8
0
  6
CONTINUOUS
 62
               3
  5
5A4
 10
-525.36837477391998
 20
-161.53830377626588
 30
0.0
 11
-525.5422378087577
 21
-162.21152911383882
 31
0.0
  0
LINE
  8
0
  6
CONTINUOUS
 62
               3
  5
5A5
 10
-525.5422378087577
 20
-162.21152911383882
 30
0.0
 11
-525.716819312496
 21
-162.88456289152174
 31
0.0
  0
LINE
  8
0
  6
CONTINUOUS
 62
               3
  5
5A6
 10
-525.716819312496
 20
-162.88456289152174
 30
0.0
 11
-525.89204347748989
 21
-163.557425658662
 31
0.0
  0
LINE
  8
0
  6
CONTINUOUS
 62
               3
  5
5A7
 10
-525.89204347748989
 20
-163.557425658662
 30
0.0
 11
-526.06783449609475
 21
-164.23013796460663
 31
0.0
  0
LINE
  8
0
  6
CONTINUOUS
 62
               3
  5
5A8
 10
-526.06783449609475
 20
-164.23013796460663
 30
0.0
 11
-526.24411656066559
 21
-164.90272035870265
 31
0.0
  0
LINE
  8
0
  6
CONTINUOUS
 62
               3
  5
5A9
 10
-526.24411656066559
 20
-164.90272035870265
 30
0.0
 11
-526.42081386355756
 21
-165.57519339029733
 31
0.0
  0
LINE
  8
0
  6
CONTINUOUS
 62
               3
  5
5AA
 10
-526.42081386355756
 20
-165.57519339029733
 30
0.0
 11
-526.5978505971259
 21
-166.24757760873769
 31
0.0
  0
LINE
  8
0
  6
CONTINUOUS
 62
               3
  5
5AB
 10
-526.5978505971259
 20
-166.24757760873769
 30
0.0
 11
-526.77515095372576
 21
-166.91989356337075
 31
0.0
  0
LINE
  8
0
  6
CONTINUOUS
 62
               3
  5
5AC
 10
-526.77515095372576
 20
-166.91989356337075
 30
0.0
 11
-526.95263912571238
 21
-167.59216180354389
 31
0.0
  0
LINE
  8
0
  6
CONTINUOUS
 62
               3
  5
5AD
 10
-526.95263912571238
 20
-167.59216180354389
 30
0.0
 11
-527.13023930544068
 21
-168.26440287860402
 31
0.0
  0
LINE
  8
0
  6
CONTINUOUS
 62
               3
  5
5AE
 10
-527.13023930544068
 20
-168.26440287860402
 30
0.0
 11
-527.30787568526603
 21
-168.93663733789839
 31
0.0
  0
LINE
  8
0
  6
CONTINUOUS
 62
               3
  5
5AF
 10
-527.30787568526603
 20
-168.93663733789839
 30
0.0
 11
-527.48547245938983
 21
-169.60888573010715
 31
0.0
  0
LINE
  8
0
  6
CONTINUOUS
 62
               3
  5
5B0
 10
-527.48547245938983
 20
-169.60888573010715
 30
0.0
 11
-527.66295736344944
 21
-170.28116732461257
 31
0.0
  0
LINE
  8
0
  6
CONTINUOUS
 62
               3
  5
5B1
 10
-527.66295736344944
 20
-170.28116732461257
 30
0.0
 11
-527.84026905030282
 21
-170.95349744709284
 31
0.0
  0
LINE
  8
0
  6
CONTINUOUS
 62
               3
  5
5B2
 10
-527.84026905030282
 20
-170.95349744709284
 30
0.0
 11
-528.01734826980839
 21
-171.62589066571178
 31
0.0
  0
LINE
  8
0
  6
CONTINUOUS
 62
               3
  5
5B3
 10
-528.01734826980839
 20
-171.62589066571178
 30
0.0
 11
-528.19413577182479
 21
-172.29836154863295
 31
0.0
  0
LINE
  8
0
  6
CONTINUOUS
 62
               3
  5
5B4
 10
-528.19413577182479
 20
-172.29836154863295
 30
0.0
 11
-528.37057230621031
 21
-172.9709246640204
 31
0.0
  0
LINE
  8
0
  6
CONTINUOUS
 62
               3
  5
5B5
 10
-528.37057230621031
 20
-172.9709246640204
 30
0.0
 11
-528.54659862282358
 21
-173.6435945800377
 31
0.0
  0
LINE
  8
0
  6
CONTINUOUS
 62
               3
  5
5B6
 10
-528.54659862282358
 20
-173.6435945800377
 30
0.0
 11
-528.72215547152302
 21
-174.31638586484888
 31
0.0
  0
LINE
  8
0
  6
CONTINUOUS
 62
               3
  5
5B7
 10
-528.72215547152302
 20
-174.31638586484888
 30
0.0
 11
-528.89718360216716
 21
-174.98931308661753
 31
0.0
  0
LINE
  8
0
  6
CONTINUOUS
 62
               3
  5
5B8
 10
-528.89718360216716
 20
-174.98931308661753
 30
0.0
 11
-529.07162376461463
 21
-175.66239081350756
 31
0.0
  0
LINE
  8
0
  6
CONTINUOUS
 62
               3
  5
5B9
 10
-529.07162376461463
 20
-175.66239081350756
 30
0.0
 11
-529.24541670872372
 21
-176.33563361368266
 31
0.0
  0
LINE
  8
0
  6
CONTINUOUS
 62
               3
  5
5BA
 10
-529.24541670872372
 20
-176.33563361368266
 30
0.0
 11
-529.41850318435309
 21
-177.00905605530664
 31
0.0
  0
LINE
  8
0
  6
CONTINUOUS
 62
               3
  5
5BB
 10
-529.41850318435309
 20
-177.00905605530664
 30
0.0
 11
-529.59082394136112
 21
-177.68267270654343
 31
0.0
  0
LINE
  8
0
  6
CONTINUOUS
 62
               3
  5
5BC
 10
-529.59082394136112
 20
-177.68267270654343
 30
0.0
 11
-529.76231972960647
 21
-178.35649813555659
 31
0.0
  0
LINE
  8
0
  6
CONTINUOUS
 62
               3
  5
5BD
 10
-529.76231972960647
 20
-178.35649813555659
 30
0.0
 11
-529.93293129894744
 21
-179.03054691051005
 31
0.0
  0
LINE
  8
0
  6
CONTINUOUS
 62
               3
  5
5BE
 10
-529.93293129894744
 20
-179.03054691051005
 30
0.0
 11
-530.10259939924265
 21
-179.70483359956762
 31
0.0
  0
LINE
  8
0
  6
CONTINUOUS
 62
               3
  5
5BF
 10
-530.10259939924265
 20
-179.70483359956762
 30
0.0
 11
-530.27126478035063
 21
-180.37937277089299
 31
0.0
  0
LINE
  8
0
  6
CONTINUOUS
 62
               3
  5
5C0
 10
-530.27126478035063
 20
-180.37937277089299
 30
0.0
 11
-530.43884956871852
 21
-181.05418310606268
 31
0.0
  0
LINE
  8
0
  6
CONTINUOUS
 62
               3
  5
5C1
 10
-530.43884956871852
 20
-181.05418310606268
 30
0.0
 11
-530.60516150113995
 21
-181.72930855226349
 31
0.0
  0
LINE
  8
0
  6
CONTINUOUS
 62
               3
  5
5C2
 10
-530.60516150113995
 20
-181.72930855226349
 30
0.0
 11
-530.7699766873418
 21
-182.40479983021243
 31
0.0
  0
LINE
  8
0
  6
CONTINUOUS
 62
               3
  5
5C3
 10
-530.7699766873418
 20
-182.40479983021243
 30
0.0
 11
-530.93346553498839
 21
-183.08061346961239
 31
0.0
  0
LINE
  8
0
  6
CONTINUOUS
 62
               3
  5
5C4
 10
-530.93346553498839
 20
-183.08061346961239
 30
0.0
 11
-531.0962768274685
 21
-183.75659172622539
 31
0.0
  0
LINE
  8
0
  6
CONTINUOUS
 62
               3
  5
5C5
 10
-531.09627682746861
 20
-223.75659172622539
 30
0.0
 11
-531.0614173541004
 21
-223.77084804938971
 31
0.0
  0
LINE
  8
0
  6
CONTINUOUS
 62
               3
  5
5C6
 10
-531.0614173541004
 20
-223.77084804938971
 30
0.0
 11
-531.02653415629811
 21
-223.78503509879994
 31
0.0
  0
LINE
  8
0
  6
CONTINUOUS
 62
               3
  5
5C7
 10
-531.02653415629811
 20
-223.78503509879994
 30
0.0
 11
-530.991603509627
 21
-223.79908360070209
 31
0.0
  0
LINE
  8
0
  6
CONTINUOUS
 62
               3
  5
5C8
 10
-530.991603509627
 20
-223.79908360070209
 30
0.0
 11
-530.9566016896531
 21
-223.81292428134185
 31
0.0
  0
LINE
  8
0
  6
CONTINUOUS
 62
               3
  5
5C9
 10
-530.9566016896531
 20
-223.81292428134185
 30
0.0
 11
-530.921504971942
 21
-223.82648786696524
 31
0.0
  0
LINE
  8
0
  6
CONTINUOUS
 62
               3
  5
5CA
 10
-530.921504971942
 20
-223.82648786696524
 30
0.0
 11
-530.88628963205952
 21
-223.83970508381827
 31
0.0
  0
LINE
  8
0
  6
CONTINUOUS
 62
               3
  5
5CB
 10
-530.88628963205952
 20
-223.83970508381827
 30
0.0
 11
-530.85093194557112
 21
-223.85250665814686
 31
0.0
  0
LINE
  8
0
  6
CONTINUOUS
 62
               3
  5
5CC
 10
-530.85093194557112
 20
-223.85250665814686
 30
0.0
 11
-530.81540818804274
 21
-223.86482331619669
 31
0.0
  0
LINE
  8
0
  6
CONTINUOUS
 62
               3
  5
5CD
 10
-530.81540818804274
 20
-223.86482331619669
 30
0.0
 11
-530.77969554078197
 21
-223.87658794757175
 31
0.0
  0
LINE
  8
0
  6
CONTINUOUS
 62
               3
  5
5CE
 10
-530.77969554078197
 20
-223.87658794757175
 30
0.0
 11
-530.74378989784134
 21
-223.88777813712687
 31
0.0
  0
LINE
  8
0
  6
CONTINUOUS
 62
               3
  5
5CF
 10
-530.74378989784134
 20
-223.88777813712687
 30
0.0
 11
-530.70770475925963
 21
-223.89841352148215
 31
0.0
  0
LINE
  8
0
  6
CONTINUOUS
 62
               3
  5
5D0
 10
-530.70770475925963
 20
-223.89841352148215
 30
0.0
 11
-530.67145430920789
 21
-223.90851537130294
 31
0.0
  0
LINE
  8
0
  6
CONTINUOUS
 62
               3
  5
5D1
 10
-530.67145430920789
 20
-223.90851537130294
 30
0.0
 11
-530.63505273185683
 21
-223.91810495725434
 31
0.0
  0
LINE
  8
0
  6
CONTINUOUS
 62
               3
  5
5D2
 10
-530.63505273185683
 20
-223.91810495725434
 30
0.0
 11
-530.59851421137762
 21
-223.92720355000137
 31
0.0
  0
LINE
  8
0
  6
CONTINUOUS
 62
               3
  5
5D3
 10
-530.59851421137762
 20
-223.92720355000137
 30
0.0
 11
-530.56185293194108
 21
-223.93583242020912
 31
0.0
  0
LINE
  8
0
  6
CONTINUOUS
 62
               3
  5
5D4
 10
-530.56185293194108
 20
-223.93583242020912
 30
0.0
 11
-530.52508307771814
 21
-223.94401283854273
 31
0.0
  0
LINE
  8
0
  6
CONTINUOUS
 62
               3
  5
5D5
 10
-530.52508307771814
 20
-223.94401283854273
 30
0.0
 11
-530.48821789994315
 21
-223.95176133868523
 31
0.0
  0
LINE
  8
0
  6
CONTINUOUS
 62
               3
  5
5D6
 10
-530.48821789994315
 20
-223.95176133868523
 30
0.0
 11
-530.45126445695121
 21
-223.95906300989299
 31
0.0
  0
LINE
  8
0
  6
CONTINUOUS
 62
               3
  5
5D7
 10
-530.45126445695121
 20
-223.95906300989299
 30
0.0
 11
-530.41422728414523
 21
-223.96589013124395
 31
0.0
  0
LINE
  8
0
  6
CONTINUOUS
 62
               3
  5
5D8
 10
-530.41422728414523
 20
-223.96589013124395
 30
0.0
 11
-530.3771109095411
 21
-223.9722149443075
 31
0.0
  0
LINE
  8
0
  6
CONTINUOUS
 62
               3
  5
5D9
 10
-530.3771109095411
 20
-223.9722149443075
 30
0.0
 11
-530.33991986115461
 21
-223.97800969065275
 31
0.0
  0
LINE
  8
0
  6
CONTINUOUS
 62
               3
  5
5DA
 10
-530.33991986115461
 20
-223.97800969065275
 30
0.0
 11
-530.30265866700142
 21
-223.9832466118491
 31
0.0
  0
LINE
  8
0
  6
CONTINUOUS
 62
               3
  5
5DB
 10
-530.30265866700142
 20
-223.9832466118491
 30
0.0
 11
-530.26533185509743
 21
-223.98789794946578
 31
0.0
  0
LINE
  8
0
  6
CONTINUOUS
 62
               3
  5
5DC
 10
-530.26533185509743
 20
-223.98789794946578
 30
0.0
 11
-530.22794395345841
 21
-223.99193594507216
 31
0.0
  0
LINE
  8
0
  6
CONTINUOUS
 62
               3
  5
5DD
 10
-530.22794395345841
 20
-223.99193594507216
 30
0.0
 11
-530.19049982423292
 21
-223.9953470214935
 31
0.0
  0
LINE
  8
0
  6
CONTINUOUS
 62
               3
  5
5DE
 10
-530.19049982423292
 20
-223.9953470214935
 30
0.0
 11
-530.15300602585262
 21
-223.99818959518512
 31
0.0
  0
LINE
  8
0
  6
CONTINUOUS
 62
               3
  5
5DF
 10
-530.15300602585262
 20
-223.99818959518512
 30
0.0
 11
-530.11546965372884
 21
-224.00054487309848
 31
0.0
  0
LINE
  8
0
  6
CONTINUOUS
 62
               3
  5
5E0
 10
-530.11546965372884
 20
-224.00054487309848
 30
0.0
 11
-530.07789780348571
 21
-224.00249407119639
 31
0.0
  0
LINE
  8
0
  6
CONTINUOUS
 62
               3
  5
5E1
 10
-530.07789780348571
 20
-224.00249407119639
 30
0.0
 11
-530.04029757074693
 21
-224.00411840544194
 31
0.0
  0
LINE
  8
0
  6
CONTINUOUS
 62
               3
  5
5E2
 10
-530.04029757074693
 20
-224.00411840544194
 30
0.0
 11
-530.00267605113663
 21
-224.00549909179841
 31
0.0
  0
LINE
  8
0
  6
CONTINUOUS
 62
               3
  5
5E3
 10
-530.00267605113663
 20
-224.00549909179841
 30
0.0
 11
-529.96504034027839
 21
-224.00671734622853
 31
0.0
  0
LINE
  8
0
  6
CONTINUOUS
 62
               3
  5
5E4
 10
-529.96504034027839
 20
-224.00671734622853
 30
0.0
 11
-529.92739753379635
 21
-224.00785438469569
 31
0.0
  0
LINE
  8
0
  6
CONTINUOUS
 62
               3
  5
5E5
 10
-541.20423484780792
 20
-220.77182339176528
 30
0.0
 11
-540.88180721542881
 21
-220.84195478113071
 31
0.0
  0
LINE
  8
0
  6
CONTINUOUS
 62
               3
  5
5E6
 10
-540.88180721542881
 20
-220.84195478113071
 30
0.0
 11
-540.55942447331313
 21
-220.9122698940227
 31
0.0
  0
LINE
  8
0
  6
CONTINUOUS
 62
               3
  5
5E7
 10
-540.55942447331313
 20
-220.9122698940227
 30
0.0
 11
-540.23713151172421
 21
-220.98295245396815
 31
0.0
  0
LINE
  8
0
  6
CONTINUOUS
 62
               3
  5
5E8
 10
-540.23713151172421
 20
-220.98295245396815
 30
0.0
 11
-539.91497322092516
 21
-221.05418618449363
 31
0.0
  0
LINE
  8
0
  6
CONTINUOUS
 62
               3
  5
5E9
 10
-539.91497322092516
 20
-221.05418618449363
 30
0.0
 11
-539.59299449117964
 21
-221.12615480912604
 31
0.0
  0
LINE
  8
0
  6
CONTINUOUS
 62
               3
  5
5EA
 10
-539.59299449117964
 20
-221.12615480912604
 30
0.0
 11
-539.27124021275074
 21
-221.19904205139193
 31
0.0
  0
LINE
  8
0
  6
CONTINUOUS
 62
               3
  5
5EB
 10
-539.27124021275074
 20
-221.19904205139193
 30
0.0
 11
-538.94975527590191
 21
-221.27303163481798
 31
0.0
  0
LINE
  8
0
  6
CONTINUOUS
 62
               3
  5
5EC
 10
-538.94975527590191
 20
-221.27303163481798
 30
0.0
 11
-538.62858457089658
 21
-221.34830728293088
 31
0.0
  0
LINE
  8
0
  6
CONTINUOUS
 62
               3
  5
5ED
 10
-538.62858457089658
 20
-221.34830728293088
 30
0.0
 11
-538.30777298799796
 21
-221.42505271925751
 31
0.0
  0
LINE
  8
0
  6
CONTINUOUS
 62
               3
  5
5EE
 10
-538.30777298799796
 20
-221.42505271925751
 30
0.0
 11
-537.98736541746939
 21
-221.50345166732433
 31
0.0
  0
LINE
  8
0
  6
CONTINUOUS
 62
               3
  5
5EF
 10
-537.98736541746939
 20
-221.50345166732433
 30
0.0
 11
-537.66740045777021
 21
-221.58365800000757
 31
0.0
  0
LINE
  8
0
  6
CONTINUOUS
 62
               3
  5
5F0
 10
-537.66740045777021
 20
-221.58365800000757
 30
0.0
 11
-537.34788849070515
 21
-221.66569171991995
 31
0.0
  0
LINE
  8
0
  6
CONTINUOUS
 62
               3
  5
5F1
 10
-537.34788849070515
 20
-221.66569171991995
 30
0.0
 11
-537.02883199139148
 21
-221.74953531741568
 31
0.0
  0
LINE
  8
0
  6
CONTINUOUS
 62
               3
  5
5F2
 10
-537.02883199139148
 20
-221.74953531741568
 30
0.0
 11
-536.71023343455511
 21
-221.83517128099476
 31
0.0
  0
LINE
  8
0
  6
CONTINUOUS
 62
               3
  5
5F3
 10
-536.71023343455511
 20
-221.83517128099476
 30
0.0
 11
-536.39209529492223
 21
-221.92258209915786
 31
0.0
  0
LINE
  8
0
  6
CONTINUOUS
 62
               3
  5
5F4
 10
-536.39209529492223
 20
-221.92258209915786
 30
0.0
 11
-536.07442004721906
 21
-222.01175026040499
 31
0.0
  0
LINE
  8
0
  6
CONTINUOUS
 62
               3
  5
5F5
 10
-536.07442004721906
 20
-222.01175026040499
 30
0.0
 11
-535.7572101661716
 21
-222.1026582532366
 31
0.0
  0
LINE
  8
0
  6
CONTINUOUS
 62
               3
  5
5F6
 10
-535.7572101661716
 20
-222.1026582532366
 30
0.0
 11
-535.44046812650618
 21
-222.1952885661529
 31
0.0
  0
LINE
  8
0
  6
CONTINUOUS
 62
               3
  5
5F7
 10
-535.44046812650618
 20
-222.1952885661529
 30
0.0
 11
-535.12420162084607
 21
-222.28963618653682
 31
0.0
  0
LINE
  8
0
  6
CONTINUOUS
 62
               3
  5
5F8
 10
-535.12420162084607
 20
-222.28963618653682
 30
0.0
 11
-534.80848957024762
 21
-222.38586672142429
 31
0.0
  0
LINE
  8
0
  6
CONTINUOUS
 62
               3
  5
5F9
 10
-534.80848957024762
 20
-222.38586672142429
 30
0.0
 11
-534.49346242406216
 21
-222.48426920805292
 31
0.0
  0
LINE
  8
0
  6
CONTINUOUS
 62
               3
  5
5FA
 10
-534.49346242406216
 20
-222.48426920805292
 30
0.0
 11
-534.17925177958818
 21
-222.58513543343776
 31
0.0
  0
LINE
  8
0
  6
CONTINUOUS
 62
               3
  5
5FB
 10
-534.17925177958818
 20
-222.58513543343776
 30
0.0
 11
-533.8659892341243
 21
-222.68875718459418
 31
0.0
  0
LINE
  8
0
  6
CONTINUOUS
 62
               3
  5
5FC
 10
-533.8659892341243
 20
-222.68875718459418
 30
0.0
 11
-533.55380638496911
 21
-222.79542624853713
 31
0.0
  0
LINE
  8
0
  6
CONTINUOUS
 62
               3
  5
5FD
 10
-533.55380638496911
 20
-222.79542624853713
 30
0.0
 11
-533.24283482942087
 21
-222.90543441228164
 31
0.0
  0
LINE
  8
0
  6
CONTINUOUS
 62
               3
  5
5FE
 10
-533.24283482942087
 20
-222.90543441228164
 30
0.0
 11
-532.93320525082072
 21
-223.01907117261413
 31
0.0
  0
LINE
  8
0
  6
CONTINUOUS
 62
               3
  5
5FF
 10
-532.93320525082072
 20
-223.01907117261413
 30
0.0
 11
-532.62493476928273
 21
-223.13634145535781
 31
0.0
  0
LINE
  8
0
  6
CONTINUOUS
 62
               3
  5
600
 10
-532.62493476928273
 20
-223.13634145535781
 30
0.0
 11
-532.31781833009711
 21
-223.25669345238776
 31
0.0
  0
LINE
  8
0
  6
CONTINUOUS
 62
               3
  5
601
 10
-532.31781833009711
 20
-223.25669345238776
 30
0.0
 11
-532.01162512479334
 21
-223.37951082084675
 31
0.0
  0
LINE
  8
0
  6
CONTINUOUS
 62
               3
  5
602
 10
-532.01162512479334
 20
-223.37951082084675
 30
0.0
 11
-531.70612434490101
 21
-223.50417721787761
 31
0.0
  0
LINE
  8
0
  6
CONTINUOUS
 62
               3
  5
603
 10
-531.70612434490101
 20
-223.50417721787761
 30
0.0
 11
-531.40108518194961
 21
-223.63007630062287
 31
0.0
  0
LINE
  8
0
  6
CONTINUOUS
 62
               3
  5
604
 10
-531.40108518194961
 20
-223.63007630062287
 30
0.0
 11
-531.09627682746861
 21
-223.75659172622539
 31
0.0
  0
LINE
  8
0
  6
CONTINUOUS
 62
               3
  5
605
 10
-531.0962768274685
 20
-183.75659172622539
 30
0.0
 11
-531.32626458561549
 21
-184.66418448613348
 31
0.0
  0
LINE
  8
0
  6
CONTINUOUS
 62
               3
  5
606
 10
-531.32626458561549
 20
-184.66418448613348
 30
0.0
 11
-531.55719626718258
 21
-185.57150925771674
 31
0.0
  0
LINE
  8
0
  6
CONTINUOUS
 62
               3
  5
607
 10
-531.55719626718258
 20
-185.57150925771674
 30
0.0
 11
-531.79001579558962
 21
-186.47829805265013
 31
0.0
  0
LINE
  8
0
  6
CONTINUOUS
 62
               3
  5
608
 10
-531.79001579558962
 20
-186.47829805265013
 30
0.0
 11
-532.02566709425696
 21
-187.38428288260883
 31
0.0
  0
LINE
  8
0
  6
CONTINUOUS
 62
               3
  5
609
 10
-532.02566709425696
 20
-187.38428288260883
 30
0.0
 11
-532.26509408660445
 21
-188.28919575926801
 31
0.0
  0
LINE
  8
0
  6
CONTINUOUS
 62
               3
  5
60A
 10
-532.26509408660445
 20
-188.28919575926801
 30
0.0
 11
-532.50924069605207
 21
-189.19276869430274
 31
0.0
  0
LINE
  8
0
  6
CONTINUOUS
 62
               3
  5
60B
 10
-532.50924069605207
 20
-189.19276869430274
 30
0.0
 11
-532.75905084602016
 21
-190.09473369938797
 31
0.0
  0
LINE
  8
0
  6
CONTINUOUS
 62
               3
  5
60C
 10
-532.75905084602016
 20
-190.09473369938797
 30
0.0
 11
-533.01546845448388
 21
-190.99482278754618
 31
0.0
  0
LINE
  8
0
  6
CONTINUOUS
 62
               3
  5
60D
 10
-533.01546845448388
 20
-190.99482278754618
 30
0.0
 11
-533.27922198461022
 21
-191.89282127920256
 31
0.0
  0
LINE
  8
0
  6
CONTINUOUS
 62
               3
  5
60E
 10
-533.27922198461022
 20
-191.89282127920256
 30
0.0
 11
-533.55025272876412
 21
-192.7887092550273
 31
0.0
  0
LINE
  8
0
  6
CONTINUOUS
 62
               3
  5
60F
 10
-533.55025272876412
 20
-192.7887092550273
 30
0.0
 11
-533.82832225777042
 21
-193.68251126203876
 31
0.0
  0
LINE
  8
0
  6
CONTINUOUS
 62
               3
  5
610
 10
-533.82832225777042
 20
-193.68251126203876
 30
0.0
 11
-534.11319214245441
 21
-194.57425184725554
 31
0.0
  0
LINE
  8
0
  6
CONTINUOUS
 62
               3
  5
611
 10
-534.11319214245441
 20
-194.57425184725554
 30
0.0
 11
-534.40462395364091
 21
-195.46395555769612
 31
0.0
  0
LINE
  8
0
  6
CONTINUOUS
 62
               3
  5
612
 10
-534.40462395364091
 20
-195.46395555769612
 30
0.0
 11
-534.70237926215498
 21
-196.35164694037911
 31
0.0
  0
LINE
  8
0
  6
CONTINUOUS
 62
               3
  5
613
 10
-534.70237926215498
 20
-196.35164694037911
 30
0.0
 11
-535.00621963882168
 21
-197.23735054232299
 31
0.0
  0
LINE
  8
0
  6
CONTINUOUS
 62
               3
  5
614
 10
-535.00621963882168
 20
-197.23735054232299
 30
0.0
 11
-535.31590665446754
 21
-198.12109091054532
 31
0.0
  0
LINE
  8
0
  6
CONTINUOUS
 62
               3
  5
615
 10
-535.31590665446754
 20
-198.12109091054532
 30
0.0
 11
-535.63131912019219
 21
-199.0028433203334
 31
0.0
  0
LINE
  8
0
  6
CONTINUOUS
 62
               3
  5
616
 10
-535.63131912019219
 20
-199.0028433203334
 30
0.0
 11
-535.95280142189824
 21
-199.8823873831812
 31
0.0
  0
LINE
  8
0
  6
CONTINUOUS
 62
               3
  5
617
 10
-535.95280142189824
 20
-199.8823873831812
 30
0.0
 11
-536.28081349872093
 21
-200.75945414785218
 31
0.0
  0
LINE
  8
0
  6
CONTINUOUS
 62
               3
  5
618
 10
-536.28081349872093
 20
-200.75945414785218
 30
0.0
 11
-536.61581528979593
 21
-201.63377466311005
 31
0.0
  0
LINE
  8
0
  6
CONTINUOUS
 62
               3
  5
619
 10
-536.61581528979593
 20
-201.63377466311005
 30
0.0
 11
-536.95826673425859
 21
-202.50507997771803
 31
0.0
  0
LINE
  8
0
  6
CONTINUOUS
 62
               3
  5
61A
 10
-536.95826673425859
 20
-202.50507997771803
 30
0.0
 11
-537.30862777124423
 21
-203.37310114043993
 31
0.0
  0
LINE
  8
0
  6
CONTINUOUS
 62
               3
  5
61B
 10
-537.30862777124423
 20
-203.37310114043993
 30
0.0
 11
-537.66735833988844
 21
-204.23756920003922
 31
0.0
  0
LINE
  8
0
  6
CONTINUOUS
 62
               3
  5
61C
 10
-537.66735833988844
 20
-204.23756920003922
 30
0.0
 11
-538.03491711746437
 21
-205.0982158126788
 31
0.0
  0
LINE
  8
0
  6
CONTINUOUS
 62
               3
  5
61D
 10
-538.03491711746437
 20
-205.0982158126788
 30
0.0
 11
-538.41134583762891
 21
-205.95497333111649
 31
0.0
  0
LINE
  8
0
  6
CONTINUOUS
 62
               3
  5
61E
 10
-538.41134583762891
 20
-205.95497333111649
 30
0.0
 11
-538.79566895624509
 21
-206.80826377668888
 31
0.0
  0
LINE
  8
0
  6
CONTINUOUS
 62
               3
  5
61F
 10
-538.79566895624509
 20
-206.80826377668888
 30
0.0
 11
-539.18675870210552
 21
-207.65858244551958
 31
0.0
  0
LINE
  8
0
  6
CONTINUOUS
 62
               3
  5
620
 10
-539.18675870210552
 20
-207.65858244551958
 30
0.0
 11
-539.5834873040028
 21
-208.50642463373225
 31
0.0
  0
LINE
  8
0
  6
CONTINUOUS
 62
               3
  5
621
 10
-539.5834873040028
 20
-208.50642463373225
 30
0.0
 11
-539.98472699072954
 21
-209.35228563745062
 31
0.0
  0
LINE
  8
0
  6
CONTINUOUS
 62
               3
  5
622
 10
-539.98472699072954
 20
-209.35228563745062
 30
0.0
 11
-540.38934999107846
 21
-210.1966607527981
 31
0.0
  0
LINE
  8
0
  6
CONTINUOUS
 62
               3
  5
623
 10
-540.38934999107846
 20
-210.1966607527981
 30
0.0
 11
-540.79622853384217
 21
-211.04004527589842
 31
0.0
  0
LINE
  8
0
  6
CONTINUOUS
 62
               3
  5
624
 10
-540.79622853384217
 20
-211.04004527589842
 30
0.0
 11
-541.20423484781315
 21
-211.882934502875
 31
0.0
  0
LINE
  8
0
  6
CONTINUOUS
 62
               3
  5
625
 10
-541.20423484781315
 20
-211.882934502875
 30
0.0
 11
-541.27327063655309
 21
-212.0240676334642
 31
0.0
  0
LINE
  8
0
  6
CONTINUOUS
 62
               3
  5
626
 10
-541.27327063655309
 20
-212.0240676334642
 30
0.0
 11
-541.34219012479514
 21
-212.16525221139347
 31
0.0
  0
LINE
  8
0
  6
CONTINUOUS
 62
               3
  5
627
 10
-541.34219012479514
 20
-212.16525221139347
 30
0.0
 11
-541.41087701204162
 21
-212.30653968400276
 31
0.0
  0
LINE
  8
0
  6
CONTINUOUS
 62
               3
  5
628
 10
-541.41087701204162
 20
-212.30653968400276
 30
0.0
 11
-541.47921499779454
 21
-212.44798149863226
 31
0.0
  0
LINE
  8
0
  6
CONTINUOUS
 62
               3
  5
629
 10
-541.47921499779454
 20
-212.44798149863226
 30
0.0
 11
-541.54708778155623
 21
-212.58962910262204
 31
0.0
  0
LINE
  8
0
  6
CONTINUOUS
 62
               3
  5
62A
 10
-541.54708778155623
 20
-212.58962910262204
 30
0.0
 11
-541.61437906282879
 21
-212.73153394331194
 31
0.0
  0
LINE
  8
0
  6
CONTINUOUS
 62
               3
  5
62B
 10
-541.61437906282879
 20
-212.73153394331194
 30
0.0
 11
-541.68097254111433
 21
-212.87374746804204
 31
0.0
  0
LINE
  8
0
  6
CONTINUOUS
 62
               3
  5
62C
 10
-541.68097254111433
 20
-212.87374746804204
 30
0.0
 11
-541.74675191591507
 21
-213.01632112415263
 31
0.0
  0
LINE
  8
0
  6
CONTINUOUS
 62
               3
  5
62D
 10
-541.74675191591507
 20
-213.01632112415263
 30
0.0
 11
-541.81160088673334
 21
-213.15930635898354
 31
0.0
  0
LINE
  8
0
  6
CONTINUOUS
 62
               3
  5
62E
 10
-541.81160088673334
 20
-213.15930635898354
 30
0.0
 11
-541.87540315307115
 21
-213.30275461987486
 31
0.0
  0
LINE
  8
0
  6
CONTINUOUS
 62
               3
  5
62F
 10
-541.87540315307115
 20
-213.30275461987486
 30
0.0
 11
-541.93804270143812
 21
-213.44671719482363
 31
0.0
  0
LINE
  8
0
  6
CONTINUOUS
 62
               3
  5
630
 10
-541.93804270143812
 20
-213.44671719482363
 30
0.0
 11
-541.99943632604766
 21
-213.59122715739164
 31
0.0
  0
LINE
  8
0
  6
CONTINUOUS
 62
               3
  5
631
 10
-541.99943632604766
 20
-213.59122715739164
 30
0.0
 11
-542.0595635310309
 21
-213.73628276536243
 31
0.0
  0
LINE
  8
0
  6
CONTINUOUS
 62
               3
  5
632
 10
-542.0595635310309
 20
-213.73628276536243
 30
0.0
 11
-542.11841088683923
 21
-213.88187835338528
 31
0.0
  0
LINE
  8
0
  6
CONTINUOUS
 62
               3
  5
633
 10
-542.11841088683923
 20
-213.88187835338528
 30
0.0
 11
-542.17596496392366
 21
-214.02800825610944
 31
0.0
  0
LINE
  8
0
  6
CONTINUOUS
 62
               3
  5
634
 10
-542.17596496392366
 20
-214.02800825610944
 30
0.0
 11
-542.23221233273546
 21
-214.17466680818399
 31
0.0
  0
LINE
  8
0
  6
CONTINUOUS
 62
               3
  5
635
 10
-542.23221233273546
 20
-214.17466680818399
 30
0.0
 11
-542.28713956372587
 21
-214.32184834425829
 31
0.0
  0
LINE
  8
0
  6
CONTINUOUS
 62
               3
  5
636
 10
-542.28713956372587
 20
-214.32184834425829
 30
0.0
 11
-542.34073322734616
 21
-214.4695471989815
 31
0.0
  0
LINE
  8
0
  6
CONTINUOUS
 62
               3
  5
637
 10
-542.34073322734616
 20
-214.4695471989815
 30
0.0
 11
-542.39297989404747
 21
-214.61775770700302
 31
0.0
  0
LINE
  8
0
  6
CONTINUOUS
 62
               3
  5
638
 10
-542.39297989404747
 20
-214.61775770700302
 30
0.0
 11
-542.44386613428105
 21
-214.76647420297178
 31
0.0
  0
LINE
  8
0
  6
CONTINUOUS
 62
               3
  5
639
 10
-542.44386613428105
 20
-214.76647420297178
 30
0.0
 11
-542.49337839382736
 21
-214.91569102478451
 31
0.0
  0
LINE
  8
0
  6
CONTINUOUS
 62
               3
  5
63A
 10
-542.49337839382736
 20
-214.91569102478451
 30
0.0
 11
-542.54147861843887
 21
-215.06540314846819
 31
0.0
  0
LINE
  8
0
  6
CONTINUOUS
 62
               3
  5
63B
 10
-542.54147861843887
 20
-215.06540314846819
 30
0.0
 11
-542.5880750098504
 21
-215.21560694987323
 31
0.0
  0
LINE
  8
0
  6
CONTINUOUS
 62
               3
  5
63C
 10
-542.5880750098504
 20
-215.21560694987323
 30
0.0
 11
-542.63306863817525
 21
-215.36629899060114
 31
0.0
  0
LINE
  8
0
  6
CONTINUOUS
 62
               3
  5
63D
 10
-542.63306863817525
 20
-215.36629899060114
 30
0.0
 11
-542.67636057352661
 21
-215.5174758322533
 31
0.0
  0
LINE
  8
0
  6
CONTINUOUS
 62
               3
  5
63E
 10
-542.67636057352661
 20
-215.5174758322533
 30
0.0
 11
-542.7178518860178
 21
-215.6691340364311
 31
0.0
  0
LINE
  8
0
  6
CONTINUOUS
 62
               3
  5
63F
 10
-542.7178518860178
 20
-215.6691340364311
 30
0.0
 11
-542.75744364576201
 21
-215.82127016473629
 31
0.0
  0
LINE
  8
0
  6
CONTINUOUS
 62
               3
  5
640
 10
-542.75744364576201
 20
-215.82127016473629
 30
0.0
 11
-542.79503692287255
 21
-215.97388077877002
 31
0.0
  0
LINE
  8
0
  6
CONTINUOUS
 62
               3
  5
641
 10
-542.79503692287255
 20
-215.97388077877002
 30
0.0
 11
-542.8305327874624
 21
-216.12696244013392
 31
0.0
  0
LINE
  8
0
  6
CONTINUOUS
 62
               3
  5
642
 10
-542.8305327874624
 20
-216.12696244013392
 30
0.0
 11
-542.8638323096452
 21
-216.28051171042949
 31
0.0
  0
LINE
  8
0
  6
CONTINUOUS
 62
               3
  5
643
 10
-542.8638323096452
 20
-216.28051171042949
 30
0.0
 11
-542.89483655953381
 21
-216.43452515125824
 31
0.0
  0
LINE
  8
0
  6
CONTINUOUS
 62
               3
  5
644
 10
-542.89483655953381
 20
-216.43452515125824
 30
0.0
 11
-542.92344660724166
 21
-216.58899932422133
 31
0.0
  0
LINE
  8
0
  6
CONTINUOUS
 62
               3
  5
645
 10
-542.92344660724166
 20
-216.58899932422133
 30
0.0
 11
-542.9495621740416
 21
-216.74393038119666
 31
0.0
  0
LINE
  8
0
  6
CONTINUOUS
 62
               3
  5
646
 10
-542.9495621740416
 20
-216.74393038119666
 30
0.0
 11
-542.97304114390147
 21
-216.89930176555669
 31
0.0
  0
LINE
  8
0
  6
CONTINUOUS
 62
               3
  5
647
 10
-542.97304114390147
 20
-216.89930176555669
 30
0.0
 11
-542.99369249464223
 21
-217.0550820649367
 31
0.0
  0
LINE
  8
0
  6
CONTINUOUS
 62
               3
  5
648
 10
-542.99369249464223
 20
-217.0550820649367
 30
0.0
 11
-543.01132243066627
 21
-217.21123902451831
 31
0.0
  0
LINE
  8
0
  6
CONTINUOUS
 62
               3
  5
649
 10
-543.01132243066627
 20
-217.21123902451831
 30
0.0
 11
-543.02573715637573
 21
-217.36774038948266
 31
0.0
  0
LINE
  8
0
  6
CONTINUOUS
 62
               3
  5
64A
 10
-543.02573715637573
 20
-217.36774038948266
 30
0.0
 11
-543.03674287617287
 21
-217.52455390501126
 31
0.0
  0
LINE
  8
0
  6
CONTINUOUS
 62
               3
  5
64B
 10
-543.03674287617287
 20
-217.52455390501126
 30
0.0
 11
-543.04414579445995
 21
-217.68164731628536
 31
0.0
  0
LINE
  8
0
  6
CONTINUOUS
 62
               3
  5
64C
 10
-543.04414579445995
 20
-217.68164731628536
 30
0.0
 11
-543.04775211563924
 21
-217.83898836848635
 31
0.0
  0
LINE
  8
0
  6
CONTINUOUS
 62
               3
  5
64D
 10
-543.04775211563924
 20
-217.83898836848635
 30
0.0
 11
-543.04735949543976
 21
-217.99653595808496
 31
0.0
  0
LINE
  8
0
  6
CONTINUOUS
 62
               3
  5
64E
 10
-543.04735949543976
 20
-217.99653595808496
 30
0.0
 11
-543.04264773018042
 21
-218.15412698556196
 31
0.0
  0
LINE
  8
0
  6
CONTINUOUS
 62
               3
  5
64F
 10
-543.04264773018042
 20
-218.15412698556196
 30
0.0
 11
-543.03321076976613
 21
-218.31150949198405
 31
0.0
  0
LINE
  8
0
  6
CONTINUOUS
 62
               3
  5
650
 10
-543.03321076976613
 20
-218.31150949198405
 30
0.0
 11
-543.01864062031268
 21
-218.46842950640604
 31
0.0
  0
LINE
  8
0
  6
CONTINUOUS
 62
               3
  5
651
 10
-543.01864062031268
 20
-218.46842950640604
 30
0.0
 11
-542.99852928793564
 21
-218.6246330578827
 31
0.0
  0
LINE
  8
0
  6
CONTINUOUS
 62
               3
  5
652
 10
-542.99852928793564
 20
-218.6246330578827
 30
0.0
 11
-542.97246877875045
 21
-218.77986617546873
 31
0.0
  0
LINE
  8
0
  6
CONTINUOUS
 62
               3
  5
653
 10
-542.97246877875045
 20
-218.77986617546873
 30
0.0
 11
-542.94005109887269
 21
-218.9338748882189
 31
0.0
  0
LINE
  8
0
  6
CONTINUOUS
 62
               3
  5
654
 10
-542.94005109887269
 20
-218.9338748882189
 30
0.0
 11
-542.90086825441801
 21
-219.086405225188
 31
0.0
  0
LINE
  8
0
  6
CONTINUOUS
 62
               3
  5
655
 10
-542.90086825441801
 20
-219.086405225188
 30
0.0
 11
-542.85452087403621
 21
-219.23713455977446
 31
0.0
  0
LINE
  8
0
  6
CONTINUOUS
 62
               3
  5
656
 10
-542.85452087403621
 20
-219.23713455977446
 30
0.0
 11
-542.80064626031117
 21
-219.3854482545932
 31
0.0
  0
LINE
  8
0
  6
CONTINUOUS
 62
               3
  5
657
 10
-542.80064626031117
 20
-219.3854482545932
 30
0.0
 11
-542.73889146438864
 21
-219.53065405077319
 31
0.0
  0
LINE
  8
0
  6
CONTINUOUS
 62
               3
  5
658
 10
-542.73889146438864
 20
-219.53065405077319
 30
0.0
 11
-542.66890353749307
 21
-219.67205968881791
 31
0.0
  0
LINE
  8
0
  6
CONTINUOUS
 62
               3
  5
659
 10
-542.66890353749307
 20
-219.67205968881791
 30
0.0
 11
-542.59032953084875
 21
-219.80897290923116
 31
0.0
  0
LINE
  8
0
  6
CONTINUOUS
 62
               3
  5
65A
 10
-542.59032953084875
 20
-219.80897290923116
 30
0.0
 11
-542.50281649568035
 21
-219.94070145251641
 31
0.0
  0
LINE
  8
0
  6
CONTINUOUS
 62
               3
  5
65B
 10
-542.50281649568035
 20
-219.94070145251641
 30
0.0
 11
-542.40607789363378
 21
-220.0664826181665
 31
0.0
  0
LINE
  8
0
  6
CONTINUOUS
 62
               3
  5
65C
 10
-542.40607789363378
 20
-220.0664826181665
 30
0.0
 11
-542.30033278981693
 21
-220.18501741607093
 31
0.0
  0
LINE
  8
0
  6
CONTINUOUS
 62
               3
  5
65D
 10
-542.30033278981693
 20
-220.18501741607093
 30
0.0
 11
-542.18603278146054
 21
-220.2947602111297
 31
0.0
  0
LINE
  8
0
  6
CONTINUOUS
 62
               3
  5
65E
 10
-542.18603278146054
 20
-220.2947602111297
 30
0.0
 11
-542.06363069563724
 21
-220.39416406376023
 31
0.0
  0
LINE
  8
0
  6
CONTINUOUS
 62
               3
  5
65F
 10
-542.06363069563724
 20
-220.39416406376023
 30
0.0
 11
-541.93357935941924
 21
-220.48168203437939
 31
0.0
  0
LINE
  8
0
  6
CONTINUOUS
 62
               3
  5
660
 10
-541.93357935941924
 20
-220.48168203437939
 30
0.0
 11
-541.79645699122943
 21
-220.55630531578419
 31
0.0
  0
LINE
  8
0
  6
CONTINUOUS
 62
               3
  5
661
 10
-541.79645699122943
 20
-220.55630531578419
 30
0.0
 11
-541.65350366112318
 21
-220.61986551833326
 31
0.0
  0
LINE
  8
0
  6
CONTINUOUS
 62
               3
  5
662
 10
-541.65350366112318
 20
-220.61986551833326
 30
0.0
 11
-541.5061770118034
 21
-220.67512799212187
 31
0.0
  0
LINE
  8
0
  6
CONTINUOUS
 62
               3
  5
663
 10
-541.5061770118034
 20
-220.67512799212187
 30
0.0
 11
-541.35593481634123
 21
-220.724858646737
 31
0.0
  0
LINE
  8
0
  6
CONTINUOUS
 62
               3
  5
664
 10
-541.35593481634123
 20
-220.724858646737
 30
0.0
 11
-541.20423484780792
 21
-220.77182339176528
 31
0.0
  0
LINE
  8
0
  6
CONTINUOUS
 62
               3
  5
665
 10
-517.79434548703239
 20
-134.00785438469637
 30
0.0
 11
-521.31584451046342
 21
-132.01295982423136
 31
0.0
  0
LINE
  8
0
  6
CONTINUOUS
 62
               3
  5
666
 10
-496.30981858738892
 20
-134.00785438469549
 30
0.0
 11
-484.30981858738869
 21
-134.00785438469549
 31
0.0
  0
LINE
  8
0
  6
CONTINUOUS
 62
               3
  5
667
 10
-496.30981858738892
 20
-224.00785438469705
 30
0.0
 11
-484.30981858738869
 21
-224.00785438469558
 31
0.0
  0
LINE
  8
0
  6
CONTINUOUS
 62
               3
  5
668
 10
-496.30981858738892
 20
-134.00785438469549
 30
0.0
 11
-496.30981858738892
 21
-224.00785438469705
 31
0.0
  0
LINE
  8
0
  6
CONTINUOUS
 62
               3
  5
669
 10
-484.30981858738869
 20
-134.00785438469549
 30
0.0
 11
-484.30981858738869
 21
-224.00785438469558
 31
0.0
  0
LINE
  8
0
  6
CONTINUOUS
 62
               3
  5
66A
 10
-496.30981858738892
 20
-141.30443662300203
 30
0.0
 11
-504.30981858738778
 21
-141.30443662300203
 31
0.0
  0
LINE
  8
0
  6
CONTINUOUS
 62
               3
  5
66B
 10
-496.30981858738892
 20
-216.71127214638901
 30
0.0
 11
-504.30981858738778
 21
-216.71127214638901
 31
0.0
  0
ARC
  8
0
  6
CONTINUOUS
 62
               3
  5
66C
 10
-604.30981939141589
 20
-205.10047661875097
 30
0.0
 40
83.499999999999943
 50
281.2359890828364
 51
346.91268538775222
  0
LINE
  8
0
  6
CONTINUOUS
 62
               3
  5
66D
 10
-162.22445894373539
 20
-107.60047661875211
 30
0.0
 11
-78.224458943735357
 21
-107.6004766187521
 31
0.0
  0
LINE
  8
0
  6
CONTINUOUS
 62
               3
  5
66E
 10
-22.224458943735328
 20
-72.100476618752779
 30
0.0
 11
-165.22445894373533
 21
-72.100476618752779
 31
0.0
  0
LINE
  8
0
  6
CONTINUOUS
 62
               3
  5
66F
 10
-165.22445894373533
 20
-72.100476618752779
 30
0.0
 11
-166.72445894373533
 21
-72.100476618752779
 31
0.0
  0
LINE
  8
0
  6
CONTINUOUS
 62
               3
  5
670
 10
-168.72445894373533
 20
-70.100476618752779
 30
0.0
 11
-168.72445894373533
 21
-52.100476618752779
 31
0.0
  0
LINE
  8
0
  6
CONTINUOUS
 62
               3
  5
671
 10
-168.72445894373533
 20
-52.100476618752779
 30
0.0
 11
-93.724458943735357
 21
-52.100476618752779
 31
0.0
  0
LINE
  8
0
  6
CONTINUOUS
 62
               3
  5
672
 10
-60.503763477980414
 20
-107.6004766187521
 30
0.0
 11
-78.224458943735357
 21
-107.6004766187521
 31
0.0
  0
LINE
  8
0
  6
CONTINUOUS
 62
               3
  5
673
 10
-27.224458943735357
 20
-77.100476618752779
 30
0.0
 11
-27.224458943735357
 21
-107.6004766187521
 31
0.0
  0
LINE
  8
0
  6
CONTINUOUS
 62
               3
  5
674
 10
-27.224458943735357
 20
-107.6004766187521
 30
0.0
 11
-1.2244589437353568
 21
-107.6004766187521
 31
0.0
  0
LINE
  8
0
  6
CONTINUOUS
 62
               3
  5
675
 10
3.7755410562646432
 20
-112.6004766187521
 30
0.0
 11
3.7755410562646432
 21
-113.6004766187521
 31
0.0
  0
LINE
  8
0
  6
CONTINUOUS
 62
               3
  5
676
 10
-33.224458943735357
 20
-107.6004766187521
 30
0.0
 11
-27.224458943735357
 21
-107.6004766187521
 31
0.0
  0
LINE
  8
0
  6
CONTINUOUS
 62
               3
  5
677
 10
-41.224458943735357
 20
-107.6004766187521
 30
0.0
 11
-33.224458943735357
 21
-107.6004766187521
 31
0.0
  0
LINE
  8
0
  6
CONTINUOUS
 62
               3
  5
678
 10
-60.503763477980414
 20
-107.6004766187521
 30
0.0
 11
-41.224458943735357
 21
-107.6004766187521
 31
0.0
  0
LINE
  8
0
  6
CONTINUOUS
 62
               3
  5
679
 10
-20.724458943735357
 20
-72.100476618752779
 30
0.0
 11
-22.224458943735357
 21
-72.100476618752779
 31
0.0
  0
LINE
  8
0
  6
CONTINUOUS
 62
               3
  5
67A
 10
-93.724458943735357
 20
-52.100476618752779
 30
0.0
 11
-18.724458943735357
 21
-52.100476618752779
 31
0.0
  0
LINE
  8
0
  6
CONTINUOUS
 62
               3
  5
67B
 10
-18.724458943735357
 20
-70.100476618752779
 30
0.0
 11
-18.724458943735357
 21
-52.100476618752779
 31
0.0
  0
LINE
  8
0
  6
CONTINUOUS
 62
               3
  5
67C
 10
14.275541056264643
 20
-124.1004766187521
 30
0.0
 11
93.275541056264643
 21
-124.1004766187521
 31
0.0
  0
ARC
  8
0
  6
CONTINUOUS
 62
               3
  5
67D
 10
-165.22445894373533
 20
-77.100476618752779
 30
0.0
 40
4.9999999999999716
 50
359.99999999999852
 51
449.99999999999932
  0
ARC
  8
0
  6
CONTINUOUS
 62
               3
  5
67E
 10
-166.72445894373533
 20
-70.100476618753007
 30
0.0
 40
1.9999999999999716
 50
179.9999999999996
 51
270.00000000000023
  0
ARC
  8
0
  6
CONTINUOUS
 62
               3
  5
67F
 10
-22.224458943735357
 20
-77.100476618752779
 30
0.0
 40
4.9999999999999574
 50
89.999999999999162
 51
179.99999999999991
  0
ARC
  8
0
  6
CONTINUOUS
 62
               3
  5
680
 10
-20.724458943735357
 20
-70.100476618753007
 30
0.0
 40
1.9999999999999858
 50
269.99999999999937
 51
360.0
  0
ARC
  8
0
  6
CONTINUOUS
 62
               3
  5
681
 10
14.275541056264643
 20
-113.6004766187521
 30
0.0
 40
10.499999999999915
 50
179.99999999999915
 51
269.99999999999972
  0
LINE
  8
0
  6
CONTINUOUS
 62
               3
  5
682
 10
-687.3037958804033
 20
-141.09792331471795
 30
0.0
 11
-687.30379588042979
 21
-113.60047712494058
 31
0.0
  0
LINE
  8
0
  6
CONTINUOUS
 62
               3
  5
683
 10
-521.31584451047752
 20
-140.40379424918319
 30
0.0
 11
-521.31584451045831
 21
-113.60047712494058
 31
0.0
  0
LINE
  8
0
  6
CONTINUOUS
 62
               3
  5
684
 10
-670.80982019544399
 20
-77.100477124941264
 30
0.0
 11
-670.80982019544399
 21
-105.09426442210649
 31
0.0
  0
LINE
  8
0
  6
CONTINUOUS
 62
               3
  5
685
 10
-537.80982019544399
 20
-105.09426442210649
 30
0.0
 11
-537.80982019544399
 21
-77.100477124941264
 31
0.0
  0
LINE
  8
0
  6
CONTINUOUS
 62
               3
  5
686
 10
-670.80982019544399
 20
-109.92270829614181
 30
0.0
 11
-604.30982019544399
 21
-107.60047712494058
 31
0.0
  0
LINE
  8
0
  6
CONTINUOUS
 62
               3
  5
687
 10
-676.30981939141589
 20
-72.100477124941264
 30
0.0
 11
-532.30981939141589
 21
-72.100477124941264
 31
0.0
  0
LINE
  8
0
  6
CONTINUOUS
 62
               3
  5
688
 10
-604.30982019544399
 20
-107.60047712494058
 30
0.0
 11
-537.80982019544399
 21
-109.92270829614181
 31
0.0
  0
LINE
  8
0
  6
CONTINUOUS
 62
               3
  5
689
 10
-521.31584451045831
 20
-113.60047712494058
 30
0.0
 11
-521.31584451045831
 21
-111.46437939384673
 31
0.0
  0
LINE
  8
0
  6
CONTINUOUS
 62
               3
  5
68A
 10
-537.80982019544399
 20
-109.92270829614181
 30
0.0
 11
-525.05442073811059
 21
-110.36813666036657
 31
0.0
  0
LINE
  8
0
  6
CONTINUOUS
 62
               3
  5
68B
 10
-525.05442073811059
 20
-110.36813666036657
 30
0.0
 11
-522.28094501375585
 21
-110.46498856682767
 31
0.0
  0
LINE
  8
0
  6
CONTINUOUS
 62
               3
  5
68C
 10
-683.56521965277739
 20
-110.36813666036657
 30
0.0
 11
-670.80982019544399
 21
-109.92270829614181
 31
0.0
  0
LINE
  8
0
  6
CONTINUOUS
 62
               3
  5
68D
 10
-529.30981939141589
 20
-52.100477124941264
 30
0.0
 11
-679.30981939141589
 21
-52.100477124941264
 31
0.0
  0
LINE
  8
0
  6
CONTINUOUS
 62
               3
  5
68E
 10
-687.30379588042979
 20
-113.60047712494058
 30
0.0
 11
-687.30379588042979
 21
-111.46437939384673
 31
0.0
  0
LINE
  8
0
  6
CONTINUOUS
 62
               3
  5
68F
 10
-686.33869537713213
 20
-110.46498856682756
 30
0.0
 11
-683.56521965277739
 21
-110.36813666036657
 31
0.0
  0
LINE
  8
0
  6
CONTINUOUS
 62
               3
  5
690
 10
623.59320569531201
 20
-77.100477124943083
 30
0.0
 11
623.59320569531201
 21
-105.09426442210831
 31
0.0
  0
LINE
  8
0
  6
CONTINUOUS
 62
               3
  5
691
 10
756.59320569531201
 20
-105.09426442210831
 30
0.0
 11
756.59320569531201
 21
-77.100477124943083
 31
0.0
  0
LINE
  8
0
  6
CONTINUOUS
 62
               3
  5
692
 10
623.59320569531201
 20
-109.92270829614374
 30
0.0
 11
648.95874548581969
 21
-109.03692412808554
 31
0.0
  0
LINE
  8
0
  6
CONTINUOUS
 62
               3
  5
693
 10
618.09320649934011
 20
-72.100477124943083
 30
0.0
 11
762.09320649934011
 21
-72.100477124943083
 31
0.0
  0
LINE
  8
0
  6
CONTINUOUS
 62
               3
  5
694
 10
731.22766765564575
 20
-109.03692418922633
 30
0.0
 11
756.59320569531201
 21
-109.92270829614374
 31
0.0
  0
LINE
  8
0
  6
CONTINUOUS
 62
               3
  5
695
 10
773.08718138029781
 20
-132.01295982423636
 30
0.0
 11
773.08718138029781
 21
-111.46437939384866
 31
0.0
  0
LINE
  8
0
  6
CONTINUOUS
 62
               3
  5
696
 10
756.59320569531201
 20
-109.92270829614374
 30
0.0
 11
769.3486051526454
 21
-110.36813666036839
 31
0.0
  0
LINE
  8
0
  6
CONTINUOUS
 62
               3
  5
697
 10
769.3486051526454
 20
-110.36813666036839
 30
0.0
 11
772.12208087700014
 21
-110.46498856682949
 31
0.0
  0
LINE
  8
0
  6
CONTINUOUS
 62
               3
  5
698
 10
610.83780623797861
 20
-110.36813666036839
 30
0.0
 11
623.59320569531201
 21
-109.92270829614374
 31
0.0
  0
LINE
  8
0
  6
CONTINUOUS
 62
               3
  5
699
 10
765.09320649934011
 20
-52.100477124943083
 30
0.0
 11
615.09320649934011
 21
-52.100477124943083
 31
0.0
  0
LINE
  8
0
  6
CONTINUOUS
 62
               3
  5
69A
 10
607.09923001032621
 20
-132.01296073518421
 30
0.0
 11
607.09923001032621
 21
-111.46437939384855
 31
0.0
  0
LINE
  8
0
  6
CONTINUOUS
 62
               3
  5
69B
 10
608.06433051362387
 20
-110.46498856682949
 30
0.0
 11
610.83780623797861
 21
-110.36813666036839
 31
0.0
  0
ARC
  8
0
  6
CONTINUOUS
 62
               3
  5
69C
 10
-93.724458943735698
 20
295.39952338124561
 30
0.0
 40
74.999999999999943
 50
89.999999999999801
 51
269.99999999999937
  0
ARC
  8
0
  6
CONTINUOUS
 62
               3
  5
69D
 10
-93.724458943735129
 20
295.39952338124561
 30
0.0
 40
74.999999999999943
 50
269.99999999999937
 51
449.99999999999898
  0
ARC
  8
0
  6
CONTINUOUS
 62
               3
  5
69E
 10
-77.224458943735129
 20
295.39952338124561
 30
0.0
 40
80.999999999999972
 50
243.12662792726744
 51
476.87337207273146
  0
ARC
  8
0
  6
CONTINUOUS
 62
               3
  5
69F
 10
-93.724458943735414
 20
295.39952338124561
 30
0.0
 40
52.5
 50
359.9999999999992
 51
539.99999999999875
  0
ARC
  8
0
  6
CONTINUOUS
 62
               3
  5
6A0
 10
-93.724458943735414
 20
295.39952338124561
 30
0.0
 40
52.5
 50
179.9999999999996
 51
359.9999999999992
  0
ARC
  8
0
  6
CONTINUOUS
 62
               3
  5
6A1
 10
-93.724458943735414
 20
295.39952338124561
 30
0.0
 40
59.5
 50
359.9999999999992
 51
539.99999999999875
  0
ARC
  8
0
  6
CONTINUOUS
 62
               3
  5
6A2
 10
-93.724458943735414
 20
295.39952338124561
 30
0.0
 40
59.5
 50
179.9999999999996
 51
359.9999999999992
  0
LINE
  8
0
  6
CONTINUOUS
 62
               3
  5
6A3
 10
10.275541056264371
 20
-286.10047661875052
 30
0.0
 11
93.275541056263791
 21
-286.1004766187524
 31
0.0
  0
LINE
  8
0
  6
CONTINUOUS
 62
               3
  5
6A4
 10
-679.30981939141589
 20
-69.100477124941264
 30
0.0
 11
-679.30981939141589
 21
-52.100477124941264
 31
0.0
  0
LINE
  8
0
  6
CONTINUOUS
 62
               3
  5
6A5
 10
-529.30981939141589
 20
-69.100477124941264
 30
0.0
 11
-529.30981939141589
 21
-52.100477124941264
 31
0.0
  0
LINE
  8
0
  6
CONTINUOUS
 62
               3
  5
6A6
 10
615.09320649934011
 20
-69.100477124943083
 30
0.0
 11
615.09320649934011
 21
-52.100477124943083
 31
0.0
  0
LINE
  8
0
  6
CONTINUOUS
 62
               3
  5
6A7
 10
765.09320649934011
 20
-69.100477124943083
 30
0.0
 11
765.09320649934011
 21
-52.100477124943083
 31
0.0
  0
LINE
  8
0
  6
CONTINUOUS
 62
               3
  5
6A8
 10
-96.131836203491147
 20
195.39952338124561
 30
0.0
 11
-96.131836203491147
 21
216.63715238368576
 31
0.0
  0
LINE
  8
0
  6
CONTINUOUS
 62
               3
  5
6A9
 10
-6.1318362034911473
 20
195.39952338124561
 30
0.0
 11
-6.1318362034911473
 21
217.72852507595979
 31
0.0
  0
LINE
  8
0
  6
CONTINUOUS
 62
               3
  5
6AA
 10
-84.006916321670062
 20
195.39952338124561
 30
0.0
 11
-77.131836203491147
 21
195.39952338124561
 31
0.0
  0
LINE
  8
0
  6
CONTINUOUS
 62
               3
  5
6AB
 10
-96.131836203491147
 20
195.39952338124561
 30
0.0
 11
-95.88057354502034
 21
195.39952338124561
 31
0.0
  0
LINE
  8
0
  6
CONTINUOUS
 62
               3
  5
6AC
 10
-95.88057354502034
 20
195.39952338124561
 30
0.0
 11
-92.895805210558919
 21
195.39952338124561
 31
0.0
  0
LINE
  8
0
  6
CONTINUOUS
 62
               3
  5
6AD
 10
-92.895805210558919
 20
195.39952338124561
 30
0.0
 11
-84.006916321670062
 21
195.39952338124561
 31
0.0
  0
LINE
  8
0
  6
CONTINUOUS
 62
               3
  5
6AE
 10
-55.88057354502034
 20
195.39952338124561
 30
0.0
 11
-46.383098861962011
 21
195.39952338124561
 31
0.0
  0
LINE
  8
0
  6
CONTINUOUS
 62
               3
  5
6AF
 10
-18.256756085312233
 20
195.39952338124561
 30
0.0
 11
-25.131836203491147
 21
195.39952338124561
 31
0.0
  0
LINE
  8
0
  6
CONTINUOUS
 62
               3
  5
6B0
 10
-25.131836203491147
 20
195.39952338124561
 30
0.0
 11
-46.383098861962011
 21
195.39952338124561
 31
0.0
  0
LINE
  8
0
  6
CONTINUOUS
 62
               3
  5
6B1
 10
-77.131836203491147
 20
195.39952338124561
 30
0.0
 11
-55.88057354502034
 21
195.39952338124561
 31
0.0
  0
LINE
  8
0
  6
CONTINUOUS
 62
               3
  5
6B2
 10
-6.3830988619620115
 20
195.39952338124561
 30
0.0
 11
-6.1318362034911473
 21
195.39952338124561
 31
0.0
  0
LINE
  8
0
  6
CONTINUOUS
 62
               3
  5
6B3
 10
-6.3830988619620115
 20
195.39952338124561
 30
0.0
 11
-9.3678671964234326
 21
195.39952338124561
 31
0.0
  0
LINE
  8
0
  6
CONTINUOUS
 62
               3
  5
6B4
 10
-18.256756085312233
 20
195.39952338124561
 30
0.0
 11
-9.3678671964234326
 21
195.39952338124561
 31
0.0
  0
LINE
  8
0
  6
CONTINUOUS
 62
               3
  5
6B5
 10
-57.533871591121724
 20
216.14412392390108
 30
0.0
 11
-60.503763477980428
 21
216.14412392391222
 31
0.0
  0
LINE
  8
0
  6
CONTINUOUS
 62
               3
  5
6B6
 10
-96.131836203491147
 20
395.39952338124971
 30
0.0
 11
-96.131836203491147
 21
374.16189437880956
 31
0.0
  0
LINE
  8
0
  6
CONTINUOUS
 62
               3
  5
6B7
 10
-6.1318362034911473
 20
395.39952338124971
 30
0.0
 11
-6.1318362034911473
 21
373.07052168653553
 31
0.0
  0
LINE
  8
0
  6
CONTINUOUS
 62
               3
  5
6B8
 10
-84.006916321670062
 20
395.39952338124971
 30
0.0
 11
-77.131836203491147
 21
395.39952338124971
 31
0.0
  0
LINE
  8
0
  6
CONTINUOUS
 62
               3
  5
6B9
 10
-96.131836203491147
 20
395.39952338124971
 30
0.0
 11
-95.88057354502034
 21
395.39952338124971
 31
0.0
  0
LINE
  8
0
  6
CONTINUOUS
 62
               3
  5
6BA
 10
-95.88057354502034
 20
395.39952338124971
 30
0.0
 11
-92.895805210558919
 21
395.39952338124971
 31
0.0
  0
LINE
  8
0
  6
CONTINUOUS
 62
               3
  5
6BB
 10
-92.895805210558919
 20
395.39952338124971
 30
0.0
 11
-84.006916321670062
 21
395.39952338124971
 31
0.0
  0
LINE
  8
0
  6
CONTINUOUS
 62
               3
  5
6BC
 10
-55.88057354502034
 20
395.39952338124971
 30
0.0
 11
-46.383098861962011
 21
395.39952338124971
 31
0.0
  0
LINE
  8
0
  6
CONTINUOUS
 62
               3
  5
6BD
 10
-18.256756085312233
 20
395.39952338124971
 30
0.0
 11
-25.131836203491147
 21
395.39952338124971
 31
0.0
  0
LINE
  8
0
  6
CONTINUOUS
 62
               3
  5
6BE
 10
-25.131836203491147
 20
395.39952338124971
 30
0.0
 11
-46.383098861962011
 21
395.39952338124971
 31
0.0
  0
LINE
  8
0
  6
CONTINUOUS
 62
               3
  5
6BF
 10
-77.131836203491147
 20
395.39952338124971
 30
0.0
 11
-55.88057354502034
 21
395.39952338124971
 31
0.0
  0
LINE
  8
0
  6
CONTINUOUS
 62
               3
  5
6C0
 10
-6.3830988619620115
 20
395.39952338124971
 30
0.0
 11
-6.1318362034911473
 21
395.39952338124971
 31
0.0
  0
LINE
  8
0
  6
CONTINUOUS
 62
               3
  5
6C1
 10
-6.3830988619620115
 20
395.39952338124971
 30
0.0
 11
-9.3678671964234326
 21
395.39952338124971
 31
0.0
  0
LINE
  8
0
  6
CONTINUOUS
 62
               3
  5
6C2
 10
-18.256756085312233
 20
395.39952338124971
 30
0.0
 11
-9.3678671964234326
 21
395.39952338124971
 31
0.0
  0
LINE
  8
0
  6
CONTINUOUS
 62
               3
  5
6C3
 10
-57.533871591121724
 20
374.65492283859425
 30
0.0
 11
-60.503763477980428
 21
374.6549228385831
 31
0.0
  0
LINE
  8
0
  6
CONTINUOUS
 62
               3
  5
6C4
 10
590.09320649933989
 20
-136.08257986706809
 30
0.0
 11
590.09320649933989
 21
-141.98042240824196
 31
0.0
  0
LINE
  8
0
  6
CONTINUOUS
 62
               3
  5
6C5
 10
592.09320649933989
 20
-134.08257986706809
 30
0.0
 11
603.57773348851106
 21
-134.08257986706809
 31
0.0
  0
LINE
  8
0
  6
CONTINUOUS
 62
               3
  5
6C6
 10
790.09320649934034
 20
-136.08257986706809
 30
0.0
 11
790.09320649934034
 21
-141.98042240824196
 31
0.0
  0
LINE
  8
0
  6
CONTINUOUS
 62
               3
  5
6C7
 10
788.09320649934034
 20
-134.08257986706809
 30
0.0
 11
776.60867951016917
 21
-134.08257986706809
 31
0.0
  0
LINE
  8
0
  6
CONTINUOUS
 62
               3
  5
6C8
 10
-702.30982019544399
 20
-134.00785438469637
 30
0.0
 11
-687.30379588042979
 21
-134.00785438469637
 31
0.0
  0
LINE
  8
0
  6
CONTINUOUS
 62
               3
  5
6C9
 10
-704.30982019544399
 20
-136.00785438469637
 30
0.0
 11
-704.30982019544399
 21
-137.2438853776286
 31
0.0
  0
LINE
  8
0
  6
CONTINUOUS
 62
               3
  5
6CA
 10
-704.30982019544399
 20
-137.2438853776286
 30
0.0
 11
-704.30982019544399
 21
-146.13277426651752
 31
0.0
  0
LINE
  8
0
  6
CONTINUOUS
 62
               3
  5
6CB
 10
-704.30982019544399
 20
-211.88293450287523
 30
0.0
 11
-704.30982019544399
 21
-205.00785438469637
 31
0.0
  0
LINE
  8
0
  6
CONTINUOUS
 62
               3
  5
6CC
 10
-704.30982019544399
 20
-205.00785438469637
 30
0.0
 11
-704.30982019544399
 21
-183.75659172622539
 31
0.0
  0
LINE
  8
0
  6
CONTINUOUS
 62
               3
  5
6CD
 10
-704.30982019544399
 20
-211.88293450287523
 30
0.0
 11
-704.30982019544399
 21
-220.77182339176414
 31
0.0
  0
LINE
  8
0
  6
CONTINUOUS
 62
               3
  5
6CE
 10
-704.30982019544399
 20
-223.75659172622551
 30
0.0
 11
-704.30982019544399
 21
-220.77182339176414
 31
0.0
  0
LINE
  8
0
  6
CONTINUOUS
 62
               3
  5
6CF
 10
-704.30982019544399
 20
-224.00785438469637
 30
0.0
 11
-678.69224285709493
 21
-224.00785438469524
 31
0.0
  0
LINE
  8
0
  6
CONTINUOUS
 62
               3
  5
6D0
 10
-704.30982019544399
 20
-223.75659172622551
 30
0.0
 11
-704.30982019544399
 21
-224.00785438469637
 31
0.0
  0
LINE
  8
0
  6
CONTINUOUS
 62
               3
  5
6D1
 10
-704.30982019544399
 20
-174.25911704316712
 30
0.0
 11
-704.30982019544399
 21
-183.75659172622539
 31
0.0
  0
LINE
  8
0
  6
CONTINUOUS
 62
               3
  5
6D2
 10
-704.30982019544399
 20
-153.00785438469637
 30
0.0
 11
-704.30982019544399
 21
-174.25911704316712
 31
0.0
  0
LINE
  8
0
  6
CONTINUOUS
 62
               3
  5
6D3
 10
-704.30982019544399
 20
-146.13277426651752
 30
0.0
 11
-704.30982019544399
 21
-153.00785438469637
 31
0.0
  0
LINE
  8
0
  6
CONTINUOUS
 62
               3
  5
6D4
 10
-504.30982019544405
 20
-137.2438853776286
 30
0.0
 11
-504.30982019544405
 21
-136.00785438469637
 31
0.0
  0
LINE
  8
0
  6
CONTINUOUS
 62
               3
  5
6D5
 10
-504.30982019544405
 20
-146.13277426651729
 30
0.0
 11
-504.30982019544405
 21
-137.2438853776286
 31
0.0
  0
LINE
  8
0
  6
CONTINUOUS
 62
               3
  5
6D6
 10
-506.30982019544405
 20
-134.00785438469637
 30
0.0
 11
-521.31584451045831
 21
-134.00785438469637
 31
0.0
  0
LINE
  8
0
  6
CONTINUOUS
 62
               3
  5
6D7
 10
-504.30982019544405
 20
-153.00785438469637
 30
0.0
 11
-504.30982019544405
 21
-146.13277426651729
 31
0.0
  0
LINE
  8
0
  6
CONTINUOUS
 62
               3
  5
6D8
 10
-504.30982019544405
 20
-174.25911704316701
 30
0.0
 11
-504.30982019544405
 21
-153.00785438469637
 31
0.0
  0
LINE
  8
0
  6
CONTINUOUS
 62
               3
  5
6D9
 10
-504.30982019544405
 20
-224.00785438469637
 30
0.0
 11
-529.92739753379635
 21
-224.00785438469569
 31
0.0
  0
LINE
  8
0
  6
CONTINUOUS
 62
               3
  5
6DA
 10
-504.30982019544405
 20
-220.77182339176414
 30
0.0
 11
-504.30982019544405
 21
-223.75659172622539
 31
0.0
  0
LINE
  8
0
  6
CONTINUOUS
 62
               3
  5
6DB
 10
-504.30982019544405
 20
-224.00785438469637
 30
0.0
 11
-504.30982019544405
 21
-223.75659172622539
 31
0.0
  0
LINE
  8
0
  6
CONTINUOUS
 62
               3
  5
6DC
 10
-504.30982019544405
 20
-220.77182339176414
 30
0.0
 11
-504.30982019544405
 21
-211.88293450287523
 31
0.0
  0
LINE
  8
0
  6
CONTINUOUS
 62
               3
  5
6DD
 10
-504.30982019544405
 20
-205.00785438469637
 30
0.0
 11
-504.30982019544405
 21
-211.88293450287523
 31
0.0
  0
LINE
  8
0
  6
CONTINUOUS
 62
               3
  5
6DE
 10
-504.30982019544405
 20
-183.75659172622551
 30
0.0
 11
-504.30982019544405
 21
-174.25911704316701
 31
0.0
  0
LINE
  8
0
  6
CONTINUOUS
 62
               3
  5
6DF
 10
-504.30982019544405
 20
-183.75659172622551
 30
0.0
 11
-504.30982019544405
 21
-205.00785438469637
 31
0.0
  0
POINT
  8
0
  6
CONTINUOUS
 62
               5
  5
6E0
 10
142.27554105626467
 20
-205.10047661875177
 30
0.0
  0
LINE
  8
LAYER001
  6
DASHDOT
 62
               4
  5
6E1
 10
-154.30981939141594
 20
-205.10047661875097
 30
0.0
 11
191.14336851623852
 21
-205.10047661875279
 31
0.0
  0
ENDSEC
  0
EOF
