  0
SECTION
  2
HEADER
  9
$ACADVER
  1
AC1009
  9
$INSBASE
 10
0.0
 20
0.0
 30
0.0
  9
$EXTMIN
 10
-429.7479957207197
 20
-565.13150007946012
 30
0.0
  9
$EXTMAX
 10
509.49063889950799
 20
636.33825301913726
 30
0.0
  9
$LIMMIN
 10
-459.09920305260181
 20
-602.6774298637913
  9
$LIMMAX
 10
538.84184623139015
 20
673.88418280346843
  9
$ORTHOMODE
 70
               0
  9
$REGENMODE
 70
               1
  9
$FILLMODE
 70
               1
  9
$QTEXTMODE
 70
               0
  9
$MIRRTEXT
 70
               1
  9
$DRAGMODE
 70
               2
  9
$LTSCALE
 40
1.0
  9
$OSMODE
 70
               0
  9
$ATTMODE
 70
               1
  9
$TEXTSIZE
 40
0.2
  9
$TRACEWID
 40
0.05
  9
$TEXTSTYLE
  7
STANDARD
  9
$CLAYER
  8
0
  9
$CELTYPE
  6
CONTINUOUS
  9
$CECOLOR
 62
             256
  9
$DIMSCALE
 40
1.0
  9
$DIMASZ
 40
0.18
  9
$DIMEXO
 40
0.0625
  9
$DIMDLI
 40
0.38
  9
$DIMRND
 40
0.0
  9
$DIMDLE
 40
0.0
  9
$DIMEXE
 40
0.18
  9
$DIMTP
 40
0.0
  9
$DIMTM
 40
0.0
  9
$DIMTXT
 40
0.18
  9
$DIMCEN
 40
0.09
  9
$DIMTSZ
 40
0.0
  9
$DIMTOL
 70
               0
  9
$DIMLIM
 70
               0
  9
$DIMTIH
 70
               1
  9
$DIMTOH
 70
               1
  9
$DIMSE1
 70
               0
  9
$DIMSE2
 70
               0
  9
$DIMTAD
 70
               0
  9
$DIMZIN
 70
               0
  9
$DIMBLK
  1

  9
$DIMASO
 70
               1
  9
$DIMSHO
 70
               1
  9
$DIMPOST
  1

  9
$DIMAPOST
  1

  9
$DIMALT
 70
               0
  9
$DIMALTD
 70
               2
  9
$DIMALTF
 40
25.399999999999999
  9
$DIMLFAC
 40
1.0
  9
$DIMTOFL
 70
               0
  9
$DIMTVP
 40
0.0
  9
$DIMTIX
 70
               0
  9
$DIMSOXD
 70
               0
  9
$DIMSAH
 70
               0
  9
$DIMBLK1
  1

  9
$DIMBLK2
  1

  9
$DIMSTYLE
  2
STANDARD
  9
$DIMCLRD
 70
               0
  9
$DIMCLRE
 70
               0
  9
$DIMCLRT
 70
               0
  9
$DIMTFAC
 40
1.0
  9
$DIMGAP
 40
0.09
  9
$LUNITS
 70
               2
  9
$LUPREC
 70
               4
  9
$AXISMODE
 70
               0
  9
$AXISUNIT
 10
0.0
 20
0.0
  9
$SKETCHINC
 40
0.1
  9
$FILLETRAD
 40
0.0
  9
$AUNITS
 70
               0
  9
$AUPREC
 70
               0
  9
$MENU
  1
acad
  9
$ELEVATION
 40
0.0
  9
$PELEVATION
 40
0.0
  9
$THICKNESS
 40
0.0
  9
$LIMCHECK
 70
               0
  9
$BLIPMODE
 70
               1
  9
$CHAMFERA
 40
0.0
  9
$CHAMFERB
 40
0.0
  9
$SKPOLY
 70
               0
  9
$TDCREATE
 40
0.000000000
  9
$TDUPDATE
 40
0.000000000
  9
$TDINDWG
 40
0.0000000000
  9
$TDUSRTIMER
 40
0.0000000000
  9
$USRTIMER
 70
               1
  9
$ANGBASE
 50
0.0
  9
$ANGDIR
 70
               0
  9
$PDMODE
 70
               0
  9
$PDSIZE
 40
1.0
  9
$PLINEWID
 40
0.0
  9
$COORDS
 70
               1
  9
$SPLFRAME
 70
               0
  9
$SPLINETYPE
 70
               6
  9
$SPLINESEGS
 70
               8
  9
$ATTDIA
 70
               0
  9
$ATTREQ
 70
               1
  9
$HANDLING
 70
               1
  9
$HANDSEED
  5
1DA
  9
$SURFTAB1
 70
               6
  9
$SURFTAB2
 70
               6
  9
$SURFTYPE
 70
               6
  9
$SURFU
 70
               6
  9
$SURFV
 70
               6
  9
$UCSNAME
  2

  9
$UCSORG
 10
0.0
 20
0.0
 30
0.0
  9
$UCSXDIR
 10
1.0
 20
0.0
 30
0.0
  9
$UCSYDIR
 10
0.0
 20
1.0
 30
0.0
  9
$PUCSNAME
  2

  9
$PUCSORG
 10
0.0
 20
0.0
 30
0.0
  9
$PUCSXDIR
 10
1.0
 20
0.0
 30
0.0
  9
$PUCSYDIR
 10
0.0
 20
1.0
 30
0.0
  9
$USERI1
 70
               0
  9
$USERI2
 70
               0
  9
$USERI3
 70
               0
  9
$USERI4
 70
               0
  9
$USERI5
 70
               0
  9
$USERR1
 40
0.0
  9
$USERR2
 40
0.0
  9
$USERR3
 40
0.0
  9
$USERR4
 40
0.0
  9
$USERR5
 40
0.0
  9
$WORLDVIEW
 70
               1
  9
$SHADEDGE
 70
               3
  9
$SHADEDIF
 70
              70
  9
$TILEMODE
 70
               1
  9
$MAXACTVP
 70
              16
  9
$PINSBASE
 10
0.0
 20
0.0
 30
0.0
  9
$PLIMCHECK
 70
               0
  9
$PEXTMIN
 10
1.0000000000000000E+20
 20
1.0000000000000000E+20
 30
1.0000000000000000E+20
  9
$PEXTMAX
 10
-1.0000000000000000E+20
 20
-1.0000000000000000E+20
 30
-1.0000000000000000E+20
  9
$PLIMMIN
 10
0.0
 20
0.0
  9
$PLIMMAX
 10
12.0
 20
9.0
  9
$UNITMODE
 70
               0
  9
$VISRETAIN
 70
               0
  9
$PLINEGEN
 70
               1
  9
$PSLTSCALE
 70
               0
  9
$TREEDEPTH
 70
            3020
  9
$DWGCODEPAGE
  3
dos932
  0
ENDSEC
  0
SECTION
  2
TABLES
  0
TABLE
  2
VPORT
 70
               1
  0
VPORT
  2
*ACTIVE
 70
               0
 10
0.0
 20
0.0
 11
1.0
 21
1.0
 12
39.871321589394171
 22
35.603376469838565
 13
0.0
 23
0.0
 14
1.0
 24
1.0
 15
0.0
 25
0.0
 16
0.0
 26
0.0
 36
1.0
 17
0.0
 27
0.0
 37
0.0
 40
1276.5616126672599
 41
0.7817413898251919
 42
50.0
 43
0.0
 44
0.0
 50
0.0
 51
0.0
 71
               0
 72
             100
 73
               1
 74
               1
 75
               0
 76
               0
 77
               0
 78
               0
  0
ENDTAB
  0
TABLE
  2
LTYPE
 70
              26
  0
LTYPE
  2
CONTINUOUS
 70
               0
  3
Solid line
 72
              65
 73
               0
 40
0.0
  0
LTYPE
  2
HIDDENX2
 70
               0
  3
CADPAC FUSION LINETYPE
 72
              65
 73
               2
 40
80.0
 49
60.0
 49
-20.0
  0
LTYPE
  2
HIDDEN
 70
               0
  3
CADPAC FUSION LINETYPE
 72
              65
 73
               2
 40
60.0
 49
40.0
 49
-20.0
  0
LTYPE
  2
HIDDEN2
 70
               0
  3
CADPAC FUSION LINETYPE
 72
              65
 73
               2
 40
50.0
 49
30.0
 49
-20.0
  0
LTYPE
  2
DASHED
 70
               0
  3
CADPAC FUSION LINETYPE
 72
              65
 73
               2
 40
60.0
 49
40.0
 49
-20.0
  0
LTYPE
  2
DASHED2
 70
               0
  3
CADPAC FUSION LINETYPE
 72
              65
 73
               2
 40
45.0
 49
30.0
 49
-15.0
  0
LTYPE
  2
DASHEDX2
 70
               0
  3
CADPAC FUSION LINETYPE
 72
              65
 73
               2
 40
90.0
 49
60.0
 49
-30.0
  0
LTYPE
  2
DOTX2
 70
               0
  3
CADPAC FUSION LINETYPE
 72
              65
 73
               2
 40
25.0
 49
0.0
 49
-25.0
  0
LTYPE
  2
DOT
 70
               0
  3
CADPAC FUSION LINETYPE
 72
              65
 73
               2
 40
20.0
 49
0.0
 49
-20.0
  0
LTYPE
  2
DOTS
 70
               0
  3
CADPAC FUSION LINETYPE
 72
              65
 73
               2
 40
20.0
 49
0.0
 49
-20.0
  0
LTYPE
  2
DOT2
 70
               0
  3
CADPAC FUSION LINETYPE
 72
              65
 73
               2
 40
15.0
 49
0.0
 49
-15.0
  0
LTYPE
  2
CENTERX2
 70
               0
  3
CADPAC FUSION LINETYPE
 72
              65
 73
               4
 40
120.0
 49
50.0
 49
-25.0
 49
20.0
 49
-25.0
  0
LTYPE
  2
CENTER
 70
               0
  3
CADPAC FUSION LINETYPE
 72
              65
 73
               4
 40
92.0
 49
40.0
 49
-20.0
 49
12.0
 49
-20.0
  0
LTYPE
  2
CENTER2
 70
               0
  3
CADPAC FUSION LINETYPE
 72
              65
 73
               4
 40
64.0
 49
30.0
 49
-15.0
 49
4.0
 49
-15.0
  0
LTYPE
  2
DASHDOTX2
 70
               0
  3
CADPAC FUSION LINETYPE
 72
              65
 73
               4
 40
100.0
 49
50.0
 49
-25.0
 49
0.0
 49
-25.0
  0
LTYPE
  2
DASHDOT
 70
               0
  3
CADPAC FUSION LINETYPE
 72
              65
 73
               4
 40
80.0
 49
40.0
 49
-20.0
 49
0.0
 49
-20.0
  0
LTYPE
  2
DASHDOT2
 70
               0
  3
CADPAC FUSION LINETYPE
 72
              65
 73
               4
 40
60.0
 49
30.0
 49
-15.0
 49
0.0
 49
-15.0
  0
LTYPE
  2
DIVIDEX2
 70
               0
  3
CADPAC FUSION LINETYPE
 72
              65
 73
               6
 40
125.0
 49
50.0
 49
-25.0
 49
0.0
 49
-25.0
 49
0.0
 49
-25.0
  0
LTYPE
  2
DIVIDE
 70
               0
  3
CADPAC FUSION LINETYPE
 72
              65
 73
               6
 40
100.0
 49
40.0
 49
-20.0
 49
0.0
 49
-20.0
 49
0.0
 49
-20.0
  0
LTYPE
  2
DIVIDE2
 70
               0
  3
CADPAC FUSION LINETYPE
 72
              65
 73
               6
 40
75.0
 49
30.0
 49
-15.0
 49
0.0
 49
-15.0
 49
0.0
 49
-15.0
  0
LTYPE
  2
BORDERX2
 70
               0
  3
CADPAC FUSION LINETYPE
 72
              65
 73
               6
 40
175.0
 49
50.0
 49
-25.0
 49
50.0
 49
-25.0
 49
0.0
 49
-25.0
  0
LTYPE
  2
BORDER
 70
               0
  3
CADPAC FUSION LINETYPE
 72
              65
 73
               6
 40
140.0
 49
40.0
 49
-20.0
 49
40.0
 49
-20.0
 49
0.0
 49
-20.0
  0
LTYPE
  2
BORDER2
 70
               0
  3
CADPAC FUSION LINETYPE
 72
              65
 73
               6
 40
105.0
 49
30.0
 49
-15.0
 49
30.0
 49
-15.0
 49
0.0
 49
-15.0
  0
LTYPE
  2
PHANTOMX2
 70
               0
  3
CADPAC FUSION LINETYPE
 72
              65
 73
               6
 40
150.0
 49
50.0
 49
-20.0
 49
20.0
 49
-20.0
 49
20.0
 49
-20.0
  0
LTYPE
  2
PHANTOM
 70
               0
  3
CADPAC FUSION LINETYPE
 72
              65
 73
               6
 40
124.0
 49
40.0
 49
-20.0
 49
12.0
 49
-20.0
 49
12.0
 49
-20.0
  0
LTYPE
  2
PHANTOM2
 70
               0
  3
CADPAC FUSION LINETYPE
 72
              65
 73
               6
 40
106.0
 49
30.0
 49
-20.0
 49
8.0
 49
-20.0
 49
8.0
 49
-20.0
  0
ENDTAB
  0
TABLE
  2
LAYER
 70
             256
  0
LAYER
  2
0
 70
               0
 62
               7
  6
CONTINUOUS
  0
LAYER
  2
LAYER001
 70
               0
 62
               7
  6
CONTINUOUS
  0
LAYER
  2
LAYER002
 70
               0
 62
               7
  6
CONTINUOUS
  0
LAYER
  2
LAYER003
 70
               0
 62
               7
  6
CONTINUOUS
  0
LAYER
  2
LAYER004
 70
               0
 62
               7
  6
CONTINUOUS
  0
LAYER
  2
LAYER005
 70
               0
 62
               7
  6
CONTINUOUS
  0
LAYER
  2
LAYER006
 70
               0
 62
               7
  6
CONTINUOUS
  0
LAYER
  2
LAYER007
 70
               0
 62
               7
  6
CONTINUOUS
  0
LAYER
  2
LAYER008
 70
               0
 62
               7
  6
CONTINUOUS
  0
LAYER
  2
LAYER009
 70
               0
 62
               7
  6
CONTINUOUS
  0
LAYER
  2
LAYER010
 70
               0
 62
               7
  6
CONTINUOUS
  0
LAYER
  2
LAYER011
 70
               0
 62
               7
  6
CONTINUOUS
  0
LAYER
  2
LAYER012
 70
               0
 62
               7
  6
CONTINUOUS
  0
LAYER
  2
LAYER013
 70
               0
 62
               7
  6
CONTINUOUS
  0
LAYER
  2
LAYER014
 70
               0
 62
               7
  6
CONTINUOUS
  0
LAYER
  2
LAYER015
 70
               0
 62
               7
  6
CONTINUOUS
  0
LAYER
  2
LAYER016
 70
               0
 62
               7
  6
CONTINUOUS
  0
LAYER
  2
LAYER017
 70
               0
 62
               7
  6
CONTINUOUS
  0
LAYER
  2
LAYER018
 70
               0
 62
               7
  6
CONTINUOUS
  0
LAYER
  2
LAYER019
 70
               0
 62
               7
  6
CONTINUOUS
  0
LAYER
  2
LAYER020
 70
               0
 62
               7
  6
CONTINUOUS
  0
LAYER
  2
LAYER021
 70
               0
 62
               7
  6
CONTINUOUS
  0
LAYER
  2
LAYER022
 70
               0
 62
               7
  6
CONTINUOUS
  0
LAYER
  2
LAYER023
 70
               0
 62
               7
  6
CONTINUOUS
  0
LAYER
  2
LAYER024
 70
               0
 62
               7
  6
CONTINUOUS
  0
LAYER
  2
LAYER025
 70
               0
 62
               7
  6
CONTINUOUS
  0
LAYER
  2
LAYER026
 70
               0
 62
               7
  6
CONTINUOUS
  0
LAYER
  2
LAYER027
 70
               0
 62
               7
  6
CONTINUOUS
  0
LAYER
  2
LAYER028
 70
               0
 62
               7
  6
CONTINUOUS
  0
LAYER
  2
LAYER029
 70
               0
 62
               7
  6
CONTINUOUS
  0
LAYER
  2
LAYER030
 70
               0
 62
               7
  6
CONTINUOUS
  0
LAYER
  2
LAYER031
 70
               0
 62
               7
  6
CONTINUOUS
  0
LAYER
  2
LAYER032
 70
               0
 62
               7
  6
CONTINUOUS
  0
LAYER
  2
LAYER033
 70
               0
 62
               7
  6
CONTINUOUS
  0
LAYER
  2
LAYER034
 70
               0
 62
               7
  6
CONTINUOUS
  0
LAYER
  2
LAYER035
 70
               0
 62
               7
  6
CONTINUOUS
  0
LAYER
  2
LAYER036
 70
               0
 62
               7
  6
CONTINUOUS
  0
LAYER
  2
LAYER037
 70
               0
 62
               7
  6
CONTINUOUS
  0
LAYER
  2
LAYER038
 70
               0
 62
               7
  6
CONTINUOUS
  0
LAYER
  2
LAYER039
 70
               0
 62
               7
  6
CONTINUOUS
  0
LAYER
  2
LAYER040
 70
               0
 62
               7
  6
CONTINUOUS
  0
LAYER
  2
LAYER041
 70
               0
 62
               7
  6
CONTINUOUS
  0
LAYER
  2
LAYER042
 70
               0
 62
               7
  6
CONTINUOUS
  0
LAYER
  2
LAYER043
 70
               0
 62
               7
  6
CONTINUOUS
  0
LAYER
  2
LAYER044
 70
               0
 62
               7
  6
CONTINUOUS
  0
LAYER
  2
LAYER045
 70
               0
 62
               7
  6
CONTINUOUS
  0
LAYER
  2
LAYER046
 70
               0
 62
               7
  6
CONTINUOUS
  0
LAYER
  2
LAYER047
 70
               0
 62
               7
  6
CONTINUOUS
  0
LAYER
  2
LAYER048
 70
               0
 62
               7
  6
CONTINUOUS
  0
LAYER
  2
LAYER049
 70
               0
 62
               7
  6
CONTINUOUS
  0
LAYER
  2
LAYER050
 70
               0
 62
               7
  6
CONTINUOUS
  0
LAYER
  2
LAYER051
 70
               0
 62
               7
  6
CONTINUOUS
  0
LAYER
  2
LAYER052
 70
               0
 62
               7
  6
CONTINUOUS
  0
LAYER
  2
LAYER053
 70
               0
 62
               7
  6
CONTINUOUS
  0
LAYER
  2
LAYER054
 70
               0
 62
               7
  6
CONTINUOUS
  0
LAYER
  2
LAYER055
 70
               0
 62
               7
  6
CONTINUOUS
  0
LAYER
  2
LAYER056
 70
               0
 62
               7
  6
CONTINUOUS
  0
LAYER
  2
LAYER057
 70
               0
 62
               7
  6
CONTINUOUS
  0
LAYER
  2
LAYER058
 70
               0
 62
               7
  6
CONTINUOUS
  0
LAYER
  2
LAYER059
 70
               0
 62
               7
  6
CONTINUOUS
  0
LAYER
  2
LAYER060
 70
               0
 62
               7
  6
CONTINUOUS
  0
LAYER
  2
LAYER061
 70
               0
 62
               7
  6
CONTINUOUS
  0
LAYER
  2
LAYER062
 70
               0
 62
               7
  6
CONTINUOUS
  0
LAYER
  2
LAYER063
 70
               0
 62
               7
  6
CONTINUOUS
  0
LAYER
  2
LAYER064
 70
               0
 62
               7
  6
CONTINUOUS
  0
LAYER
  2
LAYER065
 70
               0
 62
               7
  6
CONTINUOUS
  0
LAYER
  2
LAYER066
 70
               0
 62
               7
  6
CONTINUOUS
  0
LAYER
  2
LAYER067
 70
               0
 62
               7
  6
CONTINUOUS
  0
LAYER
  2
LAYER068
 70
               0
 62
               7
  6
CONTINUOUS
  0
LAYER
  2
LAYER069
 70
               0
 62
               7
  6
CONTINUOUS
  0
LAYER
  2
LAYER070
 70
               0
 62
               7
  6
CONTINUOUS
  0
LAYER
  2
LAYER071
 70
               0
 62
               7
  6
CONTINUOUS
  0
LAYER
  2
LAYER072
 70
               0
 62
               7
  6
CONTINUOUS
  0
LAYER
  2
LAYER073
 70
               0
 62
               7
  6
CONTINUOUS
  0
LAYER
  2
LAYER074
 70
               0
 62
               7
  6
CONTINUOUS
  0
LAYER
  2
LAYER075
 70
               0
 62
               7
  6
CONTINUOUS
  0
LAYER
  2
LAYER076
 70
               0
 62
               7
  6
CONTINUOUS
  0
LAYER
  2
LAYER077
 70
               0
 62
               7
  6
CONTINUOUS
  0
LAYER
  2
LAYER078
 70
               0
 62
               7
  6
CONTINUOUS
  0
LAYER
  2
LAYER079
 70
               0
 62
               7
  6
CONTINUOUS
  0
LAYER
  2
LAYER080
 70
               0
 62
               7
  6
CONTINUOUS
  0
LAYER
  2
LAYER081
 70
               0
 62
               7
  6
CONTINUOUS
  0
LAYER
  2
LAYER082
 70
               0
 62
               7
  6
CONTINUOUS
  0
LAYER
  2
LAYER083
 70
               0
 62
               7
  6
CONTINUOUS
  0
LAYER
  2
LAYER084
 70
               0
 62
               7
  6
CONTINUOUS
  0
LAYER
  2
LAYER085
 70
               0
 62
               7
  6
CONTINUOUS
  0
LAYER
  2
LAYER086
 70
               0
 62
               7
  6
CONTINUOUS
  0
LAYER
  2
LAYER087
 70
               0
 62
               7
  6
CONTINUOUS
  0
LAYER
  2
LAYER088
 70
               0
 62
               7
  6
CONTINUOUS
  0
LAYER
  2
LAYER089
 70
               0
 62
               7
  6
CONTINUOUS
  0
LAYER
  2
LAYER090
 70
               0
 62
               7
  6
CONTINUOUS
  0
LAYER
  2
LAYER091
 70
               0
 62
               7
  6
CONTINUOUS
  0
LAYER
  2
LAYER092
 70
               0
 62
               7
  6
CONTINUOUS
  0
LAYER
  2
LAYER093
 70
               0
 62
               7
  6
CONTINUOUS
  0
LAYER
  2
LAYER094
 70
               0
 62
               7
  6
CONTINUOUS
  0
LAYER
  2
LAYER095
 70
               0
 62
               7
  6
CONTINUOUS
  0
LAYER
  2
LAYER096
 70
               0
 62
               7
  6
CONTINUOUS
  0
LAYER
  2
LAYER097
 70
               0
 62
               7
  6
CONTINUOUS
  0
LAYER
  2
LAYER098
 70
               0
 62
               7
  6
CONTINUOUS
  0
LAYER
  2
LAYER099
 70
               0
 62
               7
  6
CONTINUOUS
  0
LAYER
  2
LAYER100
 70
               0
 62
               7
  6
CONTINUOUS
  0
LAYER
  2
LAYER101
 70
               0
 62
               7
  6
CONTINUOUS
  0
LAYER
  2
LAYER102
 70
               0
 62
               7
  6
CONTINUOUS
  0
LAYER
  2
LAYER103
 70
               0
 62
               7
  6
CONTINUOUS
  0
LAYER
  2
LAYER104
 70
               0
 62
               7
  6
CONTINUOUS
  0
LAYER
  2
LAYER105
 70
               0
 62
               7
  6
CONTINUOUS
  0
LAYER
  2
LAYER106
 70
               0
 62
               7
  6
CONTINUOUS
  0
LAYER
  2
LAYER107
 70
               0
 62
               7
  6
CONTINUOUS
  0
LAYER
  2
LAYER108
 70
               0
 62
               7
  6
CONTINUOUS
  0
LAYER
  2
LAYER109
 70
               0
 62
               7
  6
CONTINUOUS
  0
LAYER
  2
LAYER110
 70
               0
 62
               7
  6
CONTINUOUS
  0
LAYER
  2
LAYER111
 70
               0
 62
               7
  6
CONTINUOUS
  0
LAYER
  2
LAYER112
 70
               0
 62
               7
  6
CONTINUOUS
  0
LAYER
  2
LAYER113
 70
               0
 62
               7
  6
CONTINUOUS
  0
LAYER
  2
LAYER114
 70
               0
 62
               7
  6
CONTINUOUS
  0
LAYER
  2
LAYER115
 70
               0
 62
               7
  6
CONTINUOUS
  0
LAYER
  2
LAYER116
 70
               0
 62
               7
  6
CONTINUOUS
  0
LAYER
  2
LAYER117
 70
               0
 62
               7
  6
CONTINUOUS
  0
LAYER
  2
LAYER118
 70
               0
 62
               7
  6
CONTINUOUS
  0
LAYER
  2
LAYER119
 70
               0
 62
               7
  6
CONTINUOUS
  0
LAYER
  2
LAYER120
 70
               0
 62
               7
  6
CONTINUOUS
  0
LAYER
  2
LAYER121
 70
               0
 62
               7
  6
CONTINUOUS
  0
LAYER
  2
LAYER122
 70
               0
 62
               7
  6
CONTINUOUS
  0
LAYER
  2
LAYER123
 70
               0
 62
               7
  6
CONTINUOUS
  0
LAYER
  2
LAYER124
 70
               0
 62
               7
  6
CONTINUOUS
  0
LAYER
  2
LAYER125
 70
               0
 62
               7
  6
CONTINUOUS
  0
LAYER
  2
LAYER126
 70
               0
 62
               7
  6
CONTINUOUS
  0
LAYER
  2
LAYER127
 70
               0
 62
               7
  6
CONTINUOUS
  0
LAYER
  2
LAYER128
 70
               0
 62
               7
  6
CONTINUOUS
  0
LAYER
  2
LAYER129
 70
               0
 62
               7
  6
CONTINUOUS
  0
LAYER
  2
LAYER130
 70
               0
 62
               7
  6
CONTINUOUS
  0
LAYER
  2
LAYER131
 70
               0
 62
               7
  6
CONTINUOUS
  0
LAYER
  2
LAYER132
 70
               0
 62
               7
  6
CONTINUOUS
  0
LAYER
  2
LAYER133
 70
               0
 62
               7
  6
CONTINUOUS
  0
LAYER
  2
LAYER134
 70
               0
 62
               7
  6
CONTINUOUS
  0
LAYER
  2
LAYER135
 70
               0
 62
               7
  6
CONTINUOUS
  0
LAYER
  2
LAYER136
 70
               0
 62
               7
  6
CONTINUOUS
  0
LAYER
  2
LAYER137
 70
               0
 62
               7
  6
CONTINUOUS
  0
LAYER
  2
LAYER138
 70
               0
 62
               7
  6
CONTINUOUS
  0
LAYER
  2
LAYER139
 70
               0
 62
               7
  6
CONTINUOUS
  0
LAYER
  2
LAYER140
 70
               0
 62
               7
  6
CONTINUOUS
  0
LAYER
  2
LAYER141
 70
               0
 62
               7
  6
CONTINUOUS
  0
LAYER
  2
LAYER142
 70
               0
 62
               7
  6
CONTINUOUS
  0
LAYER
  2
LAYER143
 70
               0
 62
               7
  6
CONTINUOUS
  0
LAYER
  2
LAYER144
 70
               0
 62
               7
  6
CONTINUOUS
  0
LAYER
  2
LAYER145
 70
               0
 62
               7
  6
CONTINUOUS
  0
LAYER
  2
LAYER146
 70
               0
 62
               7
  6
CONTINUOUS
  0
LAYER
  2
LAYER147
 70
               0
 62
               7
  6
CONTINUOUS
  0
LAYER
  2
LAYER148
 70
               0
 62
               7
  6
CONTINUOUS
  0
LAYER
  2
LAYER149
 70
               0
 62
               7
  6
CONTINUOUS
  0
LAYER
  2
LAYER150
 70
               0
 62
               7
  6
CONTINUOUS
  0
LAYER
  2
LAYER151
 70
               0
 62
               7
  6
CONTINUOUS
  0
LAYER
  2
LAYER152
 70
               0
 62
               7
  6
CONTINUOUS
  0
LAYER
  2
LAYER153
 70
               0
 62
               7
  6
CONTINUOUS
  0
LAYER
  2
LAYER154
 70
               0
 62
               7
  6
CONTINUOUS
  0
LAYER
  2
LAYER155
 70
               0
 62
               7
  6
CONTINUOUS
  0
LAYER
  2
LAYER156
 70
               0
 62
               7
  6
CONTINUOUS
  0
LAYER
  2
LAYER157
 70
               0
 62
               7
  6
CONTINUOUS
  0
LAYER
  2
LAYER158
 70
               0
 62
               7
  6
CONTINUOUS
  0
LAYER
  2
LAYER159
 70
               0
 62
               7
  6
CONTINUOUS
  0
LAYER
  2
LAYER160
 70
               0
 62
               7
  6
CONTINUOUS
  0
LAYER
  2
LAYER161
 70
               0
 62
               7
  6
CONTINUOUS
  0
LAYER
  2
LAYER162
 70
               0
 62
               7
  6
CONTINUOUS
  0
LAYER
  2
LAYER163
 70
               0
 62
               7
  6
CONTINUOUS
  0
LAYER
  2
LAYER164
 70
               0
 62
               7
  6
CONTINUOUS
  0
LAYER
  2
LAYER165
 70
               0
 62
               7
  6
CONTINUOUS
  0
LAYER
  2
LAYER166
 70
               0
 62
               7
  6
CONTINUOUS
  0
LAYER
  2
LAYER167
 70
               0
 62
               7
  6
CONTINUOUS
  0
LAYER
  2
LAYER168
 70
               0
 62
               7
  6
CONTINUOUS
  0
LAYER
  2
LAYER169
 70
               0
 62
               7
  6
CONTINUOUS
  0
LAYER
  2
LAYER170
 70
               0
 62
               7
  6
CONTINUOUS
  0
LAYER
  2
LAYER171
 70
               0
 62
               7
  6
CONTINUOUS
  0
LAYER
  2
LAYER172
 70
               0
 62
               7
  6
CONTINUOUS
  0
LAYER
  2
LAYER173
 70
               0
 62
               7
  6
CONTINUOUS
  0
LAYER
  2
LAYER174
 70
               0
 62
               7
  6
CONTINUOUS
  0
LAYER
  2
LAYER175
 70
               0
 62
               7
  6
CONTINUOUS
  0
LAYER
  2
LAYER176
 70
               0
 62
               7
  6
CONTINUOUS
  0
LAYER
  2
LAYER177
 70
               0
 62
               7
  6
CONTINUOUS
  0
LAYER
  2
LAYER178
 70
               0
 62
               7
  6
CONTINUOUS
  0
LAYER
  2
LAYER179
 70
               0
 62
               7
  6
CONTINUOUS
  0
LAYER
  2
LAYER180
 70
               0
 62
               7
  6
CONTINUOUS
  0
LAYER
  2
LAYER181
 70
               0
 62
               7
  6
CONTINUOUS
  0
LAYER
  2
LAYER182
 70
               0
 62
               7
  6
CONTINUOUS
  0
LAYER
  2
LAYER183
 70
               0
 62
               7
  6
CONTINUOUS
  0
LAYER
  2
LAYER184
 70
               0
 62
               7
  6
CONTINUOUS
  0
LAYER
  2
LAYER185
 70
               0
 62
               7
  6
CONTINUOUS
  0
LAYER
  2
LAYER186
 70
               0
 62
               7
  6
CONTINUOUS
  0
LAYER
  2
LAYER187
 70
               0
 62
               7
  6
CONTINUOUS
  0
LAYER
  2
LAYER188
 70
               0
 62
               7
  6
CONTINUOUS
  0
LAYER
  2
LAYER189
 70
               0
 62
               7
  6
CONTINUOUS
  0
LAYER
  2
LAYER190
 70
               0
 62
               7
  6
CONTINUOUS
  0
LAYER
  2
LAYER191
 70
               0
 62
               7
  6
CONTINUOUS
  0
LAYER
  2
LAYER192
 70
               0
 62
               7
  6
CONTINUOUS
  0
LAYER
  2
LAYER193
 70
               0
 62
               7
  6
CONTINUOUS
  0
LAYER
  2
LAYER194
 70
               0
 62
               7
  6
CONTINUOUS
  0
LAYER
  2
LAYER195
 70
               0
 62
               7
  6
CONTINUOUS
  0
LAYER
  2
LAYER196
 70
               0
 62
               7
  6
CONTINUOUS
  0
LAYER
  2
LAYER197
 70
               0
 62
               7
  6
CONTINUOUS
  0
LAYER
  2
LAYER198
 70
               0
 62
               7
  6
CONTINUOUS
  0
LAYER
  2
LAYER199
 70
               0
 62
               7
  6
CONTINUOUS
  0
LAYER
  2
LAYER200
 70
               0
 62
               7
  6
CONTINUOUS
  0
LAYER
  2
LAYER201
 70
               0
 62
               7
  6
CONTINUOUS
  0
LAYER
  2
LAYER202
 70
               0
 62
               7
  6
CONTINUOUS
  0
LAYER
  2
LAYER203
 70
               0
 62
               7
  6
CONTINUOUS
  0
LAYER
  2
LAYER204
 70
               0
 62
               7
  6
CONTINUOUS
  0
LAYER
  2
LAYER205
 70
               0
 62
               7
  6
CONTINUOUS
  0
LAYER
  2
LAYER206
 70
               0
 62
               7
  6
CONTINUOUS
  0
LAYER
  2
LAYER207
 70
               0
 62
               7
  6
CONTINUOUS
  0
LAYER
  2
LAYER208
 70
               0
 62
               7
  6
CONTINUOUS
  0
LAYER
  2
LAYER209
 70
               0
 62
               7
  6
CONTINUOUS
  0
LAYER
  2
LAYER210
 70
               0
 62
               7
  6
CONTINUOUS
  0
LAYER
  2
LAYER211
 70
               0
 62
               7
  6
CONTINUOUS
  0
LAYER
  2
LAYER212
 70
               0
 62
               7
  6
CONTINUOUS
  0
LAYER
  2
LAYER213
 70
               0
 62
               7
  6
CONTINUOUS
  0
LAYER
  2
LAYER214
 70
               0
 62
               7
  6
CONTINUOUS
  0
LAYER
  2
LAYER215
 70
               0
 62
               7
  6
CONTINUOUS
  0
LAYER
  2
LAYER216
 70
               0
 62
               7
  6
CONTINUOUS
  0
LAYER
  2
LAYER217
 70
               0
 62
               7
  6
CONTINUOUS
  0
LAYER
  2
LAYER218
 70
               0
 62
               7
  6
CONTINUOUS
  0
LAYER
  2
LAYER219
 70
               0
 62
               7
  6
CONTINUOUS
  0
LAYER
  2
LAYER220
 70
               0
 62
               7
  6
CONTINUOUS
  0
LAYER
  2
LAYER221
 70
               0
 62
               7
  6
CONTINUOUS
  0
LAYER
  2
LAYER222
 70
               0
 62
               7
  6
CONTINUOUS
  0
LAYER
  2
LAYER223
 70
               0
 62
               7
  6
CONTINUOUS
  0
LAYER
  2
LAYER224
 70
               0
 62
               7
  6
CONTINUOUS
  0
LAYER
  2
LAYER225
 70
               0
 62
               7
  6
CONTINUOUS
  0
LAYER
  2
LAYER226
 70
               0
 62
               7
  6
CONTINUOUS
  0
LAYER
  2
LAYER227
 70
               0
 62
               7
  6
CONTINUOUS
  0
LAYER
  2
LAYER228
 70
               0
 62
               7
  6
CONTINUOUS
  0
LAYER
  2
LAYER229
 70
               0
 62
               7
  6
CONTINUOUS
  0
LAYER
  2
LAYER230
 70
               0
 62
               7
  6
CONTINUOUS
  0
LAYER
  2
LAYER231
 70
               0
 62
               7
  6
CONTINUOUS
  0
LAYER
  2
LAYER232
 70
               0
 62
               7
  6
CONTINUOUS
  0
LAYER
  2
LAYER233
 70
               0
 62
               7
  6
CONTINUOUS
  0
LAYER
  2
LAYER234
 70
               0
 62
               7
  6
CONTINUOUS
  0
LAYER
  2
LAYER235
 70
               0
 62
               7
  6
CONTINUOUS
  0
LAYER
  2
LAYER236
 70
               0
 62
               7
  6
CONTINUOUS
  0
LAYER
  2
LAYER237
 70
               0
 62
               7
  6
CONTINUOUS
  0
LAYER
  2
LAYER238
 70
               0
 62
               7
  6
CONTINUOUS
  0
LAYER
  2
LAYER239
 70
               0
 62
               7
  6
CONTINUOUS
  0
LAYER
  2
LAYER240
 70
               0
 62
               7
  6
CONTINUOUS
  0
LAYER
  2
LAYER241
 70
               0
 62
               7
  6
CONTINUOUS
  0
LAYER
  2
LAYER242
 70
               0
 62
               7
  6
CONTINUOUS
  0
LAYER
  2
LAYER243
 70
               0
 62
               7
  6
CONTINUOUS
  0
LAYER
  2
LAYER244
 70
               0
 62
               7
  6
CONTINUOUS
  0
LAYER
  2
LAYER245
 70
               0
 62
               7
  6
CONTINUOUS
  0
LAYER
  2
LAYER246
 70
               0
 62
               7
  6
CONTINUOUS
  0
LAYER
  2
LAYER247
 70
               0
 62
               7
  6
CONTINUOUS
  0
LAYER
  2
LAYER248
 70
               0
 62
               7
  6
CONTINUOUS
  0
LAYER
  2
LAYER249
 70
               0
 62
               7
  6
CONTINUOUS
  0
LAYER
  2
LAYER250
 70
               0
 62
               7
  6
CONTINUOUS
  0
LAYER
  2
LAYER251
 70
               0
 62
               7
  6
CONTINUOUS
  0
LAYER
  2
LAYER252
 70
               0
 62
               7
  6
CONTINUOUS
  0
LAYER
  2
LAYER253
 70
               0
 62
               7
  6
CONTINUOUS
  0
LAYER
  2
LAYER254
 70
               0
 62
               7
  6
CONTINUOUS
  0
LAYER
  2
LAYER255
 70
               0
 62
               7
  6
CONTINUOUS
  0
ENDTAB
  0
TABLE
  2
STYLE
 70
               1
  0
STYLE
  2
STANDARD
 70
               0
 40
0.0
 41
1.0
 50
0.0
 71
               0
 42
0.0
  3
txt
  4

  0
ENDTAB
  0
TABLE
  2
VIEW
 70
               0
  0
VIEW
  2
QQQQ
 70
               0
 40
1276.5616126672599
 10
39.871321589394171
 20
35.603376469838565
 41
997.94104928399202
 11
0.0
 21
0.0
 31
1.0
 12
100.0
 22
100.0
 32
0.0
 42
50.0
 43
0.0
 44
0.0
 50
0.0
 71
               0
  0
ENDTAB
  0
TABLE
  2
UCS
 70
               0
  0
ENDTAB
  0
TABLE
  2
APPID
 70
               1
  0
APPID
  2
ACAD
 70
               0
  0
ENDTAB
  0
TABLE
  2
DIMSTYLE
 70
               1
  0
DIMSTYLE
  2
STANDARD
 70
               0
  3

  4

  5

  6

  7

 40
1.0
 41
0.18
 42
0.0625
 43
0.38
 44
0.18
 45
0.0
 46
0.0
 47
0.0
 48
0.0
140
0.18
141
0.09
142
0.0
143
25.399999999999999
144
1.0
145
0.0
146
1.0
147
0.09
 71
               0
 72
               0
 73
               1
 74
               1
 75
               0
 76
               0
 77
               0
 78
               0
170
               0
171
               2
172
               0
173
               0
174
               0
175
               0
176
               0
177
               0
178
               0
  0
ENDTAB
  0
ENDSEC
  0
SECTION
  2
BLOCKS
  0
ENDSEC
  0
SECTION
  2
ENTITIES
  0
POINT
  8
0
  6
CONTINUOUS
 62
               5
  5
136
 10
-326.68571428571511
 20
-427.52631251987202
 30
0.0
  0
POINT
  8
0
  6
CONTINUOUS
 62
               5
  5
137
 10
-326.68571428571511
 20
-427.52631251987202
 30
0.0
  0
POINT
  8
0
  6
CONTINUOUS
 62
               7
  5
138
 10
-326.68571428571516
 20
520.73306545954688
 30
0.0
  0
POINT
  8
0
  6
CONTINUOUS
 62
               7
  5
139
 10
-326.68571428571516
 20
-427.52631251987196
 30
0.0
  0
POINT
  8
0
  6
CONTINUOUS
 62
               7
  5
13A
 10
391.31428571428569
 20
-427.52631251987174
 30
0.0
  0
POINT
  8
0
  6
CONTINUOUS
 62
               7
  5
13B
 10
-326.68571428571516
 20
-427.52631251987196
 30
0.0
  0
LINE
  8
0
  6
DASHED
 62
               7
  5
13C
 10
-147.68571428571519
 20
590.73306545954688
 30
0.0
 11
-147.68571428571519
 21
450.73306545954688
 31
0.0
  0
LINE
  8
0
  6
DASHED
 62
               7
  5
13D
 10
-147.68571428571511
 20
-497.52631251987202
 30
0.0
 11
-147.68571428571511
 21
-357.52631251987202
 31
0.0
  0
LINE
  8
0
  6
HIDDENX2
 62
               7
  5
13E
 10
346.81428571428569
 20
29.473687480128262
 30
0.0
 11
435.81428571428569
 21
29.473687480128262
 31
0.0
  0
LINE
  8
0
  6
DASHDOT
 62
               4
  5
13F
 10
-411.68571428571533
 20
520.73306545954688
 30
0.0
 11
-69.685714285715108
 21
520.73306545954688
 31
0.0
  0
LINE
  8
0
  6
DASHDOT
 62
               4
  5
140
 10
-326.68571428571516
 20
602.73306545954699
 30
0.0
 11
-326.68571428571516
 21
438.73306545954699
 31
0.0
  0
LINE
  8
0
  6
DASHDOT
 62
               4
  5
141
 10
-337.38913204740891
 20
-427.52631251987202
 30
0.0
 11
-69.685714285715108
 21
-427.52631251987202
 31
0.0
  0
ARC
  8
0
  6
DASHDOT
 62
               4
  5
142
 10
-157.68571428571499
 20
-258.52631251987202
 30
0.0
 40
169.0
 50
179.99999999993119
 51
268.71324725135327
  0
LINE
  8
0
  6
DASHDOT
 62
               4
  5
143
 10
-326.68571428571511
 20
100.13184229120859
 30
0.0
 11
-326.68571428571511
 21
-491.51884101276846
 31
0.0
  0
LINE
  8
0
  6
DASHDOT
 62
               4
  5
144
 10
391.31428571428569
 20
114.16009856080126
 30
0.0
 11
391.31428571428569
 21
-542.02631251987168
 31
0.0
  0
LINE
  8
0
  6
DASHDOT
 62
               4
  5
145
 10
291.20021396406776
 20
-427.52631251987174
 30
0.0
 11
491.42835746450362
 21
-427.52631251987174
 31
0.0
  0
LINE
  8
0
  6
DASHED
 62
               4
  5
146
 10
-371.18571428571499
 20
29.473687480127893
 30
0.0
 11
-282.18571428571522
 21
29.473687480127893
 31
0.0
  0
LINE
  8
0
  6
CONTINUOUS
 62
               3
  5
147
 10
-326.68571428571516
 20
590.23306545954676
 30
0.0
 11
-152.68571428571519
 21
590.23306545954676
 31
0.0
  0
LINE
  8
0
  6
CONTINUOUS
 62
               3
  5
148
 10
-326.68571428571516
 20
451.23306545954699
 30
0.0
 11
-152.68571428571519
 21
451.23306545954699
 31
0.0
  0
LINE
  8
0
  6
CONTINUOUS
 62
               3
  5
149
 10
-111.68571428571511
 20
613.2330654595429
 30
0.0
 11
-111.68571428571511
 21
428.2330654595429
 31
0.0
  0
LINE
  8
0
  6
CONTINUOUS
 62
               3
  5
14A
 10
-129.68571428571522
 20
428.23306545954733
 30
0.0
 11
-111.68571428571511
 21
428.2330654595429
 31
0.0
  0
LINE
  8
0
  6
CONTINUOUS
 62
               3
  5
14B
 10
-129.68571428571522
 20
613.23306545954733
 30
0.0
 11
-129.68571428571522
 21
428.23306545954733
 31
0.0
  0
LINE
  8
0
  6
CONTINUOUS
 62
               3
  5
14C
 10
-152.68571428571519
 20
443.23306545954694
 30
0.0
 11
-129.68571428571522
 21
443.23306545954688
 31
0.0
  0
LINE
  8
0
  6
CONTINUOUS
 62
               3
  5
14D
 10
-129.68571428571522
 20
613.23306545954665
 30
0.0
 11
-111.68571428571511
 21
613.23306545954881
 31
0.0
  0
LINE
  8
0
  6
CONTINUOUS
 62
               3
  5
14E
 10
-152.68571428571519
 20
598.23306545954688
 30
0.0
 11
-129.68571428571522
 21
598.23306545954688
 31
0.0
  0
LINE
  8
0
  6
CONTINUOUS
 62
               3
  5
14F
 10
-79.685714285715108
 20
613.23306545954688
 30
0.0
 11
-79.685714285715108
 21
428.23306545954688
 31
0.0
  0
LINE
  8
0
  6
CONTINUOUS
 62
               3
  5
150
 10
-97.685714285715108
 20
428.23306545954688
 30
0.0
 11
-79.685714285715108
 21
428.23306545954688
 31
0.0
  0
LINE
  8
0
  6
CONTINUOUS
 62
               3
  5
151
 10
-97.685714285715108
 20
613.23306545954654
 30
0.0
 11
-79.685714285715108
 21
613.23306545954688
 31
0.0
  0
LINE
  8
0
  6
CONTINUOUS
 62
               3
  5
152
 10
-97.685714285715108
 20
613.23306545954688
 30
0.0
 11
-97.685714285715108
 21
428.23306545954688
 31
0.0
  0
CIRCLE
  8
0
  6
CONTINUOUS
 62
               3
  5
153
 10
-326.68571428571516
 20
520.73306545954699
 30
0.0
 40
46.0
  0
ARC
  8
0
  6
CONTINUOUS
 62
               3
  5
154
 10
-326.68571428571516
 20
520.73306545954699
 30
0.0
 40
61.999999999999993
 50
217.47199518273075
 51
262.52800481708579
  0
ARC
  8
0
  6
CONTINUOUS
 62
               3
  5
155
 10
-389.68571428571533
 20
520.73306545954699
 30
0.0
 40
12.0
 50
142.52800481713089
 51
217.47199518273098
  0
LINE
  8
0
  6
CONTINUOUS
 62
               3
  5
156
 10
-399.20952380952463
 20
528.0335484678277
 30
0.0
 11
-375.89206349206421
 21
558.45222766899724
 31
0.0
  0
LINE
  8
0
  6
CONTINUOUS
 62
               3
  5
157
 10
-399.20952380952463
 20
513.4325824512664
 30
0.0
 11
-375.89206349206421
 21
483.01390325009686
 31
0.0
  0
ARC
  8
0
  6
CONTINUOUS
 62
               3
  5
158
 10
-295.18571428571511
 20
466.17346502112741
 30
0.0
 40
12.0
 50
262.52800481708562
 51
337.47199518268428
  0
LINE
  8
0
  6
CONTINUOUS
 62
               3
  5
159
 10
-296.74621326887808
 20
454.2753625285639
 30
0.0
 11
-334.74829236539057
 21
459.25953591463531
 31
0.0
  0
LINE
  8
0
  6
CONTINUOUS
 62
               3
  5
15A
 10
-284.10140577874279
 20
461.5758455368445
 30
0.0
 11
-269.41678699969066
 21
496.97869812408561
 31
0.0
  0
ARC
  8
0
  6
CONTINUOUS
 62
               3
  5
15B
 10
-295.18571428571511
 20
575.29266589796669
 30
0.0
 40
12.0
 50
22.528004817177461
 51
97.471995182776709
  0
LINE
  8
0
  6
CONTINUOUS
 62
               3
  5
15C
 10
-284.10140577874279
 20
579.89028538224943
 30
0.0
 11
-269.41678699969066
 21
544.48743279500854
 31
0.0
  0
LINE
  8
0
  6
CONTINUOUS
 62
               3
  5
15D
 10
-296.74621326887808
 20
587.19076839053014
 30
0.0
 11
-334.74829236539057
 21
582.20659500445868
 31
0.0
  0
ARC
  8
0
  6
CONTINUOUS
 62
               3
  5
15E
 10
-326.68571428571516
 20
520.73306545954699
 30
0.0
 40
61.999999999999993
 50
337.47199518268491
 51
382.52800481703912
  0
ARC
  8
0
  6
CONTINUOUS
 62
               3
  5
15F
 10
-326.68571428571516
 20
520.73306545954699
 30
0.0
 40
61.999999999999993
 50
97.471995182776666
 51
142.5280048171316
  0
CIRCLE
  8
0
  6
CONTINUOUS
 62
               3
  5
160
 10
-389.68571428571533
 20
520.73306545954699
 30
0.0
 40
8.2666666666666657
  0
CIRCLE
  8
0
  6
CONTINUOUS
 62
               3
  5
161
 10
-295.18571428571511
 20
575.29266589796669
 30
0.0
 40
8.2666666666666657
  0
CIRCLE
  8
0
  6
CONTINUOUS
 62
               3
  5
162
 10
-295.18571428571511
 20
466.17346502112741
 30
0.0
 40
8.2666666666666657
  0
ARC
  8
0
  6
CONTINUOUS
 62
               3
  5
163
 10
-326.68571428571516
 20
520.73306545954699
 30
0.0
 40
69.5
 50
190.6085916708239
 51
289.39140832899244
  0
ARC
  8
0
  6
CONTINUOUS
 62
               3
  5
164
 10
-326.68571428571516
 20
520.73306545954699
 30
0.0
 40
69.5
 50
70.608591670870155
 51
169.39140832903828
  0
ARC
  8
0
  6
CONTINUOUS
 62
               3
  5
165
 10
-326.68571428571516
 20
520.73306545954699
 30
0.0
 40
69.5
 50
310.60859167077831
 51
409.39140832894577
  0
LINE
  8
0
  6
CONTINUOUS
 62
               3
  5
166
 10
-152.68571428571519
 20
598.23306545954688
 30
0.0
 11
-152.68571428571519
 21
443.23306545954694
 31
0.0
  0
LINE
  8
0
  6
CONTINUOUS
 62
               3
  5
167
 10
-97.685714285715108
 20
601.73306545954688
 30
0.0
 11
-111.68571428571522
 21
601.73306545954688
 31
0.0
  0
LINE
  8
0
  6
CONTINUOUS
 62
               3
  5
168
 10
-111.68571428571522
 20
439.73306545954688
 30
0.0
 11
-97.685714285715108
 21
439.73306545954688
 31
0.0
  0
LINE
  8
0
  6
CONTINUOUS
 62
               3
  5
169
 10
-111.68571428571522
 20
-337.5263125198681
 30
0.0
 11
-111.68571428571491
 21
-532.02631251987259
 31
0.0
  0
LINE
  8
0
  6
CONTINUOUS
 62
               3
  5
16A
 10
-152.68571428571681
 20
-350.02631251987094
 30
0.0
 11
-129.68571428571792
 21
-350.02631251987401
 31
0.0
  0
LINE
  8
0
  6
CONTINUOUS
 62
               3
  5
16B
 10
-152.68571428572051
 20
-505.02631251987464
 30
0.0
 11
-129.68571428572662
 21
-505.02631251986486
 31
0.0
  0
LINE
  8
0
  6
CONTINUOUS
 62
               3
  5
16C
 10
-129.6857142857163
 20
-337.5263125198727
 30
0.0
 11
-111.68571428571522
 21
-337.5263125198681
 31
0.0
  0
LINE
  8
0
  6
CONTINUOUS
 62
               3
  5
16D
 10
-129.68571428571502
 20
-532.02631251987657
 30
0.0
 11
-111.68571428571491
 21
-532.02631251987259
 31
0.0
  0
ARC
  8
0
  6
CONTINUOUS
 62
               3
  5
16E
 10
-157.68571428571499
 20
-258.52631251987202
 30
0.0
 40
100.5
 50
179.99999999993119
 51
272.85171354051812
  0
ARC
  8
0
  6
CONTINUOUS
 62
               3
  5
16F
 10
-157.68571428571499
 20
-258.52631251987202
 30
0.0
 40
239.5
 50
179.99999999993119
 51
271.19624096676665
  0
LINE
  8
0
  6
CONTINUOUS
 62
               3
  5
170
 10
-129.6857142857163
 20
-337.5263125198727
 30
0.0
 11
-129.68571428571502
 21
-532.02631251987657
 31
0.0
  0
LINE
  8
0
  6
CONTINUOUS
 62
               3
  5
171
 10
-97.685714285715108
 20
-346.52631251987208
 30
0.0
 11
-111.68571428571522
 21
-346.52631251987208
 31
0.0
  0
LINE
  8
0
  6
CONTINUOUS
 62
               3
  5
172
 10
-97.685714285715108
 20
-508.52631251987202
 30
0.0
 11
-111.68571428571491
 21
-508.52631251987202
 31
0.0
  0
LINE
  8
0
  6
CONTINUOUS
 62
               3
  5
173
 10
-79.685714285715108
 20
-337.52631251987242
 30
0.0
 11
-97.685714285715108
 21
-337.52631251987202
 31
0.0
  0
LINE
  8
0
  6
CONTINUOUS
 62
               3
  5
174
 10
-79.685714285715108
 20
-532.02631251987225
 30
0.0
 11
-97.685714285715108
 21
-532.02631251987191
 31
0.0
  0
LINE
  8
0
  6
CONTINUOUS
 62
               3
  5
175
 10
-97.685714285715108
 20
-337.52631251987202
 30
0.0
 11
-97.685714285715108
 21
-532.02631251987191
 31
0.0
  0
LINE
  8
0
  6
CONTINUOUS
 62
               3
  5
176
 10
-79.685714285715108
 20
-532.02631251987225
 30
0.0
 11
-79.685714285715108
 21
-337.52631251987242
 31
0.0
  0
ARC
  8
0
  6
CONTINUOUS
 62
               3
  5
177
 10
-384.18464102193241
 20
-259.22358387444467
 30
0.0
 40
13.0
 50
109.45209668776747
 51
176.92539338565359
  0
ARC
  8
0
  6
CONTINUOUS
 62
               3
  5
178
 10
-157.68571428571531
 20
-258.52631251987208
 30
0.0
 40
100.5
 50
179.99560546483963
 51
188.58368168547548
  0
ARC
  8
0
  6
CONTINUOUS
 62
               3
  5
179
 10
-271.18571395186905
 20
-258.51760717129957
 30
0.0
 40
13.0
 50
359.99560546477079
 51
430.54790331202531
  0
LINE
  8
0
  6
CONTINUOUS
 62
               3
  5
17A
 10
-388.51388318457794
 20
-246.96562065467739
 30
0.0
 11
-381.02062114623664
 21
-244.31916582604589
 31
0.0
  0
LINE
  8
0
  6
CONTINUOUS
 62
               3
  5
17B
 10
-266.85647178922352
 20
-246.2596439515321
 30
0.0
 11
-272.35080742519415
 21
-244.31916582604589
 31
0.0
  0
LINE
  8
0
  6
CONTINUOUS
 62
               3
  5
17C
 10
-152.68571428571511
 20
-350.02631251987094
 30
0.0
 11
-152.68571428571511
 21
-505.02631251987464
 31
0.0
  0
LINE
  8
0
  6
CONTINUOUS
 62
               3
  5
17D
 10
-275.68571428571488
 20
38.506283375692391
 30
0.0
 11
-275.68571428571488
 21
19.473687480127893
 31
0.0
  0
LINE
  8
0
  6
CONTINUOUS
 62
               3
  5
17E
 10
-377.68571428571499
 20
38.506283375703987
 30
0.0
 11
-377.68571428571499
 21
19.473687480127893
 31
0.0
  0
LINE
  8
0
  6
CONTINUOUS
 62
               3
  5
17F
 10
-401.68571428571403
 20
52.473687480127893
 30
0.0
 11
-401.6857142857159
 21
38.506283375703987
 31
0.0
  0
LINE
  8
0
  6
CONTINUOUS
 62
               3
  5
180
 10
-264.68571428571596
 20
52.473687480127893
 30
0.0
 11
-264.68571428571471
 21
38.506283375692277
 31
0.0
  0
LINE
  8
0
  6
CONTINUOUS
 62
               3
  5
181
 10
-401.68571428571403
 20
52.473687480127893
 30
0.0
 11
-264.68571428571596
 21
52.473687480127893
 31
0.0
  0
LINE
  8
0
  6
CONTINUOUS
 62
               3
  5
182
 10
-401.6857142857159
 20
38.506283375703987
 30
0.0
 11
-264.68571428571471
 21
38.506283375692277
 31
0.0
  0
LINE
  8
0
  6
CONTINUOUS
 62
               3
  5
183
 10
-264.68571428571579
 20
61.47368748012812
 30
0.0
 11
-401.68571428571454
 21
61.47368748012812
 31
0.0
  0
LINE
  8
0
  6
CONTINUOUS
 62
               3
  5
184
 10
-401.6857142857142
 20
61.47368748012812
 30
0.0
 11
-401.68571428571391
 21
75.473687480128177
 31
0.0
  0
LINE
  8
0
  6
CONTINUOUS
 62
               3
  5
185
 10
-264.68571428571579
 20
61.47368748012812
 30
0.0
 11
-264.68571428571579
 21
75.47368748012812
 31
0.0
  0
LINE
  8
0
  6
CONTINUOUS
 62
               3
  5
186
 10
-264.68571428571579
 20
75.47368748012812
 30
0.0
 11
-401.68571428571391
 21
75.47368748012812
 31
0.0
  0
LINE
  8
0
  6
CONTINUOUS
 62
               3
  5
187
 10
-377.68571428571499
 20
52.473687480127893
 30
0.0
 11
-377.68571428571499
 21
61.47368748012812
 31
0.0
  0
LINE
  8
0
  6
CONTINUOUS
 62
               3
  5
188
 10
-275.68571428571488
 20
52.473687480127893
 30
0.0
 11
-275.68571428571488
 21
61.47368748012812
 31
0.0
  0
LINE
  8
0
  6
CONTINUOUS
 62
               3
  5
189
 10
-386.18571428571511
 20
-27.526312519872107
 30
0.0
 11
-267.18571428571511
 21
-27.526312519872107
 31
0.0
  0
LINE
  8
0
  6
CONTINUOUS
 62
               3
  5
18A
 10
-267.18571428571511
 20
-21.526312519872107
 30
0.0
 11
-386.18571428571511
 21
-21.526312519872107
 31
0.0
  0
LINE
  8
0
  6
CONTINUOUS
 62
               3
  5
18B
 10
-377.68571428571499
 20
19.473687480127893
 30
0.0
 11
-275.68571428571488
 21
19.473687480127893
 31
0.0
  0
LINE
  8
0
  6
CONTINUOUS
 62
               3
  5
18C
 10
-372.18571428571511
 20
19.473687480127893
 30
0.0
 11
-372.18571428571511
 21
-229.17380022246368
 31
0.0
  0
LINE
  8
0
  6
CONTINUOUS
 62
               3
  5
18D
 10
-281.18571428571516
 20
-229.173800222464
 30
0.0
 11
-281.18571428571516
 21
19.473687480127893
 31
0.0
  0
LINE
  8
0
  6
CONTINUOUS
 62
               3
  5
18E
 10
-386.18571428571511
 20
-27.526312519872107
 30
0.0
 11
-386.18571428571511
 21
-21.526312519872107
 31
0.0
  0
LINE
  8
0
  6
CONTINUOUS
 62
               3
  5
18F
 10
-267.18571428571511
 20
-27.526312519872107
 30
0.0
 11
-267.18571428571511
 21
-21.526312519872107
 31
0.0
  0
LINE
  8
0
  6
CONTINUOUS
 62
               3
  5
190
 10
-386.18571428571511
 20
-77.526312519872107
 30
0.0
 11
-267.18571428571511
 21
-77.526312519872107
 31
0.0
  0
LINE
  8
0
  6
CONTINUOUS
 62
               3
  5
191
 10
-267.18571428571511
 20
-71.526312519872107
 30
0.0
 11
-386.18571428571511
 21
-71.526312519872107
 31
0.0
  0
LINE
  8
0
  6
CONTINUOUS
 62
               3
  5
192
 10
-386.18571428571511
 20
-77.526312519872107
 30
0.0
 11
-386.18571428571511
 21
-71.526312519872107
 31
0.0
  0
LINE
  8
0
  6
CONTINUOUS
 62
               3
  5
193
 10
-267.18571428571511
 20
-77.526312519872107
 30
0.0
 11
-267.18571428571511
 21
-71.526312519872107
 31
0.0
  0
LINE
  8
0
  6
CONTINUOUS
 62
               3
  5
194
 10
-386.18571428571511
 20
-127.52631251987179
 30
0.0
 11
-267.18571428571511
 21
-127.52631251987179
 31
0.0
  0
LINE
  8
0
  6
CONTINUOUS
 62
               3
  5
195
 10
-267.18571428571511
 20
-121.52631251987211
 30
0.0
 11
-386.18571428571511
 21
-121.52631251987211
 31
0.0
  0
LINE
  8
0
  6
CONTINUOUS
 62
               3
  5
196
 10
-386.18571428571511
 20
-127.52631251987179
 30
0.0
 11
-386.18571428571511
 21
-121.52631251987211
 31
0.0
  0
LINE
  8
0
  6
CONTINUOUS
 62
               3
  5
197
 10
-267.18571428571511
 20
-127.52631251987179
 30
0.0
 11
-267.18571428571511
 21
-121.52631251987211
 31
0.0
  0
LINE
  8
0
  6
CONTINUOUS
 62
               3
  5
198
 10
-386.18571428571511
 20
-177.52631251987179
 30
0.0
 11
-267.18571428571511
 21
-177.52631251987179
 31
0.0
  0
LINE
  8
0
  6
CONTINUOUS
 62
               3
  5
199
 10
-267.18571428571511
 20
-171.52631251987191
 30
0.0
 11
-386.18571428571511
 21
-171.52631251987191
 31
0.0
  0
LINE
  8
0
  6
CONTINUOUS
 62
               3
  5
19A
 10
-386.18571428571511
 20
-177.52631251987179
 30
0.0
 11
-386.18571428571511
 21
-171.52631251987191
 31
0.0
  0
LINE
  8
0
  6
CONTINUOUS
 62
               3
  5
19B
 10
-267.18571428571511
 20
-177.52631251987179
 30
0.0
 11
-267.18571428571511
 21
-171.52631251987191
 31
0.0
  0
ARC
  8
0
  6
CONTINUOUS
 62
               3
  5
19C
 10
-389.18571428571511
 20
-229.17380022246368
 30
0.0
 40
17.0
 50
298.32977102166291
 51
359.99999999986164
  0
ARC
  8
0
  6
CONTINUOUS
 62
               3
  5
19D
 10
-264.18571428571511
 20
-229.173800222464
 30
0.0
 40
17.0
 50
179.99999999993119
 51
241.67022897812879
  0
LINE
  8
0
  6
CONTINUOUS
 62
               3
  5
19E
 10
-387.03097802578009
 20
-327.52631251987202
 30
0.0
 11
-230.75588603862661
 21
-327.52631251987202
 31
0.0
  0
LINE
  8
0
  6
CONTINUOUS
 62
               3
  5
19F
 10
-388.47620369114964
 20
-322.52631251987202
 30
0.0
 11
-235.17280998557976
 21
-322.52631251987202
 31
0.0
  0
LINE
  8
0
  6
CONTINUOUS
 62
               3
  5
1A0
 10
-347.24265157585052
 20
-447.52631251987202
 30
0.0
 11
-304.78856945854977
 21
-447.52631251987202
 31
0.0
  0
LINE
  8
0
  6
CONTINUOUS
 62
               3
  5
1A1
 10
-343.68571428571511
 20
-447.52631251987202
 30
0.0
 11
-343.68571428571511
 21
-477.52631251987202
 31
0.0
  0
LINE
  8
0
  6
CONTINUOUS
 62
               3
  5
1A2
 10
-309.68571428571511
 20
-477.52631251987202
 30
0.0
 11
-309.68571428571511
 21
-447.52631251987202
 31
0.0
  0
LINE
  8
0
  6
CONTINUOUS
 62
               3
  5
1A3
 10
-343.68571428571511
 20
-477.52631251987202
 30
0.0
 11
-309.68571428571511
 21
-477.52631251987202
 31
0.0
  0
LINE
  8
0
  6
CONTINUOUS
 62
               3
  5
1A4
 10
-331.68571428571511
 20
-447.52631251987202
 30
0.0
 11
-331.68571428571511
 21
-477.52631251987202
 31
0.0
  0
LINE
  8
0
  6
CONTINUOUS
 62
               3
  5
1A5
 10
-321.68571428571511
 20
-477.52631251987202
 30
0.0
 11
-321.68571428571511
 21
-447.52631251987202
 31
0.0
  0
LINE
  8
0
  6
CONTINUOUS
 62
               3
  5
1A6
 10
-347.24265157585052
 20
-447.52631251987202
 30
0.0
 11
-351.46409570621324
 21
-399.27498531664082
 31
0.0
  0
ARC
  8
0
  6
CONTINUOUS
 62
               3
  5
1A7
 10
391.31428571428569
 20
-427.52631251987174
 30
0.0
 40
90.0
 50
302.88320949568157
 51
359.99999999986164
  0
ARC
  8
0
  6
CONTINUOUS
 62
               3
  5
1A8
 10
391.31428571428569
 20
-518.02631251987168
 30
0.0
 40
14.0
 50
237.11679050411198
 51
302.88320949568163
  0
LINE
  8
0
  6
CONTINUOUS
 62
               3
  5
1A9
 10
383.71328844495224
 20
-529.78321859721973
 30
0.0
 11
342.45073183999864
 21
-503.10642301710925
 31
0.0
  0
LINE
  8
0
  6
CONTINUOUS
 62
               3
  5
1AA
 10
398.91528298361931
 20
-529.78321859721973
 30
0.0
 11
440.17783958857274
 21
-503.10642301710931
 31
0.0
  0
ARC
  8
0
  6
CONTINUOUS
 62
               3
  5
1AB
 10
469.68958475677732
 20
-382.27631251987168
 30
0.0
 40
14.0
 50
357.11679050406616
 51
422.8832094956349
  0
LINE
  8
0
  6
CONTINUOUS
 62
               3
  5
1AC
 10
483.67186272433509
 20
-382.98051621053685
 30
0.0
 11
481.20035836287184
 21
-432.05333624557517
 31
0.0
  0
LINE
  8
0
  6
CONTINUOUS
 62
               3
  5
1AD
 10
476.07086545500164
 20
-369.81520275185881
 30
0.0
 11
432.33680448858479
 21
-347.41917829693091
 31
0.0
  0
ARC
  8
0
  6
CONTINUOUS
 62
               3
  5
1AE
 10
312.93898667179405
 20
-382.27631251987168
 30
0.0
 40
14.0
 50
117.11679050415768
 51
182.88320949572744
  0
LINE
  8
0
  6
CONTINUOUS
 62
               3
  5
1AF
 10
306.55770597356974
 20
-369.81520275185864
 30
0.0
 11
350.29176693998676
 21
-347.41917829693091
 31
0.0
  0
LINE
  8
0
  6
CONTINUOUS
 62
               3
  5
1B0
 10
298.95670870423612
 20
-382.98051621053668
 30
0.0
 11
301.42821306569954
 21
-432.053336245575
 31
0.0
  0
ARC
  8
0
  6
CONTINUOUS
 62
               3
  5
1B1
 10
391.31428571428569
 20
-427.52631251987174
 30
0.0
 40
90.0
 50
179.99999999993119
 51
237.11679050411189
  0
ARC
  8
0
  6
CONTINUOUS
 62
               3
  5
1B2
 10
391.31428571428569
 20
-427.52631251987174
 30
0.0
 40
90.0
 50
62.883209495773364
 51
117.11679050415775
  0
CIRCLE
  8
0
  6
CONTINUOUS
 62
               3
  5
1B3
 10
391.31428571428569
 20
-427.52631251987174
 30
0.0
 40
71.5
  0
LINE
  8
0
  6
CONTINUOUS
 62
               3
  5
1B4
 10
321.81428571428569
 20
-362.00237390813413
 30
0.0
 11
321.81428571428569
 21
-254.22616048660552
 31
0.0
  0
LINE
  8
0
  6
CONTINUOUS
 62
               3
  5
1B5
 10
460.81428571428569
 20
-362.00237390813419
 30
0.0
 11
460.81428571428569
 21
-254.22616048660544
 31
0.0
  0
CIRCLE
  8
0
  6
CONTINUOUS
 62
               3
  5
1B6
 10
312.93898667179405
 20
-382.27631251987168
 30
0.0
 40
9.0
  0
CIRCLE
  8
0
  6
CONTINUOUS
 62
               3
  5
1B7
 10
469.68958475677732
 20
-382.27631251987168
 30
0.0
 40
9.0
  0
CIRCLE
  8
0
  6
CONTINUOUS
 62
               3
  5
1B8
 10
391.31428571428569
 20
-518.02631251987168
 30
0.0
 40
9.0
  0
ARC
  8
0
  6
CONTINUOUS
 62
               3
  5
1B9
 10
333.81535897806828
 20
-259.22358387444473
 30
0.0
 40
13.0
 50
109.45209668776734
 51
157.39243691857547
  0
LINE
  8
0
  6
CONTINUOUS
 62
               3
  5
1BA
 10
329.48611681542275
 20
-246.96562065467734
 30
0.0
 11
334.47560238851463
 21
-245.20344443292885
 31
0.0
  0
LINE
  8
0
  6
CONTINUOUS
 62
               3
  5
1BB
 10
324.81428571428648
 20
52.473687480128262
 30
0.0
 11
324.81428571428501
 21
38.47368748013406
 31
0.0
  0
LINE
  8
0
  6
CONTINUOUS
 62
               3
  5
1BC
 10
324.81428571428648
 20
52.473687480128262
 30
0.0
 11
457.81428571428489
 21
52.473687480128262
 31
0.0
  0
LINE
  8
0
  6
CONTINUOUS
 62
               3
  5
1BD
 10
324.81428571428501
 20
38.47368748013406
 30
0.0
 11
457.81428571428631
 21
38.473687480122464
 31
0.0
  0
LINE
  8
0
  6
CONTINUOUS
 62
               3
  5
1BE
 10
457.81428571428489
 20
52.473687480128262
 30
0.0
 11
457.81428571428631
 21
38.47368748012218
 31
0.0
  0
LINE
  8
0
  6
CONTINUOUS
 62
               3
  5
1BF
 10
457.81428571428569
 20
61.473687480128149
 30
0.0
 11
324.81428571428575
 21
61.473687480128149
 31
0.0
  0
LINE
  8
0
  6
CONTINUOUS
 62
               3
  5
1C0
 10
457.81428571428569
 20
75.473687480128262
 30
0.0
 11
324.81428571428575
 21
75.473687480128262
 31
0.0
  0
LINE
  8
0
  6
CONTINUOUS
 62
               3
  5
1C1
 10
457.81428571428569
 20
61.473687480128149
 30
0.0
 11
457.81428571428569
 21
75.473687480128262
 31
0.0
  0
LINE
  8
0
  6
CONTINUOUS
 62
               3
  5
1C2
 10
324.81428571428575
 20
75.473687480128262
 30
0.0
 11
324.81428571428575
 21
61.473687480128149
 31
0.0
  0
LINE
  8
0
  6
CONTINUOUS
 62
               3
  5
1C3
 10
340.3142857142858
 20
19.473687480128376
 30
0.0
 11
340.31428571428575
 21
38.473687480132583
 31
0.0
  0
LINE
  8
0
  6
CONTINUOUS
 62
               3
  5
1C4
 10
442.31428571428575
 20
19.473687480128262
 30
0.0
 11
442.31428571428575
 21
38.473687480123772
 31
0.0
  0
LINE
  8
0
  6
CONTINUOUS
 62
               3
  5
1C5
 10
340.31428571428569
 20
61.473687480128149
 30
0.0
 11
340.31428571428569
 21
52.473687480128262
 31
0.0
  0
LINE
  8
0
  6
CONTINUOUS
 62
               3
  5
1C6
 10
442.31428571428569
 20
52.473687480128262
 30
0.0
 11
442.31428571428569
 21
61.473687480128149
 31
0.0
  0
LINE
  8
0
  6
CONTINUOUS
 62
               3
  5
1C7
 10
442.31428571428575
 20
19.473687480128262
 30
0.0
 11
340.3142857142858
 21
19.473687480128376
 31
0.0
  0
LINE
  8
0
  6
CONTINUOUS
 62
               3
  5
1C8
 10
436.81428571428569
 20
19.473687480128376
 30
0.0
 11
436.81428571428569
 21
-229.17380022246363
 31
0.0
  0
LINE
  8
0
  6
CONTINUOUS
 62
               3
  5
1C9
 10
345.81428571428569
 20
19.473687480128376
 30
0.0
 11
345.81428571428575
 21
-229.17380022246374
 31
0.0
  0
LINE
  8
0
  6
CONTINUOUS
 62
               3
  5
1CA
 10
345.81428571428569
 20
-27.526312519871738
 30
0.0
 11
436.81428571428569
 21
-27.526312519871738
 31
0.0
  0
LINE
  8
0
  6
CONTINUOUS
 62
               3
  5
1CB
 10
436.81428571428569
 20
-21.526312519871738
 30
0.0
 11
345.81428571428569
 21
-21.526312519871738
 31
0.0
  0
LINE
  8
0
  6
CONTINUOUS
 62
               3
  5
1CC
 10
345.81428571428569
 20
-77.526312519871738
 30
0.0
 11
436.81428571428569
 21
-77.526312519871738
 31
0.0
  0
LINE
  8
0
  6
CONTINUOUS
 62
               3
  5
1CD
 10
436.81428571428569
 20
-71.526312519871738
 30
0.0
 11
345.81428571428569
 21
-71.526312519871738
 31
0.0
  0
LINE
  8
0
  6
CONTINUOUS
 62
               3
  5
1CE
 10
345.81428571428569
 20
-127.52631251987174
 30
0.0
 11
436.81428571428569
 21
-127.52631251987174
 31
0.0
  0
LINE
  8
0
  6
CONTINUOUS
 62
               3
  5
1CF
 10
436.81428571428569
 20
-121.52631251987174
 30
0.0
 11
345.81428571428569
 21
-121.52631251987174
 31
0.0
  0
LINE
  8
0
  6
CONTINUOUS
 62
               3
  5
1D0
 10
345.81428571428569
 20
-177.52631251987174
 30
0.0
 11
436.81428571428569
 21
-177.52631251987174
 31
0.0
  0
LINE
  8
0
  6
CONTINUOUS
 62
               3
  5
1D1
 10
436.81428571428569
 20
-171.52631251987174
 30
0.0
 11
345.81428571428569
 21
-171.52631251987174
 31
0.0
  0
ARC
  8
0
  6
CONTINUOUS
 62
               3
  5
1D2
 10
328.81428571428569
 20
-229.17380022246374
 30
0.0
 40
17.0
 50
289.45209668769849
 51
359.99999999986164
  0
ARC
  8
0
  6
CONTINUOUS
 62
               3
  5
1D3
 10
448.81321245050322
 20
-259.22358387444473
 30
0.0
 40
13.0
 50
22.607563081355817
 51
70.547903312163911
  0
LINE
  8
0
  6
CONTINUOUS
 62
               3
  5
1D4
 10
453.14245461314874
 20
-246.96562065467725
 30
0.0
 11
448.1529690400568
 21
-245.20344443292885
 31
0.0
  0
ARC
  8
0
  6
CONTINUOUS
 62
               3
  5
1D5
 10
453.81428571428575
 20
-229.17380022246363
 30
0.0
 40
17.0
 50
179.9999999999313
 51
250.54790331209531
  0
LINE
  8
0
  6
CONTINUOUS
 62
               3
  5
1D6
 10
321.81428571428569
 20
-327.52631251987174
 30
0.0
 11
460.81428571428569
 21
-327.52631251987174
 31
0.0
  0
LINE
  8
0
  6
CONTINUOUS
 62
               3
  5
1D7
 10
460.81428571428569
 20
-322.52631251987174
 30
0.0
 11
321.81428571428569
 21
-322.52631251987179
 31
0.0
  0
ENDSEC
  0
EOF
