  0
SECTION
  2
HEADER
  9
$ACADVER
  1
AC1009
  9
$INSBASE
 10
0.0
 20
0.0
 30
0.0
  9
$EXTMIN
 10
-453.70571428571532
 20
-590.37150007946036
 30
0.0
  9
$EXTMAX
 10
535.33428571428476
 20
649.57825301913783
 30
0.0
  9
$LIMMIN
 10
-484.61321428571534
 20
-629.11992986379153
  9
$LIMMAX
 10
566.24178571428479
 20
688.326682803469
  9
$ORTHOMODE
 70
               0
  9
$REGENMODE
 70
               1
  9
$FILLMODE
 70
               1
  9
$QTEXTMODE
 70
               0
  9
$MIRRTEXT
 70
               1
  9
$DRAGMODE
 70
               2
  9
$LTSCALE
 40
1.0
  9
$OSMODE
 70
               0
  9
$ATTMODE
 70
               1
  9
$TEXTSIZE
 40
0.2
  9
$TRACEWID
 40
0.05
  9
$TEXTSTYLE
  7
STANDARD
  9
$CLAYER
  8
0
  9
$CELTYPE
  6
CONTINUOUS
  9
$CECOLOR
 62
             256
  9
$DIMSCALE
 40
1.0
  9
$DIMASZ
 40
0.18
  9
$DIMEXO
 40
0.0625
  9
$DIMDLI
 40
0.38
  9
$DIMRND
 40
0.0
  9
$DIMDLE
 40
0.0
  9
$DIMEXE
 40
0.18
  9
$DIMTP
 40
0.0
  9
$DIMTM
 40
0.0
  9
$DIMTXT
 40
0.18
  9
$DIMCEN
 40
0.09
  9
$DIMTSZ
 40
0.0
  9
$DIMTOL
 70
               0
  9
$DIMLIM
 70
               0
  9
$DIMTIH
 70
               1
  9
$DIMTOH
 70
               1
  9
$DIMSE1
 70
               0
  9
$DIMSE2
 70
               0
  9
$DIMTAD
 70
               0
  9
$DIMZIN
 70
               0
  9
$DIMBLK
  1

  9
$DIMASO
 70
               1
  9
$DIMSHO
 70
               1
  9
$DIMPOST
  1

  9
$DIMAPOST
  1

  9
$DIMALT
 70
               0
  9
$DIMALTD
 70
               2
  9
$DIMALTF
 40
25.399999999999999
  9
$DIMLFAC
 40
1.0
  9
$DIMTOFL
 70
               0
  9
$DIMTVP
 40
0.0
  9
$DIMTIX
 70
               0
  9
$DIMSOXD
 70
               0
  9
$DIMSAH
 70
               0
  9
$DIMBLK1
  1

  9
$DIMBLK2
  1

  9
$DIMSTYLE
  2
STANDARD
  9
$DIMCLRD
 70
               0
  9
$DIMCLRE
 70
               0
  9
$DIMCLRT
 70
               0
  9
$DIMTFAC
 40
1.0
  9
$DIMGAP
 40
0.09
  9
$LUNITS
 70
               2
  9
$LUPREC
 70
               4
  9
$AXISMODE
 70
               0
  9
$AXISUNIT
 10
0.0
 20
0.0
  9
$SKETCHINC
 40
0.1
  9
$FILLETRAD
 40
0.0
  9
$AUNITS
 70
               0
  9
$AUPREC
 70
               0
  9
$MENU
  1
acad
  9
$ELEVATION
 40
0.0
  9
$PELEVATION
 40
0.0
  9
$THICKNESS
 40
0.0
  9
$LIMCHECK
 70
               0
  9
$BLIPMODE
 70
               1
  9
$CHAMFERA
 40
0.0
  9
$CHAMFERB
 40
0.0
  9
$SKPOLY
 70
               0
  9
$TDCREATE
 40
0.000000000
  9
$TDUPDATE
 40
0.000000000
  9
$TDINDWG
 40
0.0000000000
  9
$TDUSRTIMER
 40
0.0000000000
  9
$USRTIMER
 70
               1
  9
$ANGBASE
 50
0.0
  9
$ANGDIR
 70
               0
  9
$PDMODE
 70
               0
  9
$PDSIZE
 40
1.0
  9
$PLINEWID
 40
0.0
  9
$COORDS
 70
               1
  9
$SPLFRAME
 70
               0
  9
$SPLINETYPE
 70
               6
  9
$SPLINESEGS
 70
               8
  9
$ATTDIA
 70
               0
  9
$ATTREQ
 70
               1
  9
$HANDLING
 70
               1
  9
$HANDSEED
  5
1D6
  9
$SURFTAB1
 70
               6
  9
$SURFTAB2
 70
               6
  9
$SURFTYPE
 70
               6
  9
$SURFU
 70
               6
  9
$SURFV
 70
               6
  9
$UCSNAME
  2

  9
$UCSORG
 10
0.0
 20
0.0
 30
0.0
  9
$UCSXDIR
 10
1.0
 20
0.0
 30
0.0
  9
$UCSYDIR
 10
0.0
 20
1.0
 30
0.0
  9
$PUCSNAME
  2

  9
$PUCSORG
 10
0.0
 20
0.0
 30
0.0
  9
$PUCSXDIR
 10
1.0
 20
0.0
 30
0.0
  9
$PUCSYDIR
 10
0.0
 20
1.0
 30
0.0
  9
$USERI1
 70
               0
  9
$USERI2
 70
               0
  9
$USERI3
 70
               0
  9
$USERI4
 70
               0
  9
$USERI5
 70
               0
  9
$USERR1
 40
0.0
  9
$USERR2
 40
0.0
  9
$USERR3
 40
0.0
  9
$USERR4
 40
0.0
  9
$USERR5
 40
0.0
  9
$WORLDVIEW
 70
               1
  9
$SHADEDGE
 70
               3
  9
$SHADEDIF
 70
              70
  9
$TILEMODE
 70
               1
  9
$MAXACTVP
 70
              16
  9
$PINSBASE
 10
0.0
 20
0.0
 30
0.0
  9
$PLIMCHECK
 70
               0
  9
$PEXTMIN
 10
1.0000000000000000E+20
 20
1.0000000000000000E+20
 30
1.0000000000000000E+20
  9
$PEXTMAX
 10
-1.0000000000000000E+20
 20
-1.0000000000000000E+20
 30
-1.0000000000000000E+20
  9
$PLIMMIN
 10
0.0
 20
0.0
  9
$PLIMMAX
 10
12.0
 20
9.0
  9
$UNITMODE
 70
               0
  9
$VISRETAIN
 70
               0
  9
$PLINEGEN
 70
               1
  9
$PSLTSCALE
 70
               0
  9
$TREEDEPTH
 70
            3020
  9
$DWGCODEPAGE
  3
dos932
  0
ENDSEC
  0
SECTION
  2
TABLES
  0
TABLE
  2
VPORT
 70
               1
  0
VPORT
  2
*ACTIVE
 70
               0
 10
0.0
 20
0.0
 11
1.0
 21
1.0
 12
40.814285714284722
 22
29.603376469838736
 13
0.0
 23
0.0
 14
1.0
 24
1.0
 15
0.0
 25
0.0
 16
0.0
 26
0.0
 36
1.0
 17
0.0
 27
0.0
 37
0.0
 40
1317.4466126672605
 41
0.7976452251620826
 42
50.0
 43
0.0
 44
0.0
 50
0.0
 51
0.0
 71
               0
 72
             100
 73
               1
 74
               1
 75
               0
 76
               0
 77
               0
 78
               0
  0
ENDTAB
  0
TABLE
  2
LTYPE
 70
              26
  0
LTYPE
  2
CONTINUOUS
 70
               0
  3
Solid line
 72
              65
 73
               0
 40
0.0
  0
LTYPE
  2
HIDDENX2
 70
               0
  3
CADPAC FUSION LINETYPE
 72
              65
 73
               2
 40
80.0
 49
60.0
 49
-20.0
  0
LTYPE
  2
HIDDEN
 70
               0
  3
CADPAC FUSION LINETYPE
 72
              65
 73
               2
 40
60.0
 49
40.0
 49
-20.0
  0
LTYPE
  2
HIDDEN2
 70
               0
  3
CADPAC FUSION LINETYPE
 72
              65
 73
               2
 40
50.0
 49
30.0
 49
-20.0
  0
LTYPE
  2
DASHED
 70
               0
  3
CADPAC FUSION LINETYPE
 72
              65
 73
               2
 40
60.0
 49
40.0
 49
-20.0
  0
LTYPE
  2
DASHED2
 70
               0
  3
CADPAC FUSION LINETYPE
 72
              65
 73
               2
 40
45.0
 49
30.0
 49
-15.0
  0
LTYPE
  2
DASHEDX2
 70
               0
  3
CADPAC FUSION LINETYPE
 72
              65
 73
               2
 40
90.0
 49
60.0
 49
-30.0
  0
LTYPE
  2
DOTX2
 70
               0
  3
CADPAC FUSION LINETYPE
 72
              65
 73
               2
 40
25.0
 49
0.0
 49
-25.0
  0
LTYPE
  2
DOT
 70
               0
  3
CADPAC FUSION LINETYPE
 72
              65
 73
               2
 40
20.0
 49
0.0
 49
-20.0
  0
LTYPE
  2
DOTS
 70
               0
  3
CADPAC FUSION LINETYPE
 72
              65
 73
               2
 40
20.0
 49
0.0
 49
-20.0
  0
LTYPE
  2
DOT2
 70
               0
  3
CADPAC FUSION LINETYPE
 72
              65
 73
               2
 40
15.0
 49
0.0
 49
-15.0
  0
LTYPE
  2
CENTERX2
 70
               0
  3
CADPAC FUSION LINETYPE
 72
              65
 73
               4
 40
120.0
 49
50.0
 49
-25.0
 49
20.0
 49
-25.0
  0
LTYPE
  2
CENTER
 70
               0
  3
CADPAC FUSION LINETYPE
 72
              65
 73
               4
 40
92.0
 49
40.0
 49
-20.0
 49
12.0
 49
-20.0
  0
LTYPE
  2
CENTER2
 70
               0
  3
CADPAC FUSION LINETYPE
 72
              65
 73
               4
 40
64.0
 49
30.0
 49
-15.0
 49
4.0
 49
-15.0
  0
LTYPE
  2
DASHDOTX2
 70
               0
  3
CADPAC FUSION LINETYPE
 72
              65
 73
               4
 40
100.0
 49
50.0
 49
-25.0
 49
0.0
 49
-25.0
  0
LTYPE
  2
DASHDOT
 70
               0
  3
CADPAC FUSION LINETYPE
 72
              65
 73
               4
 40
80.0
 49
40.0
 49
-20.0
 49
0.0
 49
-20.0
  0
LTYPE
  2
DASHDOT2
 70
               0
  3
CADPAC FUSION LINETYPE
 72
              65
 73
               4
 40
60.0
 49
30.0
 49
-15.0
 49
0.0
 49
-15.0
  0
LTYPE
  2
DIVIDEX2
 70
               0
  3
CADPAC FUSION LINETYPE
 72
              65
 73
               6
 40
125.0
 49
50.0
 49
-25.0
 49
0.0
 49
-25.0
 49
0.0
 49
-25.0
  0
LTYPE
  2
DIVIDE
 70
               0
  3
CADPAC FUSION LINETYPE
 72
              65
 73
               6
 40
100.0
 49
40.0
 49
-20.0
 49
0.0
 49
-20.0
 49
0.0
 49
-20.0
  0
LTYPE
  2
DIVIDE2
 70
               0
  3
CADPAC FUSION LINETYPE
 72
              65
 73
               6
 40
75.0
 49
30.0
 49
-15.0
 49
0.0
 49
-15.0
 49
0.0
 49
-15.0
  0
LTYPE
  2
BORDERX2
 70
               0
  3
CADPAC FUSION LINETYPE
 72
              65
 73
               6
 40
175.0
 49
50.0
 49
-25.0
 49
50.0
 49
-25.0
 49
0.0
 49
-25.0
  0
LTYPE
  2
BORDER
 70
               0
  3
CADPAC FUSION LINETYPE
 72
              65
 73
               6
 40
140.0
 49
40.0
 49
-20.0
 49
40.0
 49
-20.0
 49
0.0
 49
-20.0
  0
LTYPE
  2
BORDER2
 70
               0
  3
CADPAC FUSION LINETYPE
 72
              65
 73
               6
 40
105.0
 49
30.0
 49
-15.0
 49
30.0
 49
-15.0
 49
0.0
 49
-15.0
  0
LTYPE
  2
PHANTOMX2
 70
               0
  3
CADPAC FUSION LINETYPE
 72
              65
 73
               6
 40
150.0
 49
50.0
 49
-20.0
 49
20.0
 49
-20.0
 49
20.0
 49
-20.0
  0
LTYPE
  2
PHANTOM
 70
               0
  3
CADPAC FUSION LINETYPE
 72
              65
 73
               6
 40
124.0
 49
40.0
 49
-20.0
 49
12.0
 49
-20.0
 49
12.0
 49
-20.0
  0
LTYPE
  2
PHANTOM2
 70
               0
  3
CADPAC FUSION LINETYPE
 72
              65
 73
               6
 40
106.0
 49
30.0
 49
-20.0
 49
8.0
 49
-20.0
 49
8.0
 49
-20.0
  0
ENDTAB
  0
TABLE
  2
LAYER
 70
             256
  0
LAYER
  2
0
 70
               0
 62
               7
  6
CONTINUOUS
  0
LAYER
  2
LAYER001
 70
               0
 62
               7
  6
CONTINUOUS
  0
LAYER
  2
LAYER002
 70
               0
 62
               7
  6
CONTINUOUS
  0
LAYER
  2
LAYER003
 70
               0
 62
               7
  6
CONTINUOUS
  0
LAYER
  2
LAYER004
 70
               0
 62
               7
  6
CONTINUOUS
  0
LAYER
  2
LAYER005
 70
               0
 62
               7
  6
CONTINUOUS
  0
LAYER
  2
LAYER006
 70
               0
 62
               7
  6
CONTINUOUS
  0
LAYER
  2
LAYER007
 70
               0
 62
               7
  6
CONTINUOUS
  0
LAYER
  2
LAYER008
 70
               0
 62
               7
  6
CONTINUOUS
  0
LAYER
  2
LAYER009
 70
               0
 62
               7
  6
CONTINUOUS
  0
LAYER
  2
LAYER010
 70
               0
 62
               7
  6
CONTINUOUS
  0
LAYER
  2
LAYER011
 70
               0
 62
               7
  6
CONTINUOUS
  0
LAYER
  2
LAYER012
 70
               0
 62
               7
  6
CONTINUOUS
  0
LAYER
  2
LAYER013
 70
               0
 62
               7
  6
CONTINUOUS
  0
LAYER
  2
LAYER014
 70
               0
 62
               7
  6
CONTINUOUS
  0
LAYER
  2
LAYER015
 70
               0
 62
               7
  6
CONTINUOUS
  0
LAYER
  2
LAYER016
 70
               0
 62
               7
  6
CONTINUOUS
  0
LAYER
  2
LAYER017
 70
               0
 62
               7
  6
CONTINUOUS
  0
LAYER
  2
LAYER018
 70
               0
 62
               7
  6
CONTINUOUS
  0
LAYER
  2
LAYER019
 70
               0
 62
               7
  6
CONTINUOUS
  0
LAYER
  2
LAYER020
 70
               0
 62
               7
  6
CONTINUOUS
  0
LAYER
  2
LAYER021
 70
               0
 62
               7
  6
CONTINUOUS
  0
LAYER
  2
LAYER022
 70
               0
 62
               7
  6
CONTINUOUS
  0
LAYER
  2
LAYER023
 70
               0
 62
               7
  6
CONTINUOUS
  0
LAYER
  2
LAYER024
 70
               0
 62
               7
  6
CONTINUOUS
  0
LAYER
  2
LAYER025
 70
               0
 62
               7
  6
CONTINUOUS
  0
LAYER
  2
LAYER026
 70
               0
 62
               7
  6
CONTINUOUS
  0
LAYER
  2
LAYER027
 70
               0
 62
               7
  6
CONTINUOUS
  0
LAYER
  2
LAYER028
 70
               0
 62
               7
  6
CONTINUOUS
  0
LAYER
  2
LAYER029
 70
               0
 62
               7
  6
CONTINUOUS
  0
LAYER
  2
LAYER030
 70
               0
 62
               7
  6
CONTINUOUS
  0
LAYER
  2
LAYER031
 70
               0
 62
               7
  6
CONTINUOUS
  0
LAYER
  2
LAYER032
 70
               0
 62
               7
  6
CONTINUOUS
  0
LAYER
  2
LAYER033
 70
               0
 62
               7
  6
CONTINUOUS
  0
LAYER
  2
LAYER034
 70
               0
 62
               7
  6
CONTINUOUS
  0
LAYER
  2
LAYER035
 70
               0
 62
               7
  6
CONTINUOUS
  0
LAYER
  2
LAYER036
 70
               0
 62
               7
  6
CONTINUOUS
  0
LAYER
  2
LAYER037
 70
               0
 62
               7
  6
CONTINUOUS
  0
LAYER
  2
LAYER038
 70
               0
 62
               7
  6
CONTINUOUS
  0
LAYER
  2
LAYER039
 70
               0
 62
               7
  6
CONTINUOUS
  0
LAYER
  2
LAYER040
 70
               0
 62
               7
  6
CONTINUOUS
  0
LAYER
  2
LAYER041
 70
               0
 62
               7
  6
CONTINUOUS
  0
LAYER
  2
LAYER042
 70
               0
 62
               7
  6
CONTINUOUS
  0
LAYER
  2
LAYER043
 70
               0
 62
               7
  6
CONTINUOUS
  0
LAYER
  2
LAYER044
 70
               0
 62
               7
  6
CONTINUOUS
  0
LAYER
  2
LAYER045
 70
               0
 62
               7
  6
CONTINUOUS
  0
LAYER
  2
LAYER046
 70
               0
 62
               7
  6
CONTINUOUS
  0
LAYER
  2
LAYER047
 70
               0
 62
               7
  6
CONTINUOUS
  0
LAYER
  2
LAYER048
 70
               0
 62
               7
  6
CONTINUOUS
  0
LAYER
  2
LAYER049
 70
               0
 62
               7
  6
CONTINUOUS
  0
LAYER
  2
LAYER050
 70
               0
 62
               7
  6
CONTINUOUS
  0
LAYER
  2
LAYER051
 70
               0
 62
               7
  6
CONTINUOUS
  0
LAYER
  2
LAYER052
 70
               0
 62
               7
  6
CONTINUOUS
  0
LAYER
  2
LAYER053
 70
               0
 62
               7
  6
CONTINUOUS
  0
LAYER
  2
LAYER054
 70
               0
 62
               7
  6
CONTINUOUS
  0
LAYER
  2
LAYER055
 70
               0
 62
               7
  6
CONTINUOUS
  0
LAYER
  2
LAYER056
 70
               0
 62
               7
  6
CONTINUOUS
  0
LAYER
  2
LAYER057
 70
               0
 62
               7
  6
CONTINUOUS
  0
LAYER
  2
LAYER058
 70
               0
 62
               7
  6
CONTINUOUS
  0
LAYER
  2
LAYER059
 70
               0
 62
               7
  6
CONTINUOUS
  0
LAYER
  2
LAYER060
 70
               0
 62
               7
  6
CONTINUOUS
  0
LAYER
  2
LAYER061
 70
               0
 62
               7
  6
CONTINUOUS
  0
LAYER
  2
LAYER062
 70
               0
 62
               7
  6
CONTINUOUS
  0
LAYER
  2
LAYER063
 70
               0
 62
               7
  6
CONTINUOUS
  0
LAYER
  2
LAYER064
 70
               0
 62
               7
  6
CONTINUOUS
  0
LAYER
  2
LAYER065
 70
               0
 62
               7
  6
CONTINUOUS
  0
LAYER
  2
LAYER066
 70
               0
 62
               7
  6
CONTINUOUS
  0
LAYER
  2
LAYER067
 70
               0
 62
               7
  6
CONTINUOUS
  0
LAYER
  2
LAYER068
 70
               0
 62
               7
  6
CONTINUOUS
  0
LAYER
  2
LAYER069
 70
               0
 62
               7
  6
CONTINUOUS
  0
LAYER
  2
LAYER070
 70
               0
 62
               7
  6
CONTINUOUS
  0
LAYER
  2
LAYER071
 70
               0
 62
               7
  6
CONTINUOUS
  0
LAYER
  2
LAYER072
 70
               0
 62
               7
  6
CONTINUOUS
  0
LAYER
  2
LAYER073
 70
               0
 62
               7
  6
CONTINUOUS
  0
LAYER
  2
LAYER074
 70
               0
 62
               7
  6
CONTINUOUS
  0
LAYER
  2
LAYER075
 70
               0
 62
               7
  6
CONTINUOUS
  0
LAYER
  2
LAYER076
 70
               0
 62
               7
  6
CONTINUOUS
  0
LAYER
  2
LAYER077
 70
               0
 62
               7
  6
CONTINUOUS
  0
LAYER
  2
LAYER078
 70
               0
 62
               7
  6
CONTINUOUS
  0
LAYER
  2
LAYER079
 70
               0
 62
               7
  6
CONTINUOUS
  0
LAYER
  2
LAYER080
 70
               0
 62
               7
  6
CONTINUOUS
  0
LAYER
  2
LAYER081
 70
               0
 62
               7
  6
CONTINUOUS
  0
LAYER
  2
LAYER082
 70
               0
 62
               7
  6
CONTINUOUS
  0
LAYER
  2
LAYER083
 70
               0
 62
               7
  6
CONTINUOUS
  0
LAYER
  2
LAYER084
 70
               0
 62
               7
  6
CONTINUOUS
  0
LAYER
  2
LAYER085
 70
               0
 62
               7
  6
CONTINUOUS
  0
LAYER
  2
LAYER086
 70
               0
 62
               7
  6
CONTINUOUS
  0
LAYER
  2
LAYER087
 70
               0
 62
               7
  6
CONTINUOUS
  0
LAYER
  2
LAYER088
 70
               0
 62
               7
  6
CONTINUOUS
  0
LAYER
  2
LAYER089
 70
               0
 62
               7
  6
CONTINUOUS
  0
LAYER
  2
LAYER090
 70
               0
 62
               7
  6
CONTINUOUS
  0
LAYER
  2
LAYER091
 70
               0
 62
               7
  6
CONTINUOUS
  0
LAYER
  2
LAYER092
 70
               0
 62
               7
  6
CONTINUOUS
  0
LAYER
  2
LAYER093
 70
               0
 62
               7
  6
CONTINUOUS
  0
LAYER
  2
LAYER094
 70
               0
 62
               7
  6
CONTINUOUS
  0
LAYER
  2
LAYER095
 70
               0
 62
               7
  6
CONTINUOUS
  0
LAYER
  2
LAYER096
 70
               0
 62
               7
  6
CONTINUOUS
  0
LAYER
  2
LAYER097
 70
               0
 62
               7
  6
CONTINUOUS
  0
LAYER
  2
LAYER098
 70
               0
 62
               7
  6
CONTINUOUS
  0
LAYER
  2
LAYER099
 70
               0
 62
               7
  6
CONTINUOUS
  0
LAYER
  2
LAYER100
 70
               0
 62
               7
  6
CONTINUOUS
  0
LAYER
  2
LAYER101
 70
               0
 62
               7
  6
CONTINUOUS
  0
LAYER
  2
LAYER102
 70
               0
 62
               7
  6
CONTINUOUS
  0
LAYER
  2
LAYER103
 70
               0
 62
               7
  6
CONTINUOUS
  0
LAYER
  2
LAYER104
 70
               0
 62
               7
  6
CONTINUOUS
  0
LAYER
  2
LAYER105
 70
               0
 62
               7
  6
CONTINUOUS
  0
LAYER
  2
LAYER106
 70
               0
 62
               7
  6
CONTINUOUS
  0
LAYER
  2
LAYER107
 70
               0
 62
               7
  6
CONTINUOUS
  0
LAYER
  2
LAYER108
 70
               0
 62
               7
  6
CONTINUOUS
  0
LAYER
  2
LAYER109
 70
               0
 62
               7
  6
CONTINUOUS
  0
LAYER
  2
LAYER110
 70
               0
 62
               7
  6
CONTINUOUS
  0
LAYER
  2
LAYER111
 70
               0
 62
               7
  6
CONTINUOUS
  0
LAYER
  2
LAYER112
 70
               0
 62
               7
  6
CONTINUOUS
  0
LAYER
  2
LAYER113
 70
               0
 62
               7
  6
CONTINUOUS
  0
LAYER
  2
LAYER114
 70
               0
 62
               7
  6
CONTINUOUS
  0
LAYER
  2
LAYER115
 70
               0
 62
               7
  6
CONTINUOUS
  0
LAYER
  2
LAYER116
 70
               0
 62
               7
  6
CONTINUOUS
  0
LAYER
  2
LAYER117
 70
               0
 62
               7
  6
CONTINUOUS
  0
LAYER
  2
LAYER118
 70
               0
 62
               7
  6
CONTINUOUS
  0
LAYER
  2
LAYER119
 70
               0
 62
               7
  6
CONTINUOUS
  0
LAYER
  2
LAYER120
 70
               0
 62
               7
  6
CONTINUOUS
  0
LAYER
  2
LAYER121
 70
               0
 62
               7
  6
CONTINUOUS
  0
LAYER
  2
LAYER122
 70
               0
 62
               7
  6
CONTINUOUS
  0
LAYER
  2
LAYER123
 70
               0
 62
               7
  6
CONTINUOUS
  0
LAYER
  2
LAYER124
 70
               0
 62
               7
  6
CONTINUOUS
  0
LAYER
  2
LAYER125
 70
               0
 62
               7
  6
CONTINUOUS
  0
LAYER
  2
LAYER126
 70
               0
 62
               7
  6
CONTINUOUS
  0
LAYER
  2
LAYER127
 70
               0
 62
               7
  6
CONTINUOUS
  0
LAYER
  2
LAYER128
 70
               0
 62
               7
  6
CONTINUOUS
  0
LAYER
  2
LAYER129
 70
               0
 62
               7
  6
CONTINUOUS
  0
LAYER
  2
LAYER130
 70
               0
 62
               7
  6
CONTINUOUS
  0
LAYER
  2
LAYER131
 70
               0
 62
               7
  6
CONTINUOUS
  0
LAYER
  2
LAYER132
 70
               0
 62
               7
  6
CONTINUOUS
  0
LAYER
  2
LAYER133
 70
               0
 62
               7
  6
CONTINUOUS
  0
LAYER
  2
LAYER134
 70
               0
 62
               7
  6
CONTINUOUS
  0
LAYER
  2
LAYER135
 70
               0
 62
               7
  6
CONTINUOUS
  0
LAYER
  2
LAYER136
 70
               0
 62
               7
  6
CONTINUOUS
  0
LAYER
  2
LAYER137
 70
               0
 62
               7
  6
CONTINUOUS
  0
LAYER
  2
LAYER138
 70
               0
 62
               7
  6
CONTINUOUS
  0
LAYER
  2
LAYER139
 70
               0
 62
               7
  6
CONTINUOUS
  0
LAYER
  2
LAYER140
 70
               0
 62
               7
  6
CONTINUOUS
  0
LAYER
  2
LAYER141
 70
               0
 62
               7
  6
CONTINUOUS
  0
LAYER
  2
LAYER142
 70
               0
 62
               7
  6
CONTINUOUS
  0
LAYER
  2
LAYER143
 70
               0
 62
               7
  6
CONTINUOUS
  0
LAYER
  2
LAYER144
 70
               0
 62
               7
  6
CONTINUOUS
  0
LAYER
  2
LAYER145
 70
               0
 62
               7
  6
CONTINUOUS
  0
LAYER
  2
LAYER146
 70
               0
 62
               7
  6
CONTINUOUS
  0
LAYER
  2
LAYER147
 70
               0
 62
               7
  6
CONTINUOUS
  0
LAYER
  2
LAYER148
 70
               0
 62
               7
  6
CONTINUOUS
  0
LAYER
  2
LAYER149
 70
               0
 62
               7
  6
CONTINUOUS
  0
LAYER
  2
LAYER150
 70
               0
 62
               7
  6
CONTINUOUS
  0
LAYER
  2
LAYER151
 70
               0
 62
               7
  6
CONTINUOUS
  0
LAYER
  2
LAYER152
 70
               0
 62
               7
  6
CONTINUOUS
  0
LAYER
  2
LAYER153
 70
               0
 62
               7
  6
CONTINUOUS
  0
LAYER
  2
LAYER154
 70
               0
 62
               7
  6
CONTINUOUS
  0
LAYER
  2
LAYER155
 70
               0
 62
               7
  6
CONTINUOUS
  0
LAYER
  2
LAYER156
 70
               0
 62
               7
  6
CONTINUOUS
  0
LAYER
  2
LAYER157
 70
               0
 62
               7
  6
CONTINUOUS
  0
LAYER
  2
LAYER158
 70
               0
 62
               7
  6
CONTINUOUS
  0
LAYER
  2
LAYER159
 70
               0
 62
               7
  6
CONTINUOUS
  0
LAYER
  2
LAYER160
 70
               0
 62
               7
  6
CONTINUOUS
  0
LAYER
  2
LAYER161
 70
               0
 62
               7
  6
CONTINUOUS
  0
LAYER
  2
LAYER162
 70
               0
 62
               7
  6
CONTINUOUS
  0
LAYER
  2
LAYER163
 70
               0
 62
               7
  6
CONTINUOUS
  0
LAYER
  2
LAYER164
 70
               0
 62
               7
  6
CONTINUOUS
  0
LAYER
  2
LAYER165
 70
               0
 62
               7
  6
CONTINUOUS
  0
LAYER
  2
LAYER166
 70
               0
 62
               7
  6
CONTINUOUS
  0
LAYER
  2
LAYER167
 70
               0
 62
               7
  6
CONTINUOUS
  0
LAYER
  2
LAYER168
 70
               0
 62
               7
  6
CONTINUOUS
  0
LAYER
  2
LAYER169
 70
               0
 62
               7
  6
CONTINUOUS
  0
LAYER
  2
LAYER170
 70
               0
 62
               7
  6
CONTINUOUS
  0
LAYER
  2
LAYER171
 70
               0
 62
               7
  6
CONTINUOUS
  0
LAYER
  2
LAYER172
 70
               0
 62
               7
  6
CONTINUOUS
  0
LAYER
  2
LAYER173
 70
               0
 62
               7
  6
CONTINUOUS
  0
LAYER
  2
LAYER174
 70
               0
 62
               7
  6
CONTINUOUS
  0
LAYER
  2
LAYER175
 70
               0
 62
               7
  6
CONTINUOUS
  0
LAYER
  2
LAYER176
 70
               0
 62
               7
  6
CONTINUOUS
  0
LAYER
  2
LAYER177
 70
               0
 62
               7
  6
CONTINUOUS
  0
LAYER
  2
LAYER178
 70
               0
 62
               7
  6
CONTINUOUS
  0
LAYER
  2
LAYER179
 70
               0
 62
               7
  6
CONTINUOUS
  0
LAYER
  2
LAYER180
 70
               0
 62
               7
  6
CONTINUOUS
  0
LAYER
  2
LAYER181
 70
               0
 62
               7
  6
CONTINUOUS
  0
LAYER
  2
LAYER182
 70
               0
 62
               7
  6
CONTINUOUS
  0
LAYER
  2
LAYER183
 70
               0
 62
               7
  6
CONTINUOUS
  0
LAYER
  2
LAYER184
 70
               0
 62
               7
  6
CONTINUOUS
  0
LAYER
  2
LAYER185
 70
               0
 62
               7
  6
CONTINUOUS
  0
LAYER
  2
LAYER186
 70
               0
 62
               7
  6
CONTINUOUS
  0
LAYER
  2
LAYER187
 70
               0
 62
               7
  6
CONTINUOUS
  0
LAYER
  2
LAYER188
 70
               0
 62
               7
  6
CONTINUOUS
  0
LAYER
  2
LAYER189
 70
               0
 62
               7
  6
CONTINUOUS
  0
LAYER
  2
LAYER190
 70
               0
 62
               7
  6
CONTINUOUS
  0
LAYER
  2
LAYER191
 70
               0
 62
               7
  6
CONTINUOUS
  0
LAYER
  2
LAYER192
 70
               0
 62
               7
  6
CONTINUOUS
  0
LAYER
  2
LAYER193
 70
               0
 62
               7
  6
CONTINUOUS
  0
LAYER
  2
LAYER194
 70
               0
 62
               7
  6
CONTINUOUS
  0
LAYER
  2
LAYER195
 70
               0
 62
               7
  6
CONTINUOUS
  0
LAYER
  2
LAYER196
 70
               0
 62
               7
  6
CONTINUOUS
  0
LAYER
  2
LAYER197
 70
               0
 62
               7
  6
CONTINUOUS
  0
LAYER
  2
LAYER198
 70
               0
 62
               7
  6
CONTINUOUS
  0
LAYER
  2
LAYER199
 70
               0
 62
               7
  6
CONTINUOUS
  0
LAYER
  2
LAYER200
 70
               0
 62
               7
  6
CONTINUOUS
  0
LAYER
  2
LAYER201
 70
               0
 62
               7
  6
CONTINUOUS
  0
LAYER
  2
LAYER202
 70
               0
 62
               7
  6
CONTINUOUS
  0
LAYER
  2
LAYER203
 70
               0
 62
               7
  6
CONTINUOUS
  0
LAYER
  2
LAYER204
 70
               0
 62
               7
  6
CONTINUOUS
  0
LAYER
  2
LAYER205
 70
               0
 62
               7
  6
CONTINUOUS
  0
LAYER
  2
LAYER206
 70
               0
 62
               7
  6
CONTINUOUS
  0
LAYER
  2
LAYER207
 70
               0
 62
               7
  6
CONTINUOUS
  0
LAYER
  2
LAYER208
 70
               0
 62
               7
  6
CONTINUOUS
  0
LAYER
  2
LAYER209
 70
               0
 62
               7
  6
CONTINUOUS
  0
LAYER
  2
LAYER210
 70
               0
 62
               7
  6
CONTINUOUS
  0
LAYER
  2
LAYER211
 70
               0
 62
               7
  6
CONTINUOUS
  0
LAYER
  2
LAYER212
 70
               0
 62
               7
  6
CONTINUOUS
  0
LAYER
  2
LAYER213
 70
               0
 62
               7
  6
CONTINUOUS
  0
LAYER
  2
LAYER214
 70
               0
 62
               7
  6
CONTINUOUS
  0
LAYER
  2
LAYER215
 70
               0
 62
               7
  6
CONTINUOUS
  0
LAYER
  2
LAYER216
 70
               0
 62
               7
  6
CONTINUOUS
  0
LAYER
  2
LAYER217
 70
               0
 62
               7
  6
CONTINUOUS
  0
LAYER
  2
LAYER218
 70
               0
 62
               7
  6
CONTINUOUS
  0
LAYER
  2
LAYER219
 70
               0
 62
               7
  6
CONTINUOUS
  0
LAYER
  2
LAYER220
 70
               0
 62
               7
  6
CONTINUOUS
  0
LAYER
  2
LAYER221
 70
               0
 62
               7
  6
CONTINUOUS
  0
LAYER
  2
LAYER222
 70
               0
 62
               7
  6
CONTINUOUS
  0
LAYER
  2
LAYER223
 70
               0
 62
               7
  6
CONTINUOUS
  0
LAYER
  2
LAYER224
 70
               0
 62
               7
  6
CONTINUOUS
  0
LAYER
  2
LAYER225
 70
               0
 62
               7
  6
CONTINUOUS
  0
LAYER
  2
LAYER226
 70
               0
 62
               7
  6
CONTINUOUS
  0
LAYER
  2
LAYER227
 70
               0
 62
               7
  6
CONTINUOUS
  0
LAYER
  2
LAYER228
 70
               0
 62
               7
  6
CONTINUOUS
  0
LAYER
  2
LAYER229
 70
               0
 62
               7
  6
CONTINUOUS
  0
LAYER
  2
LAYER230
 70
               0
 62
               7
  6
CONTINUOUS
  0
LAYER
  2
LAYER231
 70
               0
 62
               7
  6
CONTINUOUS
  0
LAYER
  2
LAYER232
 70
               0
 62
               7
  6
CONTINUOUS
  0
LAYER
  2
LAYER233
 70
               0
 62
               7
  6
CONTINUOUS
  0
LAYER
  2
LAYER234
 70
               0
 62
               7
  6
CONTINUOUS
  0
LAYER
  2
LAYER235
 70
               0
 62
               7
  6
CONTINUOUS
  0
LAYER
  2
LAYER236
 70
               0
 62
               7
  6
CONTINUOUS
  0
LAYER
  2
LAYER237
 70
               0
 62
               7
  6
CONTINUOUS
  0
LAYER
  2
LAYER238
 70
               0
 62
               7
  6
CONTINUOUS
  0
LAYER
  2
LAYER239
 70
               0
 62
               7
  6
CONTINUOUS
  0
LAYER
  2
LAYER240
 70
               0
 62
               7
  6
CONTINUOUS
  0
LAYER
  2
LAYER241
 70
               0
 62
               7
  6
CONTINUOUS
  0
LAYER
  2
LAYER242
 70
               0
 62
               7
  6
CONTINUOUS
  0
LAYER
  2
LAYER243
 70
               0
 62
               7
  6
CONTINUOUS
  0
LAYER
  2
LAYER244
 70
               0
 62
               7
  6
CONTINUOUS
  0
LAYER
  2
LAYER245
 70
               0
 62
               7
  6
CONTINUOUS
  0
LAYER
  2
LAYER246
 70
               0
 62
               7
  6
CONTINUOUS
  0
LAYER
  2
LAYER247
 70
               0
 62
               7
  6
CONTINUOUS
  0
LAYER
  2
LAYER248
 70
               0
 62
               7
  6
CONTINUOUS
  0
LAYER
  2
LAYER249
 70
               0
 62
               7
  6
CONTINUOUS
  0
LAYER
  2
LAYER250
 70
               0
 62
               7
  6
CONTINUOUS
  0
LAYER
  2
LAYER251
 70
               0
 62
               7
  6
CONTINUOUS
  0
LAYER
  2
LAYER252
 70
               0
 62
               7
  6
CONTINUOUS
  0
LAYER
  2
LAYER253
 70
               0
 62
               7
  6
CONTINUOUS
  0
LAYER
  2
LAYER254
 70
               0
 62
               7
  6
CONTINUOUS
  0
LAYER
  2
LAYER255
 70
               0
 62
               7
  6
CONTINUOUS
  0
ENDTAB
  0
TABLE
  2
STYLE
 70
               1
  0
STYLE
  2
STANDARD
 70
               0
 40
0.0
 41
1.0
 50
0.0
 71
               0
 42
0.0
  3
txt
  4

  0
ENDTAB
  0
TABLE
  2
VIEW
 70
               0
  0
VIEW
  2
QQQQ
 70
               0
 40
1317.4466126672605
 10
40.814285714284722
 20
29.603376469838736
 41
1050.855
 11
0.0
 21
0.0
 31
1.0
 12
100.0
 22
100.0
 32
0.0
 42
50.0
 43
0.0
 44
0.0
 50
0.0
 71
               0
  0
ENDTAB
  0
TABLE
  2
UCS
 70
               0
  0
ENDTAB
  0
TABLE
  2
APPID
 70
               1
  0
APPID
  2
ACAD
 70
               0
  0
ENDTAB
  0
TABLE
  2
DIMSTYLE
 70
               1
  0
DIMSTYLE
  2
STANDARD
 70
               0
  3

  4

  5

  6

  7

 40
1.0
 41
0.18
 42
0.0625
 43
0.38
 44
0.18
 45
0.0
 46
0.0
 47
0.0
 48
0.0
140
0.18
141
0.09
142
0.0
143
25.399999999999999
144
1.0
145
0.0
146
1.0
147
0.09
 71
               0
 72
               0
 73
               1
 74
               1
 75
               0
 76
               0
 77
               0
 78
               0
170
               0
171
               2
172
               0
173
               0
174
               0
175
               0
176
               0
177
               0
178
               0
  0
ENDTAB
  0
ENDSEC
  0
SECTION
  2
BLOCKS
  0
ENDSEC
  0
SECTION
  2
ENTITIES
  0
POINT
  8
0
  6
CONTINUOUS
 62
               7
  5
136
 10
-326.68571428571511
 20
-427.52631251987202
 30
0.0
  0
POINT
  8
0
  6
CONTINUOUS
 62
               7
  5
137
 10
-326.68571428571516
 20
520.73306545954688
 30
0.0
  0
POINT
  8
0
  6
CONTINUOUS
 62
               7
  5
138
 10
-326.68571428571516
 20
-427.52631251987196
 30
0.0
  0
POINT
  8
0
  6
CONTINUOUS
 62
               7
  5
139
 10
391.31428571428569
 20
-427.52631251987174
 30
0.0
  0
POINT
  8
0
  6
CONTINUOUS
 62
               7
  5
13A
 10
-326.68571428571511
 20
-427.52631251987202
 30
0.0
  0
LINE
  8
0
  6
DASHDOT
 62
               4
  5
13B
 10
-434.68571428571533
 20
520.73306545954688
 30
0.0
 11
-33.685714285715108
 21
520.73306545954688
 31
0.0
  0
LINE
  8
0
  6
DASHDOT
 62
               4
  5
13C
 10
-326.68571428571516
 20
621.73306545954676
 30
0.0
 11
-326.68571428571516
 21
419.73306545954676
 31
0.0
  0
LINE
  8
0
  6
DASHDOT
 62
               4
  5
13D
 10
-354.41989054964904
 20
-427.52631251987202
 30
0.0
 11
-33.685714285715108
 21
-427.52631251987174
 31
0.0
  0
LINE
  8
0
  6
DASHDOT
 62
               4
  5
13E
 10
-326.68571428571511
 20
134.51139804980809
 30
0.0
 11
-326.68571428571505
 21
-497.5990462940872
 31
0.0
  0
ARC
  8
0
  6
DASHDOT
 62
               4
  5
13F
 10
-139.66106533240895
 20
-240.52631251987074
 30
0.0
 40
187.0
 50
179.99999999993119
 51
269.99999999989683
  0
LINE
  8
0
  6
DASHDOT
 62
               4
  5
140
 10
391.31428571428569
 20
140.62877123394588
 30
0.0
 11
391.31428571428569
 21
-566.52631251987191
 31
0.0
  0
LINE
  8
0
  6
DASHDOT
 62
               4
  5
141
 10
266.3142857142866
 20
-427.52631251987174
 30
0.0
 11
516.31428571428478
 21
-427.52631251987174
 31
0.0
  0
LINE
  8
0
  6
DASHED
 62
               4
  5
142
 10
-129.68571428571514
 20
603.23306545954688
 30
0.0
 11
-129.68571428571514
 21
438.23306545954688
 31
0.0
  0
LINE
  8
0
  6
DASHED
 62
               4
  5
143
 10
-129.68571428571505
 20
-345.02631251987196
 30
0.0
 11
-129.68571428571505
 21
-510.02631251987191
 31
0.0
  0
LINE
  8
0
  6
DASHED
 62
               4
  5
144
 10
-390.96059580230263
 20
51.473687480127836
 30
0.0
 11
-260.51035883547809
 21
51.473687480127836
 31
0.0
  0
LINE
  8
0
  6
DASHED
 62
               4
  5
145
 10
327.0394041976981
 20
51.473687480128149
 30
0.0
 11
457.4896411645226
 21
51.473687480128149
 31
0.0
  0
LINE
  8
0
  6
CONTINUOUS
 62
               3
  5
146
 10
-267.05087619518093
 20
601.73306545954676
 30
0.0
 11
-134.68571428571516
 21
601.73306545954676
 31
0.0
  0
LINE
  8
0
  6
CONTINUOUS
 62
               3
  5
147
 10
-267.05087619518099
 20
439.73306545954676
 30
0.0
 11
-134.68571428571516
 21
439.73306545954676
 31
0.0
  0
LINE
  8
0
  6
CONTINUOUS
 62
               3
  5
148
 10
-90.685714285715108
 20
625.73306545954722
 30
0.0
 11
-90.685714285715108
 21
415.73306545954728
 31
0.0
  0
LINE
  8
0
  6
CONTINUOUS
 62
               3
  5
149
 10
-134.68571428571516
 20
611.23306545954699
 30
0.0
 11
-108.68571428571593
 21
611.23306545954586
 31
0.0
  0
LINE
  8
0
  6
CONTINUOUS
 62
               3
  5
14A
 10
-108.68571428571713
 20
415.73306545954574
 30
0.0
 11
-108.68571428571525
 21
625.73306545954574
 31
0.0
  0
LINE
  8
0
  6
CONTINUOUS
 62
               3
  5
14B
 10
-134.68571428571516
 20
430.23306545954659
 30
0.0
 11
-108.68571428571764
 21
430.23306545954745
 31
0.0
  0
LINE
  8
0
  6
CONTINUOUS
 62
               3
  5
14C
 10
-108.68571428571713
 20
415.73306545954574
 30
0.0
 11
-90.685714285715108
 21
415.73306545954728
 31
0.0
  0
LINE
  8
0
  6
CONTINUOUS
 62
               3
  5
14D
 10
-58.685714285715108
 20
625.73306545954688
 30
0.0
 11
-77.685714285714937
 21
625.7330654595479
 31
0.0
  0
LINE
  8
0
  6
CONTINUOUS
 62
               3
  5
14E
 10
-90.685714285715108
 20
625.73306545954847
 30
0.0
 11
-108.68571428571524
 21
625.73306545954938
 31
0.0
  0
LINE
  8
0
  6
CONTINUOUS
 62
               3
  5
14F
 10
-58.685714285715108
 20
415.73306545954688
 30
0.0
 11
-77.685714285715221
 21
415.73306545954716
 31
0.0
  0
LINE
  8
0
  6
CONTINUOUS
 62
               3
  5
150
 10
-77.685714285714937
 20
625.73306545954711
 30
0.0
 11
-77.685714285715221
 21
415.73306545954716
 31
0.0
  0
LINE
  8
0
  6
CONTINUOUS
 62
               3
  5
151
 10
-58.685714285715108
 20
415.73306545954688
 30
0.0
 11
-58.685714285715108
 21
625.73306545954688
 31
0.0
  0
LINE
  8
0
  6
CONTINUOUS
 62
               3
  5
152
 10
-134.68571428571516
 20
611.23306545954699
 30
0.0
 11
-134.68571428571516
 21
430.23306545954659
 31
0.0
  0
ARC
  8
0
  6
CONTINUOUS
 62
               3
  5
153
 10
-326.68571428571516
 20
520.73306545954688
 30
0.0
 40
90.0
 50
212.88320949571596
 51
269.99999999989683
  0
CIRCLE
  8
0
  6
CONTINUOUS
 62
               3
  5
154
 10
-326.68571428571516
 20
520.73306545954688
 30
0.0
 40
71.5
  0
ARC
  8
0
  6
CONTINUOUS
 62
               3
  5
155
 10
-417.18571428571511
 20
520.73306545954688
 30
0.0
 40
14.0
 50
147.11679050414685
 51
212.88320949571593
  0
ARC
  8
0
  6
CONTINUOUS
 62
               3
  5
156
 10
-281.43571428571511
 20
599.10836450203851
 30
0.0
 40
14.0
 50
27.116790504192068
 51
89.999999999965581
  0
ARC
  8
0
  6
CONTINUOUS
 62
               3
  5
157
 10
-281.43571428571511
 20
442.35776641705519
 30
0.0
 40
14.0
 50
269.99999999989683
 51
332.88320949566992
  0
LINE
  8
0
  6
CONTINUOUS
 62
               3
  5
158
 10
-428.94262036306321
 20
513.13206819021332
 30
0.0
 11
-402.26582478295273
 21
471.86951158525972
 31
0.0
  0
LINE
  8
0
  6
CONTINUOUS
 62
               3
  5
159
 10
-428.94262036306321
 20
528.33406272888033
 30
0.0
 11
-402.26582478295273
 21
569.59661933383393
 31
0.0
  0
LINE
  8
0
  6
CONTINUOUS
 62
               3
  5
15A
 10
-331.21273801141837
 20
610.61913810813303
 30
0.0
 11
-282.13991797638005
 21
613.09064246959633
 31
0.0
  0
LINE
  8
0
  6
CONTINUOUS
 62
               3
  5
15B
 10
-246.57858006277419
 20
561.75558423384598
 30
0.0
 11
-268.97460451770212
 21
605.48964520026277
 31
0.0
  0
LINE
  8
0
  6
CONTINUOUS
 62
               3
  5
15C
 10
-246.57858006277419
 20
479.71054668524772
 30
0.0
 11
-268.97460451770212
 21
435.97648571883087
 31
0.0
  0
LINE
  8
0
  6
CONTINUOUS
 62
               3
  5
15D
 10
-331.21273801141854
 20
430.84699281096061
 30
0.0
 11
-282.1399179763801
 21
428.37548844949731
 31
0.0
  0
ARC
  8
0
  6
CONTINUOUS
 62
               3
  5
15E
 10
-326.68571428571516
 20
520.73306545954688
 30
0.0
 40
90.0
 50
89.999999999965567
 51
147.11679050414639
  0
ARC
  8
0
  6
CONTINUOUS
 62
               3
  5
15F
 10
-326.68571428571516
 20
520.73306545954688
 30
0.0
 40
90.0
 50
332.88320949566997
 51
387.11679050405388
  0
CIRCLE
  8
0
  6
CONTINUOUS
 62
               3
  5
160
 10
-417.18571428571511
 20
520.73306545954688
 30
0.0
 40
7.5
  0
CIRCLE
  8
0
  6
CONTINUOUS
 62
               3
  5
161
 10
-281.43571428571511
 20
599.10836450203851
 30
0.0
 40
7.5
  0
CIRCLE
  8
0
  6
CONTINUOUS
 62
               3
  5
162
 10
-281.43571428571511
 20
442.35776641705519
 30
0.0
 40
7.5
  0
LINE
  8
0
  6
CONTINUOUS
 62
               3
  5
163
 10
-77.685714285714937
 20
616.23306545954676
 30
0.0
 11
-90.685714285715108
 21
616.23306545954665
 31
0.0
  0
LINE
  8
0
  6
CONTINUOUS
 62
               3
  5
164
 10
-90.685714285715108
 20
425.23306545954671
 30
0.0
 11
-77.685714285714937
 21
425.23306545954676
 31
0.0
  0
ARC
  8
0
  6
CONTINUOUS
 62
               3
  5
165
 10
-139.66106533240895
 20
-240.52631251987074
 30
0.0
 40
106.0
 50
187.876847092784
 51
269.99999999989683
  0
ARC
  8
0
  6
CONTINUOUS
 62
               3
  5
166
 10
-257.53829116289415
 20
-256.83458129705025
 30
0.0
 40
13.0
 50
7.8768470928528398
 51
48.963875388830772
  0
ARC
  8
0
  6
CONTINUOUS
 62
               3
  5
167
 10
-139.66106533240895
 20
-240.52631251987074
 30
0.0
 40
269.99999999999989
 50
183.75335159758092
 51
269.99999999989683
  0
ARC
  8
0
  6
CONTINUOUS
 62
               3
  5
168
 10
-396.10982492289236
 20
-257.34991809365863
 30
0.0
 40
13.0
 50
130.36159748966807
 51
183.75335159758095
  0
LINE
  8
0
  6
CONTINUOUS
 62
               3
  5
169
 10
-134.69366122798493
 20
-337.02631251987066
 30
0.0
 11
-108.82052249456366
 21
-337.02631251987066
 31
0.0
  0
LINE
  8
0
  6
CONTINUOUS
 62
               3
  5
16A
 10
-108.82052249456366
 20
-546.52631251987043
 30
0.0
 11
-90.685714285715051
 21
-546.52631251987054
 31
0.0
  0
LINE
  8
0
  6
CONTINUOUS
 62
               3
  5
16B
 10
-108.82052249456366
 20
-323.02631251986992
 30
0.0
 11
-90.685714285715051
 21
-323.0263125198714
 31
0.0
  0
LINE
  8
0
  6
CONTINUOUS
 62
               3
  5
16C
 10
-134.69366122798522
 20
-518.02631251987088
 30
0.0
 11
-108.82052249456366
 21
-518.02631251987032
 31
0.0
  0
LINE
  8
0
  6
CONTINUOUS
 62
               3
  5
16D
 10
-108.82052249456366
 20
-323.02631251986992
 30
0.0
 11
-108.82052249456366
 21
-546.52631251987043
 31
0.0
  0
LINE
  8
0
  6
CONTINUOUS
 62
               3
  5
16E
 10
-90.685714285715051
 20
-546.52631251987054
 30
0.0
 11
-90.685714285715051
 21
-323.0263125198714
 31
0.0
  0
LINE
  8
0
  6
CONTINUOUS
 62
               3
  5
16F
 10
-77.685714285714653
 20
-332.02631251987231
 30
0.0
 11
-90.685714285715051
 21
-332.02631251987123
 31
0.0
  0
LINE
  8
0
  6
CONTINUOUS
 62
               3
  5
170
 10
-77.685714285714653
 20
-523.02631251987236
 30
0.0
 11
-90.685714285715051
 21
-523.02631251987134
 31
0.0
  0
LINE
  8
0
  6
CONTINUOUS
 62
               3
  5
171
 10
-58.685714285714539
 20
-323.02631251987316
 30
0.0
 11
-77.685714285714653
 21
-323.0263125198727
 31
0.0
  0
LINE
  8
0
  6
CONTINUOUS
 62
               3
  5
172
 10
-58.685714285715051
 20
-546.52631251987327
 30
0.0
 11
-77.685714285715164
 21
-546.52631251987282
 31
0.0
  0
LINE
  8
0
  6
CONTINUOUS
 62
               3
  5
173
 10
-77.685714285714653
 20
-323.0263125198727
 30
0.0
 11
-77.685714285715164
 21
-546.52631251987282
 31
0.0
  0
LINE
  8
0
  6
CONTINUOUS
 62
               3
  5
174
 10
-58.685714285715051
 20
-546.52631251987327
 30
0.0
 11
-58.685714285714539
 21
-323.02631251987316
 31
0.0
  0
LINE
  8
0
  6
CONTINUOUS
 62
               3
  5
175
 10
-134.69366122798493
 20
-337.02631251987066
 30
0.0
 11
-134.69366122798493
 21
-518.02631251987088
 31
0.0
  0
LINE
  8
0
  6
CONTINUOUS
 62
               3
  5
176
 10
-139.66106533240901
 20
-346.52631251987077
 30
0.0
 11
-134.69366122798493
 21
-346.52631251987077
 31
0.0
  0
LINE
  8
0
  6
CONTINUOUS
 62
               3
  5
177
 10
-139.66106533240912
 20
-510.52631251987066
 30
0.0
 11
-134.69366122798493
 21
-510.52631251987066
 31
0.0
  0
LINE
  8
0
  6
CONTINUOUS
 62
               3
  5
178
 10
-236.6857142857113
 20
82.473687480127836
 30
0.0
 11
-431.18571428571551
 21
82.473687480128063
 31
0.0
  0
LINE
  8
0
  6
CONTINUOUS
 62
               3
  5
179
 10
-236.68571428571562
 20
64.473687480126927
 30
0.0
 11
-236.6857142857113
 21
82.473687480127836
 31
0.0
  0
LINE
  8
0
  6
CONTINUOUS
 62
               3
  5
17A
 10
-431.18571428571965
 20
64.473687480128063
 30
0.0
 11
-431.18571428571551
 21
82.473687480128063
 31
0.0
  0
LINE
  8
0
  6
CONTINUOUS
 62
               3
  5
17B
 10
-236.68571428571562
 20
64.473687480126927
 30
0.0
 11
-431.18571428571965
 21
64.473687480128063
 31
0.0
  0
LINE
  8
0
  6
CONTINUOUS
 62
               3
  5
17C
 10
-245.68571428571516
 20
95.473687480127722
 30
0.0
 11
-245.68571428571516
 21
82.473687480127836
 31
0.0
  0
LINE
  8
0
  6
CONTINUOUS
 62
               3
  5
17D
 10
-407.68571428571494
 20
95.473687480127722
 30
0.0
 11
-407.68571428571494
 21
82.473687480127836
 31
0.0
  0
LINE
  8
0
  6
CONTINUOUS
 62
               3
  5
17E
 10
-236.6857142857157
 20
114.47368748012795
 30
0.0
 11
-236.68571428571528
 21
95.473687480127722
 31
0.0
  0
LINE
  8
0
  6
CONTINUOUS
 62
               3
  5
17F
 10
-431.18571428571556
 20
114.47368748012795
 30
0.0
 11
-431.18571428571522
 21
95.473687480127722
 31
0.0
  0
LINE
  8
0
  6
CONTINUOUS
 62
               3
  5
180
 10
-236.68571428571528
 20
95.473687480127722
 30
0.0
 11
-431.18571428571522
 21
95.473687480127722
 31
0.0
  0
LINE
  8
0
  6
CONTINUOUS
 62
               3
  5
181
 10
-431.18571428571556
 20
114.47368748012795
 30
0.0
 11
-236.6857142857157
 21
114.47368748012795
 31
0.0
  0
LINE
  8
0
  6
CONTINUOUS
 62
               3
  5
182
 10
-406.18571428571511
 20
39.973687480127836
 30
0.0
 11
-406.18571428571511
 21
64.473687480127381
 31
0.0
  0
LINE
  8
0
  6
CONTINUOUS
 62
               3
  5
183
 10
-247.18571428571505
 20
39.973687480127836
 30
0.0
 11
-247.18571428571505
 21
64.473687480127381
 31
0.0
  0
LINE
  8
0
  6
CONTINUOUS
 62
               3
  5
184
 10
-399.74518633943961
 20
-313.02631251987202
 30
0.0
 11
-216.98990859286263
 21
-313.02631251987202
 31
0.0
  0
LINE
  8
0
  6
CONTINUOUS
 62
               3
  5
185
 10
-221.39080288245756
 20
-308.02631251987208
 30
0.0
 11
-401.08744120140915
 21
-308.02631251987208
 31
0.0
  0
LINE
  8
0
  6
CONTINUOUS
 62
               3
  5
186
 10
-406.18571428571511
 20
39.973687480127836
 30
0.0
 11
-247.18571428571505
 21
39.973687480127836
 31
0.0
  0
LINE
  8
0
  6
CONTINUOUS
 62
               3
  5
187
 10
-398.18571428571516
 20
39.973687480127836
 30
0.0
 11
-398.18571428571516
 21
-233.72876938552636
 31
0.0
  0
LINE
  8
0
  6
CONTINUOUS
 62
               3
  5
188
 10
-255.18571428571511
 20
-233.45141182714056
 30
0.0
 11
-255.18571428571511
 21
39.973687480127836
 31
0.0
  0
ARC
  8
0
  6
CONTINUOUS
 62
               3
  5
189
 10
-416.18571428571511
 20
-233.72876938552636
 30
0.0
 40
18.0
 50
310.36159748959921
 51
359.99999999986164
  0
ARC
  8
0
  6
CONTINUOUS
 62
               3
  5
18A
 10
-237.18571428571511
 20
-233.45141182714056
 30
0.0
 40
18.0
 50
179.99999999993119
 51
228.96387538876183
  0
LINE
  8
0
  6
CONTINUOUS
 62
               3
  5
18B
 10
-412.18571428571505
 20
-13.026312519872164
 30
0.0
 11
-241.18571428571505
 21
-13.026312519872164
 31
0.0
  0
LINE
  8
0
  6
CONTINUOUS
 62
               3
  5
18C
 10
-241.18571428571505
 20
-6.0263125198721639
 30
0.0
 11
-412.18571428571505
 21
-6.0263125198721639
 31
0.0
  0
LINE
  8
0
  6
CONTINUOUS
 62
               3
  5
18D
 10
-412.18571428571505
 20
-6.0263125198721639
 30
0.0
 11
-412.18571428571505
 21
-13.026312519872164
 31
0.0
  0
LINE
  8
0
  6
CONTINUOUS
 62
               3
  5
18E
 10
-241.18571428571505
 20
-13.026312519872164
 30
0.0
 11
-241.18571428571505
 21
-6.0263125198721639
 31
0.0
  0
LINE
  8
0
  6
CONTINUOUS
 62
               3
  5
18F
 10
-412.18571428571505
 20
-63.026312519872164
 30
0.0
 11
-241.18571428571505
 21
-63.026312519872164
 31
0.0
  0
LINE
  8
0
  6
CONTINUOUS
 62
               3
  5
190
 10
-241.18571428571505
 20
-56.026312519872164
 30
0.0
 11
-412.18571428571505
 21
-56.026312519872164
 31
0.0
  0
LINE
  8
0
  6
CONTINUOUS
 62
               3
  5
191
 10
-412.18571428571505
 20
-56.026312519872164
 30
0.0
 11
-412.18571428571505
 21
-63.026312519872164
 31
0.0
  0
LINE
  8
0
  6
CONTINUOUS
 62
               3
  5
192
 10
-241.18571428571505
 20
-63.026312519872164
 30
0.0
 11
-241.18571428571505
 21
-56.026312519872164
 31
0.0
  0
LINE
  8
0
  6
CONTINUOUS
 62
               3
  5
193
 10
-412.18571428571505
 20
-113.02631251987216
 30
0.0
 11
-241.18571428571505
 21
-113.02631251987216
 31
0.0
  0
LINE
  8
0
  6
CONTINUOUS
 62
               3
  5
194
 10
-241.18571428571505
 20
-106.02631251987216
 30
0.0
 11
-412.18571428571505
 21
-106.02631251987216
 31
0.0
  0
LINE
  8
0
  6
CONTINUOUS
 62
               3
  5
195
 10
-412.18571428571505
 20
-106.02631251987216
 30
0.0
 11
-412.18571428571505
 21
-113.02631251987216
 31
0.0
  0
LINE
  8
0
  6
CONTINUOUS
 62
               3
  5
196
 10
-241.18571428571505
 20
-113.02631251987216
 30
0.0
 11
-241.18571428571505
 21
-106.02631251987216
 31
0.0
  0
LINE
  8
0
  6
CONTINUOUS
 62
               3
  5
197
 10
-412.18571428571505
 20
-163.02631251987205
 30
0.0
 11
-241.18571428571505
 21
-163.02631251987205
 31
0.0
  0
LINE
  8
0
  6
CONTINUOUS
 62
               3
  5
198
 10
-241.18571428571505
 20
-156.02631251987205
 30
0.0
 11
-412.18571428571505
 21
-156.02631251987205
 31
0.0
  0
LINE
  8
0
  6
CONTINUOUS
 62
               3
  5
199
 10
-412.18571428571505
 20
-156.02631251987205
 30
0.0
 11
-412.18571428571505
 21
-163.02631251987205
 31
0.0
  0
LINE
  8
0
  6
CONTINUOUS
 62
               3
  5
19A
 10
-241.18571428571505
 20
-163.02631251987205
 30
0.0
 11
-241.18571428571505
 21
-156.02631251987205
 31
0.0
  0
LINE
  8
0
  6
CONTINUOUS
 62
               3
  5
19B
 10
-347.24265157585046
 20
-454.52631251987202
 30
0.0
 11
-304.29399035046055
 21
-454.52631251987202
 31
0.0
  0
LINE
  8
0
  6
CONTINUOUS
 62
               3
  5
19C
 10
-343.68571428571505
 20
-454.52631251987202
 30
0.0
 11
-343.68571428571505
 21
-484.52631251987202
 31
0.0
  0
LINE
  8
0
  6
CONTINUOUS
 62
               3
  5
19D
 10
-309.68571428571505
 20
-484.52631251987202
 30
0.0
 11
-309.68571428571505
 21
-454.52631251987202
 31
0.0
  0
LINE
  8
0
  6
CONTINUOUS
 62
               3
  5
19E
 10
-343.68571428571505
 20
-484.52631251987202
 30
0.0
 11
-309.68571428571505
 21
-484.52631251987202
 31
0.0
  0
LINE
  8
0
  6
CONTINUOUS
 62
               3
  5
19F
 10
-331.68571428571505
 20
-454.52631251987202
 30
0.0
 11
-331.68571428571505
 21
-484.52631251987202
 31
0.0
  0
LINE
  8
0
  6
CONTINUOUS
 62
               3
  5
1A0
 10
-321.68571428571505
 20
-484.52631251987202
 30
0.0
 11
-321.68571428571505
 21
-454.52631251987202
 31
0.0
  0
LINE
  8
0
  6
CONTINUOUS
 62
               3
  5
1A1
 10
-347.24265157585046
 20
-454.52631251987202
 30
0.0
 11
-351.29675659453733
 21
-408.1876801153935
 31
0.0
  0
ARC
  8
0
  6
CONTINUOUS
 62
               3
  5
1A2
 10
391.31428571428569
 20
-427.52631251987179
 30
0.0
 40
104.5
 50
300.46887311813748
 51
359.99999999986164
  0
CIRCLE
  8
0
  6
CONTINUOUS
 62
               3
  5
1A3
 10
391.31428571428569
 20
-427.52631251987179
 30
0.0
 40
84.5
  0
ARC
  8
0
  6
CONTINUOUS
 62
               3
  5
1A4
 10
391.31428571428569
 20
-532.52631251987191
 30
0.0
 40
14.0
 50
239.53112688165592
 51
300.46887311813742
  0
LINE
  8
0
  6
CONTINUOUS
 62
               3
  5
1A5
 10
384.21530300156144
 20
-544.59297918653851
 30
0.0
 11
338.32545046573796
 21
-517.59536013891943
 31
0.0
  0
LINE
  8
0
  6
CONTINUOUS
 62
               3
  5
1A6
 10
398.41326842700971
 20
-544.59297918653851
 30
0.0
 11
444.30312096283325
 21
-517.59536013891943
 31
0.0
  0
ARC
  8
0
  6
CONTINUOUS
 62
               3
  5
1A7
 10
482.24695311165158
 20
-375.02631251987179
 30
0.0
 40
14.0
 50
359.53112688161008
 51
420.46887311809081
  0
LINE
  8
0
  6
CONTINUOUS
 62
               3
  5
1A8
 10
496.24648434034572
 20
-375.14087855678412
 30
0.0
 11
495.81078667132493
 21
-428.38146615253856
 31
0.0
  0
LINE
  8
0
  6
CONTINUOUS
 62
               3
  5
1A9
 10
489.14750162762181
 20
-362.84507981629292
 30
0.0
 11
442.8219514227772
 21
-336.60211126815744
 31
0.0
  0
ARC
  8
0
  6
CONTINUOUS
 62
               3
  5
1AA
 10
300.38161831691963
 20
-375.02631251987174
 30
0.0
 40
14.0
 50
119.53112688170175
 51
180.46887311818327
  0
LINE
  8
0
  6
CONTINUOUS
 62
               3
  5
1AB
 10
293.48106980094951
 20
-362.84507981629275
 30
0.0
 11
339.80662000579395
 21
-336.60211126815727
 31
0.0
  0
LINE
  8
0
  6
CONTINUOUS
 62
               3
  5
1AC
 10
286.38208708822543
 20
-375.14087855678406
 30
0.0
 11
286.81778475724622
 21
-428.38146615253851
 31
0.0
  0
ARC
  8
0
  6
CONTINUOUS
 62
               3
  5
1AD
 10
391.31428571428569
 20
-427.52631251987179
 30
0.0
 40
104.5
 50
180.4688731181833
 51
239.53112688165606
  0
ARC
  8
0
  6
CONTINUOUS
 62
               3
  5
1AE
 10
391.31428571428569
 20
-427.52631251987179
 30
0.0
 40
104.5
 50
60.468873118229176
 51
119.53112688170189
  0
LINE
  8
0
  6
CONTINUOUS
 62
               3
  5
1AF
 10
307.81428571428557
 20
-258.41108883072286
 30
0.0
 11
307.81428571428557
 21
-354.72545397819579
 31
0.0
  0
ARC
  8
0
  6
CONTINUOUS
 62
               3
  5
1B0
 10
320.81428571428569
 20
-258.41108883072286
 30
0.0
 40
13.0
 50
127.79972243537858
 51
179.99999999993116
  0
LINE
  8
0
  6
CONTINUOUS
 62
               3
  5
1B1
 10
474.81428571428557
 20
-258.41108883072297
 30
0.0
 11
474.81428571428557
 21
-354.7254539781959
 31
0.0
  0
ARC
  8
0
  6
CONTINUOUS
 62
               3
  5
1B2
 10
461.81428571428563
 20
-258.41108883072297
 30
0.0
 40
13.0
 50
0.0
 51
52.200277564552835
  0
CIRCLE
  8
0
  6
CONTINUOUS
 62
               3
  5
1B3
 10
300.38161831691963
 20
-375.02631251987179
 30
0.0
 40
9.0
  0
CIRCLE
  8
0
  6
CONTINUOUS
 62
               3
  5
1B4
 10
482.24695311165158
 20
-375.02631251987191
 30
0.0
 40
9.0
  0
CIRCLE
  8
0
  6
CONTINUOUS
 62
               3
  5
1B5
 10
391.31428571428569
 20
-532.52631251987191
 30
0.0
 40
9.0
  0
LINE
  8
0
  6
CONTINUOUS
 62
               3
  5
1B6
 10
298.93898667179405
 20
114.47368748012821
 30
0.0
 11
483.68958475677732
 21
114.47368748012821
 31
0.0
  0
LINE
  8
0
  6
CONTINUOUS
 62
               3
  5
1B7
 10
298.93898667179405
 20
114.47368748012821
 30
0.0
 11
298.93898667179405
 21
95.473687480128206
 31
0.0
  0
LINE
  8
0
  6
CONTINUOUS
 62
               3
  5
1B8
 10
298.93898667179405
 20
95.473687480128206
 30
0.0
 11
483.68958475677732
 21
95.473687480128319
 31
0.0
  0
LINE
  8
0
  6
CONTINUOUS
 62
               3
  5
1B9
 10
483.68958475677732
 20
95.473687480128319
 30
0.0
 11
483.68958475677732
 21
114.47368748012832
 31
0.0
  0
LINE
  8
0
  6
CONTINUOUS
 62
               3
  5
1BA
 10
298.93898667179405
 20
82.473687480128149
 30
0.0
 11
298.93898667179405
 21
64.473687480128149
 31
0.0
  0
LINE
  8
0
  6
CONTINUOUS
 62
               3
  5
1BB
 10
298.93898667179405
 20
64.473687480128149
 30
0.0
 11
483.68958475677732
 21
64.473687480128262
 31
0.0
  0
LINE
  8
0
  6
CONTINUOUS
 62
               3
  5
1BC
 10
483.68958475677732
 20
64.473687480128262
 30
0.0
 11
483.68958475677732
 21
82.473687480128262
 31
0.0
  0
LINE
  8
0
  6
CONTINUOUS
 62
               3
  5
1BD
 10
483.68958475677732
 20
82.473687480128262
 30
0.0
 11
298.93898667179405
 21
82.473687480128149
 31
0.0
  0
LINE
  8
0
  6
CONTINUOUS
 62
               3
  5
1BE
 10
310.31428571428569
 20
82.473687480128262
 30
0.0
 11
310.31428571428569
 21
95.473687480128206
 31
0.0
  0
LINE
  8
0
  6
CONTINUOUS
 62
               3
  5
1BF
 10
472.31428571428569
 20
95.473687480128319
 30
0.0
 11
472.31428571428569
 21
82.473687480128262
 31
0.0
  0
LINE
  8
0
  6
CONTINUOUS
 62
               3
  5
1C0
 10
311.81428571428569
 20
39.973687480128063
 30
0.0
 11
311.81428571428569
 21
64.473687480128262
 31
0.0
  0
LINE
  8
0
  6
CONTINUOUS
 62
               3
  5
1C1
 10
470.81428571428569
 20
39.97368748012812
 30
0.0
 11
470.81428571428569
 21
64.473687480128262
 31
0.0
  0
LINE
  8
0
  6
CONTINUOUS
 62
               3
  5
1C2
 10
307.81428571428557
 20
-313.02631251987179
 30
0.0
 11
474.81428571428557
 21
-313.02631251987179
 31
0.0
  0
LINE
  8
0
  6
CONTINUOUS
 62
               3
  5
1C3
 10
474.81428571428557
 20
-308.02631251987179
 30
0.0
 11
307.81428571428557
 21
-308.02631251987179
 31
0.0
  0
LINE
  8
0
  6
CONTINUOUS
 62
               3
  5
1C4
 10
319.81428571428569
 20
-13.02631251987188
 30
0.0
 11
462.81428571428563
 21
-13.02631251987188
 31
0.0
  0
LINE
  8
0
  6
CONTINUOUS
 62
               3
  5
1C5
 10
311.81428571428569
 20
39.973687480128063
 30
0.0
 11
470.81428571428557
 21
39.97368748012812
 31
0.0
  0
LINE
  8
0
  6
CONTINUOUS
 62
               3
  5
1C6
 10
319.81428571428569
 20
39.973687480128063
 30
0.0
 11
319.81428571428569
 21
-233.91619140289114
 31
0.0
  0
LINE
  8
0
  6
CONTINUOUS
 62
               3
  5
1C7
 10
462.81428571428563
 20
-233.91619140289114
 30
0.0
 11
462.81428571428563
 21
39.973687480128063
 31
0.0
  0
LINE
  8
0
  6
CONTINUOUS
 62
               3
  5
1C8
 10
462.81428571428563
 20
-6.0263125198718797
 30
0.0
 11
319.81428571428569
 21
-6.0263125198718797
 31
0.0
  0
LINE
  8
0
  6
CONTINUOUS
 62
               3
  5
1C9
 10
319.81428571428569
 20
-63.02631251987188
 30
0.0
 11
462.81428571428563
 21
-63.02631251987188
 31
0.0
  0
LINE
  8
0
  6
CONTINUOUS
 62
               3
  5
1CA
 10
462.81428571428563
 20
-56.02631251987188
 30
0.0
 11
319.81428571428569
 21
-56.02631251987188
 31
0.0
  0
LINE
  8
0
  6
CONTINUOUS
 62
               3
  5
1CB
 10
319.81428571428569
 20
-113.02631251987188
 30
0.0
 11
462.81428571428563
 21
-113.02631251987188
 31
0.0
  0
LINE
  8
0
  6
CONTINUOUS
 62
               3
  5
1CC
 10
462.81428571428563
 20
-106.02631251987188
 30
0.0
 11
319.81428571428569
 21
-106.02631251987188
 31
0.0
  0
LINE
  8
0
  6
CONTINUOUS
 62
               3
  5
1CD
 10
319.81428571428569
 20
-163.02631251987185
 30
0.0
 11
462.81428571428563
 21
-163.02631251987185
 31
0.0
  0
LINE
  8
0
  6
CONTINUOUS
 62
               3
  5
1CE
 10
462.81428571428563
 20
-156.02631251987185
 30
0.0
 11
319.81428571428569
 21
-156.02631251987185
 31
0.0
  0
ARC
  8
0
  6
CONTINUOUS
 62
               3
  5
1CF
 10
301.81428571428569
 20
-233.91619140289114
 30
0.0
 40
18.0
 50
307.79972243530966
 51
359.99999999986164
  0
ARC
  8
0
  6
CONTINUOUS
 62
               3
  5
1D0
 10
480.81428571428563
 20
-233.91619140289114
 30
0.0
 40
18.0
 50
179.99999999993119
 51
232.20027756448388
  0
POINT
  8
0
  6
CONTINUOUS
 62
               5
  5
1D1
 10
-326.68571428571511
 20
114.47368748012795
 30
0.0
  0
POINT
  8
0
  6
CONTINUOUS
 62
               5
  5
1D2
 10
-326.68571428571511
 20
114.47368748012795
 30
0.0
  0
POINT
  8
0
  6
CONTINUOUS
 62
               5
  5
1D3
 10
-326.68571428571505
 20
-427.52631251987202
 30
0.0
  0
ENDSEC
  0
EOF
