  0
SECTION
  2
HEADER
  9
$ACADVER
  1
AC1009
  9
$INSBASE
 10
0.0
 20
0.0
 30
0.0
  9
$EXTMIN
 10
-429.97571428571536
 20
-565.51150007946001
 30
0.0
  9
$EXTMAX
 10
521.10428571428474
 20
655.71825301913532
 30
0.0
  9
$LIMMIN
 10
-459.69696428571535
 20
-603.67492986379114
  9
$LIMMAX
 10
550.8255357142848
 20
693.88168280346645
  9
$ORTHOMODE
 70
               0
  9
$REGENMODE
 70
               1
  9
$FILLMODE
 70
               1
  9
$QTEXTMODE
 70
               0
  9
$MIRRTEXT
 70
               1
  9
$DRAGMODE
 70
               2
  9
$LTSCALE
 40
1.0
  9
$OSMODE
 70
               0
  9
$ATTMODE
 70
               1
  9
$TEXTSIZE
 40
0.2
  9
$TRACEWID
 40
0.05
  9
$TEXTSTYLE
  7
STANDARD
  9
$CLAYER
  8
0
  9
$CELTYPE
  6
CONTINUOUS
  9
$CECOLOR
 62
             256
  9
$DIMSCALE
 40
1.0
  9
$DIMASZ
 40
0.18
  9
$DIMEXO
 40
0.0625
  9
$DIMDLI
 40
0.38
  9
$DIMRND
 40
0.0
  9
$DIMDLE
 40
0.0
  9
$DIMEXE
 40
0.18
  9
$DIMTP
 40
0.0
  9
$DIMTM
 40
0.0
  9
$DIMTXT
 40
0.18
  9
$DIMCEN
 40
0.09
  9
$DIMTSZ
 40
0.0
  9
$DIMTOL
 70
               0
  9
$DIMLIM
 70
               0
  9
$DIMTIH
 70
               1
  9
$DIMTOH
 70
               1
  9
$DIMSE1
 70
               0
  9
$DIMSE2
 70
               0
  9
$DIMTAD
 70
               0
  9
$DIMZIN
 70
               0
  9
$DIMBLK
  1

  9
$DIMASO
 70
               1
  9
$DIMSHO
 70
               1
  9
$DIMPOST
  1

  9
$DIMAPOST
  1

  9
$DIMALT
 70
               0
  9
$DIMALTD
 70
               2
  9
$DIMALTF
 40
25.399999999999999
  9
$DIMLFAC
 40
1.0
  9
$DIMTOFL
 70
               0
  9
$DIMTVP
 40
0.0
  9
$DIMTIX
 70
               0
  9
$DIMSOXD
 70
               0
  9
$DIMSAH
 70
               0
  9
$DIMBLK1
  1

  9
$DIMBLK2
  1

  9
$DIMSTYLE
  2
STANDARD
  9
$DIMCLRD
 70
               0
  9
$DIMCLRE
 70
               0
  9
$DIMCLRT
 70
               0
  9
$DIMTFAC
 40
1.0
  9
$DIMGAP
 40
0.09
  9
$LUNITS
 70
               2
  9
$LUPREC
 70
               4
  9
$AXISMODE
 70
               0
  9
$AXISUNIT
 10
0.0
 20
0.0
  9
$SKETCHINC
 40
0.1
  9
$FILLETRAD
 40
0.0
  9
$AUNITS
 70
               0
  9
$AUPREC
 70
               0
  9
$MENU
  1
acad
  9
$ELEVATION
 40
0.0
  9
$PELEVATION
 40
0.0
  9
$THICKNESS
 40
0.0
  9
$LIMCHECK
 70
               0
  9
$BLIPMODE
 70
               1
  9
$CHAMFERA
 40
0.0
  9
$CHAMFERB
 40
0.0
  9
$SKPOLY
 70
               0
  9
$TDCREATE
 40
0.000000000
  9
$TDUPDATE
 40
0.000000000
  9
$TDINDWG
 40
0.0000000000
  9
$TDUSRTIMER
 40
0.0000000000
  9
$USRTIMER
 70
               1
  9
$ANGBASE
 50
0.0
  9
$ANGDIR
 70
               0
  9
$PDMODE
 70
               0
  9
$PDSIZE
 40
1.0
  9
$PLINEWID
 40
0.0
  9
$COORDS
 70
               1
  9
$SPLFRAME
 70
               0
  9
$SPLINETYPE
 70
               6
  9
$SPLINESEGS
 70
               8
  9
$ATTDIA
 70
               0
  9
$ATTREQ
 70
               1
  9
$HANDLING
 70
               1
  9
$HANDSEED
  5
21C
  9
$SURFTAB1
 70
               6
  9
$SURFTAB2
 70
               6
  9
$SURFTYPE
 70
               6
  9
$SURFU
 70
               6
  9
$SURFV
 70
               6
  9
$UCSNAME
  2

  9
$UCSORG
 10
0.0
 20
0.0
 30
0.0
  9
$UCSXDIR
 10
1.0
 20
0.0
 30
0.0
  9
$UCSYDIR
 10
0.0
 20
1.0
 30
0.0
  9
$PUCSNAME
  2

  9
$PUCSORG
 10
0.0
 20
0.0
 30
0.0
  9
$PUCSXDIR
 10
1.0
 20
0.0
 30
0.0
  9
$PUCSYDIR
 10
0.0
 20
1.0
 30
0.0
  9
$USERI1
 70
               0
  9
$USERI2
 70
               0
  9
$USERI3
 70
               0
  9
$USERI4
 70
               0
  9
$USERI5
 70
               0
  9
$USERR1
 40
0.0
  9
$USERR2
 40
0.0
  9
$USERR3
 40
0.0
  9
$USERR4
 40
0.0
  9
$USERR5
 40
0.0
  9
$WORLDVIEW
 70
               1
  9
$SHADEDGE
 70
               3
  9
$SHADEDIF
 70
              70
  9
$TILEMODE
 70
               1
  9
$MAXACTVP
 70
              16
  9
$PINSBASE
 10
0.0
 20
0.0
 30
0.0
  9
$PLIMCHECK
 70
               0
  9
$PEXTMIN
 10
1.0000000000000000E+20
 20
1.0000000000000000E+20
 30
1.0000000000000000E+20
  9
$PEXTMAX
 10
-1.0000000000000000E+20
 20
-1.0000000000000000E+20
 30
-1.0000000000000000E+20
  9
$PLIMMIN
 10
0.0
 20
0.0
  9
$PLIMMAX
 10
12.0
 20
9.0
  9
$UNITMODE
 70
               0
  9
$VISRETAIN
 70
               0
  9
$PLINEGEN
 70
               1
  9
$PSLTSCALE
 70
               0
  9
$TREEDEPTH
 70
            3020
  9
$DWGCODEPAGE
  3
dos932
  0
ENDSEC
  0
SECTION
  2
TABLES
  0
TABLE
  2
VPORT
 70
               1
  0
VPORT
  2
*ACTIVE
 70
               0
 10
0.0
 20
0.0
 11
1.0
 21
1.0
 12
45.564285714284722
 22
45.103376469837656
 13
0.0
 23
0.0
 14
1.0
 24
1.0
 15
0.0
 25
0.0
 16
0.0
 26
0.0
 36
1.0
 17
0.0
 27
0.0
 37
0.0
 40
1297.5566126672575
 41
0.7787887558314469
 42
50.0
 43
0.0
 44
0.0
 50
0.0
 51
0.0
 71
               0
 72
             100
 73
               1
 74
               1
 75
               0
 76
               0
 77
               0
 78
               0
  0
ENDTAB
  0
TABLE
  2
LTYPE
 70
              26
  0
LTYPE
  2
CONTINUOUS
 70
               0
  3
Solid line
 72
              65
 73
               0
 40
0.0
  0
LTYPE
  2
HIDDENX2
 70
               0
  3
CADPAC FUSION LINETYPE
 72
              65
 73
               2
 40
80.0
 49
60.0
 49
-20.0
  0
LTYPE
  2
HIDDEN
 70
               0
  3
CADPAC FUSION LINETYPE
 72
              65
 73
               2
 40
60.0
 49
40.0
 49
-20.0
  0
LTYPE
  2
HIDDEN2
 70
               0
  3
CADPAC FUSION LINETYPE
 72
              65
 73
               2
 40
50.0
 49
30.0
 49
-20.0
  0
LTYPE
  2
DASHED
 70
               0
  3
CADPAC FUSION LINETYPE
 72
              65
 73
               2
 40
60.0
 49
40.0
 49
-20.0
  0
LTYPE
  2
DASHED2
 70
               0
  3
CADPAC FUSION LINETYPE
 72
              65
 73
               2
 40
45.0
 49
30.0
 49
-15.0
  0
LTYPE
  2
DASHEDX2
 70
               0
  3
CADPAC FUSION LINETYPE
 72
              65
 73
               2
 40
90.0
 49
60.0
 49
-30.0
  0
LTYPE
  2
DOTX2
 70
               0
  3
CADPAC FUSION LINETYPE
 72
              65
 73
               2
 40
25.0
 49
0.0
 49
-25.0
  0
LTYPE
  2
DOT
 70
               0
  3
CADPAC FUSION LINETYPE
 72
              65
 73
               2
 40
20.0
 49
0.0
 49
-20.0
  0
LTYPE
  2
DOTS
 70
               0
  3
CADPAC FUSION LINETYPE
 72
              65
 73
               2
 40
20.0
 49
0.0
 49
-20.0
  0
LTYPE
  2
DOT2
 70
               0
  3
CADPAC FUSION LINETYPE
 72
              65
 73
               2
 40
15.0
 49
0.0
 49
-15.0
  0
LTYPE
  2
CENTERX2
 70
               0
  3
CADPAC FUSION LINETYPE
 72
              65
 73
               4
 40
120.0
 49
50.0
 49
-25.0
 49
20.0
 49
-25.0
  0
LTYPE
  2
CENTER
 70
               0
  3
CADPAC FUSION LINETYPE
 72
              65
 73
               4
 40
92.0
 49
40.0
 49
-20.0
 49
12.0
 49
-20.0
  0
LTYPE
  2
CENTER2
 70
               0
  3
CADPAC FUSION LINETYPE
 72
              65
 73
               4
 40
64.0
 49
30.0
 49
-15.0
 49
4.0
 49
-15.0
  0
LTYPE
  2
DASHDOTX2
 70
               0
  3
CADPAC FUSION LINETYPE
 72
              65
 73
               4
 40
100.0
 49
50.0
 49
-25.0
 49
0.0
 49
-25.0
  0
LTYPE
  2
DASHDOT
 70
               0
  3
CADPAC FUSION LINETYPE
 72
              65
 73
               4
 40
80.0
 49
40.0
 49
-20.0
 49
0.0
 49
-20.0
  0
LTYPE
  2
DASHDOT2
 70
               0
  3
CADPAC FUSION LINETYPE
 72
              65
 73
               4
 40
60.0
 49
30.0
 49
-15.0
 49
0.0
 49
-15.0
  0
LTYPE
  2
DIVIDEX2
 70
               0
  3
CADPAC FUSION LINETYPE
 72
              65
 73
               6
 40
125.0
 49
50.0
 49
-25.0
 49
0.0
 49
-25.0
 49
0.0
 49
-25.0
  0
LTYPE
  2
DIVIDE
 70
               0
  3
CADPAC FUSION LINETYPE
 72
              65
 73
               6
 40
100.0
 49
40.0
 49
-20.0
 49
0.0
 49
-20.0
 49
0.0
 49
-20.0
  0
LTYPE
  2
DIVIDE2
 70
               0
  3
CADPAC FUSION LINETYPE
 72
              65
 73
               6
 40
75.0
 49
30.0
 49
-15.0
 49
0.0
 49
-15.0
 49
0.0
 49
-15.0
  0
LTYPE
  2
BORDERX2
 70
               0
  3
CADPAC FUSION LINETYPE
 72
              65
 73
               6
 40
175.0
 49
50.0
 49
-25.0
 49
50.0
 49
-25.0
 49
0.0
 49
-25.0
  0
LTYPE
  2
BORDER
 70
               0
  3
CADPAC FUSION LINETYPE
 72
              65
 73
               6
 40
140.0
 49
40.0
 49
-20.0
 49
40.0
 49
-20.0
 49
0.0
 49
-20.0
  0
LTYPE
  2
BORDER2
 70
               0
  3
CADPAC FUSION LINETYPE
 72
              65
 73
               6
 40
105.0
 49
30.0
 49
-15.0
 49
30.0
 49
-15.0
 49
0.0
 49
-15.0
  0
LTYPE
  2
PHANTOMX2
 70
               0
  3
CADPAC FUSION LINETYPE
 72
              65
 73
               6
 40
150.0
 49
50.0
 49
-20.0
 49
20.0
 49
-20.0
 49
20.0
 49
-20.0
  0
LTYPE
  2
PHANTOM
 70
               0
  3
CADPAC FUSION LINETYPE
 72
              65
 73
               6
 40
124.0
 49
40.0
 49
-20.0
 49
12.0
 49
-20.0
 49
12.0
 49
-20.0
  0
LTYPE
  2
PHANTOM2
 70
               0
  3
CADPAC FUSION LINETYPE
 72
              65
 73
               6
 40
106.0
 49
30.0
 49
-20.0
 49
8.0
 49
-20.0
 49
8.0
 49
-20.0
  0
ENDTAB
  0
TABLE
  2
LAYER
 70
             256
  0
LAYER
  2
0
 70
               0
 62
               7
  6
CONTINUOUS
  0
LAYER
  2
LAYER001
 70
               0
 62
               7
  6
CONTINUOUS
  0
LAYER
  2
LAYER002
 70
               0
 62
               7
  6
CONTINUOUS
  0
LAYER
  2
LAYER003
 70
               0
 62
               7
  6
CONTINUOUS
  0
LAYER
  2
LAYER004
 70
               0
 62
               7
  6
CONTINUOUS
  0
LAYER
  2
LAYER005
 70
               0
 62
               7
  6
CONTINUOUS
  0
LAYER
  2
LAYER006
 70
               0
 62
               7
  6
CONTINUOUS
  0
LAYER
  2
LAYER007
 70
               0
 62
               7
  6
CONTINUOUS
  0
LAYER
  2
LAYER008
 70
               0
 62
               7
  6
CONTINUOUS
  0
LAYER
  2
LAYER009
 70
               0
 62
               7
  6
CONTINUOUS
  0
LAYER
  2
LAYER010
 70
               0
 62
               7
  6
CONTINUOUS
  0
LAYER
  2
LAYER011
 70
               0
 62
               7
  6
CONTINUOUS
  0
LAYER
  2
LAYER012
 70
               0
 62
               7
  6
CONTINUOUS
  0
LAYER
  2
LAYER013
 70
               0
 62
               7
  6
CONTINUOUS
  0
LAYER
  2
LAYER014
 70
               0
 62
               7
  6
CONTINUOUS
  0
LAYER
  2
LAYER015
 70
               0
 62
               7
  6
CONTINUOUS
  0
LAYER
  2
LAYER016
 70
               0
 62
               7
  6
CONTINUOUS
  0
LAYER
  2
LAYER017
 70
               0
 62
               7
  6
CONTINUOUS
  0
LAYER
  2
LAYER018
 70
               0
 62
               7
  6
CONTINUOUS
  0
LAYER
  2
LAYER019
 70
               0
 62
               7
  6
CONTINUOUS
  0
LAYER
  2
LAYER020
 70
               0
 62
               7
  6
CONTINUOUS
  0
LAYER
  2
LAYER021
 70
               0
 62
               7
  6
CONTINUOUS
  0
LAYER
  2
LAYER022
 70
               0
 62
               7
  6
CONTINUOUS
  0
LAYER
  2
LAYER023
 70
               0
 62
               7
  6
CONTINUOUS
  0
LAYER
  2
LAYER024
 70
               0
 62
               7
  6
CONTINUOUS
  0
LAYER
  2
LAYER025
 70
               0
 62
               7
  6
CONTINUOUS
  0
LAYER
  2
LAYER026
 70
               0
 62
               7
  6
CONTINUOUS
  0
LAYER
  2
LAYER027
 70
               0
 62
               7
  6
CONTINUOUS
  0
LAYER
  2
LAYER028
 70
               0
 62
               7
  6
CONTINUOUS
  0
LAYER
  2
LAYER029
 70
               0
 62
               7
  6
CONTINUOUS
  0
LAYER
  2
LAYER030
 70
               0
 62
               7
  6
CONTINUOUS
  0
LAYER
  2
LAYER031
 70
               0
 62
               7
  6
CONTINUOUS
  0
LAYER
  2
LAYER032
 70
               0
 62
               7
  6
CONTINUOUS
  0
LAYER
  2
LAYER033
 70
               0
 62
               7
  6
CONTINUOUS
  0
LAYER
  2
LAYER034
 70
               0
 62
               7
  6
CONTINUOUS
  0
LAYER
  2
LAYER035
 70
               0
 62
               7
  6
CONTINUOUS
  0
LAYER
  2
LAYER036
 70
               0
 62
               7
  6
CONTINUOUS
  0
LAYER
  2
LAYER037
 70
               0
 62
               7
  6
CONTINUOUS
  0
LAYER
  2
LAYER038
 70
               0
 62
               7
  6
CONTINUOUS
  0
LAYER
  2
LAYER039
 70
               0
 62
               7
  6
CONTINUOUS
  0
LAYER
  2
LAYER040
 70
               0
 62
               7
  6
CONTINUOUS
  0
LAYER
  2
LAYER041
 70
               0
 62
               7
  6
CONTINUOUS
  0
LAYER
  2
LAYER042
 70
               0
 62
               7
  6
CONTINUOUS
  0
LAYER
  2
LAYER043
 70
               0
 62
               7
  6
CONTINUOUS
  0
LAYER
  2
LAYER044
 70
               0
 62
               7
  6
CONTINUOUS
  0
LAYER
  2
LAYER045
 70
               0
 62
               7
  6
CONTINUOUS
  0
LAYER
  2
LAYER046
 70
               0
 62
               7
  6
CONTINUOUS
  0
LAYER
  2
LAYER047
 70
               0
 62
               7
  6
CONTINUOUS
  0
LAYER
  2
LAYER048
 70
               0
 62
               7
  6
CONTINUOUS
  0
LAYER
  2
LAYER049
 70
               0
 62
               7
  6
CONTINUOUS
  0
LAYER
  2
LAYER050
 70
               0
 62
               7
  6
CONTINUOUS
  0
LAYER
  2
LAYER051
 70
               0
 62
               7
  6
CONTINUOUS
  0
LAYER
  2
LAYER052
 70
               0
 62
               7
  6
CONTINUOUS
  0
LAYER
  2
LAYER053
 70
               0
 62
               7
  6
CONTINUOUS
  0
LAYER
  2
LAYER054
 70
               0
 62
               7
  6
CONTINUOUS
  0
LAYER
  2
LAYER055
 70
               0
 62
               7
  6
CONTINUOUS
  0
LAYER
  2
LAYER056
 70
               0
 62
               7
  6
CONTINUOUS
  0
LAYER
  2
LAYER057
 70
               0
 62
               7
  6
CONTINUOUS
  0
LAYER
  2
LAYER058
 70
               0
 62
               7
  6
CONTINUOUS
  0
LAYER
  2
LAYER059
 70
               0
 62
               7
  6
CONTINUOUS
  0
LAYER
  2
LAYER060
 70
               0
 62
               7
  6
CONTINUOUS
  0
LAYER
  2
LAYER061
 70
               0
 62
               7
  6
CONTINUOUS
  0
LAYER
  2
LAYER062
 70
               0
 62
               7
  6
CONTINUOUS
  0
LAYER
  2
LAYER063
 70
               0
 62
               7
  6
CONTINUOUS
  0
LAYER
  2
LAYER064
 70
               0
 62
               7
  6
CONTINUOUS
  0
LAYER
  2
LAYER065
 70
               0
 62
               7
  6
CONTINUOUS
  0
LAYER
  2
LAYER066
 70
               0
 62
               7
  6
CONTINUOUS
  0
LAYER
  2
LAYER067
 70
               0
 62
               7
  6
CONTINUOUS
  0
LAYER
  2
LAYER068
 70
               0
 62
               7
  6
CONTINUOUS
  0
LAYER
  2
LAYER069
 70
               0
 62
               7
  6
CONTINUOUS
  0
LAYER
  2
LAYER070
 70
               0
 62
               7
  6
CONTINUOUS
  0
LAYER
  2
LAYER071
 70
               0
 62
               7
  6
CONTINUOUS
  0
LAYER
  2
LAYER072
 70
               0
 62
               7
  6
CONTINUOUS
  0
LAYER
  2
LAYER073
 70
               0
 62
               7
  6
CONTINUOUS
  0
LAYER
  2
LAYER074
 70
               0
 62
               7
  6
CONTINUOUS
  0
LAYER
  2
LAYER075
 70
               0
 62
               7
  6
CONTINUOUS
  0
LAYER
  2
LAYER076
 70
               0
 62
               7
  6
CONTINUOUS
  0
LAYER
  2
LAYER077
 70
               0
 62
               7
  6
CONTINUOUS
  0
LAYER
  2
LAYER078
 70
               0
 62
               7
  6
CONTINUOUS
  0
LAYER
  2
LAYER079
 70
               0
 62
               7
  6
CONTINUOUS
  0
LAYER
  2
LAYER080
 70
               0
 62
               7
  6
CONTINUOUS
  0
LAYER
  2
LAYER081
 70
               0
 62
               7
  6
CONTINUOUS
  0
LAYER
  2
LAYER082
 70
               0
 62
               7
  6
CONTINUOUS
  0
LAYER
  2
LAYER083
 70
               0
 62
               7
  6
CONTINUOUS
  0
LAYER
  2
LAYER084
 70
               0
 62
               7
  6
CONTINUOUS
  0
LAYER
  2
LAYER085
 70
               0
 62
               7
  6
CONTINUOUS
  0
LAYER
  2
LAYER086
 70
               0
 62
               7
  6
CONTINUOUS
  0
LAYER
  2
LAYER087
 70
               0
 62
               7
  6
CONTINUOUS
  0
LAYER
  2
LAYER088
 70
               0
 62
               7
  6
CONTINUOUS
  0
LAYER
  2
LAYER089
 70
               0
 62
               7
  6
CONTINUOUS
  0
LAYER
  2
LAYER090
 70
               0
 62
               7
  6
CONTINUOUS
  0
LAYER
  2
LAYER091
 70
               0
 62
               7
  6
CONTINUOUS
  0
LAYER
  2
LAYER092
 70
               0
 62
               7
  6
CONTINUOUS
  0
LAYER
  2
LAYER093
 70
               0
 62
               7
  6
CONTINUOUS
  0
LAYER
  2
LAYER094
 70
               0
 62
               7
  6
CONTINUOUS
  0
LAYER
  2
LAYER095
 70
               0
 62
               7
  6
CONTINUOUS
  0
LAYER
  2
LAYER096
 70
               0
 62
               7
  6
CONTINUOUS
  0
LAYER
  2
LAYER097
 70
               0
 62
               7
  6
CONTINUOUS
  0
LAYER
  2
LAYER098
 70
               0
 62
               7
  6
CONTINUOUS
  0
LAYER
  2
LAYER099
 70
               0
 62
               7
  6
CONTINUOUS
  0
LAYER
  2
LAYER100
 70
               0
 62
               7
  6
CONTINUOUS
  0
LAYER
  2
LAYER101
 70
               0
 62
               7
  6
CONTINUOUS
  0
LAYER
  2
LAYER102
 70
               0
 62
               7
  6
CONTINUOUS
  0
LAYER
  2
LAYER103
 70
               0
 62
               7
  6
CONTINUOUS
  0
LAYER
  2
LAYER104
 70
               0
 62
               7
  6
CONTINUOUS
  0
LAYER
  2
LAYER105
 70
               0
 62
               7
  6
CONTINUOUS
  0
LAYER
  2
LAYER106
 70
               0
 62
               7
  6
CONTINUOUS
  0
LAYER
  2
LAYER107
 70
               0
 62
               7
  6
CONTINUOUS
  0
LAYER
  2
LAYER108
 70
               0
 62
               7
  6
CONTINUOUS
  0
LAYER
  2
LAYER109
 70
               0
 62
               7
  6
CONTINUOUS
  0
LAYER
  2
LAYER110
 70
               0
 62
               7
  6
CONTINUOUS
  0
LAYER
  2
LAYER111
 70
               0
 62
               7
  6
CONTINUOUS
  0
LAYER
  2
LAYER112
 70
               0
 62
               7
  6
CONTINUOUS
  0
LAYER
  2
LAYER113
 70
               0
 62
               7
  6
CONTINUOUS
  0
LAYER
  2
LAYER114
 70
               0
 62
               7
  6
CONTINUOUS
  0
LAYER
  2
LAYER115
 70
               0
 62
               7
  6
CONTINUOUS
  0
LAYER
  2
LAYER116
 70
               0
 62
               7
  6
CONTINUOUS
  0
LAYER
  2
LAYER117
 70
               0
 62
               7
  6
CONTINUOUS
  0
LAYER
  2
LAYER118
 70
               0
 62
               7
  6
CONTINUOUS
  0
LAYER
  2
LAYER119
 70
               0
 62
               7
  6
CONTINUOUS
  0
LAYER
  2
LAYER120
 70
               0
 62
               7
  6
CONTINUOUS
  0
LAYER
  2
LAYER121
 70
               0
 62
               7
  6
CONTINUOUS
  0
LAYER
  2
LAYER122
 70
               0
 62
               7
  6
CONTINUOUS
  0
LAYER
  2
LAYER123
 70
               0
 62
               7
  6
CONTINUOUS
  0
LAYER
  2
LAYER124
 70
               0
 62
               7
  6
CONTINUOUS
  0
LAYER
  2
LAYER125
 70
               0
 62
               7
  6
CONTINUOUS
  0
LAYER
  2
LAYER126
 70
               0
 62
               7
  6
CONTINUOUS
  0
LAYER
  2
LAYER127
 70
               0
 62
               7
  6
CONTINUOUS
  0
LAYER
  2
LAYER128
 70
               0
 62
               7
  6
CONTINUOUS
  0
LAYER
  2
LAYER129
 70
               0
 62
               7
  6
CONTINUOUS
  0
LAYER
  2
LAYER130
 70
               0
 62
               7
  6
CONTINUOUS
  0
LAYER
  2
LAYER131
 70
               0
 62
               7
  6
CONTINUOUS
  0
LAYER
  2
LAYER132
 70
               0
 62
               7
  6
CONTINUOUS
  0
LAYER
  2
LAYER133
 70
               0
 62
               7
  6
CONTINUOUS
  0
LAYER
  2
LAYER134
 70
               0
 62
               7
  6
CONTINUOUS
  0
LAYER
  2
LAYER135
 70
               0
 62
               7
  6
CONTINUOUS
  0
LAYER
  2
LAYER136
 70
               0
 62
               7
  6
CONTINUOUS
  0
LAYER
  2
LAYER137
 70
               0
 62
               7
  6
CONTINUOUS
  0
LAYER
  2
LAYER138
 70
               0
 62
               7
  6
CONTINUOUS
  0
LAYER
  2
LAYER139
 70
               0
 62
               7
  6
CONTINUOUS
  0
LAYER
  2
LAYER140
 70
               0
 62
               7
  6
CONTINUOUS
  0
LAYER
  2
LAYER141
 70
               0
 62
               7
  6
CONTINUOUS
  0
LAYER
  2
LAYER142
 70
               0
 62
               7
  6
CONTINUOUS
  0
LAYER
  2
LAYER143
 70
               0
 62
               7
  6
CONTINUOUS
  0
LAYER
  2
LAYER144
 70
               0
 62
               7
  6
CONTINUOUS
  0
LAYER
  2
LAYER145
 70
               0
 62
               7
  6
CONTINUOUS
  0
LAYER
  2
LAYER146
 70
               0
 62
               7
  6
CONTINUOUS
  0
LAYER
  2
LAYER147
 70
               0
 62
               7
  6
CONTINUOUS
  0
LAYER
  2
LAYER148
 70
               0
 62
               7
  6
CONTINUOUS
  0
LAYER
  2
LAYER149
 70
               0
 62
               7
  6
CONTINUOUS
  0
LAYER
  2
LAYER150
 70
               0
 62
               7
  6
CONTINUOUS
  0
LAYER
  2
LAYER151
 70
               0
 62
               7
  6
CONTINUOUS
  0
LAYER
  2
LAYER152
 70
               0
 62
               7
  6
CONTINUOUS
  0
LAYER
  2
LAYER153
 70
               0
 62
               7
  6
CONTINUOUS
  0
LAYER
  2
LAYER154
 70
               0
 62
               7
  6
CONTINUOUS
  0
LAYER
  2
LAYER155
 70
               0
 62
               7
  6
CONTINUOUS
  0
LAYER
  2
LAYER156
 70
               0
 62
               7
  6
CONTINUOUS
  0
LAYER
  2
LAYER157
 70
               0
 62
               7
  6
CONTINUOUS
  0
LAYER
  2
LAYER158
 70
               0
 62
               7
  6
CONTINUOUS
  0
LAYER
  2
LAYER159
 70
               0
 62
               7
  6
CONTINUOUS
  0
LAYER
  2
LAYER160
 70
               0
 62
               7
  6
CONTINUOUS
  0
LAYER
  2
LAYER161
 70
               0
 62
               7
  6
CONTINUOUS
  0
LAYER
  2
LAYER162
 70
               0
 62
               7
  6
CONTINUOUS
  0
LAYER
  2
LAYER163
 70
               0
 62
               7
  6
CONTINUOUS
  0
LAYER
  2
LAYER164
 70
               0
 62
               7
  6
CONTINUOUS
  0
LAYER
  2
LAYER165
 70
               0
 62
               7
  6
CONTINUOUS
  0
LAYER
  2
LAYER166
 70
               0
 62
               7
  6
CONTINUOUS
  0
LAYER
  2
LAYER167
 70
               0
 62
               7
  6
CONTINUOUS
  0
LAYER
  2
LAYER168
 70
               0
 62
               7
  6
CONTINUOUS
  0
LAYER
  2
LAYER169
 70
               0
 62
               7
  6
CONTINUOUS
  0
LAYER
  2
LAYER170
 70
               0
 62
               7
  6
CONTINUOUS
  0
LAYER
  2
LAYER171
 70
               0
 62
               7
  6
CONTINUOUS
  0
LAYER
  2
LAYER172
 70
               0
 62
               7
  6
CONTINUOUS
  0
LAYER
  2
LAYER173
 70
               0
 62
               7
  6
CONTINUOUS
  0
LAYER
  2
LAYER174
 70
               0
 62
               7
  6
CONTINUOUS
  0
LAYER
  2
LAYER175
 70
               0
 62
               7
  6
CONTINUOUS
  0
LAYER
  2
LAYER176
 70
               0
 62
               7
  6
CONTINUOUS
  0
LAYER
  2
LAYER177
 70
               0
 62
               7
  6
CONTINUOUS
  0
LAYER
  2
LAYER178
 70
               0
 62
               7
  6
CONTINUOUS
  0
LAYER
  2
LAYER179
 70
               0
 62
               7
  6
CONTINUOUS
  0
LAYER
  2
LAYER180
 70
               0
 62
               7
  6
CONTINUOUS
  0
LAYER
  2
LAYER181
 70
               0
 62
               7
  6
CONTINUOUS
  0
LAYER
  2
LAYER182
 70
               0
 62
               7
  6
CONTINUOUS
  0
LAYER
  2
LAYER183
 70
               0
 62
               7
  6
CONTINUOUS
  0
LAYER
  2
LAYER184
 70
               0
 62
               7
  6
CONTINUOUS
  0
LAYER
  2
LAYER185
 70
               0
 62
               7
  6
CONTINUOUS
  0
LAYER
  2
LAYER186
 70
               0
 62
               7
  6
CONTINUOUS
  0
LAYER
  2
LAYER187
 70
               0
 62
               7
  6
CONTINUOUS
  0
LAYER
  2
LAYER188
 70
               0
 62
               7
  6
CONTINUOUS
  0
LAYER
  2
LAYER189
 70
               0
 62
               7
  6
CONTINUOUS
  0
LAYER
  2
LAYER190
 70
               0
 62
               7
  6
CONTINUOUS
  0
LAYER
  2
LAYER191
 70
               0
 62
               7
  6
CONTINUOUS
  0
LAYER
  2
LAYER192
 70
               0
 62
               7
  6
CONTINUOUS
  0
LAYER
  2
LAYER193
 70
               0
 62
               7
  6
CONTINUOUS
  0
LAYER
  2
LAYER194
 70
               0
 62
               7
  6
CONTINUOUS
  0
LAYER
  2
LAYER195
 70
               0
 62
               7
  6
CONTINUOUS
  0
LAYER
  2
LAYER196
 70
               0
 62
               7
  6
CONTINUOUS
  0
LAYER
  2
LAYER197
 70
               0
 62
               7
  6
CONTINUOUS
  0
LAYER
  2
LAYER198
 70
               0
 62
               7
  6
CONTINUOUS
  0
LAYER
  2
LAYER199
 70
               0
 62
               7
  6
CONTINUOUS
  0
LAYER
  2
LAYER200
 70
               0
 62
               7
  6
CONTINUOUS
  0
LAYER
  2
LAYER201
 70
               0
 62
               7
  6
CONTINUOUS
  0
LAYER
  2
LAYER202
 70
               0
 62
               7
  6
CONTINUOUS
  0
LAYER
  2
LAYER203
 70
               0
 62
               7
  6
CONTINUOUS
  0
LAYER
  2
LAYER204
 70
               0
 62
               7
  6
CONTINUOUS
  0
LAYER
  2
LAYER205
 70
               0
 62
               7
  6
CONTINUOUS
  0
LAYER
  2
LAYER206
 70
               0
 62
               7
  6
CONTINUOUS
  0
LAYER
  2
LAYER207
 70
               0
 62
               7
  6
CONTINUOUS
  0
LAYER
  2
LAYER208
 70
               0
 62
               7
  6
CONTINUOUS
  0
LAYER
  2
LAYER209
 70
               0
 62
               7
  6
CONTINUOUS
  0
LAYER
  2
LAYER210
 70
               0
 62
               7
  6
CONTINUOUS
  0
LAYER
  2
LAYER211
 70
               0
 62
               7
  6
CONTINUOUS
  0
LAYER
  2
LAYER212
 70
               0
 62
               7
  6
CONTINUOUS
  0
LAYER
  2
LAYER213
 70
               0
 62
               7
  6
CONTINUOUS
  0
LAYER
  2
LAYER214
 70
               0
 62
               7
  6
CONTINUOUS
  0
LAYER
  2
LAYER215
 70
               0
 62
               7
  6
CONTINUOUS
  0
LAYER
  2
LAYER216
 70
               0
 62
               7
  6
CONTINUOUS
  0
LAYER
  2
LAYER217
 70
               0
 62
               7
  6
CONTINUOUS
  0
LAYER
  2
LAYER218
 70
               0
 62
               7
  6
CONTINUOUS
  0
LAYER
  2
LAYER219
 70
               0
 62
               7
  6
CONTINUOUS
  0
LAYER
  2
LAYER220
 70
               0
 62
               7
  6
CONTINUOUS
  0
LAYER
  2
LAYER221
 70
               0
 62
               7
  6
CONTINUOUS
  0
LAYER
  2
LAYER222
 70
               0
 62
               7
  6
CONTINUOUS
  0
LAYER
  2
LAYER223
 70
               0
 62
               7
  6
CONTINUOUS
  0
LAYER
  2
LAYER224
 70
               0
 62
               7
  6
CONTINUOUS
  0
LAYER
  2
LAYER225
 70
               0
 62
               7
  6
CONTINUOUS
  0
LAYER
  2
LAYER226
 70
               0
 62
               7
  6
CONTINUOUS
  0
LAYER
  2
LAYER227
 70
               0
 62
               7
  6
CONTINUOUS
  0
LAYER
  2
LAYER228
 70
               0
 62
               7
  6
CONTINUOUS
  0
LAYER
  2
LAYER229
 70
               0
 62
               7
  6
CONTINUOUS
  0
LAYER
  2
LAYER230
 70
               0
 62
               7
  6
CONTINUOUS
  0
LAYER
  2
LAYER231
 70
               0
 62
               7
  6
CONTINUOUS
  0
LAYER
  2
LAYER232
 70
               0
 62
               7
  6
CONTINUOUS
  0
LAYER
  2
LAYER233
 70
               0
 62
               7
  6
CONTINUOUS
  0
LAYER
  2
LAYER234
 70
               0
 62
               7
  6
CONTINUOUS
  0
LAYER
  2
LAYER235
 70
               0
 62
               7
  6
CONTINUOUS
  0
LAYER
  2
LAYER236
 70
               0
 62
               7
  6
CONTINUOUS
  0
LAYER
  2
LAYER237
 70
               0
 62
               7
  6
CONTINUOUS
  0
LAYER
  2
LAYER238
 70
               0
 62
               7
  6
CONTINUOUS
  0
LAYER
  2
LAYER239
 70
               0
 62
               7
  6
CONTINUOUS
  0
LAYER
  2
LAYER240
 70
               0
 62
               7
  6
CONTINUOUS
  0
LAYER
  2
LAYER241
 70
               0
 62
               7
  6
CONTINUOUS
  0
LAYER
  2
LAYER242
 70
               0
 62
               7
  6
CONTINUOUS
  0
LAYER
  2
LAYER243
 70
               0
 62
               7
  6
CONTINUOUS
  0
LAYER
  2
LAYER244
 70
               0
 62
               7
  6
CONTINUOUS
  0
LAYER
  2
LAYER245
 70
               0
 62
               7
  6
CONTINUOUS
  0
LAYER
  2
LAYER246
 70
               0
 62
               7
  6
CONTINUOUS
  0
LAYER
  2
LAYER247
 70
               0
 62
               7
  6
CONTINUOUS
  0
LAYER
  2
LAYER248
 70
               0
 62
               7
  6
CONTINUOUS
  0
LAYER
  2
LAYER249
 70
               0
 62
               7
  6
CONTINUOUS
  0
LAYER
  2
LAYER250
 70
               0
 62
               7
  6
CONTINUOUS
  0
LAYER
  2
LAYER251
 70
               0
 62
               7
  6
CONTINUOUS
  0
LAYER
  2
LAYER252
 70
               0
 62
               7
  6
CONTINUOUS
  0
LAYER
  2
LAYER253
 70
               0
 62
               7
  6
CONTINUOUS
  0
LAYER
  2
LAYER254
 70
               0
 62
               7
  6
CONTINUOUS
  0
LAYER
  2
LAYER255
 70
               0
 62
               7
  6
CONTINUOUS
  0
ENDTAB
  0
TABLE
  2
STYLE
 70
               1
  0
STYLE
  2
STANDARD
 70
               0
 40
0.0
 41
1.0
 50
0.0
 71
               0
 42
0.0
  3
txt
  4

  0
ENDTAB
  0
TABLE
  2
VIEW
 70
               0
  0
VIEW
  2
QQQQ
 70
               0
 40
1297.5566126672575
 10
45.564285714284722
 20
45.103376469837656
 41
1010.5225000000002
 11
0.0
 21
0.0
 31
1.0
 12
100.0
 22
100.0
 32
0.0
 42
50.0
 43
0.0
 44
0.0
 50
0.0
 71
               0
  0
ENDTAB
  0
TABLE
  2
UCS
 70
               0
  0
ENDTAB
  0
TABLE
  2
APPID
 70
               1
  0
APPID
  2
ACAD
 70
               0
  0
ENDTAB
  0
TABLE
  2
DIMSTYLE
 70
               1
  0
DIMSTYLE
  2
STANDARD
 70
               0
  3

  4

  5

  6

  7

 40
1.0
 41
0.18
 42
0.0625
 43
0.38
 44
0.18
 45
0.0
 46
0.0
 47
0.0
 48
0.0
140
0.18
141
0.09
142
0.0
143
25.399999999999999
144
1.0
145
0.0
146
1.0
147
0.09
 71
               0
 72
               0
 73
               1
 74
               1
 75
               0
 76
               0
 77
               0
 78
               0
170
               0
171
               2
172
               0
173
               0
174
               0
175
               0
176
               0
177
               0
178
               0
  0
ENDTAB
  0
ENDSEC
  0
SECTION
  2
BLOCKS
  0
ENDSEC
  0
SECTION
  2
ENTITIES
  0
POINT
  8
0
  6
CONTINUOUS
 62
               7
  5
136
 10
-326.68571428571511
 20
-427.52631251987202
 30
0.0
  0
POINT
  8
0
  6
CONTINUOUS
 62
               7
  5
137
 10
-326.68571428571516
 20
520.73306545954688
 30
0.0
  0
POINT
  8
0
  6
CONTINUOUS
 62
               7
  5
138
 10
-326.68571428571516
 20
-427.52631251987196
 30
0.0
  0
POINT
  8
0
  6
CONTINUOUS
 62
               7
  5
139
 10
391.31428571428569
 20
-427.52631251987174
 30
0.0
  0
POINT
  8
0
  6
CONTINUOUS
 62
               7
  5
13A
 10
-326.68571428571511
 20
-427.52631251987202
 30
0.0
  0
POINT
  8
0
  6
CONTINUOUS
 62
               7
  5
13B
 10
-326.68571428571505
 20
-427.52631251987202
 30
0.0
  0
POINT
  8
0
  6
CONTINUOUS
 62
               7
  5
13C
 10
-326.68571428571511
 20
-427.52631251987202
 30
0.0
  0
LINE
  8
0
  6
DASHED
 62
               7
  5
13D
 10
-147.68571428571516
 20
590.73306545954688
 30
0.0
 11
-147.68571428571516
 21
450.73306545954688
 31
0.0
  0
LINE
  8
0
  6
DASHED
 62
               7
  5
13E
 10
-147.68571428571511
 20
-497.52631251987202
 30
0.0
 11
-147.68571428571511
 21
-357.52631251987202
 31
0.0
  0
LINE
  8
0
  6
HIDDENX2
 62
               7
  5
13F
 10
346.81428571428569
 20
29.473687480128262
 30
0.0
 11
435.81428571428569
 21
29.473687480128262
 31
0.0
  0
LINE
  8
0
  6
DASHDOT
 62
               4
  5
140
 10
-411.68571428571533
 20
520.73306545954688
 30
0.0
 11
-69.685714285715108
 21
520.73306545954688
 31
0.0
  0
LINE
  8
0
  6
DASHDOT
 62
               4
  5
141
 10
-326.68571428571516
 20
602.73306545954699
 30
0.0
 11
-326.68571428571516
 21
438.73306545954699
 31
0.0
  0
LINE
  8
0
  6
DASHDOT
 62
               4
  5
142
 10
-337.38913204740891
 20
-427.52631251987202
 30
0.0
 11
-69.685714285715108
 21
-427.52631251987202
 31
0.0
  0
ARC
  8
0
  6
DASHDOT
 62
               4
  5
143
 10
-157.68571428571499
 20
-258.52631251987202
 30
0.0
 40
169.0
 50
179.99999999996558
 51
268.7132472514046
  0
LINE
  8
0
  6
DASHDOT
 62
               4
  5
144
 10
-326.68571428571511
 20
100.13184229120859
 30
0.0
 11
-326.68571428571511
 21
-491.51884101276846
 31
0.0
  0
LINE
  8
0
  6
DASHDOT
 62
               4
  5
145
 10
-325.66629497935844
 20
-392.52631251987202
 30
0.0
 11
-195.66629497935841
 21
-392.52631251987202
 31
0.0
  0
LINE
  8
0
  6
DASHDOT
 62
               4
  5
146
 10
-260.66629497935844
 20
-457.52631251987202
 30
0.0
 11
-260.66629497935844
 21
-327.52631251987202
 31
0.0
  0
LINE
  8
0
  6
DASHDOT
 62
               4
  5
147
 10
391.31428571428569
 20
114.16009856080129
 30
0.0
 11
391.31428571428569
 21
-542.02631251987168
 31
0.0
  0
LINE
  8
0
  6
DASHDOT
 62
               4
  5
148
 10
291.20021396406781
 20
-427.52631251987174
 30
0.0
 11
491.42835746450356
 21
-427.52631251987174
 31
0.0
  0
LINE
  8
0
  6
DASHED
 62
               4
  5
149
 10
-371.18571428571499
 20
29.473687480127893
 30
0.0
 11
-282.18571428571522
 21
29.473687480127893
 31
0.0
  0
LINE
  8
0
  6
CONTINUOUS
 62
               3
  5
14A
 10
-111.68571428571509
 20
613.1080654595487
 30
0.0
 11
-111.68571428571509
 21
428.35806545954301
 31
0.0
  0
LINE
  8
0
  6
CONTINUOUS
 62
               3
  5
14B
 10
-129.68571428571522
 20
428.3580654595475
 30
0.0
 11
-111.68571428571509
 21
428.35806545954301
 31
0.0
  0
LINE
  8
0
  6
CONTINUOUS
 62
               3
  5
14C
 10
-129.68571428571522
 20
613.10806545954654
 30
0.0
 11
-129.68571428571522
 21
428.3580654595475
 31
0.0
  0
LINE
  8
0
  6
CONTINUOUS
 62
               3
  5
14D
 10
-152.68571428571516
 20
443.23306545954688
 30
0.0
 11
-129.68571428571522
 21
443.23306545954688
 31
0.0
  0
LINE
  8
0
  6
CONTINUOUS
 62
               3
  5
14E
 10
-129.68571428571522
 20
613.10806545954654
 30
0.0
 11
-111.68571428571509
 21
613.1080654595487
 31
0.0
  0
LINE
  8
0
  6
CONTINUOUS
 62
               3
  5
14F
 10
-152.68571428571516
 20
598.23306545954688
 30
0.0
 11
-129.68571428571522
 21
598.23306545954688
 31
0.0
  0
LINE
  8
0
  6
CONTINUOUS
 62
               3
  5
150
 10
-79.685714285715108
 20
613.10806545954676
 30
0.0
 11
-79.685714285715108
 21
428.35806545954705
 31
0.0
  0
LINE
  8
0
  6
CONTINUOUS
 62
               3
  5
151
 10
-97.685714285715108
 20
428.35806545954705
 30
0.0
 11
-79.685714285715108
 21
428.35806545954705
 31
0.0
  0
LINE
  8
0
  6
CONTINUOUS
 62
               3
  5
152
 10
-97.685714285715108
 20
613.10806545954642
 30
0.0
 11
-79.685714285715108
 21
613.10806545954676
 31
0.0
  0
LINE
  8
0
  6
CONTINUOUS
 62
               3
  5
153
 10
-97.685714285715108
 20
613.10806545954699
 30
0.0
 11
-97.685714285715108
 21
428.35806545954705
 31
0.0
  0
CIRCLE
  8
0
  6
CONTINUOUS
 62
               3
  5
154
 10
-326.68571428571516
 20
520.73306545954699
 30
0.0
 40
46.0
  0
ARC
  8
0
  6
CONTINUOUS
 62
               3
  5
155
 10
-326.68571428571516
 20
520.73306545954699
 30
0.0
 40
61.999999999999993
 50
217.47199518277233
 51
262.52800481713598
  0
ARC
  8
0
  6
CONTINUOUS
 62
               3
  5
156
 10
-389.68571428571533
 20
520.73306545954699
 30
0.0
 40
12.0
 50
142.52800481715815
 51
217.47199518277256
  0
LINE
  8
0
  6
CONTINUOUS
 62
               3
  5
157
 10
-399.20952380952463
 20
528.0335484678277
 30
0.0
 11
-375.89206349206421
 21
558.45222766899724
 31
0.0
  0
LINE
  8
0
  6
CONTINUOUS
 62
               3
  5
158
 10
-399.20952380952463
 20
513.4325824512664
 30
0.0
 11
-375.89206349206421
 21
483.0139032500968
 31
0.0
  0
ARC
  8
0
  6
CONTINUOUS
 62
               3
  5
159
 10
-295.18571428571511
 20
466.17346502112741
 30
0.0
 40
12.0
 50
262.52800481713581
 51
337.47199518274886
  0
LINE
  8
0
  6
CONTINUOUS
 62
               3
  5
15A
 10
-296.74621326887808
 20
454.27536252856385
 30
0.0
 11
-334.74829236539057
 21
459.25953591463531
 31
0.0
  0
LINE
  8
0
  6
CONTINUOUS
 62
               3
  5
15B
 10
-284.10140577874279
 20
461.5758455368445
 30
0.0
 11
-269.41678699969066
 21
496.97869812408555
 31
0.0
  0
ARC
  8
0
  6
CONTINUOUS
 62
               3
  5
15C
 10
-295.18571428571511
 20
575.29266589796669
 30
0.0
 40
12.0
 50
22.528004817181749
 51
97.471995182795325
  0
LINE
  8
0
  6
CONTINUOUS
 62
               3
  5
15D
 10
-284.10140577874279
 20
579.89028538224943
 30
0.0
 11
-269.41678699969066
 21
544.48743279500843
 31
0.0
  0
LINE
  8
0
  6
CONTINUOUS
 62
               3
  5
15E
 10
-296.74621326887808
 20
587.19076839053014
 30
0.0
 11
-334.74829236539057
 21
582.20659500445868
 31
0.0
  0
ARC
  8
0
  6
CONTINUOUS
 62
               3
  5
15F
 10
-326.68571428571516
 20
520.73306545954699
 30
0.0
 40
61.999999999999993
 50
337.47199518274937
 51
382.52800481711222
  0
ARC
  8
0
  6
CONTINUOUS
 62
               3
  5
160
 10
-326.68571428571516
 20
520.73306545954699
 30
0.0
 40
61.999999999999993
 50
97.471995182795283
 51
142.52800481715883
  0
CIRCLE
  8
0
  6
CONTINUOUS
 62
               3
  5
161
 10
-389.68571428571533
 20
520.73306545954699
 30
0.0
 40
8.2666666666666657
  0
CIRCLE
  8
0
  6
CONTINUOUS
 62
               3
  5
162
 10
-295.18571428571511
 20
575.29266589796669
 30
0.0
 40
8.2666666666666657
  0
CIRCLE
  8
0
  6
CONTINUOUS
 62
               3
  5
163
 10
-295.18571428571511
 20
466.17346502112741
 30
0.0
 40
8.2666666666666657
  0
ARC
  8
0
  6
CONTINUOUS
 62
               3
  5
164
 10
-326.68571428571516
 20
520.73306545954699
 30
0.0
 40
69.5
 50
190.60859167086033
 51
289.39140832904775
  0
ARC
  8
0
  6
CONTINUOUS
 62
               3
  5
165
 10
-326.68571428571516
 20
520.73306545954699
 30
0.0
 40
69.5
 50
70.608591670883641
 51
169.39140832907063
  0
ARC
  8
0
  6
CONTINUOUS
 62
               3
  5
166
 10
-326.68571428571516
 20
520.73306545954699
 30
0.0
 40
69.5
 50
310.60859167083765
 51
409.39140832902399
  0
LINE
  8
0
  6
CONTINUOUS
 62
               3
  5
167
 10
-152.68571428571516
 20
598.23306545954688
 30
0.0
 11
-152.68571428571516
 21
443.23306545954688
 31
0.0
  0
LINE
  8
0
  6
CONTINUOUS
 62
               3
  5
168
 10
-97.685714285715108
 20
601.73306545954688
 30
0.0
 11
-111.68571428571521
 21
601.73306545954688
 31
0.0
  0
LINE
  8
0
  6
CONTINUOUS
 62
               3
  5
169
 10
-111.68571428571521
 20
439.73306545954688
 30
0.0
 11
-97.685714285715108
 21
439.73306545954688
 31
0.0
  0
ARC
  8
0
  6
CONTINUOUS
 62
               3
  5
16A
 10
-225.66629497935847
 20
574.73306545954699
 30
0.0
 40
9.9999999999999982
 50
222.94139984111266
 51
359.99999999993042
  0
ARC
  8
0
  6
CONTINUOUS
 62
               3
  5
16B
 10
-284.2303624610488
 20
520.23306545954688
 30
0.0
 40
69.999999999999986
 50
42.941399841147188
 51
89.999999999999801
  0
LINE
  8
0
  6
CONTINUOUS
 62
               3
  5
16C
 10
-215.66629497935847
 20
612.23306545954699
 30
0.0
 11
-215.66629497935847
 21
574.73306545954699
 31
0.0
  0
LINE
  8
0
  6
CONTINUOUS
 62
               3
  5
16D
 10
-305.66629497935821
 20
612.23306545954699
 30
0.0
 11
-305.66629497935821
 21
590.23306545954676
 31
0.0
  0
LINE
  8
0
  6
CONTINUOUS
 62
               3
  5
16E
 10
-215.66629497935818
 20
620.23306545954688
 30
0.0
 11
-215.66629497935818
 21
632.23306545954699
 31
0.0
  0
LINE
  8
0
  6
CONTINUOUS
 62
               3
  5
16F
 10
-222.66734099988437
 20
620.23306545954711
 30
0.0
 11
-222.66734099988437
 21
612.23306545954699
 31
0.0
  0
LINE
  8
0
  6
CONTINUOUS
 62
               3
  5
170
 10
-305.66629497935878
 20
612.23306545954699
 30
0.0
 11
-215.66629497935818
 21
612.23306545954699
 31
0.0
  0
LINE
  8
0
  6
CONTINUOUS
 62
               3
  5
171
 10
-305.66629497935878
 20
620.23306545954711
 30
0.0
 11
-215.66629497935818
 21
620.23306545954711
 31
0.0
  0
LINE
  8
0
  6
CONTINUOUS
 62
               3
  5
172
 10
-305.66629497935878
 20
632.23306545954699
 30
0.0
 11
-215.66629497935818
 21
632.23306545954699
 31
0.0
  0
LINE
  8
0
  6
CONTINUOUS
 62
               3
  5
173
 10
-305.66629497935878
 20
620.23306545954688
 30
0.0
 11
-305.66629497935878
 21
632.23306545954699
 31
0.0
  0
LINE
  8
0
  6
CONTINUOUS
 62
               3
  5
174
 10
-298.66734099988457
 20
620.23306545954711
 30
0.0
 11
-298.66734099988457
 21
612.23306545954699
 31
0.0
  0
LINE
  8
0
  6
CONTINUOUS
 62
               3
  5
175
 10
-215.66629497935818
 20
421.23306545954694
 30
0.0
 11
-215.66629497935818
 21
409.23306545954688
 31
0.0
  0
LINE
  8
0
  6
CONTINUOUS
 62
               3
  5
176
 10
-222.66734099988437
 20
421.23306545954665
 30
0.0
 11
-222.66734099988437
 21
429.23306545954682
 31
0.0
  0
LINE
  8
0
  6
CONTINUOUS
 62
               3
  5
177
 10
-305.66629497935878
 20
429.23306545954682
 30
0.0
 11
-215.66629497935818
 21
429.23306545954682
 31
0.0
  0
LINE
  8
0
  6
CONTINUOUS
 62
               3
  5
178
 10
-305.66629497935878
 20
421.23306545954665
 30
0.0
 11
-215.66629497935818
 21
421.23306545954665
 31
0.0
  0
LINE
  8
0
  6
CONTINUOUS
 62
               3
  5
179
 10
-305.66629497935878
 20
409.23306545954659
 30
0.0
 11
-215.66629497935818
 21
409.23306545954659
 31
0.0
  0
LINE
  8
0
  6
CONTINUOUS
 62
               3
  5
17A
 10
-305.66629497935878
 20
421.23306545954694
 30
0.0
 11
-305.66629497935878
 21
409.23306545954688
 31
0.0
  0
LINE
  8
0
  6
CONTINUOUS
 62
               3
  5
17B
 10
-298.66734099988457
 20
421.23306545954665
 30
0.0
 11
-298.66734099988457
 21
429.23306545954682
 31
0.0
  0
LINE
  8
0
  6
CONTINUOUS
 62
               3
  5
17C
 10
-215.66629497935847
 20
429.23306545954682
 30
0.0
 11
-215.66629497935847
 21
466.73306545954682
 31
0.0
  0
LINE
  8
0
  6
CONTINUOUS
 62
               3
  5
17D
 10
-305.66629497935821
 20
429.23306545954682
 30
0.0
 11
-305.66629497935821
 21
451.23306545954699
 31
0.0
  0
ARC
  8
0
  6
CONTINUOUS
 62
               3
  5
17E
 10
-225.66629497935847
 20
466.73306545954682
 30
0.0
 40
9.9999999999999982
 50
0.0
 51
137.05860015881848
  0
ARC
  8
0
  6
CONTINUOUS
 62
               3
  5
17F
 10
-284.2303624610488
 20
521.23306545954688
 30
0.0
 40
69.999999999999986
 50
269.99999999999937
 51
317.05860015878409
  0
LINE
  8
0
  6
CONTINUOUS
 62
               3
  5
180
 10
-326.68571428571516
 20
451.23306545954699
 30
0.0
 11
-284.2303624610488
 21
451.23306545954688
 31
0.0
  0
LINE
  8
0
  6
CONTINUOUS
 62
               3
  5
181
 10
-215.66629497935847
 20
451.23306545954699
 30
0.0
 11
-152.68571428571516
 21
451.23306545954699
 31
0.0
  0
LINE
  8
0
  6
CONTINUOUS
 62
               3
  5
182
 10
-326.68571428571516
 20
590.23306545954676
 30
0.0
 11
-284.2303624610488
 21
590.23306545954676
 31
0.0
  0
LINE
  8
0
  6
CONTINUOUS
 62
               3
  5
183
 10
-215.66629497935847
 20
590.23306545954676
 30
0.0
 11
-152.68571428571516
 21
590.23306545954676
 31
0.0
  0
LINE
  8
0
  6
CONTINUOUS
 62
               3
  5
184
 10
-111.68571428571522
 20
-337.5263125198681
 30
0.0
 11
-111.68571428571491
 21
-532.02631251987259
 31
0.0
  0
LINE
  8
0
  6
CONTINUOUS
 62
               3
  5
185
 10
-152.68571428571681
 20
-350.02631251987094
 30
0.0
 11
-129.68571428571792
 21
-350.02631251987401
 31
0.0
  0
LINE
  8
0
  6
CONTINUOUS
 62
               3
  5
186
 10
-152.68571428572051
 20
-505.02631251987464
 30
0.0
 11
-129.68571428572662
 21
-505.02631251986486
 31
0.0
  0
LINE
  8
0
  6
CONTINUOUS
 62
               3
  5
187
 10
-129.6857142857163
 20
-337.5263125198727
 30
0.0
 11
-111.68571428571522
 21
-337.5263125198681
 31
0.0
  0
LINE
  8
0
  6
CONTINUOUS
 62
               3
  5
188
 10
-129.68571428571502
 20
-532.02631251987657
 30
0.0
 11
-111.68571428571491
 21
-532.02631251987259
 31
0.0
  0
ARC
  8
0
  6
CONTINUOUS
 62
               3
  5
189
 10
-157.68571428571499
 20
-258.52631251987202
 30
0.0
 40
100.5
 50
179.99999999996558
 51
272.85171354057024
  0
ARC
  8
0
  6
CONTINUOUS
 62
               3
  5
18A
 10
-157.68571428571499
 20
-258.52631251987202
 30
0.0
 40
239.5
 50
179.99999999996558
 51
271.19624096681849
  0
LINE
  8
0
  6
CONTINUOUS
 62
               3
  5
18B
 10
-129.6857142857163
 20
-337.5263125198727
 30
0.0
 11
-129.68571428571502
 21
-532.02631251987657
 31
0.0
  0
LINE
  8
0
  6
CONTINUOUS
 62
               3
  5
18C
 10
-97.685714285715108
 20
-346.52631251987208
 30
0.0
 11
-111.68571428571522
 21
-346.52631251987208
 31
0.0
  0
LINE
  8
0
  6
CONTINUOUS
 62
               3
  5
18D
 10
-97.685714285715108
 20
-508.52631251987202
 30
0.0
 11
-111.68571428571491
 21
-508.52631251987202
 31
0.0
  0
LINE
  8
0
  6
CONTINUOUS
 62
               3
  5
18E
 10
-79.685714285715108
 20
-337.52631251987242
 30
0.0
 11
-97.685714285715108
 21
-337.52631251987202
 31
0.0
  0
LINE
  8
0
  6
CONTINUOUS
 62
               3
  5
18F
 10
-79.685714285715108
 20
-532.02631251987225
 30
0.0
 11
-97.685714285715108
 21
-532.02631251987191
 31
0.0
  0
LINE
  8
0
  6
CONTINUOUS
 62
               3
  5
190
 10
-97.685714285715108
 20
-337.52631251987202
 30
0.0
 11
-97.685714285715108
 21
-532.02631251987191
 31
0.0
  0
LINE
  8
0
  6
CONTINUOUS
 62
               3
  5
191
 10
-79.685714285715108
 20
-532.02631251987225
 30
0.0
 11
-79.685714285715108
 21
-337.52631251987242
 31
0.0
  0
ARC
  8
0
  6
CONTINUOUS
 62
               3
  5
192
 10
-384.18464102193241
 20
-259.22358387444467
 30
0.0
 40
13.0
 50
109.45209668778834
 51
176.92539338568741
  0
ARC
  8
0
  6
CONTINUOUS
 62
               3
  5
193
 10
-157.68571428571531
 20
-258.52631251987208
 30
0.0
 40
100.5
 50
179.99560546487402
 51
188.58368168551152
  0
ARC
  8
0
  6
CONTINUOUS
 62
               3
  5
194
 10
-271.18571395186905
 20
-258.51760717129957
 30
0.0
 40
13.0
 50
359.99560546483963
 51
430.54790331210756
  0
LINE
  8
0
  6
CONTINUOUS
 62
               3
  5
195
 10
-388.51388318457794
 20
-246.96562065467739
 30
0.0
 11
-381.02062114623664
 21
-244.31916582604589
 31
0.0
  0
LINE
  8
0
  6
CONTINUOUS
 62
               3
  5
196
 10
-266.85647178922352
 20
-246.2596439515321
 30
0.0
 11
-272.35080742519415
 21
-244.31916582604589
 31
0.0
  0
LINE
  8
0
  6
CONTINUOUS
 62
               3
  5
197
 10
-152.68571428571511
 20
-350.02631251987094
 30
0.0
 11
-152.68571428571511
 21
-505.02631251987464
 31
0.0
  0
LINE
  8
0
  6
CONTINUOUS
 62
               3
  5
198
 10
-275.68571428571488
 20
38.506283375692391
 30
0.0
 11
-275.68571428571488
 21
19.473687480127893
 31
0.0
  0
LINE
  8
0
  6
CONTINUOUS
 62
               3
  5
199
 10
-377.68571428571499
 20
38.506283375703987
 30
0.0
 11
-377.68571428571499
 21
19.473687480127893
 31
0.0
  0
LINE
  8
0
  6
CONTINUOUS
 62
               3
  5
19A
 10
-401.68571428571403
 20
52.473687480127893
 30
0.0
 11
-401.6857142857159
 21
38.506283375703987
 31
0.0
  0
LINE
  8
0
  6
CONTINUOUS
 62
               3
  5
19B
 10
-264.68571428571596
 20
52.473687480127893
 30
0.0
 11
-264.68571428571471
 21
38.506283375692277
 31
0.0
  0
LINE
  8
0
  6
CONTINUOUS
 62
               3
  5
19C
 10
-401.68571428571403
 20
52.473687480127893
 30
0.0
 11
-264.68571428571596
 21
52.473687480127893
 31
0.0
  0
LINE
  8
0
  6
CONTINUOUS
 62
               3
  5
19D
 10
-401.6857142857159
 20
38.506283375703987
 30
0.0
 11
-264.68571428571471
 21
38.506283375692277
 31
0.0
  0
LINE
  8
0
  6
CONTINUOUS
 62
               3
  5
19E
 10
-264.68571428571579
 20
63.47368748012812
 30
0.0
 11
-401.68571428571454
 21
63.47368748012812
 31
0.0
  0
LINE
  8
0
  6
CONTINUOUS
 62
               3
  5
19F
 10
-401.6857142857142
 20
63.47368748012812
 30
0.0
 11
-401.68571428571391
 21
77.473687480128177
 31
0.0
  0
LINE
  8
0
  6
CONTINUOUS
 62
               3
  5
1A0
 10
-264.68571428571579
 20
63.47368748012812
 30
0.0
 11
-264.68571428571579
 21
77.47368748012812
 31
0.0
  0
LINE
  8
0
  6
CONTINUOUS
 62
               3
  5
1A1
 10
-264.68571428571579
 20
77.47368748012812
 30
0.0
 11
-401.68571428571391
 21
77.47368748012812
 31
0.0
  0
LINE
  8
0
  6
CONTINUOUS
 62
               3
  5
1A2
 10
-377.68571428571499
 20
52.473687480127893
 30
0.0
 11
-377.68571428571499
 21
63.47368748012812
 31
0.0
  0
LINE
  8
0
  6
CONTINUOUS
 62
               3
  5
1A3
 10
-275.68571428571488
 20
52.473687480127893
 30
0.0
 11
-275.68571428571488
 21
63.47368748012812
 31
0.0
  0
LINE
  8
0
  6
CONTINUOUS
 62
               3
  5
1A4
 10
-386.18571428571511
 20
-27.526312519872107
 30
0.0
 11
-267.18571428571511
 21
-27.526312519872107
 31
0.0
  0
LINE
  8
0
  6
CONTINUOUS
 62
               3
  5
1A5
 10
-267.18571428571511
 20
-21.526312519872107
 30
0.0
 11
-386.18571428571511
 21
-21.526312519872107
 31
0.0
  0
LINE
  8
0
  6
CONTINUOUS
 62
               3
  5
1A6
 10
-377.68571428571499
 20
19.473687480127893
 30
0.0
 11
-275.68571428571488
 21
19.473687480127893
 31
0.0
  0
LINE
  8
0
  6
CONTINUOUS
 62
               3
  5
1A7
 10
-372.18571428571511
 20
19.473687480127893
 30
0.0
 11
-372.18571428571511
 21
-229.17380022246368
 31
0.0
  0
LINE
  8
0
  6
CONTINUOUS
 62
               3
  5
1A8
 10
-281.18571428571516
 20
-229.173800222464
 30
0.0
 11
-281.18571428571516
 21
19.473687480127893
 31
0.0
  0
LINE
  8
0
  6
CONTINUOUS
 62
               3
  5
1A9
 10
-386.18571428571511
 20
-27.526312519872107
 30
0.0
 11
-386.18571428571511
 21
-21.526312519872107
 31
0.0
  0
LINE
  8
0
  6
CONTINUOUS
 62
               3
  5
1AA
 10
-267.18571428571511
 20
-27.526312519872107
 30
0.0
 11
-267.18571428571511
 21
-21.526312519872107
 31
0.0
  0
LINE
  8
0
  6
CONTINUOUS
 62
               3
  5
1AB
 10
-386.18571428571511
 20
-77.526312519872107
 30
0.0
 11
-267.18571428571511
 21
-77.526312519872107
 31
0.0
  0
LINE
  8
0
  6
CONTINUOUS
 62
               3
  5
1AC
 10
-267.18571428571511
 20
-71.526312519872107
 30
0.0
 11
-386.18571428571511
 21
-71.526312519872107
 31
0.0
  0
LINE
  8
0
  6
CONTINUOUS
 62
               3
  5
1AD
 10
-386.18571428571511
 20
-77.526312519872107
 30
0.0
 11
-386.18571428571511
 21
-71.526312519872107
 31
0.0
  0
LINE
  8
0
  6
CONTINUOUS
 62
               3
  5
1AE
 10
-267.18571428571511
 20
-77.526312519872107
 30
0.0
 11
-267.18571428571511
 21
-71.526312519872107
 31
0.0
  0
LINE
  8
0
  6
CONTINUOUS
 62
               3
  5
1AF
 10
-386.18571428571511
 20
-127.52631251987179
 30
0.0
 11
-267.18571428571511
 21
-127.52631251987179
 31
0.0
  0
LINE
  8
0
  6
CONTINUOUS
 62
               3
  5
1B0
 10
-267.18571428571511
 20
-121.52631251987211
 30
0.0
 11
-386.18571428571511
 21
-121.52631251987211
 31
0.0
  0
LINE
  8
0
  6
CONTINUOUS
 62
               3
  5
1B1
 10
-386.18571428571511
 20
-127.52631251987179
 30
0.0
 11
-386.18571428571511
 21
-121.52631251987211
 31
0.0
  0
LINE
  8
0
  6
CONTINUOUS
 62
               3
  5
1B2
 10
-267.18571428571511
 20
-127.52631251987179
 30
0.0
 11
-267.18571428571511
 21
-121.52631251987211
 31
0.0
  0
LINE
  8
0
  6
CONTINUOUS
 62
               3
  5
1B3
 10
-386.18571428571511
 20
-177.52631251987179
 30
0.0
 11
-267.18571428571511
 21
-177.52631251987179
 31
0.0
  0
LINE
  8
0
  6
CONTINUOUS
 62
               3
  5
1B4
 10
-267.18571428571511
 20
-171.52631251987191
 30
0.0
 11
-386.18571428571511
 21
-171.52631251987191
 31
0.0
  0
LINE
  8
0
  6
CONTINUOUS
 62
               3
  5
1B5
 10
-386.18571428571511
 20
-177.52631251987179
 30
0.0
 11
-386.18571428571511
 21
-171.52631251987191
 31
0.0
  0
LINE
  8
0
  6
CONTINUOUS
 62
               3
  5
1B6
 10
-267.18571428571511
 20
-177.52631251987179
 30
0.0
 11
-267.18571428571511
 21
-171.52631251987191
 31
0.0
  0
ARC
  8
0
  6
CONTINUOUS
 62
               3
  5
1B7
 10
-389.18571428571511
 20
-229.17380022246368
 30
0.0
 40
17.0
 50
298.32977102171986
 51
359.99999999993042
  0
ARC
  8
0
  6
CONTINUOUS
 62
               3
  5
1B8
 10
-264.18571428571511
 20
-229.173800222464
 30
0.0
 40
17.0
 50
179.99999999996558
 51
241.670228978175
  0
LINE
  8
0
  6
CONTINUOUS
 62
               3
  5
1B9
 10
-387.03097802578009
 20
-327.52631251987202
 30
0.0
 11
-230.75588603862661
 21
-327.52631251987202
 31
0.0
  0
LINE
  8
0
  6
CONTINUOUS
 62
               3
  5
1BA
 10
-388.47620369114964
 20
-322.52631251987202
 30
0.0
 11
-235.17280998557976
 21
-322.52631251987202
 31
0.0
  0
LINE
  8
0
  6
CONTINUOUS
 62
               3
  5
1BB
 10
-347.24265157585052
 20
-447.52631251987202
 30
0.0
 11
-304.78856945854977
 21
-447.52631251987202
 31
0.0
  0
LINE
  8
0
  6
CONTINUOUS
 62
               3
  5
1BC
 10
-343.68571428571511
 20
-447.52631251987202
 30
0.0
 11
-343.68571428571511
 21
-477.52631251987202
 31
0.0
  0
LINE
  8
0
  6
CONTINUOUS
 62
               3
  5
1BD
 10
-309.68571428571511
 20
-477.52631251987202
 30
0.0
 11
-309.68571428571511
 21
-447.52631251987202
 31
0.0
  0
LINE
  8
0
  6
CONTINUOUS
 62
               3
  5
1BE
 10
-343.68571428571511
 20
-477.52631251987202
 30
0.0
 11
-309.68571428571511
 21
-477.52631251987202
 31
0.0
  0
LINE
  8
0
  6
CONTINUOUS
 62
               3
  5
1BF
 10
-331.68571428571511
 20
-447.52631251987202
 30
0.0
 11
-331.68571428571511
 21
-477.52631251987202
 31
0.0
  0
LINE
  8
0
  6
CONTINUOUS
 62
               3
  5
1C0
 10
-321.68571428571511
 20
-477.52631251987202
 30
0.0
 11
-321.68571428571511
 21
-447.52631251987202
 31
0.0
  0
LINE
  8
0
  6
CONTINUOUS
 62
               3
  5
1C1
 10
-347.24265157585052
 20
-447.52631251987202
 30
0.0
 11
-351.46409570621324
 21
-399.27498531664082
 31
0.0
  0
ARC
  8
0
  6
CONTINUOUS
 62
               3
  5
1C2
 10
-292.48610013275299
 20
-424.34611767326663
 30
0.0
 40
9.9999999999999964
 50
117.72027269076911
 51
332.2797273091445
  0
ARC
  8
0
  6
CONTINUOUS
 62
               3
  5
1C3
 10
-279.20766367018348
 20
-431.32344704126274
 30
0.0
 40
4.9999999999999982
 50
64.456602312026305
 51
152.27972730917895
  0
ARC
  8
0
  6
CONTINUOUS
 62
               3
  5
1C4
 10
-299.46342950074916
 20
-411.06768121069695
 30
0.0
 40
4.9999999999999982
 50
297.7202726907351
 51
385.5433976878868
  0
ARC
  8
0
  6
CONTINUOUS
 62
               3
  5
1C5
 10
-228.8464898259638
 20
-360.70650736647741
 30
0.0
 40
9.9999999999999964
 50
297.72027269073504
 51
512.27972730910938
  0
ARC
  8
0
  6
CONTINUOUS
 62
               3
  5
1C6
 10
-242.12492628853332
 20
-353.72917799848119
 30
0.0
 40
4.9999999999999982
 50
244.45660231199182
 51
332.2797273091445
  0
ARC
  8
0
  6
CONTINUOUS
 62
               3
  5
1C7
 10
-221.86916045796769
 20
-373.9849438290471
 30
0.0
 40
4.9999999999999982
 50
117.72027269076949
 51
205.54339768792224
  0
LINE
  8
0
  6
CONTINUOUS
 62
               3
  5
1C8
 10
-302.43026398642616
 20
-425.40139263805077
 30
0.0
 11
-305.4150323208878
 21
-397.2750498614011
 31
0.0
  0
LINE
  8
0
  6
CONTINUOUS
 62
               3
  5
1C9
 10
-255.91755763782933
 20
-347.77757517834277
 30
0.0
 11
-227.7912148611795
 21
-350.76234351280425
 31
0.0
  0
LINE
  8
0
  6
CONTINUOUS
 62
               3
  5
1CA
 10
-293.5413750975373
 20
-434.29028152693968
 30
0.0
 11
-265.41503232088746
 21
-437.2750498614011
 31
0.0
  0
LINE
  8
0
  6
CONTINUOUS
 62
               3
  5
1CB
 10
-215.91755763782933
 20
-387.77757517834277
 30
0.0
 11
-218.90232597229067
 21
-359.65123240169311
 31
0.0
  0
ARC
  8
0
  6
CONTINUOUS
 62
               3
  5
1CC
 10
-260.66629497935844
 20
-392.52631251987202
 30
0.0
 40
45.0
 50
83.942441268965311
 51
186.057558730983
  0
ARC
  8
0
  6
CONTINUOUS
 62
               3
  5
1CD
 10
-260.66629497935844
 20
-392.52631251987202
 30
0.0
 40
38.0
 50
64.45660231202632
 51
205.54339768792207
  0
ARC
  8
0
  6
CONTINUOUS
 62
               3
  5
1CE
 10
-260.66629497935844
 20
-392.52631251987202
 30
0.0
 40
45.0
 50
263.94244126893096
 51
366.0575587309479
  0
ARC
  8
0
  6
CONTINUOUS
 62
               3
  5
1CF
 10
-260.66629497935844
 20
-392.52631251987202
 30
0.0
 40
38.0
 50
244.45660231199182
 51
385.54339768788691
  0
CIRCLE
  8
0
  6
CONTINUOUS
 62
               3
  5
1D0
 10
-228.8464898259638
 20
-360.70650736647741
 30
0.0
 40
6.2999999999999989
  0
CIRCLE
  8
0
  6
CONTINUOUS
 62
               3
  5
1D1
 10
-292.48610013275299
 20
-424.34611767326663
 30
0.0
 40
6.2999999999999989
  0
ARC
  8
0
  6
CONTINUOUS
 62
               3
  5
1D2
 10
391.31428571428569
 20
-427.52631251987174
 30
0.0
 40
90.0
 50
302.88320949573944
 51
359.99999999993042
  0
ARC
  8
0
  6
CONTINUOUS
 62
               3
  5
1D3
 10
391.31428571428569
 20
-518.02631251987168
 30
0.0
 40
14.0
 50
237.11679050415728
 51
302.88320949573949
  0
LINE
  8
0
  6
CONTINUOUS
 62
               3
  5
1D4
 10
383.71328844495218
 20
-529.78321859721973
 30
0.0
 11
342.45073183999858
 21
-503.10642301710925
 31
0.0
  0
LINE
  8
0
  6
CONTINUOUS
 62
               3
  5
1D5
 10
398.91528298361931
 20
-529.78321859721973
 30
0.0
 11
440.17783958857279
 21
-503.10642301710925
 31
0.0
  0
ARC
  8
0
  6
CONTINUOUS
 62
               3
  5
1D6
 10
469.68958475677732
 20
-382.27631251987168
 30
0.0
 40
14.0
 50
357.11679050413437
 51
422.88320949571573
  0
LINE
  8
0
  6
CONTINUOUS
 62
               3
  5
1D7
 10
483.67186272433509
 20
-382.98051621053685
 30
0.0
 11
481.20035836287184
 21
-432.05333624557517
 31
0.0
  0
LINE
  8
0
  6
CONTINUOUS
 62
               3
  5
1D8
 10
476.07086545500164
 20
-369.81520275185881
 30
0.0
 11
432.33680448858473
 21
-347.41917829693091
 31
0.0
  0
ARC
  8
0
  6
CONTINUOUS
 62
               3
  5
1D9
 10
312.93898667179405
 20
-382.27631251987168
 30
0.0
 40
14.0
 50
117.11679050418009
 51
182.88320949576237
  0
LINE
  8
0
  6
CONTINUOUS
 62
               3
  5
1DA
 10
306.55770597356974
 20
-369.81520275185864
 30
0.0
 11
350.29176693998676
 21
-347.41917829693091
 31
0.0
  0
LINE
  8
0
  6
CONTINUOUS
 62
               3
  5
1DB
 10
298.95670870423612
 20
-382.98051621053668
 30
0.0
 11
301.42821306569954
 21
-432.053336245575
 31
0.0
  0
ARC
  8
0
  6
CONTINUOUS
 62
               3
  5
1DC
 10
391.31428571428569
 20
-427.52631251987174
 30
0.0
 40
90.0
 50
179.99999999996558
 51
237.11679050415717
  0
ARC
  8
0
  6
CONTINUOUS
 62
               3
  5
1DD
 10
391.31428571428569
 20
-427.52631251987174
 30
0.0
 40
90.0
 50
62.883209495785373
 51
117.11679050418012
  0
CIRCLE
  8
0
  6
CONTINUOUS
 62
               3
  5
1DE
 10
391.31428571428569
 20
-427.52631251987174
 30
0.0
 40
71.5
  0
LINE
  8
0
  6
CONTINUOUS
 62
               3
  5
1DF
 10
321.81428571428563
 20
-347.52631251987168
 30
0.0
 11
321.81428571428563
 21
-254.22616048660552
 31
0.0
  0
LINE
  8
0
  6
CONTINUOUS
 62
               3
  5
1E0
 10
460.81428571428575
 20
-347.52631251987179
 30
0.0
 11
460.81428571428575
 21
-254.22616048660544
 31
0.0
  0
CIRCLE
  8
0
  6
CONTINUOUS
 62
               3
  5
1E1
 10
312.93898667179405
 20
-382.27631251987168
 30
0.0
 40
9.0
  0
CIRCLE
  8
0
  6
CONTINUOUS
 62
               3
  5
1E2
 10
469.68958475677732
 20
-382.27631251987168
 30
0.0
 40
9.0
  0
CIRCLE
  8
0
  6
CONTINUOUS
 62
               3
  5
1E3
 10
391.31428571428569
 20
-518.02631251987168
 30
0.0
 40
9.0
  0
ARC
  8
0
  6
CONTINUOUS
 62
               3
  5
1E4
 10
333.81535897806828
 20
-259.22358387444473
 30
0.0
 40
13.0
 50
109.45209668778827
 51
157.39243691860554
  0
LINE
  8
0
  6
CONTINUOUS
 62
               3
  5
1E5
 10
329.48611681542269
 20
-246.96562065467734
 30
0.0
 11
334.47560238851463
 21
-245.20344443292885
 31
0.0
  0
LINE
  8
0
  6
CONTINUOUS
 62
               3
  5
1E6
 10
324.81428571428648
 20
52.473687480128291
 30
0.0
 11
324.81428571428501
 21
38.47368748013406
 31
0.0
  0
LINE
  8
0
  6
CONTINUOUS
 62
               3
  5
1E7
 10
324.81428571428648
 20
52.473687480128291
 30
0.0
 11
457.81428571428489
 21
52.473687480128291
 31
0.0
  0
LINE
  8
0
  6
CONTINUOUS
 62
               3
  5
1E8
 10
324.81428571428501
 20
38.47368748013406
 30
0.0
 11
457.81428571428631
 21
38.473687480122464
 31
0.0
  0
LINE
  8
0
  6
CONTINUOUS
 62
               3
  5
1E9
 10
457.81428571428489
 20
52.473687480128291
 30
0.0
 11
457.81428571428631
 21
38.47368748012218
 31
0.0
  0
LINE
  8
0
  6
CONTINUOUS
 62
               3
  5
1EA
 10
457.81428571428569
 20
63.473687480128177
 30
0.0
 11
324.81428571428575
 21
63.473687480128177
 31
0.0
  0
LINE
  8
0
  6
CONTINUOUS
 62
               3
  5
1EB
 10
457.81428571428569
 20
77.473687480128291
 30
0.0
 11
324.81428571428575
 21
77.473687480128291
 31
0.0
  0
LINE
  8
0
  6
CONTINUOUS
 62
               3
  5
1EC
 10
457.81428571428569
 20
63.473687480128177
 30
0.0
 11
457.81428571428569
 21
77.473687480128291
 31
0.0
  0
LINE
  8
0
  6
CONTINUOUS
 62
               3
  5
1ED
 10
324.81428571428575
 20
77.473687480128291
 30
0.0
 11
324.81428571428575
 21
63.473687480128177
 31
0.0
  0
LINE
  8
0
  6
CONTINUOUS
 62
               3
  5
1EE
 10
340.3142857142858
 20
19.473687480128376
 30
0.0
 11
340.31428571428575
 21
38.473687480132583
 31
0.0
  0
LINE
  8
0
  6
CONTINUOUS
 62
               3
  5
1EF
 10
442.31428571428575
 20
19.473687480128262
 30
0.0
 11
442.31428571428575
 21
38.473687480123772
 31
0.0
  0
LINE
  8
0
  6
CONTINUOUS
 62
               3
  5
1F0
 10
340.31428571428569
 20
63.473687480128177
 30
0.0
 11
340.31428571428569
 21
52.473687480128291
 31
0.0
  0
LINE
  8
0
  6
CONTINUOUS
 62
               3
  5
1F1
 10
442.31428571428569
 20
52.473687480128291
 30
0.0
 11
442.31428571428569
 21
63.473687480128177
 31
0.0
  0
LINE
  8
0
  6
CONTINUOUS
 62
               3
  5
1F2
 10
442.31428571428575
 20
19.473687480128262
 30
0.0
 11
340.3142857142858
 21
19.473687480128376
 31
0.0
  0
LINE
  8
0
  6
CONTINUOUS
 62
               3
  5
1F3
 10
436.81428571428569
 20
19.473687480128376
 30
0.0
 11
436.81428571428569
 21
-229.17380022246363
 31
0.0
  0
LINE
  8
0
  6
CONTINUOUS
 62
               3
  5
1F4
 10
345.81428571428563
 20
19.473687480128376
 30
0.0
 11
345.81428571428575
 21
-229.17380022246374
 31
0.0
  0
LINE
  8
0
  6
CONTINUOUS
 62
               3
  5
1F5
 10
345.81428571428569
 20
-27.526312519871738
 30
0.0
 11
436.81428571428569
 21
-27.526312519871738
 31
0.0
  0
LINE
  8
0
  6
CONTINUOUS
 62
               3
  5
1F6
 10
436.81428571428569
 20
-21.526312519871738
 30
0.0
 11
345.81428571428569
 21
-21.526312519871738
 31
0.0
  0
LINE
  8
0
  6
CONTINUOUS
 62
               3
  5
1F7
 10
345.81428571428569
 20
-77.526312519871738
 30
0.0
 11
436.81428571428569
 21
-77.526312519871738
 31
0.0
  0
LINE
  8
0
  6
CONTINUOUS
 62
               3
  5
1F8
 10
436.81428571428569
 20
-71.526312519871738
 30
0.0
 11
345.81428571428569
 21
-71.526312519871738
 31
0.0
  0
LINE
  8
0
  6
CONTINUOUS
 62
               3
  5
1F9
 10
345.81428571428569
 20
-127.52631251987174
 30
0.0
 11
436.81428571428569
 21
-127.52631251987174
 31
0.0
  0
LINE
  8
0
  6
CONTINUOUS
 62
               3
  5
1FA
 10
436.81428571428569
 20
-121.52631251987174
 30
0.0
 11
345.81428571428569
 21
-121.52631251987174
 31
0.0
  0
LINE
  8
0
  6
CONTINUOUS
 62
               3
  5
1FB
 10
345.81428571428569
 20
-177.52631251987174
 30
0.0
 11
436.81428571428569
 21
-177.52631251987174
 31
0.0
  0
LINE
  8
0
  6
CONTINUOUS
 62
               3
  5
1FC
 10
436.81428571428569
 20
-171.52631251987174
 30
0.0
 11
345.81428571428569
 21
-171.52631251987174
 31
0.0
  0
ARC
  8
0
  6
CONTINUOUS
 62
               3
  5
1FD
 10
328.81428571428569
 20
-229.17380022246374
 30
0.0
 40
17.0
 50
289.45209668775379
 51
359.99999999993042
  0
ARC
  8
0
  6
CONTINUOUS
 62
               3
  5
1FE
 10
448.81321245050322
 20
-259.22358387444473
 30
0.0
 40
13.0
 50
22.607563081360137
 51
70.547903312177397
  0
LINE
  8
0
  6
CONTINUOUS
 62
               3
  5
1FF
 10
453.14245461314869
 20
-246.96562065467725
 30
0.0
 11
448.1529690400568
 21
-245.20344443292885
 31
0.0
  0
ARC
  8
0
  6
CONTINUOUS
 62
               3
  5
200
 10
453.81428571428575
 20
-229.17380022246363
 30
0.0
 40
17.0
 50
179.99999999996569
 51
250.54790331214318
  0
LINE
  8
0
  6
CONTINUOUS
 62
               3
  5
201
 10
321.81428571428563
 20
-327.52631251987174
 30
0.0
 11
460.81428571428575
 21
-327.52631251987174
 31
0.0
  0
LINE
  8
0
  6
CONTINUOUS
 62
               3
  5
202
 10
460.81428571428569
 20
-322.52631251987174
 30
0.0
 11
321.81428571428563
 21
-322.52631251987179
 31
0.0
  0
ARC
  8
0
  6
CONTINUOUS
 62
               3
  5
203
 10
445.31428571428563
 20
-357.52631251987157
 30
0.0
 40
9.9999999999999982
 50
89.999999999982862
 51
134.93880656455846
  0
LINE
  8
0
  6
CONTINUOUS
 62
               3
  5
204
 10
445.31428571428563
 20
-347.52631251987179
 30
0.0
 11
482.81428571428569
 21
-347.52631251987179
 31
0.0
  0
LINE
  8
0
  6
CONTINUOUS
 62
               3
  5
205
 10
490.81428571428449
 20
-347.52631251987179
 30
0.0
 11
502.81428571428472
 21
-347.52631251987179
 31
0.0
  0
LINE
  8
0
  6
CONTINUOUS
 62
               3
  5
206
 10
490.81428571428449
 20
-354.82289475817834
 30
0.0
 11
482.81428571428569
 21
-354.82289475817834
 31
0.0
  0
LINE
  8
0
  6
CONTINUOUS
 62
               3
  5
207
 10
482.81428571428569
 20
-347.52631251987179
 30
0.0
 11
482.81428571428569
 21
-377.40371313391984
 31
0.0
  0
LINE
  8
0
  6
CONTINUOUS
 62
               3
  5
208
 10
490.81428571428449
 20
-347.52631251987179
 30
0.0
 11
490.81428571428449
 21
-437.52631251987066
 31
0.0
  0
LINE
  8
0
  6
CONTINUOUS
 62
               3
  5
209
 10
502.81428571428472
 20
-347.52631251987179
 30
0.0
 11
502.81428571428472
 21
-437.52631251987191
 31
0.0
  0
LINE
  8
0
  6
CONTINUOUS
 62
               3
  5
20A
 10
490.81428571428449
 20
-437.52631251987191
 30
0.0
 11
502.81428571428472
 21
-437.52631251987191
 31
0.0
  0
LINE
  8
0
  6
CONTINUOUS
 62
               3
  5
20B
 10
490.81428571428449
 20
-430.82289475817834
 30
0.0
 11
482.81428571428569
 21
-430.82289475817834
 31
0.0
  0
LINE
  8
0
  6
CONTINUOUS
 62
               3
  5
20C
 10
480.75700481427725
 20
-437.52631251987179
 30
0.0
 11
482.81428571428569
 21
-437.52631251987179
 31
0.0
  0
LINE
  8
0
  6
CONTINUOUS
 62
               3
  5
20D
 10
482.81428571428569
 20
-400.00808975502662
 30
0.0
 11
482.81428571428569
 21
-437.52631251987179
 31
0.0
  0
ARC
  8
0
  6
CONTINUOUS
 62
               3
  5
20E
 10
337.31428571428552
 20
-357.52631251987168
 30
0.0
 40
9.9999999999999982
 50
45.061193435441012
 51
89.999999999913982
  0
LINE
  8
0
  6
CONTINUOUS
 62
               3
  5
20F
 10
337.31428571428552
 20
-347.52631251987168
 30
0.0
 11
299.81428571428575
 21
-347.52631251987168
 31
0.0
  0
LINE
  8
0
  6
CONTINUOUS
 62
               3
  5
210
 10
291.81428571428688
 20
-347.52631251987168
 30
0.0
 11
279.81428571428671
 21
-347.52631251987168
 31
0.0
  0
LINE
  8
0
  6
CONTINUOUS
 62
               3
  5
211
 10
291.81428571428688
 20
-354.82289475817822
 30
0.0
 11
299.81428571428575
 21
-354.82289475817822
 31
0.0
  0
LINE
  8
0
  6
CONTINUOUS
 62
               3
  5
212
 10
279.81428571428671
 20
-347.52631251987168
 30
0.0
 11
279.81428571428671
 21
-437.52631251987179
 31
0.0
  0
LINE
  8
0
  6
CONTINUOUS
 62
               3
  5
213
 10
291.81428571428688
 20
-347.52631251987168
 30
0.0
 11
291.81428571428688
 21
-437.52631251987054
 31
0.0
  0
LINE
  8
0
  6
CONTINUOUS
 62
               3
  5
214
 10
299.81428571428575
 20
-347.52631251987168
 30
0.0
 11
299.81428571428575
 21
-377.40371313391961
 31
0.0
  0
LINE
  8
0
  6
CONTINUOUS
 62
               3
  5
215
 10
301.87156661429412
 20
-437.52631251987179
 30
0.0
 11
299.81428571428575
 21
-437.52631251987179
 31
0.0
  0
LINE
  8
0
  6
CONTINUOUS
 62
               3
  5
216
 10
291.81428571428688
 20
-437.52631251987179
 30
0.0
 11
279.81428571428671
 21
-437.52631251987179
 31
0.0
  0
LINE
  8
0
  6
CONTINUOUS
 62
               3
  5
217
 10
291.81428571428688
 20
-430.82289475817817
 30
0.0
 11
299.81428571428575
 21
-430.82289475817817
 31
0.0
  0
LINE
  8
0
  6
CONTINUOUS
 62
               3
  5
218
 10
299.81428571428575
 20
-400.00808975502844
 30
0.0
 11
299.81428571428575
 21
-437.52631251987168
 31
0.0
  0
POINT
  8
0
  6
CONTINUOUS
 62
               5
  5
219
 10
-326.68571428571511
 20
-427.52631251987202
 30
0.0
  0
ENDSEC
  0
EOF
