  0
SECTION
  2
HEADER
  9
$ACADVER
  1
AC1009
  9
$INSBASE
 10
0.0
 20
0.0
 30
0.0
  9
$EXTMIN
 10
-429.68571428571533
 20
-548.39150007946
 30
0.0
  9
$EXTMAX
 10
506.31428571428455
 20
640.59825301913543
 30
0.0
  9
$LIMMIN
 10
-458.93571428571533
 20
-585.54742986379108
  9
$LIMMAX
 10
535.56428571428455
 20
677.75418280346651
  9
$ORTHOMODE
 70
               0
  9
$REGENMODE
 70
               1
  9
$FILLMODE
 70
               1
  9
$QTEXTMODE
 70
               0
  9
$MIRRTEXT
 70
               1
  9
$DRAGMODE
 70
               2
  9
$LTSCALE
 40
1.0
  9
$OSMODE
 70
               0
  9
$ATTMODE
 70
               1
  9
$TEXTSIZE
 40
0.2
  9
$TRACEWID
 40
0.05
  9
$TEXTSTYLE
  7
STANDARD
  9
$CLAYER
  8
0
  9
$CELTYPE
  6
CONTINUOUS
  9
$CECOLOR
 62
             256
  9
$DIMSCALE
 40
1.0
  9
$DIMASZ
 40
0.18
  9
$DIMEXO
 40
0.0625
  9
$DIMDLI
 40
0.38
  9
$DIMRND
 40
0.0
  9
$DIMDLE
 40
0.0
  9
$DIMEXE
 40
0.18
  9
$DIMTP
 40
0.0
  9
$DIMTM
 40
0.0
  9
$DIMTXT
 40
0.18
  9
$DIMCEN
 40
0.09
  9
$DIMTSZ
 40
0.0
  9
$DIMTOL
 70
               0
  9
$DIMLIM
 70
               0
  9
$DIMTIH
 70
               1
  9
$DIMTOH
 70
               1
  9
$DIMSE1
 70
               0
  9
$DIMSE2
 70
               0
  9
$DIMTAD
 70
               0
  9
$DIMZIN
 70
               0
  9
$DIMBLK
  1

  9
$DIMASO
 70
               1
  9
$DIMSHO
 70
               1
  9
$DIMPOST
  1

  9
$DIMAPOST
  1

  9
$DIMALT
 70
               0
  9
$DIMALTD
 70
               2
  9
$DIMALTF
 40
25.399999999999999
  9
$DIMLFAC
 40
1.0
  9
$DIMTOFL
 70
               0
  9
$DIMTVP
 40
0.0
  9
$DIMTIX
 70
               0
  9
$DIMSOXD
 70
               0
  9
$DIMSAH
 70
               0
  9
$DIMBLK1
  1

  9
$DIMBLK2
  1

  9
$DIMSTYLE
  2
STANDARD
  9
$DIMCLRD
 70
               0
  9
$DIMCLRE
 70
               0
  9
$DIMCLRT
 70
               0
  9
$DIMTFAC
 40
1.0
  9
$DIMGAP
 40
0.09
  9
$LUNITS
 70
               2
  9
$LUPREC
 70
               4
  9
$AXISMODE
 70
               0
  9
$AXISUNIT
 10
0.0
 20
0.0
  9
$SKETCHINC
 40
0.1
  9
$FILLETRAD
 40
0.0
  9
$AUNITS
 70
               0
  9
$AUPREC
 70
               0
  9
$MENU
  1
acad
  9
$ELEVATION
 40
0.0
  9
$PELEVATION
 40
0.0
  9
$THICKNESS
 40
0.0
  9
$LIMCHECK
 70
               0
  9
$BLIPMODE
 70
               1
  9
$CHAMFERA
 40
0.0
  9
$CHAMFERB
 40
0.0
  9
$SKPOLY
 70
               0
  9
$TDCREATE
 40
0.000000000
  9
$TDUPDATE
 40
0.000000000
  9
$TDINDWG
 40
0.0000000000
  9
$TDUSRTIMER
 40
0.0000000000
  9
$USRTIMER
 70
               1
  9
$ANGBASE
 50
0.0
  9
$ANGDIR
 70
               0
  9
$PDMODE
 70
               0
  9
$PDSIZE
 40
1.0
  9
$PLINEWID
 40
0.0
  9
$COORDS
 70
               1
  9
$SPLFRAME
 70
               0
  9
$SPLINETYPE
 70
               6
  9
$SPLINESEGS
 70
               8
  9
$ATTDIA
 70
               0
  9
$ATTREQ
 70
               1
  9
$HANDLING
 70
               1
  9
$HANDSEED
  5
217
  9
$SURFTAB1
 70
               6
  9
$SURFTAB2
 70
               6
  9
$SURFTYPE
 70
               6
  9
$SURFU
 70
               6
  9
$SURFV
 70
               6
  9
$UCSNAME
  2

  9
$UCSORG
 10
0.0
 20
0.0
 30
0.0
  9
$UCSXDIR
 10
1.0
 20
0.0
 30
0.0
  9
$UCSYDIR
 10
0.0
 20
1.0
 30
0.0
  9
$PUCSNAME
  2

  9
$PUCSORG
 10
0.0
 20
0.0
 30
0.0
  9
$PUCSXDIR
 10
1.0
 20
0.0
 30
0.0
  9
$PUCSYDIR
 10
0.0
 20
1.0
 30
0.0
  9
$USERI1
 70
               0
  9
$USERI2
 70
               0
  9
$USERI3
 70
               0
  9
$USERI4
 70
               0
  9
$USERI5
 70
               0
  9
$USERR1
 40
0.0
  9
$USERR2
 40
0.0
  9
$USERR3
 40
0.0
  9
$USERR4
 40
0.0
  9
$USERR5
 40
0.0
  9
$WORLDVIEW
 70
               1
  9
$SHADEDGE
 70
               3
  9
$SHADEDIF
 70
              70
  9
$TILEMODE
 70
               1
  9
$MAXACTVP
 70
              16
  9
$PINSBASE
 10
0.0
 20
0.0
 30
0.0
  9
$PLIMCHECK
 70
               0
  9
$PEXTMIN
 10
1.0000000000000000E+20
 20
1.0000000000000000E+20
 30
1.0000000000000000E+20
  9
$PEXTMAX
 10
-1.0000000000000000E+20
 20
-1.0000000000000000E+20
 30
-1.0000000000000000E+20
  9
$PLIMMIN
 10
0.0
 20
0.0
  9
$PLIMMAX
 10
12.0
 20
9.0
  9
$UNITMODE
 70
               0
  9
$VISRETAIN
 70
               0
  9
$PLINEGEN
 70
               1
  9
$PSLTSCALE
 70
               0
  9
$TREEDEPTH
 70
            3020
  9
$DWGCODEPAGE
  3
dos932
  0
ENDSEC
  0
SECTION
  2
TABLES
  0
TABLE
  2
VPORT
 70
               1
  0
VPORT
  2
*ACTIVE
 70
               0
 10
0.0
 20
0.0
 11
1.0
 21
1.0
 12
38.314285714284608
 22
46.103376469837713
 13
0.0
 23
0.0
 14
1.0
 24
1.0
 15
0.0
 25
0.0
 16
0.0
 26
0.0
 36
1.0
 17
0.0
 27
0.0
 37
0.0
 40
1263.3016126672576
 41
0.787222932376595
 42
50.0
 43
0.0
 44
0.0
 50
0.0
 51
0.0
 71
               0
 72
             100
 73
               1
 74
               1
 75
               0
 76
               0
 77
               0
 78
               0
  0
ENDTAB
  0
TABLE
  2
LTYPE
 70
              26
  0
LTYPE
  2
CONTINUOUS
 70
               0
  3
Solid line
 72
              65
 73
               0
 40
0.0
  0
LTYPE
  2
HIDDENX2
 70
               0
  3
CADPAC FUSION LINETYPE
 72
              65
 73
               2
 40
80.0
 49
60.0
 49
-20.0
  0
LTYPE
  2
HIDDEN
 70
               0
  3
CADPAC FUSION LINETYPE
 72
              65
 73
               2
 40
60.0
 49
40.0
 49
-20.0
  0
LTYPE
  2
HIDDEN2
 70
               0
  3
CADPAC FUSION LINETYPE
 72
              65
 73
               2
 40
50.0
 49
30.0
 49
-20.0
  0
LTYPE
  2
DASHED
 70
               0
  3
CADPAC FUSION LINETYPE
 72
              65
 73
               2
 40
60.0
 49
40.0
 49
-20.0
  0
LTYPE
  2
DASHED2
 70
               0
  3
CADPAC FUSION LINETYPE
 72
              65
 73
               2
 40
45.0
 49
30.0
 49
-15.0
  0
LTYPE
  2
DASHEDX2
 70
               0
  3
CADPAC FUSION LINETYPE
 72
              65
 73
               2
 40
90.0
 49
60.0
 49
-30.0
  0
LTYPE
  2
DOTX2
 70
               0
  3
CADPAC FUSION LINETYPE
 72
              65
 73
               2
 40
25.0
 49
0.0
 49
-25.0
  0
LTYPE
  2
DOT
 70
               0
  3
CADPAC FUSION LINETYPE
 72
              65
 73
               2
 40
20.0
 49
0.0
 49
-20.0
  0
LTYPE
  2
DOTS
 70
               0
  3
CADPAC FUSION LINETYPE
 72
              65
 73
               2
 40
20.0
 49
0.0
 49
-20.0
  0
LTYPE
  2
DOT2
 70
               0
  3
CADPAC FUSION LINETYPE
 72
              65
 73
               2
 40
15.0
 49
0.0
 49
-15.0
  0
LTYPE
  2
CENTERX2
 70
               0
  3
CADPAC FUSION LINETYPE
 72
              65
 73
               4
 40
120.0
 49
50.0
 49
-25.0
 49
20.0
 49
-25.0
  0
LTYPE
  2
CENTER
 70
               0
  3
CADPAC FUSION LINETYPE
 72
              65
 73
               4
 40
92.0
 49
40.0
 49
-20.0
 49
12.0
 49
-20.0
  0
LTYPE
  2
CENTER2
 70
               0
  3
CADPAC FUSION LINETYPE
 72
              65
 73
               4
 40
64.0
 49
30.0
 49
-15.0
 49
4.0
 49
-15.0
  0
LTYPE
  2
DASHDOTX2
 70
               0
  3
CADPAC FUSION LINETYPE
 72
              65
 73
               4
 40
100.0
 49
50.0
 49
-25.0
 49
0.0
 49
-25.0
  0
LTYPE
  2
DASHDOT
 70
               0
  3
CADPAC FUSION LINETYPE
 72
              65
 73
               4
 40
80.0
 49
40.0
 49
-20.0
 49
0.0
 49
-20.0
  0
LTYPE
  2
DASHDOT2
 70
               0
  3
CADPAC FUSION LINETYPE
 72
              65
 73
               4
 40
60.0
 49
30.0
 49
-15.0
 49
0.0
 49
-15.0
  0
LTYPE
  2
DIVIDEX2
 70
               0
  3
CADPAC FUSION LINETYPE
 72
              65
 73
               6
 40
125.0
 49
50.0
 49
-25.0
 49
0.0
 49
-25.0
 49
0.0
 49
-25.0
  0
LTYPE
  2
DIVIDE
 70
               0
  3
CADPAC FUSION LINETYPE
 72
              65
 73
               6
 40
100.0
 49
40.0
 49
-20.0
 49
0.0
 49
-20.0
 49
0.0
 49
-20.0
  0
LTYPE
  2
DIVIDE2
 70
               0
  3
CADPAC FUSION LINETYPE
 72
              65
 73
               6
 40
75.0
 49
30.0
 49
-15.0
 49
0.0
 49
-15.0
 49
0.0
 49
-15.0
  0
LTYPE
  2
BORDERX2
 70
               0
  3
CADPAC FUSION LINETYPE
 72
              65
 73
               6
 40
175.0
 49
50.0
 49
-25.0
 49
50.0
 49
-25.0
 49
0.0
 49
-25.0
  0
LTYPE
  2
BORDER
 70
               0
  3
CADPAC FUSION LINETYPE
 72
              65
 73
               6
 40
140.0
 49
40.0
 49
-20.0
 49
40.0
 49
-20.0
 49
0.0
 49
-20.0
  0
LTYPE
  2
BORDER2
 70
               0
  3
CADPAC FUSION LINETYPE
 72
              65
 73
               6
 40
105.0
 49
30.0
 49
-15.0
 49
30.0
 49
-15.0
 49
0.0
 49
-15.0
  0
LTYPE
  2
PHANTOMX2
 70
               0
  3
CADPAC FUSION LINETYPE
 72
              65
 73
               6
 40
150.0
 49
50.0
 49
-20.0
 49
20.0
 49
-20.0
 49
20.0
 49
-20.0
  0
LTYPE
  2
PHANTOM
 70
               0
  3
CADPAC FUSION LINETYPE
 72
              65
 73
               6
 40
124.0
 49
40.0
 49
-20.0
 49
12.0
 49
-20.0
 49
12.0
 49
-20.0
  0
LTYPE
  2
PHANTOM2
 70
               0
  3
CADPAC FUSION LINETYPE
 72
              65
 73
               6
 40
106.0
 49
30.0
 49
-20.0
 49
8.0
 49
-20.0
 49
8.0
 49
-20.0
  0
ENDTAB
  0
TABLE
  2
LAYER
 70
             256
  0
LAYER
  2
0
 70
               0
 62
               7
  6
CONTINUOUS
  0
LAYER
  2
LAYER001
 70
               0
 62
               7
  6
CONTINUOUS
  0
LAYER
  2
LAYER002
 70
               0
 62
               7
  6
CONTINUOUS
  0
LAYER
  2
LAYER003
 70
               0
 62
               7
  6
CONTINUOUS
  0
LAYER
  2
LAYER004
 70
               0
 62
               7
  6
CONTINUOUS
  0
LAYER
  2
LAYER005
 70
               0
 62
               7
  6
CONTINUOUS
  0
LAYER
  2
LAYER006
 70
               0
 62
               7
  6
CONTINUOUS
  0
LAYER
  2
LAYER007
 70
               0
 62
               7
  6
CONTINUOUS
  0
LAYER
  2
LAYER008
 70
               0
 62
               7
  6
CONTINUOUS
  0
LAYER
  2
LAYER009
 70
               0
 62
               7
  6
CONTINUOUS
  0
LAYER
  2
LAYER010
 70
               0
 62
               7
  6
CONTINUOUS
  0
LAYER
  2
LAYER011
 70
               0
 62
               7
  6
CONTINUOUS
  0
LAYER
  2
LAYER012
 70
               0
 62
               7
  6
CONTINUOUS
  0
LAYER
  2
LAYER013
 70
               0
 62
               7
  6
CONTINUOUS
  0
LAYER
  2
LAYER014
 70
               0
 62
               7
  6
CONTINUOUS
  0
LAYER
  2
LAYER015
 70
               0
 62
               7
  6
CONTINUOUS
  0
LAYER
  2
LAYER016
 70
               0
 62
               7
  6
CONTINUOUS
  0
LAYER
  2
LAYER017
 70
               0
 62
               7
  6
CONTINUOUS
  0
LAYER
  2
LAYER018
 70
               0
 62
               7
  6
CONTINUOUS
  0
LAYER
  2
LAYER019
 70
               0
 62
               7
  6
CONTINUOUS
  0
LAYER
  2
LAYER020
 70
               0
 62
               7
  6
CONTINUOUS
  0
LAYER
  2
LAYER021
 70
               0
 62
               7
  6
CONTINUOUS
  0
LAYER
  2
LAYER022
 70
               0
 62
               7
  6
CONTINUOUS
  0
LAYER
  2
LAYER023
 70
               0
 62
               7
  6
CONTINUOUS
  0
LAYER
  2
LAYER024
 70
               0
 62
               7
  6
CONTINUOUS
  0
LAYER
  2
LAYER025
 70
               0
 62
               7
  6
CONTINUOUS
  0
LAYER
  2
LAYER026
 70
               0
 62
               7
  6
CONTINUOUS
  0
LAYER
  2
LAYER027
 70
               0
 62
               7
  6
CONTINUOUS
  0
LAYER
  2
LAYER028
 70
               0
 62
               7
  6
CONTINUOUS
  0
LAYER
  2
LAYER029
 70
               0
 62
               7
  6
CONTINUOUS
  0
LAYER
  2
LAYER030
 70
               0
 62
               7
  6
CONTINUOUS
  0
LAYER
  2
LAYER031
 70
               0
 62
               7
  6
CONTINUOUS
  0
LAYER
  2
LAYER032
 70
               0
 62
               7
  6
CONTINUOUS
  0
LAYER
  2
LAYER033
 70
               0
 62
               7
  6
CONTINUOUS
  0
LAYER
  2
LAYER034
 70
               0
 62
               7
  6
CONTINUOUS
  0
LAYER
  2
LAYER035
 70
               0
 62
               7
  6
CONTINUOUS
  0
LAYER
  2
LAYER036
 70
               0
 62
               7
  6
CONTINUOUS
  0
LAYER
  2
LAYER037
 70
               0
 62
               7
  6
CONTINUOUS
  0
LAYER
  2
LAYER038
 70
               0
 62
               7
  6
CONTINUOUS
  0
LAYER
  2
LAYER039
 70
               0
 62
               7
  6
CONTINUOUS
  0
LAYER
  2
LAYER040
 70
               0
 62
               7
  6
CONTINUOUS
  0
LAYER
  2
LAYER041
 70
               0
 62
               7
  6
CONTINUOUS
  0
LAYER
  2
LAYER042
 70
               0
 62
               7
  6
CONTINUOUS
  0
LAYER
  2
LAYER043
 70
               0
 62
               7
  6
CONTINUOUS
  0
LAYER
  2
LAYER044
 70
               0
 62
               7
  6
CONTINUOUS
  0
LAYER
  2
LAYER045
 70
               0
 62
               7
  6
CONTINUOUS
  0
LAYER
  2
LAYER046
 70
               0
 62
               7
  6
CONTINUOUS
  0
LAYER
  2
LAYER047
 70
               0
 62
               7
  6
CONTINUOUS
  0
LAYER
  2
LAYER048
 70
               0
 62
               7
  6
CONTINUOUS
  0
LAYER
  2
LAYER049
 70
               0
 62
               7
  6
CONTINUOUS
  0
LAYER
  2
LAYER050
 70
               0
 62
               7
  6
CONTINUOUS
  0
LAYER
  2
LAYER051
 70
               0
 62
               7
  6
CONTINUOUS
  0
LAYER
  2
LAYER052
 70
               0
 62
               7
  6
CONTINUOUS
  0
LAYER
  2
LAYER053
 70
               0
 62
               7
  6
CONTINUOUS
  0
LAYER
  2
LAYER054
 70
               0
 62
               7
  6
CONTINUOUS
  0
LAYER
  2
LAYER055
 70
               0
 62
               7
  6
CONTINUOUS
  0
LAYER
  2
LAYER056
 70
               0
 62
               7
  6
CONTINUOUS
  0
LAYER
  2
LAYER057
 70
               0
 62
               7
  6
CONTINUOUS
  0
LAYER
  2
LAYER058
 70
               0
 62
               7
  6
CONTINUOUS
  0
LAYER
  2
LAYER059
 70
               0
 62
               7
  6
CONTINUOUS
  0
LAYER
  2
LAYER060
 70
               0
 62
               7
  6
CONTINUOUS
  0
LAYER
  2
LAYER061
 70
               0
 62
               7
  6
CONTINUOUS
  0
LAYER
  2
LAYER062
 70
               0
 62
               7
  6
CONTINUOUS
  0
LAYER
  2
LAYER063
 70
               0
 62
               7
  6
CONTINUOUS
  0
LAYER
  2
LAYER064
 70
               0
 62
               7
  6
CONTINUOUS
  0
LAYER
  2
LAYER065
 70
               0
 62
               7
  6
CONTINUOUS
  0
LAYER
  2
LAYER066
 70
               0
 62
               7
  6
CONTINUOUS
  0
LAYER
  2
LAYER067
 70
               0
 62
               7
  6
CONTINUOUS
  0
LAYER
  2
LAYER068
 70
               0
 62
               7
  6
CONTINUOUS
  0
LAYER
  2
LAYER069
 70
               0
 62
               7
  6
CONTINUOUS
  0
LAYER
  2
LAYER070
 70
               0
 62
               7
  6
CONTINUOUS
  0
LAYER
  2
LAYER071
 70
               0
 62
               7
  6
CONTINUOUS
  0
LAYER
  2
LAYER072
 70
               0
 62
               7
  6
CONTINUOUS
  0
LAYER
  2
LAYER073
 70
               0
 62
               7
  6
CONTINUOUS
  0
LAYER
  2
LAYER074
 70
               0
 62
               7
  6
CONTINUOUS
  0
LAYER
  2
LAYER075
 70
               0
 62
               7
  6
CONTINUOUS
  0
LAYER
  2
LAYER076
 70
               0
 62
               7
  6
CONTINUOUS
  0
LAYER
  2
LAYER077
 70
               0
 62
               7
  6
CONTINUOUS
  0
LAYER
  2
LAYER078
 70
               0
 62
               7
  6
CONTINUOUS
  0
LAYER
  2
LAYER079
 70
               0
 62
               7
  6
CONTINUOUS
  0
LAYER
  2
LAYER080
 70
               0
 62
               7
  6
CONTINUOUS
  0
LAYER
  2
LAYER081
 70
               0
 62
               7
  6
CONTINUOUS
  0
LAYER
  2
LAYER082
 70
               0
 62
               7
  6
CONTINUOUS
  0
LAYER
  2
LAYER083
 70
               0
 62
               7
  6
CONTINUOUS
  0
LAYER
  2
LAYER084
 70
               0
 62
               7
  6
CONTINUOUS
  0
LAYER
  2
LAYER085
 70
               0
 62
               7
  6
CONTINUOUS
  0
LAYER
  2
LAYER086
 70
               0
 62
               7
  6
CONTINUOUS
  0
LAYER
  2
LAYER087
 70
               0
 62
               7
  6
CONTINUOUS
  0
LAYER
  2
LAYER088
 70
               0
 62
               7
  6
CONTINUOUS
  0
LAYER
  2
LAYER089
 70
               0
 62
               7
  6
CONTINUOUS
  0
LAYER
  2
LAYER090
 70
               0
 62
               7
  6
CONTINUOUS
  0
LAYER
  2
LAYER091
 70
               0
 62
               7
  6
CONTINUOUS
  0
LAYER
  2
LAYER092
 70
               0
 62
               7
  6
CONTINUOUS
  0
LAYER
  2
LAYER093
 70
               0
 62
               7
  6
CONTINUOUS
  0
LAYER
  2
LAYER094
 70
               0
 62
               7
  6
CONTINUOUS
  0
LAYER
  2
LAYER095
 70
               0
 62
               7
  6
CONTINUOUS
  0
LAYER
  2
LAYER096
 70
               0
 62
               7
  6
CONTINUOUS
  0
LAYER
  2
LAYER097
 70
               0
 62
               7
  6
CONTINUOUS
  0
LAYER
  2
LAYER098
 70
               0
 62
               7
  6
CONTINUOUS
  0
LAYER
  2
LAYER099
 70
               0
 62
               7
  6
CONTINUOUS
  0
LAYER
  2
LAYER100
 70
               0
 62
               7
  6
CONTINUOUS
  0
LAYER
  2
LAYER101
 70
               0
 62
               7
  6
CONTINUOUS
  0
LAYER
  2
LAYER102
 70
               0
 62
               7
  6
CONTINUOUS
  0
LAYER
  2
LAYER103
 70
               0
 62
               7
  6
CONTINUOUS
  0
LAYER
  2
LAYER104
 70
               0
 62
               7
  6
CONTINUOUS
  0
LAYER
  2
LAYER105
 70
               0
 62
               7
  6
CONTINUOUS
  0
LAYER
  2
LAYER106
 70
               0
 62
               7
  6
CONTINUOUS
  0
LAYER
  2
LAYER107
 70
               0
 62
               7
  6
CONTINUOUS
  0
LAYER
  2
LAYER108
 70
               0
 62
               7
  6
CONTINUOUS
  0
LAYER
  2
LAYER109
 70
               0
 62
               7
  6
CONTINUOUS
  0
LAYER
  2
LAYER110
 70
               0
 62
               7
  6
CONTINUOUS
  0
LAYER
  2
LAYER111
 70
               0
 62
               7
  6
CONTINUOUS
  0
LAYER
  2
LAYER112
 70
               0
 62
               7
  6
CONTINUOUS
  0
LAYER
  2
LAYER113
 70
               0
 62
               7
  6
CONTINUOUS
  0
LAYER
  2
LAYER114
 70
               0
 62
               7
  6
CONTINUOUS
  0
LAYER
  2
LAYER115
 70
               0
 62
               7
  6
CONTINUOUS
  0
LAYER
  2
LAYER116
 70
               0
 62
               7
  6
CONTINUOUS
  0
LAYER
  2
LAYER117
 70
               0
 62
               7
  6
CONTINUOUS
  0
LAYER
  2
LAYER118
 70
               0
 62
               7
  6
CONTINUOUS
  0
LAYER
  2
LAYER119
 70
               0
 62
               7
  6
CONTINUOUS
  0
LAYER
  2
LAYER120
 70
               0
 62
               7
  6
CONTINUOUS
  0
LAYER
  2
LAYER121
 70
               0
 62
               7
  6
CONTINUOUS
  0
LAYER
  2
LAYER122
 70
               0
 62
               7
  6
CONTINUOUS
  0
LAYER
  2
LAYER123
 70
               0
 62
               7
  6
CONTINUOUS
  0
LAYER
  2
LAYER124
 70
               0
 62
               7
  6
CONTINUOUS
  0
LAYER
  2
LAYER125
 70
               0
 62
               7
  6
CONTINUOUS
  0
LAYER
  2
LAYER126
 70
               0
 62
               7
  6
CONTINUOUS
  0
LAYER
  2
LAYER127
 70
               0
 62
               7
  6
CONTINUOUS
  0
LAYER
  2
LAYER128
 70
               0
 62
               7
  6
CONTINUOUS
  0
LAYER
  2
LAYER129
 70
               0
 62
               7
  6
CONTINUOUS
  0
LAYER
  2
LAYER130
 70
               0
 62
               7
  6
CONTINUOUS
  0
LAYER
  2
LAYER131
 70
               0
 62
               7
  6
CONTINUOUS
  0
LAYER
  2
LAYER132
 70
               0
 62
               7
  6
CONTINUOUS
  0
LAYER
  2
LAYER133
 70
               0
 62
               7
  6
CONTINUOUS
  0
LAYER
  2
LAYER134
 70
               0
 62
               7
  6
CONTINUOUS
  0
LAYER
  2
LAYER135
 70
               0
 62
               7
  6
CONTINUOUS
  0
LAYER
  2
LAYER136
 70
               0
 62
               7
  6
CONTINUOUS
  0
LAYER
  2
LAYER137
 70
               0
 62
               7
  6
CONTINUOUS
  0
LAYER
  2
LAYER138
 70
               0
 62
               7
  6
CONTINUOUS
  0
LAYER
  2
LAYER139
 70
               0
 62
               7
  6
CONTINUOUS
  0
LAYER
  2
LAYER140
 70
               0
 62
               7
  6
CONTINUOUS
  0
LAYER
  2
LAYER141
 70
               0
 62
               7
  6
CONTINUOUS
  0
LAYER
  2
LAYER142
 70
               0
 62
               7
  6
CONTINUOUS
  0
LAYER
  2
LAYER143
 70
               0
 62
               7
  6
CONTINUOUS
  0
LAYER
  2
LAYER144
 70
               0
 62
               7
  6
CONTINUOUS
  0
LAYER
  2
LAYER145
 70
               0
 62
               7
  6
CONTINUOUS
  0
LAYER
  2
LAYER146
 70
               0
 62
               7
  6
CONTINUOUS
  0
LAYER
  2
LAYER147
 70
               0
 62
               7
  6
CONTINUOUS
  0
LAYER
  2
LAYER148
 70
               0
 62
               7
  6
CONTINUOUS
  0
LAYER
  2
LAYER149
 70
               0
 62
               7
  6
CONTINUOUS
  0
LAYER
  2
LAYER150
 70
               0
 62
               7
  6
CONTINUOUS
  0
LAYER
  2
LAYER151
 70
               0
 62
               7
  6
CONTINUOUS
  0
LAYER
  2
LAYER152
 70
               0
 62
               7
  6
CONTINUOUS
  0
LAYER
  2
LAYER153
 70
               0
 62
               7
  6
CONTINUOUS
  0
LAYER
  2
LAYER154
 70
               0
 62
               7
  6
CONTINUOUS
  0
LAYER
  2
LAYER155
 70
               0
 62
               7
  6
CONTINUOUS
  0
LAYER
  2
LAYER156
 70
               0
 62
               7
  6
CONTINUOUS
  0
LAYER
  2
LAYER157
 70
               0
 62
               7
  6
CONTINUOUS
  0
LAYER
  2
LAYER158
 70
               0
 62
               7
  6
CONTINUOUS
  0
LAYER
  2
LAYER159
 70
               0
 62
               7
  6
CONTINUOUS
  0
LAYER
  2
LAYER160
 70
               0
 62
               7
  6
CONTINUOUS
  0
LAYER
  2
LAYER161
 70
               0
 62
               7
  6
CONTINUOUS
  0
LAYER
  2
LAYER162
 70
               0
 62
               7
  6
CONTINUOUS
  0
LAYER
  2
LAYER163
 70
               0
 62
               7
  6
CONTINUOUS
  0
LAYER
  2
LAYER164
 70
               0
 62
               7
  6
CONTINUOUS
  0
LAYER
  2
LAYER165
 70
               0
 62
               7
  6
CONTINUOUS
  0
LAYER
  2
LAYER166
 70
               0
 62
               7
  6
CONTINUOUS
  0
LAYER
  2
LAYER167
 70
               0
 62
               7
  6
CONTINUOUS
  0
LAYER
  2
LAYER168
 70
               0
 62
               7
  6
CONTINUOUS
  0
LAYER
  2
LAYER169
 70
               0
 62
               7
  6
CONTINUOUS
  0
LAYER
  2
LAYER170
 70
               0
 62
               7
  6
CONTINUOUS
  0
LAYER
  2
LAYER171
 70
               0
 62
               7
  6
CONTINUOUS
  0
LAYER
  2
LAYER172
 70
               0
 62
               7
  6
CONTINUOUS
  0
LAYER
  2
LAYER173
 70
               0
 62
               7
  6
CONTINUOUS
  0
LAYER
  2
LAYER174
 70
               0
 62
               7
  6
CONTINUOUS
  0
LAYER
  2
LAYER175
 70
               0
 62
               7
  6
CONTINUOUS
  0
LAYER
  2
LAYER176
 70
               0
 62
               7
  6
CONTINUOUS
  0
LAYER
  2
LAYER177
 70
               0
 62
               7
  6
CONTINUOUS
  0
LAYER
  2
LAYER178
 70
               0
 62
               7
  6
CONTINUOUS
  0
LAYER
  2
LAYER179
 70
               0
 62
               7
  6
CONTINUOUS
  0
LAYER
  2
LAYER180
 70
               0
 62
               7
  6
CONTINUOUS
  0
LAYER
  2
LAYER181
 70
               0
 62
               7
  6
CONTINUOUS
  0
LAYER
  2
LAYER182
 70
               0
 62
               7
  6
CONTINUOUS
  0
LAYER
  2
LAYER183
 70
               0
 62
               7
  6
CONTINUOUS
  0
LAYER
  2
LAYER184
 70
               0
 62
               7
  6
CONTINUOUS
  0
LAYER
  2
LAYER185
 70
               0
 62
               7
  6
CONTINUOUS
  0
LAYER
  2
LAYER186
 70
               0
 62
               7
  6
CONTINUOUS
  0
LAYER
  2
LAYER187
 70
               0
 62
               7
  6
CONTINUOUS
  0
LAYER
  2
LAYER188
 70
               0
 62
               7
  6
CONTINUOUS
  0
LAYER
  2
LAYER189
 70
               0
 62
               7
  6
CONTINUOUS
  0
LAYER
  2
LAYER190
 70
               0
 62
               7
  6
CONTINUOUS
  0
LAYER
  2
LAYER191
 70
               0
 62
               7
  6
CONTINUOUS
  0
LAYER
  2
LAYER192
 70
               0
 62
               7
  6
CONTINUOUS
  0
LAYER
  2
LAYER193
 70
               0
 62
               7
  6
CONTINUOUS
  0
LAYER
  2
LAYER194
 70
               0
 62
               7
  6
CONTINUOUS
  0
LAYER
  2
LAYER195
 70
               0
 62
               7
  6
CONTINUOUS
  0
LAYER
  2
LAYER196
 70
               0
 62
               7
  6
CONTINUOUS
  0
LAYER
  2
LAYER197
 70
               0
 62
               7
  6
CONTINUOUS
  0
LAYER
  2
LAYER198
 70
               0
 62
               7
  6
CONTINUOUS
  0
LAYER
  2
LAYER199
 70
               0
 62
               7
  6
CONTINUOUS
  0
LAYER
  2
LAYER200
 70
               0
 62
               7
  6
CONTINUOUS
  0
LAYER
  2
LAYER201
 70
               0
 62
               7
  6
CONTINUOUS
  0
LAYER
  2
LAYER202
 70
               0
 62
               7
  6
CONTINUOUS
  0
LAYER
  2
LAYER203
 70
               0
 62
               7
  6
CONTINUOUS
  0
LAYER
  2
LAYER204
 70
               0
 62
               7
  6
CONTINUOUS
  0
LAYER
  2
LAYER205
 70
               0
 62
               7
  6
CONTINUOUS
  0
LAYER
  2
LAYER206
 70
               0
 62
               7
  6
CONTINUOUS
  0
LAYER
  2
LAYER207
 70
               0
 62
               7
  6
CONTINUOUS
  0
LAYER
  2
LAYER208
 70
               0
 62
               7
  6
CONTINUOUS
  0
LAYER
  2
LAYER209
 70
               0
 62
               7
  6
CONTINUOUS
  0
LAYER
  2
LAYER210
 70
               0
 62
               7
  6
CONTINUOUS
  0
LAYER
  2
LAYER211
 70
               0
 62
               7
  6
CONTINUOUS
  0
LAYER
  2
LAYER212
 70
               0
 62
               7
  6
CONTINUOUS
  0
LAYER
  2
LAYER213
 70
               0
 62
               7
  6
CONTINUOUS
  0
LAYER
  2
LAYER214
 70
               0
 62
               7
  6
CONTINUOUS
  0
LAYER
  2
LAYER215
 70
               0
 62
               7
  6
CONTINUOUS
  0
LAYER
  2
LAYER216
 70
               0
 62
               7
  6
CONTINUOUS
  0
LAYER
  2
LAYER217
 70
               0
 62
               7
  6
CONTINUOUS
  0
LAYER
  2
LAYER218
 70
               0
 62
               7
  6
CONTINUOUS
  0
LAYER
  2
LAYER219
 70
               0
 62
               7
  6
CONTINUOUS
  0
LAYER
  2
LAYER220
 70
               0
 62
               7
  6
CONTINUOUS
  0
LAYER
  2
LAYER221
 70
               0
 62
               7
  6
CONTINUOUS
  0
LAYER
  2
LAYER222
 70
               0
 62
               7
  6
CONTINUOUS
  0
LAYER
  2
LAYER223
 70
               0
 62
               7
  6
CONTINUOUS
  0
LAYER
  2
LAYER224
 70
               0
 62
               7
  6
CONTINUOUS
  0
LAYER
  2
LAYER225
 70
               0
 62
               7
  6
CONTINUOUS
  0
LAYER
  2
LAYER226
 70
               0
 62
               7
  6
CONTINUOUS
  0
LAYER
  2
LAYER227
 70
               0
 62
               7
  6
CONTINUOUS
  0
LAYER
  2
LAYER228
 70
               0
 62
               7
  6
CONTINUOUS
  0
LAYER
  2
LAYER229
 70
               0
 62
               7
  6
CONTINUOUS
  0
LAYER
  2
LAYER230
 70
               0
 62
               7
  6
CONTINUOUS
  0
LAYER
  2
LAYER231
 70
               0
 62
               7
  6
CONTINUOUS
  0
LAYER
  2
LAYER232
 70
               0
 62
               7
  6
CONTINUOUS
  0
LAYER
  2
LAYER233
 70
               0
 62
               7
  6
CONTINUOUS
  0
LAYER
  2
LAYER234
 70
               0
 62
               7
  6
CONTINUOUS
  0
LAYER
  2
LAYER235
 70
               0
 62
               7
  6
CONTINUOUS
  0
LAYER
  2
LAYER236
 70
               0
 62
               7
  6
CONTINUOUS
  0
LAYER
  2
LAYER237
 70
               0
 62
               7
  6
CONTINUOUS
  0
LAYER
  2
LAYER238
 70
               0
 62
               7
  6
CONTINUOUS
  0
LAYER
  2
LAYER239
 70
               0
 62
               7
  6
CONTINUOUS
  0
LAYER
  2
LAYER240
 70
               0
 62
               7
  6
CONTINUOUS
  0
LAYER
  2
LAYER241
 70
               0
 62
               7
  6
CONTINUOUS
  0
LAYER
  2
LAYER242
 70
               0
 62
               7
  6
CONTINUOUS
  0
LAYER
  2
LAYER243
 70
               0
 62
               7
  6
CONTINUOUS
  0
LAYER
  2
LAYER244
 70
               0
 62
               7
  6
CONTINUOUS
  0
LAYER
  2
LAYER245
 70
               0
 62
               7
  6
CONTINUOUS
  0
LAYER
  2
LAYER246
 70
               0
 62
               7
  6
CONTINUOUS
  0
LAYER
  2
LAYER247
 70
               0
 62
               7
  6
CONTINUOUS
  0
LAYER
  2
LAYER248
 70
               0
 62
               7
  6
CONTINUOUS
  0
LAYER
  2
LAYER249
 70
               0
 62
               7
  6
CONTINUOUS
  0
LAYER
  2
LAYER250
 70
               0
 62
               7
  6
CONTINUOUS
  0
LAYER
  2
LAYER251
 70
               0
 62
               7
  6
CONTINUOUS
  0
LAYER
  2
LAYER252
 70
               0
 62
               7
  6
CONTINUOUS
  0
LAYER
  2
LAYER253
 70
               0
 62
               7
  6
CONTINUOUS
  0
LAYER
  2
LAYER254
 70
               0
 62
               7
  6
CONTINUOUS
  0
LAYER
  2
LAYER255
 70
               0
 62
               7
  6
CONTINUOUS
  0
ENDTAB
  0
TABLE
  2
STYLE
 70
               1
  0
STYLE
  2
STANDARD
 70
               0
 40
0.0
 41
1.0
 50
0.0
 71
               0
 42
0.0
  3
txt
  4

  0
ENDTAB
  0
TABLE
  2
VIEW
 70
               0
  0
VIEW
  2
QQQQ
 70
               0
 40
1263.3016126672576
 10
38.314285714284608
 20
46.103376469837713
 41
994.49999999999989
 11
0.0
 21
0.0
 31
1.0
 12
100.0
 22
100.0
 32
0.0
 42
50.0
 43
0.0
 44
0.0
 50
0.0
 71
               0
  0
ENDTAB
  0
TABLE
  2
UCS
 70
               0
  0
ENDTAB
  0
TABLE
  2
APPID
 70
               1
  0
APPID
  2
ACAD
 70
               0
  0
ENDTAB
  0
TABLE
  2
DIMSTYLE
 70
               1
  0
DIMSTYLE
  2
STANDARD
 70
               0
  3

  4

  5

  6

  7

 40
1.0
 41
0.18
 42
0.0625
 43
0.38
 44
0.18
 45
0.0
 46
0.0
 47
0.0
 48
0.0
140
0.18
141
0.09
142
0.0
143
25.399999999999999
144
1.0
145
0.0
146
1.0
147
0.09
 71
               0
 72
               0
 73
               1
 74
               1
 75
               0
 76
               0
 77
               0
 78
               0
170
               0
171
               2
172
               0
173
               0
174
               0
175
               0
176
               0
177
               0
178
               0
  0
ENDTAB
  0
ENDSEC
  0
SECTION
  2
BLOCKS
  0
ENDSEC
  0
SECTION
  2
ENTITIES
  0
POINT
  8
0
  6
CONTINUOUS
 62
               7
  5
136
 10
-326.68571428571511
 20
-427.52631251987202
 30
0.0
  0
POINT
  8
0
  6
CONTINUOUS
 62
               7
  5
137
 10
-326.68571428571516
 20
520.73306545954688
 30
0.0
  0
POINT
  8
0
  6
CONTINUOUS
 62
               7
  5
138
 10
-326.68571428571516
 20
-427.52631251987196
 30
0.0
  0
POINT
  8
0
  6
CONTINUOUS
 62
               7
  5
139
 10
391.31428571428569
 20
-427.52631251987174
 30
0.0
  0
POINT
  8
0
  6
CONTINUOUS
 62
               7
  5
13A
 10
-326.68571428571511
 20
-427.52631251987202
 30
0.0
  0
POINT
  8
0
  6
CONTINUOUS
 62
               7
  5
13B
 10
-326.68571428571505
 20
-427.52631251987202
 30
0.0
  0
POINT
  8
0
  6
CONTINUOUS
 62
               7
  5
13C
 10
-326.68571428571511
 20
-427.52631251987202
 30
0.0
  0
LINE
  8
0
  6
HIDDENX2
 62
               7
  5
13D
 10
346.81428571428569
 20
14.473687480128035
 30
0.0
 11
435.81428571428569
 21
14.473687480128035
 31
0.0
  0
LINE
  8
0
  6
DASHED
 62
               7
  5
13E
 10
-164.68571428571516
 20
577.73306545954688
 30
0.0
 11
-164.68571428571516
 21
463.73306545954699
 31
0.0
  0
POINT
  8
0
  6
CONTINUOUS
 62
               5
  5
13F
 10
-326.68571428571511
 20
-427.52631251987202
 30
0.0
  0
POINT
  8
0
  6
CONTINUOUS
 62
               5
  5
140
 10
-326.68571428571511
 20
-427.52631251987202
 30
0.0
  0
POINT
  8
0
  6
CONTINUOUS
 62
               5
  5
141
 10
-326.68571428571511
 20
-427.52631251987202
 30
0.0
  0
POINT
  8
0
  6
CONTINUOUS
 62
               5
  5
142
 10
-326.68571428571511
 20
-427.52631251987202
 30
0.0
  0
POINT
  8
0
  6
CONTINUOUS
 62
               5
  5
143
 10
-295.20548354535981
 20
-451.54608177951661
 30
0.0
  0
POINT
  8
0
  6
CONTINUOUS
 62
               5
  5
144
 10
-131.68571428571511
 20
520.73306545954688
 30
0.0
  0
LINE
  8
0
  6
CONTINUOUS
 62
               3
  5
145
 10
-131.68571428571511
 20
-515.52631251987236
 30
0.0
 11
-146.68571428571511
 21
-515.52631251987236
 31
0.0
  0
LINE
  8
0
  6
CONTINUOUS
 62
               3
  5
146
 10
-146.68571428571332
 20
-492.05096147317886
 30
0.0
 11
-169.68571428571511
 21
-492.05096147317704
 31
0.0
  0
LINE
  8
0
  6
CONTINUOUS
 62
               3
  5
147
 10
-146.68571428571491
 20
-363.05096147317863
 30
0.0
 11
-169.68571428571511
 21
-363.05096147317903
 31
0.0
  0
LINE
  8
0
  6
CONTINUOUS
 62
               3
  5
148
 10
-131.68571428571511
 20
-352.02631251987231
 30
0.0
 11
-146.68571428571511
 21
-352.02631251987248
 31
0.0
  0
ARC
  8
0
  6
CONTINUOUS
 62
               3
  5
149
 10
-174.68571428571522
 20
-275.52631251987214
 30
0.0
 40
97.0
 50
184.20897939796424
 51
269.99999999989683
  0
ARC
  8
0
  6
CONTINUOUS
 62
               3
  5
14A
 10
-174.68571428571522
 20
-275.52631251987214
 30
0.0
 40
209.0
 50
182.32737214105245
 51
269.99999999989683
  0
LINE
  8
0
  6
CONTINUOUS
 62
               3
  5
14B
 10
-275.68571428571488
 20
23.506283375692334
 30
0.0
 11
-275.68571428571488
 21
4.4736874801278361
 31
0.0
  0
LINE
  8
0
  6
CONTINUOUS
 62
               3
  5
14C
 10
-377.68571428571505
 20
23.506283375703816
 30
0.0
 11
-377.68571428571505
 21
4.4736874801278361
 31
0.0
  0
LINE
  8
0
  6
CONTINUOUS
 62
               3
  5
14D
 10
-401.68571428571403
 20
37.473687480127808
 30
0.0
 11
-401.6857142857159
 21
23.506283375703816
 31
0.0
  0
LINE
  8
0
  6
CONTINUOUS
 62
               3
  5
14E
 10
-264.68571428571596
 20
37.473687480127808
 30
0.0
 11
-264.68571428571471
 21
23.506283375692163
 31
0.0
  0
LINE
  8
0
  6
CONTINUOUS
 62
               3
  5
14F
 10
-131.68571428571511
 20
-352.02631251987231
 30
0.0
 11
-131.68571428571511
 21
-515.52631251987236
 31
0.0
  0
LINE
  8
0
  6
CONTINUOUS
 62
               3
  5
150
 10
-401.68571428571403
 20
37.473687480127808
 30
0.0
 11
-264.68571428571596
 21
37.473687480127808
 31
0.0
  0
LINE
  8
0
  6
CONTINUOUS
 62
               3
  5
151
 10
-401.6857142857159
 20
23.506283375703816
 30
0.0
 11
-264.68571428571471
 21
23.506283375692163
 31
0.0
  0
LINE
  8
0
  6
CONTINUOUS
 62
               3
  5
152
 10
-146.68571428571511
 20
-515.52631251987236
 30
0.0
 11
-146.68571428571511
 21
-352.02631251987231
 31
0.0
  0
LINE
  8
0
  6
CONTINUOUS
 62
               3
  5
153
 10
-119.68571428571511
 20
-493.52631251987225
 30
0.0
 11
-131.68571428571511
 21
-493.52631251987225
 31
0.0
  0
LINE
  8
0
  6
CONTINUOUS
 62
               3
  5
154
 10
-119.68571428571511
 20
-361.52631251987236
 30
0.0
 11
-131.68571428571511
 21
-361.52631251987236
 31
0.0
  0
LINE
  8
0
  6
CONTINUOUS
 62
               3
  5
155
 10
-104.68571428571511
 20
-515.52631251987214
 30
0.0
 11
-104.68571428571511
 21
-352.02631251987219
 31
0.0
  0
LINE
  8
0
  6
CONTINUOUS
 62
               3
  5
156
 10
-119.68571428571511
 20
-515.52631251987214
 30
0.0
 11
-119.68571428571511
 21
-352.02631251987219
 31
0.0
  0
LINE
  8
0
  6
CONTINUOUS
 62
               3
  5
157
 10
-119.68571428571511
 20
-352.02631251987219
 30
0.0
 11
-104.68571428571511
 21
-352.02631251987191
 31
0.0
  0
LINE
  8
0
  6
CONTINUOUS
 62
               3
  5
158
 10
-119.68571428571511
 20
-515.52631251987214
 30
0.0
 11
-104.68571428571511
 21
-515.52631251987214
 31
0.0
  0
LINE
  8
0
  6
CONTINUOUS
 62
               3
  5
159
 10
-264.68571428571579
 20
46.473687480127921
 30
0.0
 11
-401.68571428571448
 21
46.473687480127921
 31
0.0
  0
LINE
  8
0
  6
CONTINUOUS
 62
               3
  5
15A
 10
-401.6857142857142
 20
46.473687480127921
 30
0.0
 11
-401.68571428571391
 21
60.473687480128035
 31
0.0
  0
LINE
  8
0
  6
CONTINUOUS
 62
               3
  5
15B
 10
-264.68571428571579
 20
46.473687480127921
 30
0.0
 11
-264.68571428571579
 21
60.473687480127921
 31
0.0
  0
LINE
  8
0
  6
CONTINUOUS
 62
               3
  5
15C
 10
-264.68571428571579
 20
60.473687480127921
 30
0.0
 11
-401.68571428571391
 21
60.473687480127921
 31
0.0
  0
LINE
  8
0
  6
CONTINUOUS
 62
               3
  5
15D
 10
-377.68571428571505
 20
37.473687480127808
 30
0.0
 11
-377.68571428571505
 21
46.473687480127921
 31
0.0
  0
LINE
  8
0
  6
CONTINUOUS
 62
               3
  5
15E
 10
-275.68571428571488
 20
37.473687480127808
 30
0.0
 11
-275.68571428571488
 21
46.473687480127921
 31
0.0
  0
LINE
  8
0
  6
CONTINUOUS
 62
               3
  5
15F
 10
-169.68571428571511
 20
-363.05096147317903
 30
0.0
 11
-169.68571428571511
 21
-492.05096147317704
 31
0.0
  0
LINE
  8
0
  6
CONTINUOUS
 62
               3
  5
160
 10
-372.82392362455028
 20
-342.02631251987202
 30
0.0
 11
-245.3026386027656
 21
-342.02631251987202
 31
0.0
  0
LINE
  8
0
  6
CONTINUOUS
 62
               3
  5
161
 10
-249.69738004511572
 20
-337.02631251987202
 30
0.0
 11
-374.43242890200128
 21
-337.02631251987202
 31
0.0
  0
LINE
  8
0
  6
CONTINUOUS
 62
               3
  5
162
 10
-386.18571428571511
 20
-42.026312519872164
 30
0.0
 11
-267.18571428571511
 21
-42.026312519872164
 31
0.0
  0
LINE
  8
0
  6
CONTINUOUS
 62
               3
  5
163
 10
-267.18571428571511
 20
-36.026312519872164
 30
0.0
 11
-386.18571428571511
 21
-36.026312519872164
 31
0.0
  0
LINE
  8
0
  6
CONTINUOUS
 62
               3
  5
164
 10
-377.68571428571505
 20
4.4736874801278361
 30
0.0
 11
-275.68571428571488
 21
4.4736874801278361
 31
0.0
  0
LINE
  8
0
  6
CONTINUOUS
 62
               3
  5
165
 10
-372.18571428571511
 20
4.4736874801278361
 30
0.0
 11
-372.18571428571511
 21
-257.97375291741395
 31
0.0
  0
LINE
  8
0
  6
CONTINUOUS
 62
               3
  5
166
 10
-281.18571428571511
 20
-260.00351767216995
 30
0.0
 11
-281.18571428571516
 21
4.4736874801278361
 31
0.0
  0
ARC
  8
0
  6
CONTINUOUS
 62
               3
  5
167
 10
-366.52733516975115
 20
-283.32326683459286
 30
0.0
 40
17.0
 50
131.7915803713461
 51
182.32737214105248
  0
ARC
  8
0
  6
CONTINUOUS
 62
               3
  5
168
 10
-389.18571428571511
 20
-257.97375291741395
 30
0.0
 40
17.0
 50
311.79158037127718
 51
359.99999999986164
  0
ARC
  8
0
  6
CONTINUOUS
 62
               3
  5
169
 10
-288.37825481308687
 20
-283.89328499693636
 30
0.0
 40
17.0
 50
4.2089793980330823
 51
44.639214543743492
  0
ARC
  8
0
  6
CONTINUOUS
 62
               3
  5
16A
 10
-264.18571428571516
 20
-260.00351767216995
 30
0.0
 40
17.0
 50
179.99999999993119
 51
224.6392145436746
  0
LINE
  8
0
  6
CONTINUOUS
 62
               3
  5
16B
 10
-386.18571428571511
 20
-42.026312519872164
 30
0.0
 11
-386.18571428571511
 21
-36.026312519872164
 31
0.0
  0
LINE
  8
0
  6
CONTINUOUS
 62
               3
  5
16C
 10
-267.18571428571511
 20
-42.026312519872164
 30
0.0
 11
-267.18571428571511
 21
-36.026312519872164
 31
0.0
  0
LINE
  8
0
  6
CONTINUOUS
 62
               3
  5
16D
 10
-386.18571428571511
 20
-92.026312519872164
 30
0.0
 11
-267.18571428571511
 21
-92.026312519872164
 31
0.0
  0
LINE
  8
0
  6
CONTINUOUS
 62
               3
  5
16E
 10
-267.18571428571511
 20
-86.026312519872164
 30
0.0
 11
-386.18571428571511
 21
-86.026312519872164
 31
0.0
  0
LINE
  8
0
  6
CONTINUOUS
 62
               3
  5
16F
 10
-386.18571428571511
 20
-92.026312519872164
 30
0.0
 11
-386.18571428571511
 21
-86.026312519872164
 31
0.0
  0
LINE
  8
0
  6
CONTINUOUS
 62
               3
  5
170
 10
-267.18571428571511
 20
-92.026312519872164
 30
0.0
 11
-267.18571428571511
 21
-86.026312519872164
 31
0.0
  0
LINE
  8
0
  6
CONTINUOUS
 62
               3
  5
171
 10
-386.18571428571511
 20
-142.02631251987205
 30
0.0
 11
-267.18571428571511
 21
-142.02631251987205
 31
0.0
  0
LINE
  8
0
  6
CONTINUOUS
 62
               3
  5
172
 10
-267.18571428571511
 20
-136.02631251987216
 30
0.0
 11
-386.18571428571511
 21
-136.02631251987216
 31
0.0
  0
LINE
  8
0
  6
CONTINUOUS
 62
               3
  5
173
 10
-386.18571428571511
 20
-142.02631251987205
 30
0.0
 11
-386.18571428571511
 21
-136.02631251987216
 31
0.0
  0
LINE
  8
0
  6
CONTINUOUS
 62
               3
  5
174
 10
-267.18571428571511
 20
-142.02631251987205
 30
0.0
 11
-267.18571428571511
 21
-136.02631251987216
 31
0.0
  0
LINE
  8
0
  6
CONTINUOUS
 62
               3
  5
175
 10
-386.18571428571511
 20
-192.02631251987205
 30
0.0
 11
-267.18571428571511
 21
-192.02631251987205
 31
0.0
  0
LINE
  8
0
  6
CONTINUOUS
 62
               3
  5
176
 10
-267.18571428571511
 20
-186.02631251987216
 30
0.0
 11
-386.18571428571511
 21
-186.02631251987216
 31
0.0
  0
LINE
  8
0
  6
CONTINUOUS
 62
               3
  5
177
 10
-386.18571428571511
 20
-192.02631251987205
 30
0.0
 11
-386.18571428571511
 21
-186.02631251987216
 31
0.0
  0
LINE
  8
0
  6
CONTINUOUS
 62
               3
  5
178
 10
-267.18571428571511
 20
-192.02631251987205
 30
0.0
 11
-267.18571428571511
 21
-186.02631251987216
 31
0.0
  0
LINE
  8
0
  6
CONTINUOUS
 62
               3
  5
179
 10
-174.68571428571542
 20
-484.52631251987219
 30
0.0
 11
-169.68571428571542
 21
-484.52631251987219
 31
0.0
  0
LINE
  8
0
  6
CONTINUOUS
 62
               3
  5
17A
 10
-174.68571428571533
 20
-372.52631251987214
 30
0.0
 11
-169.68571428571533
 21
-372.52631251987214
 31
0.0
  0
LINE
  8
0
  6
CONTINUOUS
 62
               3
  5
17B
 10
-347.24265157585052
 20
-439.52631251987202
 30
0.0
 11
-304.24265157585052
 21
-439.52631251987202
 31
0.0
  0
LINE
  8
0
  6
CONTINUOUS
 62
               3
  5
17C
 10
-343.68571428571511
 20
-439.52631251987202
 30
0.0
 11
-343.68571428571511
 21
-469.52631251987202
 31
0.0
  0
LINE
  8
0
  6
CONTINUOUS
 62
               3
  5
17D
 10
-309.68571428571511
 20
-469.52631251987202
 30
0.0
 11
-309.68571428571511
 21
-439.52631251987202
 31
0.0
  0
LINE
  8
0
  6
CONTINUOUS
 62
               3
  5
17E
 10
-343.68571428571511
 20
-469.52631251987202
 30
0.0
 11
-309.68571428571511
 21
-469.52631251987202
 31
0.0
  0
LINE
  8
0
  6
CONTINUOUS
 62
               3
  5
17F
 10
-331.68571428571511
 20
-439.52631251987202
 30
0.0
 11
-331.68571428571511
 21
-469.52631251987202
 31
0.0
  0
LINE
  8
0
  6
CONTINUOUS
 62
               3
  5
180
 10
-321.68571428571511
 20
-469.52631251987202
 30
0.0
 11
-321.68571428571511
 21
-439.52631251987202
 31
0.0
  0
LINE
  8
0
  6
CONTINUOUS
 62
               3
  5
181
 10
-347.24265157585052
 20
-439.52631251987202
 30
0.0
 11
-351.8968175674604
 21
-386.32895181003823
 31
0.0
  0
ARC
  8
0
  6
CONTINUOUS
 62
               3
  5
182
 10
-282.50551943910983
 20
-438.84611767326658
 30
0.0
 40
9.9999999999999964
 50
117.72027269074661
 51
332.27972730908107
  0
ARC
  8
0
  6
CONTINUOUS
 62
               3
  5
183
 10
-269.22708297654003
 20
-445.82344704126268
 30
0.0
 40
4.9999999999999982
 50
64.456602312013985
 51
152.27972730914988
  0
ARC
  8
0
  6
CONTINUOUS
 62
               3
  5
184
 10
-289.48284880710594
 20
-425.56768121069689
 30
0.0
 40
4.9999999999999982
 50
297.72027269067814
 51
385.54339768781318
  0
ARC
  8
0
  6
CONTINUOUS
 62
               3
  5
185
 10
-218.86590913232033
 20
-375.20650736647741
 30
0.0
 40
9.9999999999999964
 50
297.72027269067814
 51
512.27972730901138
  0
ARC
  8
0
  6
CONTINUOUS
 62
               3
  5
186
 10
-232.14434559489013
 20
-368.22917799848119
 30
0.0
 40
4.9999999999999982
 50
244.45660231194512
 51
332.27972730908067
  0
ARC
  8
0
  6
CONTINUOUS
 62
               3
  5
187
 10
-211.88857976432422
 20
-388.4849438290471
 30
0.0
 40
4.9999999999999982
 50
117.72027269074697
 51
205.54339768788293
  0
LINE
  8
0
  6
CONTINUOUS
 62
               3
  5
188
 10
-292.44968329278299
 20
-439.90139263805071
 30
0.0
 11
-295.4344516272443
 21
-411.77504986140104
 31
0.0
  0
LINE
  8
0
  6
CONTINUOUS
 62
               3
  5
189
 10
-245.93697694418586
 20
-362.27757517834266
 30
0.0
 11
-217.81063416753631
 21
-365.26234351280425
 31
0.0
  0
LINE
  8
0
  6
CONTINUOUS
 62
               3
  5
18A
 10
-283.56079440389385
 20
-448.79028152693957
 30
0.0
 11
-255.43445162724402
 21
-451.77504986140104
 31
0.0
  0
LINE
  8
0
  6
CONTINUOUS
 62
               3
  5
18B
 10
-205.93697694418614
 20
-402.27757517834266
 30
0.0
 11
-208.92174527864745
 21
-374.15123240169311
 31
0.0
  0
ARC
  8
0
  6
CONTINUOUS
 62
               3
  5
18C
 10
-250.68571428571522
 20
-407.02631251987202
 30
0.0
 40
45.0
 50
83.942441268949281
 51
186.05755873094745
  0
ARC
  8
0
  6
CONTINUOUS
 62
               3
  5
18D
 10
-250.68571428571522
 20
-407.02631251987202
 30
0.0
 40
38.0
 50
64.456602312014013
 51
205.54339768788276
  0
ARC
  8
0
  6
CONTINUOUS
 62
               3
  5
18E
 10
-250.68571428571522
 20
-407.02631251987202
 30
0.0
 40
45.0
 50
263.94244126888054
 51
366.05755873087799
  0
ARC
  8
0
  6
CONTINUOUS
 62
               3
  5
18F
 10
-250.68571428571522
 20
-407.02631251987202
 30
0.0
 40
38.0
 50
244.45660231194512
 51
385.54339768781324
  0
CIRCLE
  8
0
  6
CONTINUOUS
 62
               3
  5
190
 10
-218.86590913232033
 20
-375.20650736647741
 30
0.0
 40
6.2999999999999989
  0
CIRCLE
  8
0
  6
CONTINUOUS
 62
               3
  5
191
 10
-282.50551943910983
 20
-438.84611767326658
 30
0.0
 40
6.2999999999999989
  0
LINE
  8
0
  6
CONTINUOUS
 62
               3
  5
192
 10
324.81428571428648
 20
37.473687480128035
 30
0.0
 11
324.81428571428501
 21
23.47368748013389
 31
0.0
  0
LINE
  8
0
  6
CONTINUOUS
 62
               3
  5
193
 10
324.81428571428648
 20
37.473687480128035
 30
0.0
 11
457.81428571428489
 21
37.473687480128035
 31
0.0
  0
LINE
  8
0
  6
CONTINUOUS
 62
               3
  5
194
 10
324.81428571428501
 20
23.47368748013389
 30
0.0
 11
457.81428571428637
 21
23.473687480122237
 31
0.0
  0
LINE
  8
0
  6
CONTINUOUS
 62
               3
  5
195
 10
334.31428571428569
 20
-283.32326683459257
 30
0.0
 11
334.31428571428569
 21
-362.02631251987168
 31
0.0
  0
LINE
  8
0
  6
CONTINUOUS
 62
               3
  5
196
 10
448.31428571428575
 20
-283.32326683459257
 30
0.0
 11
448.31428571428575
 21
-362.02631251987168
 31
0.0
  0
LINE
  8
0
  6
CONTINUOUS
 62
               3
  5
197
 10
313.31428571428575
 20
-427.52631251987191
 30
0.0
 11
315.68664366969415
 21
-427.52631251987191
 31
0.0
  0
LINE
  8
0
  6
CONTINUOUS
 62
               3
  5
198
 10
466.9419277588774
 20
-427.52631251987191
 30
0.0
 11
469.31428571428569
 21
-427.52631251987191
 31
0.0
  0
LINE
  8
0
  6
CONTINUOUS
 62
               3
  5
199
 10
457.81428571428489
 20
37.473687480128035
 30
0.0
 11
457.81428571428637
 21
23.473687480121953
 31
0.0
  0
ARC
  8
0
  6
CONTINUOUS
 62
               3
  5
19A
 10
391.31428571428557
 20
-427.52631251987174
 30
0.0
 40
75.499999999999986
 50
303.32931837461166
 51
356.67068162513607
  0
ARC
  8
0
  6
CONTINUOUS
 62
               3
  5
19B
 10
391.31428571428552
 20
-503.52631251987174
 30
0.0
 40
12.0
 50
236.67068162518171
 51
303.32931837461189
  0
LINE
  8
0
  6
CONTINUOUS
 62
               3
  5
19C
 10
384.72088054777623
 20
-513.55262830934544
 30
0.0
 11
349.83077820833159
 21
-490.60854936197705
 31
0.0
  0
LINE
  8
0
  6
CONTINUOUS
 62
               3
  5
19D
 10
397.9076908807948
 20
-513.55262830934544
 30
0.0
 11
432.79779322023956
 21
-490.60854936197705
 31
0.0
  0
ARC
  8
0
  6
CONTINUOUS
 62
               3
  5
19E
 10
457.13221640190284
 20
-389.52631251987168
 30
0.0
 40
12.0
 50
356.6706816251359
 51
423.32931837456522
  0
LINE
  8
0
  6
CONTINUOUS
 62
               3
  5
19F
 10
469.11196316520682
 20
-390.22321099677538
 30
0.0
 11
466.68685910007241
 21
-431.9109654370576
 31
0.0
  0
LINE
  8
0
  6
CONTINUOUS
 62
               3
  5
1A0
 10
462.51855799869759
 20
-378.80309825349434
 30
0.0
 11
425.20335159411843
 21
-360.05942276058056
 31
0.0
  0
ARC
  8
0
  6
CONTINUOUS
 62
               3
  5
1A1
 10
325.49635502666831
 20
-389.52631251987157
 30
0.0
 40
12.0
 50
116.67068162522773
 51
183.32931837465776
  0
LINE
  8
0
  6
CONTINUOUS
 62
               3
  5
1A2
 10
320.11001342987356
 20
-378.80309825349434
 30
0.0
 11
357.42521983445272
 21
-360.05942276058056
 31
0.0
  0
LINE
  8
0
  6
CONTINUOUS
 62
               3
  5
1A3
 10
313.51660826336428
 20
-390.22321099677526
 30
0.0
 11
315.94171232849874
 21
-431.91096543705754
 31
0.0
  0
ARC
  8
0
  6
CONTINUOUS
 62
               3
  5
1A4
 10
391.31428571428557
 20
-427.52631251987174
 30
0.0
 40
75.499999999999986
 50
183.3293183746575
 51
236.67068162518183
  0
ARC
  8
0
  6
CONTINUOUS
 62
               3
  5
1A5
 10
391.31428571428557
 20
-427.52631251987174
 30
0.0
 40
75.499999999999986
 50
63.329318374703412
 51
116.67068162522773
  0
CIRCLE
  8
0
  6
CONTINUOUS
 62
               3
  5
1A6
 10
391.31428571428557
 20
-427.52631251987174
 30
0.0
 40
58.5
  0
CIRCLE
  8
0
  6
CONTINUOUS
 62
               3
  5
1A7
 10
325.49635502666831
 20
-389.52631251987157
 30
0.0
 40
8.2666666666666657
  0
CIRCLE
  8
0
  6
CONTINUOUS
 62
               3
  5
1A8
 10
457.13221640190284
 20
-389.52631251987168
 30
0.0
 40
8.2666666666666657
  0
CIRCLE
  8
0
  6
CONTINUOUS
 62
               3
  5
1A9
 10
391.31428571428552
 20
-503.52631251987162
 30
0.0
 40
8.2666666666666657
  0
LINE
  8
0
  6
CONTINUOUS
 62
               3
  5
1AA
 10
457.81428571428569
 20
46.473687480127978
 30
0.0
 11
324.81428571428575
 21
46.473687480127978
 31
0.0
  0
LINE
  8
0
  6
CONTINUOUS
 62
               3
  5
1AB
 10
457.81428571428569
 20
60.473687480128035
 30
0.0
 11
324.81428571428575
 21
60.473687480128035
 31
0.0
  0
LINE
  8
0
  6
CONTINUOUS
 62
               3
  5
1AC
 10
457.81428571428569
 20
46.473687480127978
 30
0.0
 11
457.81428571428569
 21
60.473687480128035
 31
0.0
  0
LINE
  8
0
  6
CONTINUOUS
 62
               3
  5
1AD
 10
324.81428571428575
 20
60.473687480128035
 30
0.0
 11
324.81428571428575
 21
46.473687480127978
 31
0.0
  0
LINE
  8
0
  6
CONTINUOUS
 62
               3
  5
1AE
 10
340.3142857142858
 20
4.4736874801281488
 30
0.0
 11
340.31428571428575
 21
23.473687480132355
 31
0.0
  0
LINE
  8
0
  6
CONTINUOUS
 62
               3
  5
1AF
 10
442.31428571428575
 20
4.4736874801280351
 30
0.0
 11
442.3142857142858
 21
23.473687480123544
 31
0.0
  0
LINE
  8
0
  6
CONTINUOUS
 62
               3
  5
1B0
 10
340.31428571428569
 20
46.473687480127978
 30
0.0
 11
340.31428571428569
 21
37.473687480128035
 31
0.0
  0
LINE
  8
0
  6
CONTINUOUS
 62
               3
  5
1B1
 10
442.31428571428569
 20
37.473687480128035
 30
0.0
 11
442.31428571428569
 21
46.473687480127978
 31
0.0
  0
LINE
  8
0
  6
CONTINUOUS
 62
               3
  5
1B2
 10
442.31428571428575
 20
4.4736874801280351
 30
0.0
 11
340.3142857142858
 21
4.4736874801281488
 31
0.0
  0
LINE
  8
0
  6
CONTINUOUS
 62
               3
  5
1B3
 10
448.31428571428575
 20
-337.02631251987179
 30
0.0
 11
334.31428571428569
 21
-337.02631251987179
 31
0.0
  0
LINE
  8
0
  6
CONTINUOUS
 62
               3
  5
1B4
 10
448.31428571428575
 20
-342.02631251987179
 30
0.0
 11
334.31428571428569
 21
-342.02631251987179
 31
0.0
  0
ARC
  8
0
  6
CONTINUOUS
 62
               3
  5
1B5
 10
431.31428571428575
 20
-283.32326683459257
 30
0.0
 40
17.0
 50
0.0
 51
48.565401440234204
  0
LINE
  8
0
  6
CONTINUOUS
 62
               3
  5
1B6
 10
436.81428571428569
 20
4.4736874801281488
 30
0.0
 11
436.81428571428569
 21
-257.83307264153086
 31
0.0
  0
ARC
  8
0
  6
CONTINUOUS
 62
               3
  5
1B7
 10
453.81428571428569
 20
-257.83307264153086
 30
0.0
 40
17.0
 50
179.99999999993119
 51
228.56540144016546
  0
ARC
  8
0
  6
CONTINUOUS
 62
               3
  5
1B8
 10
351.31428571428569
 20
-283.32326683459257
 30
0.0
 40
17.0
 50
131.43459855969706
 51
179.99999999993119
  0
LINE
  8
0
  6
CONTINUOUS
 62
               3
  5
1B9
 10
345.81428571428569
 20
4.4736874801281488
 30
0.0
 11
345.81428571428575
 21
-257.83307264153086
 31
0.0
  0
ARC
  8
0
  6
CONTINUOUS
 62
               3
  5
1BA
 10
328.81428571428569
 20
-257.83307264153086
 30
0.0
 40
17.0
 50
311.43459855962828
 51
359.9999999998617
  0
LINE
  8
0
  6
CONTINUOUS
 62
               3
  5
1BB
 10
345.81428571428569
 20
-42.026312519871965
 30
0.0
 11
436.81428571428569
 21
-42.026312519871965
 31
0.0
  0
LINE
  8
0
  6
CONTINUOUS
 62
               3
  5
1BC
 10
436.81428571428569
 20
-36.026312519871965
 30
0.0
 11
345.81428571428569
 21
-36.026312519871965
 31
0.0
  0
LINE
  8
0
  6
CONTINUOUS
 62
               3
  5
1BD
 10
345.81428571428569
 20
-92.026312519871965
 30
0.0
 11
436.81428571428569
 21
-92.026312519871965
 31
0.0
  0
LINE
  8
0
  6
CONTINUOUS
 62
               3
  5
1BE
 10
436.81428571428569
 20
-86.026312519871965
 30
0.0
 11
345.81428571428569
 21
-86.026312519871965
 31
0.0
  0
LINE
  8
0
  6
CONTINUOUS
 62
               3
  5
1BF
 10
345.81428571428569
 20
-142.02631251987194
 30
0.0
 11
436.81428571428569
 21
-142.02631251987194
 31
0.0
  0
LINE
  8
0
  6
CONTINUOUS
 62
               3
  5
1C0
 10
436.81428571428569
 20
-136.02631251987194
 30
0.0
 11
345.81428571428569
 21
-136.02631251987194
 31
0.0
  0
LINE
  8
0
  6
CONTINUOUS
 62
               3
  5
1C1
 10
345.81428571428569
 20
-192.02631251987194
 30
0.0
 11
436.81428571428569
 21
-192.02631251987194
 31
0.0
  0
LINE
  8
0
  6
CONTINUOUS
 62
               3
  5
1C2
 10
436.81428571428569
 20
-186.02631251987194
 30
0.0
 11
345.81428571428569
 21
-186.02631251987194
 31
0.0
  0
LINE
  8
0
  6
CONTINUOUS
 62
               3
  5
1C3
 10
313.31428571428557
 20
-362.02631251987168
 30
0.0
 11
353.50950451112942
 21
-362.02631251987168
 31
0.0
  0
LINE
  8
0
  6
CONTINUOUS
 62
               3
  5
1C4
 10
429.11906691744167
 20
-362.02631251987168
 30
0.0
 11
469.31428571428552
 21
-362.02631251987168
 31
0.0
  0
LINE
  8
0
  6
CONTINUOUS
 62
               3
  5
1C5
 10
476.31428571428432
 20
-362.02631251987168
 30
0.0
 11
488.31428571428455
 21
-362.02631251987168
 31
0.0
  0
LINE
  8
0
  6
CONTINUOUS
 62
               3
  5
1C6
 10
476.31428571428432
 20
-369.32289475817822
 30
0.0
 11
469.31428571428552
 21
-369.32289475817822
 31
0.0
  0
LINE
  8
0
  6
CONTINUOUS
 62
               3
  5
1C7
 10
306.31428571428671
 20
-362.02631251987168
 30
0.0
 11
294.31428571428648
 21
-362.02631251987168
 31
0.0
  0
LINE
  8
0
  6
CONTINUOUS
 62
               3
  5
1C8
 10
306.31428571428671
 20
-369.32289475817822
 30
0.0
 11
313.31428571428557
 21
-369.32289475817822
 31
0.0
  0
LINE
  8
0
  6
CONTINUOUS
 62
               3
  5
1C9
 10
313.31428571428557
 20
-362.02631251987168
 30
0.0
 11
313.31428571428557
 21
-452.06585103916132
 31
0.0
  0
LINE
  8
0
  6
CONTINUOUS
 62
               3
  5
1CA
 10
313.31428571428557
 20
-452.06585103916132
 30
0.0
 11
319.91357808991881
 21
-452.06585103916132
 31
0.0
  0
LINE
  8
0
  6
CONTINUOUS
 62
               3
  5
1CB
 10
306.31428571428671
 20
-452.02631251987179
 30
0.0
 11
294.31428571428648
 21
-452.02631251987179
 31
0.0
  0
LINE
  8
0
  6
CONTINUOUS
 62
               3
  5
1CC
 10
306.31428571428671
 20
-362.02631251987168
 30
0.0
 11
306.31428571428671
 21
-452.02631251987054
 31
0.0
  0
LINE
  8
0
  6
CONTINUOUS
 62
               3
  5
1CD
 10
294.31428571428648
 20
-362.02631251987168
 30
0.0
 11
294.31428571428648
 21
-452.02631251987179
 31
0.0
  0
LINE
  8
0
  6
CONTINUOUS
 62
               3
  5
1CE
 10
306.31428571428671
 20
-445.32289475817822
 30
0.0
 11
313.31428571428557
 21
-445.32289475817822
 31
0.0
  0
LINE
  8
0
  6
CONTINUOUS
 62
               3
  5
1CF
 10
476.31428571428432
 20
-452.02631251987179
 30
0.0
 11
488.31428571428455
 21
-452.02631251987179
 31
0.0
  0
LINE
  8
0
  6
CONTINUOUS
 62
               3
  5
1D0
 10
476.31428571428432
 20
-362.02631251987168
 30
0.0
 11
476.31428571428432
 21
-452.02631251987054
 31
0.0
  0
LINE
  8
0
  6
CONTINUOUS
 62
               3
  5
1D1
 10
488.31428571428455
 20
-362.02631251987168
 30
0.0
 11
488.31428571428455
 21
-452.02631251987179
 31
0.0
  0
LINE
  8
0
  6
CONTINUOUS
 62
               3
  5
1D2
 10
476.31428571428432
 20
-445.32289475817822
 30
0.0
 11
469.31428571428552
 21
-445.32289475817822
 31
0.0
  0
LINE
  8
0
  6
CONTINUOUS
 62
               3
  5
1D3
 10
462.71499333865233
 20
-452.06585103916132
 30
0.0
 11
469.31428571428552
 21
-452.06585103916132
 31
0.0
  0
LINE
  8
0
  6
CONTINUOUS
 62
               3
  5
1D4
 10
469.31428571428552
 20
-362.02631251987168
 30
0.0
 11
469.31428571428552
 21
-452.06585103916132
 31
0.0
  0
CIRCLE
  8
0
  6
CONTINUOUS
 62
               3
  5
1D5
 10
-326.68571428571516
 20
520.73306545954688
 30
0.0
 40
46.0
  0
ARC
  8
0
  6
CONTINUOUS
 62
               3
  5
1D6
 10
-326.68571428571516
 20
520.73306545954688
 30
0.0
 40
61.999999999999993
 50
217.47199518273075
 51
262.52800481708579
  0
ARC
  8
0
  6
CONTINUOUS
 62
               3
  5
1D7
 10
-389.68571428571533
 20
520.73306545954688
 30
0.0
 40
12.0
 50
142.52800481713135
 51
217.47199518273106
  0
LINE
  8
0
  6
CONTINUOUS
 62
               3
  5
1D8
 10
-399.20952380952463
 20
528.03354846782759
 30
0.0
 11
-375.89206349206421
 21
558.45222766899724
 31
0.0
  0
LINE
  8
0
  6
CONTINUOUS
 62
               3
  5
1D9
 10
-399.20952380952463
 20
513.43258245126628
 30
0.0
 11
-375.89206349206421
 21
483.01390325009675
 31
0.0
  0
ARC
  8
0
  6
CONTINUOUS
 62
               3
  5
1DA
 10
-295.18571428571511
 20
466.17346502112736
 30
0.0
 40
12.0
 50
262.52800481708562
 51
337.47199518268462
  0
LINE
  8
0
  6
CONTINUOUS
 62
               3
  5
1DB
 10
-296.74621326887808
 20
454.27536252856379
 30
0.0
 11
-334.74829236539051
 21
459.25953591463519
 31
0.0
  0
LINE
  8
0
  6
CONTINUOUS
 62
               3
  5
1DC
 10
-284.10140577874279
 20
461.57584553684438
 30
0.0
 11
-269.41678699969066
 21
496.9786981240855
 31
0.0
  0
ARC
  8
0
  6
CONTINUOUS
 62
               3
  5
1DD
 10
-295.18571428571511
 20
575.29266589796657
 30
0.0
 40
12.0
 50
22.528004817177163
 51
97.471995182776709
  0
LINE
  8
0
  6
CONTINUOUS
 62
               3
  5
1DE
 10
-284.10140577874262
 20
579.89028538224932
 30
0.0
 11
-269.41678699969066
 21
544.48743279500843
 31
0.0
  0
LINE
  8
0
  6
CONTINUOUS
 62
               3
  5
1DF
 10
-296.74621326887808
 20
587.19076839053014
 30
0.0
 11
-334.74829236539051
 21
582.20659500445856
 31
0.0
  0
ARC
  8
0
  6
CONTINUOUS
 62
               3
  5
1E0
 10
-326.68571428571516
 20
520.73306545954688
 30
0.0
 40
61.999999999999993
 50
337.47199518268491
 51
382.52800481703912
  0
ARC
  8
0
  6
CONTINUOUS
 62
               3
  5
1E1
 10
-326.68571428571516
 20
520.73306545954688
 30
0.0
 40
61.999999999999993
 50
97.471995182776666
 51
142.5280048171316
  0
LINE
  8
0
  6
CONTINUOUS
 62
               3
  5
1E2
 10
-205.68571428571488
 20
577.73306545954688
 30
0.0
 11
-169.68571428571519
 21
577.73306545954688
 31
0.0
  0
LINE
  8
0
  6
CONTINUOUS
 62
               3
  5
1E3
 10
-205.68571428571488
 20
463.73306545954699
 30
0.0
 11
-169.68571428571519
 21
463.73306545954699
 31
0.0
  0
LINE
  8
0
  6
CONTINUOUS
 62
               3
  5
1E4
 10
-146.68571428571363
 20
456.2084165062393
 30
0.0
 11
-169.68571428571519
 21
456.20841650624209
 31
0.0
  0
LINE
  8
0
  6
CONTINUOUS
 62
               3
  5
1E5
 10
-146.68571428571494
 20
585.20841650623993
 30
0.0
 11
-169.68571428571519
 21
585.20841650623993
 31
0.0
  0
LINE
  8
0
  6
CONTINUOUS
 62
               3
  5
1E6
 10
-131.68571428571488
 20
598.73306545954506
 30
0.0
 11
-146.68571428571488
 21
598.73306545955199
 31
0.0
  0
LINE
  8
0
  6
CONTINUOUS
 62
               3
  5
1E7
 10
-131.68571428571533
 20
442.73306545954506
 30
0.0
 11
-146.68571428571494
 21
442.73306545954722
 31
0.0
  0
LINE
  8
0
  6
CONTINUOUS
 62
               3
  5
1E8
 10
-131.68571428571488
 20
598.73306545954506
 30
0.0
 11
-131.68571428571533
 21
442.73306545954506
 31
0.0
  0
LINE
  8
0
  6
CONTINUOUS
 62
               3
  5
1E9
 10
-119.68571428571593
 20
442.73306545955228
 30
0.0
 11
-119.68571428571593
 21
598.73306545955234
 31
0.0
  0
LINE
  8
0
  6
CONTINUOUS
 62
               3
  5
1EA
 10
-104.68571428571511
 20
442.73306545954688
 30
0.0
 11
-104.68571428571576
 21
598.73306545954688
 31
0.0
  0
LINE
  8
0
  6
CONTINUOUS
 62
               3
  5
1EB
 10
-104.68571428571511
 20
442.73306545954688
 30
0.0
 11
-119.68571428571562
 21
442.73306545955228
 31
0.0
  0
LINE
  8
0
  6
CONTINUOUS
 62
               3
  5
1EC
 10
-119.6857142857159
 20
598.73306545954927
 30
0.0
 11
-104.6857142857157
 21
598.73306545955609
 31
0.0
  0
CIRCLE
  8
0
  6
CONTINUOUS
 62
               3
  5
1ED
 10
-389.68571428571533
 20
520.73306545954688
 30
0.0
 40
8.2666666666666657
  0
CIRCLE
  8
0
  6
CONTINUOUS
 62
               3
  5
1EE
 10
-295.18571428571511
 20
575.29266589796657
 30
0.0
 40
8.2666666666666657
  0
CIRCLE
  8
0
  6
CONTINUOUS
 62
               3
  5
1EF
 10
-295.18571428571511
 20
466.17346502112736
 30
0.0
 40
8.2666666666666657
  0
LINE
  8
0
  6
CONTINUOUS
 62
               3
  5
1F0
 10
-119.68571428571593
 20
586.73306545954688
 30
0.0
 11
-131.68571428571511
 21
586.73306545954688
 31
0.0
  0
LINE
  8
0
  6
CONTINUOUS
 62
               3
  5
1F1
 10
-131.68571428571533
 20
454.73306545954694
 30
0.0
 11
-119.68571428571593
 21
454.73306545954694
 31
0.0
  0
LINE
  8
0
  6
CONTINUOUS
 62
               3
  5
1F2
 10
-146.68571428571491
 20
598.73306545954722
 30
0.0
 11
-146.68571428571494
 21
442.73306545954722
 31
0.0
  0
LINE
  8
0
  6
CONTINUOUS
 62
               3
  5
1F3
 10
-169.68571428571519
 20
585.20841650623993
 30
0.0
 11
-169.68571428571519
 21
456.20841650624209
 31
0.0
  0
LINE
  8
0
  6
CONTINUOUS
 62
               3
  5
1F4
 10
-295.68571428571545
 20
605.73306545954688
 30
0.0
 11
-295.68571428571545
 21
617.73306545954711
 31
0.0
  0
LINE
  8
0
  6
CONTINUOUS
 62
               3
  5
1F5
 10
-295.68571428571488
 20
598.73306545954699
 30
0.0
 11
-295.68571428571488
 21
583.20109016790889
 31
0.0
  0
LINE
  8
0
  6
CONTINUOUS
 62
               3
  5
1F6
 10
-295.68571428571545
 20
605.73306545954711
 30
0.0
 11
-205.68571428571488
 21
605.73306545954711
 31
0.0
  0
LINE
  8
0
  6
CONTINUOUS
 62
               3
  5
1F7
 10
-295.68571428571545
 20
617.73306545954711
 30
0.0
 11
-205.68571428571488
 21
617.73306545954711
 31
0.0
  0
LINE
  8
0
  6
CONTINUOUS
 62
               3
  5
1F8
 10
-205.68571428571488
 20
605.73306545954688
 30
0.0
 11
-205.68571428571488
 21
617.73306545954711
 31
0.0
  0
LINE
  8
0
  6
CONTINUOUS
 62
               3
  5
1F9
 10
-288.6867603062413
 20
605.73306545954711
 30
0.0
 11
-288.6867603062413
 21
598.73306545954699
 31
0.0
  0
LINE
  8
0
  6
CONTINUOUS
 62
               3
  5
1FA
 10
-212.68676030624107
 20
605.73306545954711
 30
0.0
 11
-212.68676030624107
 21
598.73306545954699
 31
0.0
  0
LINE
  8
0
  6
CONTINUOUS
 62
               3
  5
1FB
 10
-295.68571428571488
 20
598.73306545954699
 30
0.0
 11
-205.68571428571488
 21
598.73306545954699
 31
0.0
  0
LINE
  8
0
  6
CONTINUOUS
 62
               3
  5
1FC
 10
-205.68571428571488
 20
435.73306545954699
 30
0.0
 11
-205.68571428571488
 21
423.73306545954699
 31
0.0
  0
LINE
  8
0
  6
CONTINUOUS
 62
               3
  5
1FD
 10
-205.68571428571488
 20
510.73306545954688
 30
0.0
 11
-205.68571428571488
 21
442.73306545954688
 31
0.0
  0
LINE
  8
0
  6
CONTINUOUS
 62
               3
  5
1FE
 10
-205.68571428571488
 20
598.73306545954699
 30
0.0
 11
-205.68571428571488
 21
530.73306545954688
 31
0.0
  0
ARC
  8
0
  6
CONTINUOUS
 62
               3
  5
1FF
 10
-215.68571428571488
 20
530.73306545954688
 30
0.0
 40
9.9999999999999982
 50
197.87232645061584
 51
359.99999999986164
  0
ARC
  8
0
  6
CONTINUOUS
 62
               3
  5
200
 10
-215.68571428571488
 20
510.73306545954688
 30
0.0
 40
9.9999999999999982
 50
0.0
 51
162.12798715145735
  0
ARC
  8
0
  6
CONTINUOUS
 62
               3
  5
201
 10
-292.3081653036769
 20
533.73306545954699
 30
0.0
 40
69.999999999999986
 50
277.68627610898852
 51
343.45792272643962
  0
ARC
  8
0
  6
CONTINUOUS
 62
               3
  5
202
 10
-292.3081653036769
 20
507.73306545954694
 30
0.0
 40
69.999999999999986
 50
16.542077273422795
 51
82.313723890873007
  0
LINE
  8
0
  6
CONTINUOUS
 62
               3
  5
203
 10
-295.68571428571545
 20
435.73306545954676
 30
0.0
 11
-205.68571428571488
 21
435.73306545954676
 31
0.0
  0
LINE
  8
0
  6
CONTINUOUS
 62
               3
  5
204
 10
-295.68571428571545
 20
423.73306545954671
 30
0.0
 11
-205.68571428571488
 21
423.73306545954671
 31
0.0
  0
LINE
  8
0
  6
CONTINUOUS
 62
               3
  5
205
 10
-295.68571428571545
 20
435.73306545954699
 30
0.0
 11
-295.68571428571545
 21
423.73306545954699
 31
0.0
  0
LINE
  8
0
  6
CONTINUOUS
 62
               3
  5
206
 10
-288.6867603062413
 20
435.73306545954676
 30
0.0
 11
-288.6867603062413
 21
442.73306545954688
 31
0.0
  0
LINE
  8
0
  6
CONTINUOUS
 62
               3
  5
207
 10
-212.68676030624107
 20
435.73306545954676
 30
0.0
 11
-212.68676030624107
 21
442.73306545954688
 31
0.0
  0
LINE
  8
0
  6
CONTINUOUS
 62
               3
  5
208
 10
-295.68571428571488
 20
442.73306545954688
 30
0.0
 11
-205.68571428571488
 21
442.73306545954688
 31
0.0
  0
LINE
  8
0
  6
CONTINUOUS
 62
               3
  5
209
 10
-295.68571428571488
 20
442.73306545954688
 30
0.0
 11
-295.68571428571488
 21
458.26504075118532
 31
0.0
  0
ARC
  8
0
  6
DASHDOT
 62
               4
  5
20A
 10
-174.68571428571522
 20
-275.52631251987214
 30
0.0
 40
152.0
 50
178.11594976884015
 51
269.99999999989683
  0
LINE
  8
0
  6
DASHDOT
 62
               4
  5
20B
 10
-326.68571428571511
 20
-477.12132535095088
 30
0.0
 11
-326.68571428571511
 21
72.473687480127808
 31
0.0
  0
LINE
  8
0
  6
DASHDOT
 62
               4
  5
20C
 10
-336.68571428571511
 20
-427.52631251987202
 30
0.0
 11
-99.797347658218541
 21
-427.52631251987214
 31
0.0
  0
LINE
  8
0
  6
DASHDOT
 62
               4
  5
20D
 10
-305.68571428571522
 20
-407.02631251987202
 30
0.0
 11
-195.68571428571522
 21
-407.02631251987202
 31
0.0
  0
LINE
  8
0
  6
DASHDOT
 62
               4
  5
20E
 10
-250.68571428571522
 20
-462.02631251987202
 30
0.0
 11
-250.68571428571522
 21
-352.02631251987202
 31
0.0
  0
LINE
  8
0
  6
DASHDOT
 62
               4
  5
20F
 10
305.68664366969381
 20
-427.52631251987174
 30
0.0
 11
476.94192775887728
 21
-427.52631251987174
 31
0.0
  0
LINE
  8
0
  6
DASHDOT
 62
               4
  5
210
 10
391.31428571428569
 20
72.473687480128035
 30
0.0
 11
391.31428571428569
 21
-525.52631251987168
 31
0.0
  0
LINE
  8
0
  6
DASHDOT
 62
               4
  5
211
 10
-326.68571428571516
 20
593.26404470308455
 30
0.0
 11
-326.68571428571516
 21
448.20208621600818
 31
0.0
  0
LINE
  8
0
  6
DASHDOT
 62
               4
  5
212
 10
-411.68571428571533
 20
520.73306545954688
 30
0.0
 11
-96.685714285715108
 21
520.73306545954688
 31
0.0
  0
LINE
  8
0
  6
DASHED
 62
               4
  5
213
 10
-164.68571428571511
 20
-484.55097641828866
 30
0.0
 11
-164.68571428571511
 21
-370.55097641828888
 31
0.0
  0
LINE
  8
0
  6
DASHED
 62
               4
  5
214
 10
-371.18571428571499
 20
14.473687480127836
 30
0.0
 11
-282.18571428571522
 21
14.473687480127836
 31
0.0
  0
ENDSEC
  0
EOF
