  0
SECTION
  2
HEADER
  9
$ACADVER
  1
AC1009
  9
$INSBASE
 10
0.0
 20
0.0
 30
0.0
  9
$EXTMIN
 10
-453.70571428571537
 20
-590.77150007946034
 30
0.0
  9
$EXTMAX
 10
535.33428571428567
 20
669.97825301913531
 30
0.0
  9
$LIMMIN
 10
-484.6132142857154
 20
-630.16992986379148
  9
$LIMMAX
 10
566.2417857142857
 20
709.37668280346645
  9
$ORTHOMODE
 70
               0
  9
$REGENMODE
 70
               1
  9
$FILLMODE
 70
               1
  9
$QTEXTMODE
 70
               0
  9
$MIRRTEXT
 70
               1
  9
$DRAGMODE
 70
               2
  9
$LTSCALE
 40
1.0
  9
$OSMODE
 70
               0
  9
$ATTMODE
 70
               1
  9
$TEXTSIZE
 40
0.2
  9
$TRACEWID
 40
0.05
  9
$TEXTSTYLE
  7
STANDARD
  9
$CLAYER
  8
0
  9
$CELTYPE
  6
CONTINUOUS
  9
$CECOLOR
 62
             256
  9
$DIMSCALE
 40
1.0
  9
$DIMASZ
 40
0.18
  9
$DIMEXO
 40
0.0625
  9
$DIMDLI
 40
0.38
  9
$DIMRND
 40
0.0
  9
$DIMDLE
 40
0.0
  9
$DIMEXE
 40
0.18
  9
$DIMTP
 40
0.0
  9
$DIMTM
 40
0.0
  9
$DIMTXT
 40
0.18
  9
$DIMCEN
 40
0.09
  9
$DIMTSZ
 40
0.0
  9
$DIMTOL
 70
               0
  9
$DIMLIM
 70
               0
  9
$DIMTIH
 70
               1
  9
$DIMTOH
 70
               1
  9
$DIMSE1
 70
               0
  9
$DIMSE2
 70
               0
  9
$DIMTAD
 70
               0
  9
$DIMZIN
 70
               0
  9
$DIMBLK
  1

  9
$DIMASO
 70
               1
  9
$DIMSHO
 70
               1
  9
$DIMPOST
  1

  9
$DIMAPOST
  1

  9
$DIMALT
 70
               0
  9
$DIMALTD
 70
               2
  9
$DIMALTF
 40
25.399999999999999
  9
$DIMLFAC
 40
1.0
  9
$DIMTOFL
 70
               0
  9
$DIMTVP
 40
0.0
  9
$DIMTIX
 70
               0
  9
$DIMSOXD
 70
               0
  9
$DIMSAH
 70
               0
  9
$DIMBLK1
  1

  9
$DIMBLK2
  1

  9
$DIMSTYLE
  2
STANDARD
  9
$DIMCLRD
 70
               0
  9
$DIMCLRE
 70
               0
  9
$DIMCLRT
 70
               0
  9
$DIMTFAC
 40
1.0
  9
$DIMGAP
 40
0.09
  9
$LUNITS
 70
               2
  9
$LUPREC
 70
               4
  9
$AXISMODE
 70
               0
  9
$AXISUNIT
 10
0.0
 20
0.0
  9
$SKETCHINC
 40
0.1
  9
$FILLETRAD
 40
0.0
  9
$AUNITS
 70
               0
  9
$AUPREC
 70
               0
  9
$MENU
  1
acad
  9
$ELEVATION
 40
0.0
  9
$PELEVATION
 40
0.0
  9
$THICKNESS
 40
0.0
  9
$LIMCHECK
 70
               0
  9
$BLIPMODE
 70
               1
  9
$CHAMFERA
 40
0.0
  9
$CHAMFERB
 40
0.0
  9
$SKPOLY
 70
               0
  9
$TDCREATE
 40
0.000000000
  9
$TDUPDATE
 40
0.000000000
  9
$TDINDWG
 40
0.0000000000
  9
$TDUSRTIMER
 40
0.0000000000
  9
$USRTIMER
 70
               1
  9
$ANGBASE
 50
0.0
  9
$ANGDIR
 70
               0
  9
$PDMODE
 70
               0
  9
$PDSIZE
 40
1.0
  9
$PLINEWID
 40
0.0
  9
$COORDS
 70
               1
  9
$SPLFRAME
 70
               0
  9
$SPLINETYPE
 70
               6
  9
$SPLINESEGS
 70
               8
  9
$ATTDIA
 70
               0
  9
$ATTREQ
 70
               1
  9
$HANDLING
 70
               1
  9
$HANDSEED
  5
21C
  9
$SURFTAB1
 70
               6
  9
$SURFTAB2
 70
               6
  9
$SURFTYPE
 70
               6
  9
$SURFU
 70
               6
  9
$SURFV
 70
               6
  9
$UCSNAME
  2

  9
$UCSORG
 10
0.0
 20
0.0
 30
0.0
  9
$UCSXDIR
 10
1.0
 20
0.0
 30
0.0
  9
$UCSYDIR
 10
0.0
 20
1.0
 30
0.0
  9
$PUCSNAME
  2

  9
$PUCSORG
 10
0.0
 20
0.0
 30
0.0
  9
$PUCSXDIR
 10
1.0
 20
0.0
 30
0.0
  9
$PUCSYDIR
 10
0.0
 20
1.0
 30
0.0
  9
$USERI1
 70
               0
  9
$USERI2
 70
               0
  9
$USERI3
 70
               0
  9
$USERI4
 70
               0
  9
$USERI5
 70
               0
  9
$USERR1
 40
0.0
  9
$USERR2
 40
0.0
  9
$USERR3
 40
0.0
  9
$USERR4
 40
0.0
  9
$USERR5
 40
0.0
  9
$WORLDVIEW
 70
               1
  9
$SHADEDGE
 70
               3
  9
$SHADEDIF
 70
              70
  9
$TILEMODE
 70
               1
  9
$MAXACTVP
 70
              16
  9
$PINSBASE
 10
0.0
 20
0.0
 30
0.0
  9
$PLIMCHECK
 70
               0
  9
$PEXTMIN
 10
1.0000000000000000E+20
 20
1.0000000000000000E+20
 30
1.0000000000000000E+20
  9
$PEXTMAX
 10
-1.0000000000000000E+20
 20
-1.0000000000000000E+20
 30
-1.0000000000000000E+20
  9
$PLIMMIN
 10
0.0
 20
0.0
  9
$PLIMMAX
 10
12.0
 20
9.0
  9
$UNITMODE
 70
               0
  9
$VISRETAIN
 70
               0
  9
$PLINEGEN
 70
               1
  9
$PSLTSCALE
 70
               0
  9
$TREEDEPTH
 70
            3020
  9
$DWGCODEPAGE
  3
dos932
  0
ENDSEC
  0
SECTION
  2
TABLES
  0
TABLE
  2
VPORT
 70
               1
  0
VPORT
  2
*ACTIVE
 70
               0
 10
0.0
 20
0.0
 11
1.0
 21
1.0
 12
40.814285714285148
 22
39.603376469837485
 13
0.0
 23
0.0
 14
1.0
 24
1.0
 15
0.0
 25
0.0
 16
0.0
 26
0.0
 36
1.0
 17
0.0
 27
0.0
 37
0.0
 40
1339.5466126672579
 41
0.7844855789733033
 42
50.0
 43
0.0
 44
0.0
 50
0.0
 51
0.0
 71
               0
 72
             100
 73
               1
 74
               1
 75
               0
 76
               0
 77
               0
 78
               0
  0
ENDTAB
  0
TABLE
  2
LTYPE
 70
              26
  0
LTYPE
  2
CONTINUOUS
 70
               0
  3
Solid line
 72
              65
 73
               0
 40
0.0
  0
LTYPE
  2
HIDDENX2
 70
               0
  3
CADPAC FUSION LINETYPE
 72
              65
 73
               2
 40
80.0
 49
60.0
 49
-20.0
  0
LTYPE
  2
HIDDEN
 70
               0
  3
CADPAC FUSION LINETYPE
 72
              65
 73
               2
 40
60.0
 49
40.0
 49
-20.0
  0
LTYPE
  2
HIDDEN2
 70
               0
  3
CADPAC FUSION LINETYPE
 72
              65
 73
               2
 40
50.0
 49
30.0
 49
-20.0
  0
LTYPE
  2
DASHED
 70
               0
  3
CADPAC FUSION LINETYPE
 72
              65
 73
               2
 40
60.0
 49
40.0
 49
-20.0
  0
LTYPE
  2
DASHED2
 70
               0
  3
CADPAC FUSION LINETYPE
 72
              65
 73
               2
 40
45.0
 49
30.0
 49
-15.0
  0
LTYPE
  2
DASHEDX2
 70
               0
  3
CADPAC FUSION LINETYPE
 72
              65
 73
               2
 40
90.0
 49
60.0
 49
-30.0
  0
LTYPE
  2
DOTX2
 70
               0
  3
CADPAC FUSION LINETYPE
 72
              65
 73
               2
 40
25.0
 49
0.0
 49
-25.0
  0
LTYPE
  2
DOT
 70
               0
  3
CADPAC FUSION LINETYPE
 72
              65
 73
               2
 40
20.0
 49
0.0
 49
-20.0
  0
LTYPE
  2
DOTS
 70
               0
  3
CADPAC FUSION LINETYPE
 72
              65
 73
               2
 40
20.0
 49
0.0
 49
-20.0
  0
LTYPE
  2
DOT2
 70
               0
  3
CADPAC FUSION LINETYPE
 72
              65
 73
               2
 40
15.0
 49
0.0
 49
-15.0
  0
LTYPE
  2
CENTERX2
 70
               0
  3
CADPAC FUSION LINETYPE
 72
              65
 73
               4
 40
120.0
 49
50.0
 49
-25.0
 49
20.0
 49
-25.0
  0
LTYPE
  2
CENTER
 70
               0
  3
CADPAC FUSION LINETYPE
 72
              65
 73
               4
 40
92.0
 49
40.0
 49
-20.0
 49
12.0
 49
-20.0
  0
LTYPE
  2
CENTER2
 70
               0
  3
CADPAC FUSION LINETYPE
 72
              65
 73
               4
 40
64.0
 49
30.0
 49
-15.0
 49
4.0
 49
-15.0
  0
LTYPE
  2
DASHDOTX2
 70
               0
  3
CADPAC FUSION LINETYPE
 72
              65
 73
               4
 40
100.0
 49
50.0
 49
-25.0
 49
0.0
 49
-25.0
  0
LTYPE
  2
DASHDOT
 70
               0
  3
CADPAC FUSION LINETYPE
 72
              65
 73
               4
 40
80.0
 49
40.0
 49
-20.0
 49
0.0
 49
-20.0
  0
LTYPE
  2
DASHDOT2
 70
               0
  3
CADPAC FUSION LINETYPE
 72
              65
 73
               4
 40
60.0
 49
30.0
 49
-15.0
 49
0.0
 49
-15.0
  0
LTYPE
  2
DIVIDEX2
 70
               0
  3
CADPAC FUSION LINETYPE
 72
              65
 73
               6
 40
125.0
 49
50.0
 49
-25.0
 49
0.0
 49
-25.0
 49
0.0
 49
-25.0
  0
LTYPE
  2
DIVIDE
 70
               0
  3
CADPAC FUSION LINETYPE
 72
              65
 73
               6
 40
100.0
 49
40.0
 49
-20.0
 49
0.0
 49
-20.0
 49
0.0
 49
-20.0
  0
LTYPE
  2
DIVIDE2
 70
               0
  3
CADPAC FUSION LINETYPE
 72
              65
 73
               6
 40
75.0
 49
30.0
 49
-15.0
 49
0.0
 49
-15.0
 49
0.0
 49
-15.0
  0
LTYPE
  2
BORDERX2
 70
               0
  3
CADPAC FUSION LINETYPE
 72
              65
 73
               6
 40
175.0
 49
50.0
 49
-25.0
 49
50.0
 49
-25.0
 49
0.0
 49
-25.0
  0
LTYPE
  2
BORDER
 70
               0
  3
CADPAC FUSION LINETYPE
 72
              65
 73
               6
 40
140.0
 49
40.0
 49
-20.0
 49
40.0
 49
-20.0
 49
0.0
 49
-20.0
  0
LTYPE
  2
BORDER2
 70
               0
  3
CADPAC FUSION LINETYPE
 72
              65
 73
               6
 40
105.0
 49
30.0
 49
-15.0
 49
30.0
 49
-15.0
 49
0.0
 49
-15.0
  0
LTYPE
  2
PHANTOMX2
 70
               0
  3
CADPAC FUSION LINETYPE
 72
              65
 73
               6
 40
150.0
 49
50.0
 49
-20.0
 49
20.0
 49
-20.0
 49
20.0
 49
-20.0
  0
LTYPE
  2
PHANTOM
 70
               0
  3
CADPAC FUSION LINETYPE
 72
              65
 73
               6
 40
124.0
 49
40.0
 49
-20.0
 49
12.0
 49
-20.0
 49
12.0
 49
-20.0
  0
LTYPE
  2
PHANTOM2
 70
               0
  3
CADPAC FUSION LINETYPE
 72
              65
 73
               6
 40
106.0
 49
30.0
 49
-20.0
 49
8.0
 49
-20.0
 49
8.0
 49
-20.0
  0
ENDTAB
  0
TABLE
  2
LAYER
 70
             256
  0
LAYER
  2
0
 70
               0
 62
               7
  6
CONTINUOUS
  0
LAYER
  2
LAYER001
 70
               0
 62
               7
  6
CONTINUOUS
  0
LAYER
  2
LAYER002
 70
               0
 62
               7
  6
CONTINUOUS
  0
LAYER
  2
LAYER003
 70
               0
 62
               7
  6
CONTINUOUS
  0
LAYER
  2
LAYER004
 70
               0
 62
               7
  6
CONTINUOUS
  0
LAYER
  2
LAYER005
 70
               0
 62
               7
  6
CONTINUOUS
  0
LAYER
  2
LAYER006
 70
               0
 62
               7
  6
CONTINUOUS
  0
LAYER
  2
LAYER007
 70
               0
 62
               7
  6
CONTINUOUS
  0
LAYER
  2
LAYER008
 70
               0
 62
               7
  6
CONTINUOUS
  0
LAYER
  2
LAYER009
 70
               0
 62
               7
  6
CONTINUOUS
  0
LAYER
  2
LAYER010
 70
               0
 62
               7
  6
CONTINUOUS
  0
LAYER
  2
LAYER011
 70
               0
 62
               7
  6
CONTINUOUS
  0
LAYER
  2
LAYER012
 70
               0
 62
               7
  6
CONTINUOUS
  0
LAYER
  2
LAYER013
 70
               0
 62
               7
  6
CONTINUOUS
  0
LAYER
  2
LAYER014
 70
               0
 62
               7
  6
CONTINUOUS
  0
LAYER
  2
LAYER015
 70
               0
 62
               7
  6
CONTINUOUS
  0
LAYER
  2
LAYER016
 70
               0
 62
               7
  6
CONTINUOUS
  0
LAYER
  2
LAYER017
 70
               0
 62
               7
  6
CONTINUOUS
  0
LAYER
  2
LAYER018
 70
               0
 62
               7
  6
CONTINUOUS
  0
LAYER
  2
LAYER019
 70
               0
 62
               7
  6
CONTINUOUS
  0
LAYER
  2
LAYER020
 70
               0
 62
               7
  6
CONTINUOUS
  0
LAYER
  2
LAYER021
 70
               0
 62
               7
  6
CONTINUOUS
  0
LAYER
  2
LAYER022
 70
               0
 62
               7
  6
CONTINUOUS
  0
LAYER
  2
LAYER023
 70
               0
 62
               7
  6
CONTINUOUS
  0
LAYER
  2
LAYER024
 70
               0
 62
               7
  6
CONTINUOUS
  0
LAYER
  2
LAYER025
 70
               0
 62
               7
  6
CONTINUOUS
  0
LAYER
  2
LAYER026
 70
               0
 62
               7
  6
CONTINUOUS
  0
LAYER
  2
LAYER027
 70
               0
 62
               7
  6
CONTINUOUS
  0
LAYER
  2
LAYER028
 70
               0
 62
               7
  6
CONTINUOUS
  0
LAYER
  2
LAYER029
 70
               0
 62
               7
  6
CONTINUOUS
  0
LAYER
  2
LAYER030
 70
               0
 62
               7
  6
CONTINUOUS
  0
LAYER
  2
LAYER031
 70
               0
 62
               7
  6
CONTINUOUS
  0
LAYER
  2
LAYER032
 70
               0
 62
               7
  6
CONTINUOUS
  0
LAYER
  2
LAYER033
 70
               0
 62
               7
  6
CONTINUOUS
  0
LAYER
  2
LAYER034
 70
               0
 62
               7
  6
CONTINUOUS
  0
LAYER
  2
LAYER035
 70
               0
 62
               7
  6
CONTINUOUS
  0
LAYER
  2
LAYER036
 70
               0
 62
               7
  6
CONTINUOUS
  0
LAYER
  2
LAYER037
 70
               0
 62
               7
  6
CONTINUOUS
  0
LAYER
  2
LAYER038
 70
               0
 62
               7
  6
CONTINUOUS
  0
LAYER
  2
LAYER039
 70
               0
 62
               7
  6
CONTINUOUS
  0
LAYER
  2
LAYER040
 70
               0
 62
               7
  6
CONTINUOUS
  0
LAYER
  2
LAYER041
 70
               0
 62
               7
  6
CONTINUOUS
  0
LAYER
  2
LAYER042
 70
               0
 62
               7
  6
CONTINUOUS
  0
LAYER
  2
LAYER043
 70
               0
 62
               7
  6
CONTINUOUS
  0
LAYER
  2
LAYER044
 70
               0
 62
               7
  6
CONTINUOUS
  0
LAYER
  2
LAYER045
 70
               0
 62
               7
  6
CONTINUOUS
  0
LAYER
  2
LAYER046
 70
               0
 62
               7
  6
CONTINUOUS
  0
LAYER
  2
LAYER047
 70
               0
 62
               7
  6
CONTINUOUS
  0
LAYER
  2
LAYER048
 70
               0
 62
               7
  6
CONTINUOUS
  0
LAYER
  2
LAYER049
 70
               0
 62
               7
  6
CONTINUOUS
  0
LAYER
  2
LAYER050
 70
               0
 62
               7
  6
CONTINUOUS
  0
LAYER
  2
LAYER051
 70
               0
 62
               7
  6
CONTINUOUS
  0
LAYER
  2
LAYER052
 70
               0
 62
               7
  6
CONTINUOUS
  0
LAYER
  2
LAYER053
 70
               0
 62
               7
  6
CONTINUOUS
  0
LAYER
  2
LAYER054
 70
               0
 62
               7
  6
CONTINUOUS
  0
LAYER
  2
LAYER055
 70
               0
 62
               7
  6
CONTINUOUS
  0
LAYER
  2
LAYER056
 70
               0
 62
               7
  6
CONTINUOUS
  0
LAYER
  2
LAYER057
 70
               0
 62
               7
  6
CONTINUOUS
  0
LAYER
  2
LAYER058
 70
               0
 62
               7
  6
CONTINUOUS
  0
LAYER
  2
LAYER059
 70
               0
 62
               7
  6
CONTINUOUS
  0
LAYER
  2
LAYER060
 70
               0
 62
               7
  6
CONTINUOUS
  0
LAYER
  2
LAYER061
 70
               0
 62
               7
  6
CONTINUOUS
  0
LAYER
  2
LAYER062
 70
               0
 62
               7
  6
CONTINUOUS
  0
LAYER
  2
LAYER063
 70
               0
 62
               7
  6
CONTINUOUS
  0
LAYER
  2
LAYER064
 70
               0
 62
               7
  6
CONTINUOUS
  0
LAYER
  2
LAYER065
 70
               0
 62
               7
  6
CONTINUOUS
  0
LAYER
  2
LAYER066
 70
               0
 62
               7
  6
CONTINUOUS
  0
LAYER
  2
LAYER067
 70
               0
 62
               7
  6
CONTINUOUS
  0
LAYER
  2
LAYER068
 70
               0
 62
               7
  6
CONTINUOUS
  0
LAYER
  2
LAYER069
 70
               0
 62
               7
  6
CONTINUOUS
  0
LAYER
  2
LAYER070
 70
               0
 62
               7
  6
CONTINUOUS
  0
LAYER
  2
LAYER071
 70
               0
 62
               7
  6
CONTINUOUS
  0
LAYER
  2
LAYER072
 70
               0
 62
               7
  6
CONTINUOUS
  0
LAYER
  2
LAYER073
 70
               0
 62
               7
  6
CONTINUOUS
  0
LAYER
  2
LAYER074
 70
               0
 62
               7
  6
CONTINUOUS
  0
LAYER
  2
LAYER075
 70
               0
 62
               7
  6
CONTINUOUS
  0
LAYER
  2
LAYER076
 70
               0
 62
               7
  6
CONTINUOUS
  0
LAYER
  2
LAYER077
 70
               0
 62
               7
  6
CONTINUOUS
  0
LAYER
  2
LAYER078
 70
               0
 62
               7
  6
CONTINUOUS
  0
LAYER
  2
LAYER079
 70
               0
 62
               7
  6
CONTINUOUS
  0
LAYER
  2
LAYER080
 70
               0
 62
               7
  6
CONTINUOUS
  0
LAYER
  2
LAYER081
 70
               0
 62
               7
  6
CONTINUOUS
  0
LAYER
  2
LAYER082
 70
               0
 62
               7
  6
CONTINUOUS
  0
LAYER
  2
LAYER083
 70
               0
 62
               7
  6
CONTINUOUS
  0
LAYER
  2
LAYER084
 70
               0
 62
               7
  6
CONTINUOUS
  0
LAYER
  2
LAYER085
 70
               0
 62
               7
  6
CONTINUOUS
  0
LAYER
  2
LAYER086
 70
               0
 62
               7
  6
CONTINUOUS
  0
LAYER
  2
LAYER087
 70
               0
 62
               7
  6
CONTINUOUS
  0
LAYER
  2
LAYER088
 70
               0
 62
               7
  6
CONTINUOUS
  0
LAYER
  2
LAYER089
 70
               0
 62
               7
  6
CONTINUOUS
  0
LAYER
  2
LAYER090
 70
               0
 62
               7
  6
CONTINUOUS
  0
LAYER
  2
LAYER091
 70
               0
 62
               7
  6
CONTINUOUS
  0
LAYER
  2
LAYER092
 70
               0
 62
               7
  6
CONTINUOUS
  0
LAYER
  2
LAYER093
 70
               0
 62
               7
  6
CONTINUOUS
  0
LAYER
  2
LAYER094
 70
               0
 62
               7
  6
CONTINUOUS
  0
LAYER
  2
LAYER095
 70
               0
 62
               7
  6
CONTINUOUS
  0
LAYER
  2
LAYER096
 70
               0
 62
               7
  6
CONTINUOUS
  0
LAYER
  2
LAYER097
 70
               0
 62
               7
  6
CONTINUOUS
  0
LAYER
  2
LAYER098
 70
               0
 62
               7
  6
CONTINUOUS
  0
LAYER
  2
LAYER099
 70
               0
 62
               7
  6
CONTINUOUS
  0
LAYER
  2
LAYER100
 70
               0
 62
               7
  6
CONTINUOUS
  0
LAYER
  2
LAYER101
 70
               0
 62
               7
  6
CONTINUOUS
  0
LAYER
  2
LAYER102
 70
               0
 62
               7
  6
CONTINUOUS
  0
LAYER
  2
LAYER103
 70
               0
 62
               7
  6
CONTINUOUS
  0
LAYER
  2
LAYER104
 70
               0
 62
               7
  6
CONTINUOUS
  0
LAYER
  2
LAYER105
 70
               0
 62
               7
  6
CONTINUOUS
  0
LAYER
  2
LAYER106
 70
               0
 62
               7
  6
CONTINUOUS
  0
LAYER
  2
LAYER107
 70
               0
 62
               7
  6
CONTINUOUS
  0
LAYER
  2
LAYER108
 70
               0
 62
               7
  6
CONTINUOUS
  0
LAYER
  2
LAYER109
 70
               0
 62
               7
  6
CONTINUOUS
  0
LAYER
  2
LAYER110
 70
               0
 62
               7
  6
CONTINUOUS
  0
LAYER
  2
LAYER111
 70
               0
 62
               7
  6
CONTINUOUS
  0
LAYER
  2
LAYER112
 70
               0
 62
               7
  6
CONTINUOUS
  0
LAYER
  2
LAYER113
 70
               0
 62
               7
  6
CONTINUOUS
  0
LAYER
  2
LAYER114
 70
               0
 62
               7
  6
CONTINUOUS
  0
LAYER
  2
LAYER115
 70
               0
 62
               7
  6
CONTINUOUS
  0
LAYER
  2
LAYER116
 70
               0
 62
               7
  6
CONTINUOUS
  0
LAYER
  2
LAYER117
 70
               0
 62
               7
  6
CONTINUOUS
  0
LAYER
  2
LAYER118
 70
               0
 62
               7
  6
CONTINUOUS
  0
LAYER
  2
LAYER119
 70
               0
 62
               7
  6
CONTINUOUS
  0
LAYER
  2
LAYER120
 70
               0
 62
               7
  6
CONTINUOUS
  0
LAYER
  2
LAYER121
 70
               0
 62
               7
  6
CONTINUOUS
  0
LAYER
  2
LAYER122
 70
               0
 62
               7
  6
CONTINUOUS
  0
LAYER
  2
LAYER123
 70
               0
 62
               7
  6
CONTINUOUS
  0
LAYER
  2
LAYER124
 70
               0
 62
               7
  6
CONTINUOUS
  0
LAYER
  2
LAYER125
 70
               0
 62
               7
  6
CONTINUOUS
  0
LAYER
  2
LAYER126
 70
               0
 62
               7
  6
CONTINUOUS
  0
LAYER
  2
LAYER127
 70
               0
 62
               7
  6
CONTINUOUS
  0
LAYER
  2
LAYER128
 70
               0
 62
               7
  6
CONTINUOUS
  0
LAYER
  2
LAYER129
 70
               0
 62
               7
  6
CONTINUOUS
  0
LAYER
  2
LAYER130
 70
               0
 62
               7
  6
CONTINUOUS
  0
LAYER
  2
LAYER131
 70
               0
 62
               7
  6
CONTINUOUS
  0
LAYER
  2
LAYER132
 70
               0
 62
               7
  6
CONTINUOUS
  0
LAYER
  2
LAYER133
 70
               0
 62
               7
  6
CONTINUOUS
  0
LAYER
  2
LAYER134
 70
               0
 62
               7
  6
CONTINUOUS
  0
LAYER
  2
LAYER135
 70
               0
 62
               7
  6
CONTINUOUS
  0
LAYER
  2
LAYER136
 70
               0
 62
               7
  6
CONTINUOUS
  0
LAYER
  2
LAYER137
 70
               0
 62
               7
  6
CONTINUOUS
  0
LAYER
  2
LAYER138
 70
               0
 62
               7
  6
CONTINUOUS
  0
LAYER
  2
LAYER139
 70
               0
 62
               7
  6
CONTINUOUS
  0
LAYER
  2
LAYER140
 70
               0
 62
               7
  6
CONTINUOUS
  0
LAYER
  2
LAYER141
 70
               0
 62
               7
  6
CONTINUOUS
  0
LAYER
  2
LAYER142
 70
               0
 62
               7
  6
CONTINUOUS
  0
LAYER
  2
LAYER143
 70
               0
 62
               7
  6
CONTINUOUS
  0
LAYER
  2
LAYER144
 70
               0
 62
               7
  6
CONTINUOUS
  0
LAYER
  2
LAYER145
 70
               0
 62
               7
  6
CONTINUOUS
  0
LAYER
  2
LAYER146
 70
               0
 62
               7
  6
CONTINUOUS
  0
LAYER
  2
LAYER147
 70
               0
 62
               7
  6
CONTINUOUS
  0
LAYER
  2
LAYER148
 70
               0
 62
               7
  6
CONTINUOUS
  0
LAYER
  2
LAYER149
 70
               0
 62
               7
  6
CONTINUOUS
  0
LAYER
  2
LAYER150
 70
               0
 62
               7
  6
CONTINUOUS
  0
LAYER
  2
LAYER151
 70
               0
 62
               7
  6
CONTINUOUS
  0
LAYER
  2
LAYER152
 70
               0
 62
               7
  6
CONTINUOUS
  0
LAYER
  2
LAYER153
 70
               0
 62
               7
  6
CONTINUOUS
  0
LAYER
  2
LAYER154
 70
               0
 62
               7
  6
CONTINUOUS
  0
LAYER
  2
LAYER155
 70
               0
 62
               7
  6
CONTINUOUS
  0
LAYER
  2
LAYER156
 70
               0
 62
               7
  6
CONTINUOUS
  0
LAYER
  2
LAYER157
 70
               0
 62
               7
  6
CONTINUOUS
  0
LAYER
  2
LAYER158
 70
               0
 62
               7
  6
CONTINUOUS
  0
LAYER
  2
LAYER159
 70
               0
 62
               7
  6
CONTINUOUS
  0
LAYER
  2
LAYER160
 70
               0
 62
               7
  6
CONTINUOUS
  0
LAYER
  2
LAYER161
 70
               0
 62
               7
  6
CONTINUOUS
  0
LAYER
  2
LAYER162
 70
               0
 62
               7
  6
CONTINUOUS
  0
LAYER
  2
LAYER163
 70
               0
 62
               7
  6
CONTINUOUS
  0
LAYER
  2
LAYER164
 70
               0
 62
               7
  6
CONTINUOUS
  0
LAYER
  2
LAYER165
 70
               0
 62
               7
  6
CONTINUOUS
  0
LAYER
  2
LAYER166
 70
               0
 62
               7
  6
CONTINUOUS
  0
LAYER
  2
LAYER167
 70
               0
 62
               7
  6
CONTINUOUS
  0
LAYER
  2
LAYER168
 70
               0
 62
               7
  6
CONTINUOUS
  0
LAYER
  2
LAYER169
 70
               0
 62
               7
  6
CONTINUOUS
  0
LAYER
  2
LAYER170
 70
               0
 62
               7
  6
CONTINUOUS
  0
LAYER
  2
LAYER171
 70
               0
 62
               7
  6
CONTINUOUS
  0
LAYER
  2
LAYER172
 70
               0
 62
               7
  6
CONTINUOUS
  0
LAYER
  2
LAYER173
 70
               0
 62
               7
  6
CONTINUOUS
  0
LAYER
  2
LAYER174
 70
               0
 62
               7
  6
CONTINUOUS
  0
LAYER
  2
LAYER175
 70
               0
 62
               7
  6
CONTINUOUS
  0
LAYER
  2
LAYER176
 70
               0
 62
               7
  6
CONTINUOUS
  0
LAYER
  2
LAYER177
 70
               0
 62
               7
  6
CONTINUOUS
  0
LAYER
  2
LAYER178
 70
               0
 62
               7
  6
CONTINUOUS
  0
LAYER
  2
LAYER179
 70
               0
 62
               7
  6
CONTINUOUS
  0
LAYER
  2
LAYER180
 70
               0
 62
               7
  6
CONTINUOUS
  0
LAYER
  2
LAYER181
 70
               0
 62
               7
  6
CONTINUOUS
  0
LAYER
  2
LAYER182
 70
               0
 62
               7
  6
CONTINUOUS
  0
LAYER
  2
LAYER183
 70
               0
 62
               7
  6
CONTINUOUS
  0
LAYER
  2
LAYER184
 70
               0
 62
               7
  6
CONTINUOUS
  0
LAYER
  2
LAYER185
 70
               0
 62
               7
  6
CONTINUOUS
  0
LAYER
  2
LAYER186
 70
               0
 62
               7
  6
CONTINUOUS
  0
LAYER
  2
LAYER187
 70
               0
 62
               7
  6
CONTINUOUS
  0
LAYER
  2
LAYER188
 70
               0
 62
               7
  6
CONTINUOUS
  0
LAYER
  2
LAYER189
 70
               0
 62
               7
  6
CONTINUOUS
  0
LAYER
  2
LAYER190
 70
               0
 62
               7
  6
CONTINUOUS
  0
LAYER
  2
LAYER191
 70
               0
 62
               7
  6
CONTINUOUS
  0
LAYER
  2
LAYER192
 70
               0
 62
               7
  6
CONTINUOUS
  0
LAYER
  2
LAYER193
 70
               0
 62
               7
  6
CONTINUOUS
  0
LAYER
  2
LAYER194
 70
               0
 62
               7
  6
CONTINUOUS
  0
LAYER
  2
LAYER195
 70
               0
 62
               7
  6
CONTINUOUS
  0
LAYER
  2
LAYER196
 70
               0
 62
               7
  6
CONTINUOUS
  0
LAYER
  2
LAYER197
 70
               0
 62
               7
  6
CONTINUOUS
  0
LAYER
  2
LAYER198
 70
               0
 62
               7
  6
CONTINUOUS
  0
LAYER
  2
LAYER199
 70
               0
 62
               7
  6
CONTINUOUS
  0
LAYER
  2
LAYER200
 70
               0
 62
               7
  6
CONTINUOUS
  0
LAYER
  2
LAYER201
 70
               0
 62
               7
  6
CONTINUOUS
  0
LAYER
  2
LAYER202
 70
               0
 62
               7
  6
CONTINUOUS
  0
LAYER
  2
LAYER203
 70
               0
 62
               7
  6
CONTINUOUS
  0
LAYER
  2
LAYER204
 70
               0
 62
               7
  6
CONTINUOUS
  0
LAYER
  2
LAYER205
 70
               0
 62
               7
  6
CONTINUOUS
  0
LAYER
  2
LAYER206
 70
               0
 62
               7
  6
CONTINUOUS
  0
LAYER
  2
LAYER207
 70
               0
 62
               7
  6
CONTINUOUS
  0
LAYER
  2
LAYER208
 70
               0
 62
               7
  6
CONTINUOUS
  0
LAYER
  2
LAYER209
 70
               0
 62
               7
  6
CONTINUOUS
  0
LAYER
  2
LAYER210
 70
               0
 62
               7
  6
CONTINUOUS
  0
LAYER
  2
LAYER211
 70
               0
 62
               7
  6
CONTINUOUS
  0
LAYER
  2
LAYER212
 70
               0
 62
               7
  6
CONTINUOUS
  0
LAYER
  2
LAYER213
 70
               0
 62
               7
  6
CONTINUOUS
  0
LAYER
  2
LAYER214
 70
               0
 62
               7
  6
CONTINUOUS
  0
LAYER
  2
LAYER215
 70
               0
 62
               7
  6
CONTINUOUS
  0
LAYER
  2
LAYER216
 70
               0
 62
               7
  6
CONTINUOUS
  0
LAYER
  2
LAYER217
 70
               0
 62
               7
  6
CONTINUOUS
  0
LAYER
  2
LAYER218
 70
               0
 62
               7
  6
CONTINUOUS
  0
LAYER
  2
LAYER219
 70
               0
 62
               7
  6
CONTINUOUS
  0
LAYER
  2
LAYER220
 70
               0
 62
               7
  6
CONTINUOUS
  0
LAYER
  2
LAYER221
 70
               0
 62
               7
  6
CONTINUOUS
  0
LAYER
  2
LAYER222
 70
               0
 62
               7
  6
CONTINUOUS
  0
LAYER
  2
LAYER223
 70
               0
 62
               7
  6
CONTINUOUS
  0
LAYER
  2
LAYER224
 70
               0
 62
               7
  6
CONTINUOUS
  0
LAYER
  2
LAYER225
 70
               0
 62
               7
  6
CONTINUOUS
  0
LAYER
  2
LAYER226
 70
               0
 62
               7
  6
CONTINUOUS
  0
LAYER
  2
LAYER227
 70
               0
 62
               7
  6
CONTINUOUS
  0
LAYER
  2
LAYER228
 70
               0
 62
               7
  6
CONTINUOUS
  0
LAYER
  2
LAYER229
 70
               0
 62
               7
  6
CONTINUOUS
  0
LAYER
  2
LAYER230
 70
               0
 62
               7
  6
CONTINUOUS
  0
LAYER
  2
LAYER231
 70
               0
 62
               7
  6
CONTINUOUS
  0
LAYER
  2
LAYER232
 70
               0
 62
               7
  6
CONTINUOUS
  0
LAYER
  2
LAYER233
 70
               0
 62
               7
  6
CONTINUOUS
  0
LAYER
  2
LAYER234
 70
               0
 62
               7
  6
CONTINUOUS
  0
LAYER
  2
LAYER235
 70
               0
 62
               7
  6
CONTINUOUS
  0
LAYER
  2
LAYER236
 70
               0
 62
               7
  6
CONTINUOUS
  0
LAYER
  2
LAYER237
 70
               0
 62
               7
  6
CONTINUOUS
  0
LAYER
  2
LAYER238
 70
               0
 62
               7
  6
CONTINUOUS
  0
LAYER
  2
LAYER239
 70
               0
 62
               7
  6
CONTINUOUS
  0
LAYER
  2
LAYER240
 70
               0
 62
               7
  6
CONTINUOUS
  0
LAYER
  2
LAYER241
 70
               0
 62
               7
  6
CONTINUOUS
  0
LAYER
  2
LAYER242
 70
               0
 62
               7
  6
CONTINUOUS
  0
LAYER
  2
LAYER243
 70
               0
 62
               7
  6
CONTINUOUS
  0
LAYER
  2
LAYER244
 70
               0
 62
               7
  6
CONTINUOUS
  0
LAYER
  2
LAYER245
 70
               0
 62
               7
  6
CONTINUOUS
  0
LAYER
  2
LAYER246
 70
               0
 62
               7
  6
CONTINUOUS
  0
LAYER
  2
LAYER247
 70
               0
 62
               7
  6
CONTINUOUS
  0
LAYER
  2
LAYER248
 70
               0
 62
               7
  6
CONTINUOUS
  0
LAYER
  2
LAYER249
 70
               0
 62
               7
  6
CONTINUOUS
  0
LAYER
  2
LAYER250
 70
               0
 62
               7
  6
CONTINUOUS
  0
LAYER
  2
LAYER251
 70
               0
 62
               7
  6
CONTINUOUS
  0
LAYER
  2
LAYER252
 70
               0
 62
               7
  6
CONTINUOUS
  0
LAYER
  2
LAYER253
 70
               0
 62
               7
  6
CONTINUOUS
  0
LAYER
  2
LAYER254
 70
               0
 62
               7
  6
CONTINUOUS
  0
LAYER
  2
LAYER255
 70
               0
 62
               7
  6
CONTINUOUS
  0
ENDTAB
  0
TABLE
  2
STYLE
 70
               1
  0
STYLE
  2
STANDARD
 70
               0
 40
0.0
 41
1.0
 50
0.0
 71
               0
 42
0.0
  3
txt
  4

  0
ENDTAB
  0
TABLE
  2
VIEW
 70
               0
  0
VIEW
  2
QQQQ
 70
               0
 40
1339.5466126672579
 10
40.814285714285148
 20
39.603376469837485
 41
1050.8550000000012
 11
0.0
 21
0.0
 31
1.0
 12
100.0
 22
100.0
 32
0.0
 42
50.0
 43
0.0
 44
0.0
 50
0.0
 71
               0
  0
ENDTAB
  0
TABLE
  2
UCS
 70
               0
  0
ENDTAB
  0
TABLE
  2
APPID
 70
               1
  0
APPID
  2
ACAD
 70
               0
  0
ENDTAB
  0
TABLE
  2
DIMSTYLE
 70
               1
  0
DIMSTYLE
  2
STANDARD
 70
               0
  3

  4

  5

  6

  7

 40
1.0
 41
0.18
 42
0.0625
 43
0.38
 44
0.18
 45
0.0
 46
0.0
 47
0.0
 48
0.0
140
0.18
141
0.09
142
0.0
143
25.399999999999999
144
1.0
145
0.0
146
1.0
147
0.09
 71
               0
 72
               0
 73
               1
 74
               1
 75
               0
 76
               0
 77
               0
 78
               0
170
               0
171
               2
172
               0
173
               0
174
               0
175
               0
176
               0
177
               0
178
               0
  0
ENDTAB
  0
ENDSEC
  0
SECTION
  2
BLOCKS
  0
ENDSEC
  0
SECTION
  2
ENTITIES
  0
POINT
  8
0
  6
CONTINUOUS
 62
               7
  5
136
 10
-326.68571428571511
 20
-427.52631251987202
 30
0.0
  0
POINT
  8
0
  6
CONTINUOUS
 62
               7
  5
137
 10
-326.68571428571516
 20
520.73306545954688
 30
0.0
  0
POINT
  8
0
  6
CONTINUOUS
 62
               7
  5
138
 10
-326.68571428571516
 20
-427.52631251987196
 30
0.0
  0
POINT
  8
0
  6
CONTINUOUS
 62
               7
  5
139
 10
391.31428571428569
 20
-427.52631251987174
 30
0.0
  0
POINT
  8
0
  6
CONTINUOUS
 62
               7
  5
13A
 10
-326.68571428571511
 20
-427.52631251987202
 30
0.0
  0
POINT
  8
0
  6
CONTINUOUS
 62
               7
  5
13B
 10
-326.68571428571505
 20
-427.52631251987202
 30
0.0
  0
POINT
  8
0
  6
CONTINUOUS
 62
               7
  5
13C
 10
-326.68571428571511
 20
-427.52631251987202
 30
0.0
  0
LINE
  8
0
  6
DASHDOT
 62
               4
  5
13D
 10
-434.68571428571533
 20
520.73306545954688
 30
0.0
 11
-33.685714285715108
 21
520.73306545954688
 31
0.0
  0
LINE
  8
0
  6
DASHDOT
 62
               4
  5
13E
 10
-326.68571428571516
 20
621.73306545954676
 30
0.0
 11
-326.68571428571516
 21
419.73306545954676
 31
0.0
  0
LINE
  8
0
  6
DASHDOT
 62
               4
  5
13F
 10
-354.41989054964915
 20
-427.52631251987202
 30
0.0
 11
-33.685714285715164
 21
-427.52631251987168
 31
0.0
  0
LINE
  8
0
  6
DASHDOT
 62
               4
  5
140
 10
-326.68571428571511
 20
120.73306545954685
 30
0.0
 11
-326.68571428571511
 21
-491.86296418994209
 31
0.0
  0
ARC
  8
0
  6
DASHDOT
 62
               4
  5
141
 10
-139.66106533240895
 20
-240.52631251987074
 30
0.0
 40
187.0
 50
179.99999999996558
 51
269.99999999994839
  0
LINE
  8
0
  6
DASHDOT
 62
               4
  5
142
 10
-331.68571428571511
 20
-378.02631251987202
 30
0.0
 11
-201.68571428571511
 21
-378.02631251987202
 31
0.0
  0
LINE
  8
0
  6
DASHDOT
 62
               4
  5
143
 10
-266.68571428571511
 20
-443.02631251987202
 30
0.0
 11
-266.68571428571511
 21
-313.02631251987202
 31
0.0
  0
LINE
  8
0
  6
DASHDOT
 62
               4
  5
144
 10
391.31428571428569
 20
124.01202680558617
 30
0.0
 11
391.31428571428569
 21
-566.52631251987191
 31
0.0
  0
LINE
  8
0
  6
DASHDOT
 62
               4
  5
145
 10
266.31428571428665
 20
-427.52631251987174
 30
0.0
 11
516.31428571428478
 21
-427.52631251987174
 31
0.0
  0
LINE
  8
0
  6
DASHED
 62
               4
  5
146
 10
-129.68571428571514
 20
603.23306545954688
 30
0.0
 11
-129.68571428571514
 21
438.23306545954682
 31
0.0
  0
LINE
  8
0
  6
DASHED
 62
               4
  5
147
 10
-129.69366122798493
 20
-345.02631251987179
 30
0.0
 11
-129.69366122798493
 21
-510.02631251987179
 31
0.0
  0
LINE
  8
0
  6
DASHED
 62
               4
  5
148
 10
-383.68571428571505
 20
39.473687480128035
 30
0.0
 11
-269.68571428571522
 21
39.473687480127921
 31
0.0
  0
LINE
  8
0
  6
DASHED
 62
               4
  5
149
 10
334.31428571428569
 20
39.473687480128092
 30
0.0
 11
448.31428571428569
 21
39.473687480128092
 31
0.0
  0
ARC
  8
0
  6
CONTINUOUS
 62
               3
  5
14A
 10
-326.68571428571516
 20
520.73306545954688
 30
0.0
 40
75.499999999999986
 50
213.32931837468692
 51
266.67068162522139
  0
ARC
  8
0
  6
CONTINUOUS
 62
               3
  5
14B
 10
-402.68571428571533
 20
520.73306545954688
 30
0.0
 40
12.0
 50
146.67068162524424
 51
213.32931837468706
  0
LINE
  8
0
  6
CONTINUOUS
 62
               3
  5
14C
 10
-412.71203007518864
 20
527.32647062605588
 30
0.0
 11
-389.76795112782042
 21
562.21657296550052
 31
0.0
  0
LINE
  8
0
  6
CONTINUOUS
 62
               3
  5
14D
 10
-412.71203007518864
 20
514.13966029303731
 30
0.0
 11
-389.76795112782042
 21
479.24955795359284
 31
0.0
  0
ARC
  8
0
  6
CONTINUOUS
 62
               3
  5
14E
 10
-288.68571428571533
 20
454.91513477192927
 30
0.0
 40
12.0
 50
266.67068162522139
 51
333.32931837466413
  0
LINE
  8
0
  6
CONTINUOUS
 62
               3
  5
14F
 10
-289.38261276261903
 20
442.93538800862552
 30
0.0
 11
-331.07036720290125
 21
445.36049207375999
 31
0.0
  0
LINE
  8
0
  6
CONTINUOUS
 62
               3
  5
150
 10
-277.96250001933777
 20
449.52879317513487
 30
0.0
 11
-259.21882452642399
 21
486.84399957971397
 31
0.0
  0
ARC
  8
0
  6
CONTINUOUS
 62
               3
  5
151
 10
-288.68571428571533
 20
586.55099614716414
 30
0.0
 40
12.0
 50
26.670681625267143
 51
93.329318374710041
  0
LINE
  8
0
  6
CONTINUOUS
 62
               3
  5
152
 10
-277.96250001933777
 20
591.93733774395855
 30
0.0
 11
-259.21882452642427
 21
554.62213133937939
 31
0.0
  0
LINE
  8
0
  6
CONTINUOUS
 62
               3
  5
153
 10
-289.38261276261903
 20
598.53074291046778
 30
0.0
 11
-331.07036720290125
 21
596.10563884533337
 31
0.0
  0
ARC
  8
0
  6
CONTINUOUS
 62
               3
  5
154
 10
-326.68571428571516
 20
520.73306545954688
 30
0.0
 40
75.499999999999986
 50
93.329318374709771
 51
146.67068162524424
  0
ARC
  8
0
  6
CONTINUOUS
 62
               3
  5
155
 10
-326.68571428571516
 20
520.73306545954688
 30
0.0
 40
75.499999999999986
 50
333.32931837466367
 51
386.67068162519763
  0
CIRCLE
  8
0
  6
CONTINUOUS
 62
               3
  5
156
 10
-326.68571428571516
 20
520.73306545954688
 30
0.0
 40
58.5
  0
ARC
  8
0
  6
CONTINUOUS
 62
               3
  5
157
 10
-326.68571428571516
 20
520.73306545954688
 30
0.0
 40
81.0
 50
72.093692269409232
 51
167.90630773054491
  0
ARC
  8
0
  6
CONTINUOUS
 62
               3
  5
158
 10
-326.68571428571516
 20
520.73306545954688
 30
0.0
 40
81.0
 50
312.79186553805573
 51
407.90630773049816
  0
ARC
  8
0
  6
CONTINUOUS
 62
               3
  5
159
 10
-326.68571428571516
 20
520.73306545954688
 30
0.0
 40
81.0
 50
192.09369226938628
 51
287.90630773052203
  0
LINE
  8
0
  6
CONTINUOUS
 62
               3
  5
15A
 10
-90.685714285715108
 20
625.23306545954642
 30
0.0
 11
-90.685714285715108
 21
415.73306545954733
 31
0.0
  0
LINE
  8
0
  6
CONTINUOUS
 62
               3
  5
15B
 10
-134.68571428571516
 20
611.23306545954699
 30
0.0
 11
-108.68571428571593
 21
611.23306545954574
 31
0.0
  0
LINE
  8
0
  6
CONTINUOUS
 62
               3
  5
15C
 10
-108.68571428571713
 20
415.73306545954586
 30
0.0
 11
-108.68571428571524
 21
625.2330654595479
 31
0.0
  0
LINE
  8
0
  6
CONTINUOUS
 62
               3
  5
15D
 10
-134.68571428571516
 20
430.23306545954654
 30
0.0
 11
-108.68571428571764
 21
430.23306545954745
 31
0.0
  0
LINE
  8
0
  6
CONTINUOUS
 62
               3
  5
15E
 10
-108.68571428571713
 20
415.73306545954586
 30
0.0
 11
-90.685714285715108
 21
415.73306545954733
 31
0.0
  0
CIRCLE
  8
0
  6
CONTINUOUS
 62
               3
  5
15F
 10
-402.68571428571533
 20
520.73306545954654
 30
0.0
 40
8.2666666666666657
  0
CIRCLE
  8
0
  6
CONTINUOUS
 62
               3
  5
160
 10
-288.68571428571533
 20
586.55099614716414
 30
0.0
 40
8.2666666666666657
  0
CIRCLE
  8
0
  6
CONTINUOUS
 62
               3
  5
161
 10
-288.68571428571533
 20
454.91513477192927
 30
0.0
 40
8.2666666666666657
  0
LINE
  8
0
  6
CONTINUOUS
 62
               3
  5
162
 10
-53.685714285715108
 20
625.2330654595454
 30
0.0
 11
-72.685714285714937
 21
625.23306545954642
 31
0.0
  0
LINE
  8
0
  6
CONTINUOUS
 62
               3
  5
163
 10
-90.685714285715108
 20
625.23306545954699
 30
0.0
 11
-108.68571428571524
 21
625.2330654595479
 31
0.0
  0
LINE
  8
0
  6
CONTINUOUS
 62
               3
  5
164
 10
-53.685714285715108
 20
415.73306545954694
 30
0.0
 11
-72.685714285715221
 21
415.73306545954722
 31
0.0
  0
LINE
  8
0
  6
CONTINUOUS
 62
               3
  5
165
 10
-72.685714285714937
 20
625.23306545954642
 30
0.0
 11
-72.685714285715221
 21
415.73306545954722
 31
0.0
  0
LINE
  8
0
  6
CONTINUOUS
 62
               3
  5
166
 10
-53.685714285715108
 20
415.73306545954694
 30
0.0
 11
-53.685714285715108
 21
625.2330654595454
 31
0.0
  0
LINE
  8
0
  6
CONTINUOUS
 62
               3
  5
167
 10
-134.68571428571516
 20
611.23306545954699
 30
0.0
 11
-134.68571428571516
 21
430.23306545954654
 31
0.0
  0
LINE
  8
0
  6
CONTINUOUS
 62
               3
  5
168
 10
-90.685714285715108
 20
616.23306545954688
 30
0.0
 11
-72.685714285714937
 21
616.23306545954688
 31
0.0
  0
LINE
  8
0
  6
CONTINUOUS
 62
               3
  5
169
 10
-72.685714285714937
 20
425.23306545954682
 30
0.0
 11
-90.685714285715108
 21
425.23306545954676
 31
0.0
  0
LINE
  8
0
  6
CONTINUOUS
 62
               3
  5
16A
 10
-221.68571428571488
 20
633.73306545954665
 30
0.0
 11
-221.68571428571488
 21
645.73306545954688
 31
0.0
  0
LINE
  8
0
  6
CONTINUOUS
 62
               3
  5
16B
 10
-228.68676030624107
 20
633.73306545954699
 30
0.0
 11
-228.68676030624107
 21
625.73306545954676
 31
0.0
  0
LINE
  8
0
  6
CONTINUOUS
 62
               3
  5
16C
 10
-311.68571428571545
 20
625.73306545954676
 30
0.0
 11
-221.68571428571488
 21
625.73306545954676
 31
0.0
  0
LINE
  8
0
  6
CONTINUOUS
 62
               3
  5
16D
 10
-311.68571428571545
 20
633.73306545954699
 30
0.0
 11
-221.68571428571488
 21
633.73306545954699
 31
0.0
  0
LINE
  8
0
  6
CONTINUOUS
 62
               3
  5
16E
 10
-311.68571428571545
 20
645.73306545954688
 30
0.0
 11
-221.68571428571488
 21
645.73306545954688
 31
0.0
  0
LINE
  8
0
  6
CONTINUOUS
 62
               3
  5
16F
 10
-311.68571428571545
 20
633.73306545954665
 30
0.0
 11
-311.68571428571545
 21
645.73306545954688
 31
0.0
  0
LINE
  8
0
  6
CONTINUOUS
 62
               3
  5
170
 10
-304.6867603062413
 20
633.73306545954699
 30
0.0
 11
-304.6867603062413
 21
625.73306545954676
 31
0.0
  0
LINE
  8
0
  6
CONTINUOUS
 62
               3
  5
171
 10
-311.68571428571488
 20
625.73306545954676
 30
0.0
 11
-311.68571428571488
 21
601.73306545954676
 31
0.0
  0
ARC
  8
0
  6
CONTINUOUS
 62
               3
  5
172
 10
-300.27247310417044
 20
501.73306545954756
 30
0.0
 40
100.0
 50
51.426652284142762
 51
89.999999999999801
  0
LINE
  8
0
  6
CONTINUOUS
 62
               3
  5
173
 10
-326.68571428571516
 20
601.73306545954676
 30
0.0
 11
-300.27247310417044
 21
601.73306545954676
 31
0.0
  0
LINE
  8
0
  6
CONTINUOUS
 62
               3
  5
174
 10
-221.68571428571516
 20
601.73306545954676
 30
0.0
 11
-134.68571428571516
 21
601.73306545954676
 31
0.0
  0
ARC
  8
0
  6
CONTINUOUS
 62
               3
  5
175
 10
-231.68571428571514
 20
587.73223123910054
 30
0.0
 40
10.0
 50
231.42665228414239
 51
359.9999999999992
  0
LINE
  8
0
  6
CONTINUOUS
 62
               3
  5
176
 10
-221.68571428571516
 20
625.73306545954676
 30
0.0
 11
-221.68571428571514
 21
587.73223123910054
 31
0.0
  0
LINE
  8
0
  6
CONTINUOUS
 62
               3
  5
177
 10
-221.68571428571488
 20
407.73306545954699
 30
0.0
 11
-221.68571428571488
 21
395.73306545954682
 31
0.0
  0
LINE
  8
0
  6
CONTINUOUS
 62
               3
  5
178
 10
-228.68676030624107
 20
407.73306545954671
 30
0.0
 11
-228.68676030624107
 21
415.73306545954688
 31
0.0
  0
LINE
  8
0
  6
CONTINUOUS
 62
               3
  5
179
 10
-311.68571428571545
 20
415.73306545954688
 30
0.0
 11
-221.68571428571488
 21
415.73306545954688
 31
0.0
  0
LINE
  8
0
  6
CONTINUOUS
 62
               3
  5
17A
 10
-311.68571428571545
 20
407.73306545954671
 30
0.0
 11
-221.68571428571488
 21
407.73306545954671
 31
0.0
  0
LINE
  8
0
  6
CONTINUOUS
 62
               3
  5
17B
 10
-311.68571428571545
 20
395.73306545954682
 30
0.0
 11
-221.68571428571488
 21
395.73306545954682
 31
0.0
  0
LINE
  8
0
  6
CONTINUOUS
 62
               3
  5
17C
 10
-311.68571428571545
 20
407.73306545954699
 30
0.0
 11
-311.68571428571545
 21
395.73306545954682
 31
0.0
  0
LINE
  8
0
  6
CONTINUOUS
 62
               3
  5
17D
 10
-304.6867603062413
 20
407.73306545954671
 30
0.0
 11
-304.6867603062413
 21
415.73306545954688
 31
0.0
  0
LINE
  8
0
  6
CONTINUOUS
 62
               3
  5
17E
 10
-311.68571428571488
 20
415.73306545954688
 30
0.0
 11
-311.68571428571488
 21
439.73306545954688
 31
0.0
  0
ARC
  8
0
  6
CONTINUOUS
 62
               3
  5
17F
 10
-231.68571428571514
 20
453.7338996799931
 30
0.0
 40
10.0
 50
0.0
 51
128.57334771585681
  0
LINE
  8
0
  6
CONTINUOUS
 62
               3
  5
180
 10
-221.68571428571516
 20
415.73306545954688
 30
0.0
 11
-221.68571428571514
 21
453.7338996799931
 31
0.0
  0
ARC
  8
0
  6
CONTINUOUS
 62
               3
  5
181
 10
-300.27247310417044
 20
539.73306545954608
 30
0.0
 40
100.0
 50
269.99999999999937
 51
308.57334771585641
  0
LINE
  8
0
  6
CONTINUOUS
 62
               3
  5
182
 10
-326.68571428571516
 20
439.73306545954676
 30
0.0
 11
-300.27247310417044
 21
439.73306545954676
 31
0.0
  0
LINE
  8
0
  6
CONTINUOUS
 62
               3
  5
183
 10
-221.68571428571516
 20
439.73306545954676
 30
0.0
 11
-134.68571428571516
 21
439.73306545954676
 31
0.0
  0
ARC
  8
0
  6
CONTINUOUS
 62
               3
  5
184
 10
-139.66106533240895
 20
-240.52631251987074
 30
0.0
 40
106.0
 50
187.87684709281993
 51
269.99999999994839
  0
ARC
  8
0
  6
CONTINUOUS
 62
               3
  5
185
 10
-257.53829116289427
 20
-256.83458129705025
 30
0.0
 40
13.0
 50
7.8768470928543577
 51
45.080701757728015
  0
ARC
  8
0
  6
CONTINUOUS
 62
               3
  5
186
 10
-139.66106533240895
 20
-240.52631251987074
 30
0.0
 40
269.99999999999989
 50
183.75335159761605
 51
269.99999999994839
  0
ARC
  8
0
  6
CONTINUOUS
 62
               3
  5
187
 10
-396.10982492289236
 20
-257.34991809365863
 30
0.0
 40
13.0
 50
134.99999999997397
 51
183.75335159761605
  0
LINE
  8
0
  6
CONTINUOUS
 62
               3
  5
188
 10
-405.30221307831738
 20
-248.15752993823344
 30
0.0
 11
-390.45779222435726
 21
-233.31310908427346
 31
0.0
  0
LINE
  8
0
  6
CONTINUOUS
 62
               3
  5
189
 10
-248.35885970496477
 20
-247.62925468094505
 30
0.0
 11
-262.89569630438649
 21
-233.13331110996424
 31
0.0
  0
LINE
  8
0
  6
CONTINUOUS
 62
               3
  5
18A
 10
-134.69366122798493
 20
-337.02631251987066
 30
0.0
 11
-108.82846943683354
 21
-337.02631251987066
 31
0.0
  0
LINE
  8
0
  6
CONTINUOUS
 62
               3
  5
18B
 10
-108.82846943683354
 20
-546.5263125198702
 30
0.0
 11
-90.693661227984933
 21
-546.52631251987032
 31
0.0
  0
LINE
  8
0
  6
CONTINUOUS
 62
               3
  5
18C
 10
-108.82846943683354
 20
-323.02631251986963
 30
0.0
 11
-90.693661227984933
 21
-323.02631251987117
 31
0.0
  0
LINE
  8
0
  6
CONTINUOUS
 62
               3
  5
18D
 10
-134.69366122798527
 20
-518.02631251987088
 30
0.0
 11
-108.82846943683425
 21
-518.02631251987032
 31
0.0
  0
LINE
  8
0
  6
CONTINUOUS
 62
               3
  5
18E
 10
-108.82846943683354
 20
-323.02631251986963
 30
0.0
 11
-108.82846943683354
 21
-546.5263125198702
 31
0.0
  0
LINE
  8
0
  6
CONTINUOUS
 62
               3
  5
18F
 10
-90.693661227984933
 20
-546.52631251987032
 30
0.0
 11
-90.693661227984933
 21
-323.02631251987117
 31
0.0
  0
LINE
  8
0
  6
CONTINUOUS
 62
               3
  5
190
 10
-72.685714285714937
 20
-332.02631251987248
 30
0.0
 11
-90.693661227984933
 21
-332.02631251987094
 31
0.0
  0
LINE
  8
0
  6
CONTINUOUS
 62
               3
  5
191
 10
-72.685714285715449
 20
-523.02631251987259
 30
0.0
 11
-90.693661227984933
 21
-523.02631251987111
 31
0.0
  0
LINE
  8
0
  6
CONTINUOUS
 62
               3
  5
192
 10
-53.685714285714823
 20
-323.02631251987282
 30
0.0
 11
-72.685714285714937
 21
-323.02631251987242
 31
0.0
  0
LINE
  8
0
  6
CONTINUOUS
 62
               3
  5
193
 10
-53.685714285715335
 20
-546.52631251987304
 30
0.0
 11
-72.685714285715449
 21
-546.52631251987259
 31
0.0
  0
LINE
  8
0
  6
CONTINUOUS
 62
               3
  5
194
 10
-72.685714285714937
 20
-323.02631251987242
 30
0.0
 11
-72.685714285715449
 21
-546.52631251987259
 31
0.0
  0
LINE
  8
0
  6
CONTINUOUS
 62
               3
  5
195
 10
-53.685714285715335
 20
-546.52631251987304
 30
0.0
 11
-53.685714285714823
 21
-323.02631251987282
 31
0.0
  0
LINE
  8
0
  6
CONTINUOUS
 62
               3
  5
196
 10
-134.69366122798493
 20
-337.02631251987066
 30
0.0
 11
-134.69366122798493
 21
-518.02631251987088
 31
0.0
  0
LINE
  8
0
  6
CONTINUOUS
 62
               3
  5
197
 10
-139.66106533240907
 20
-346.52631251987077
 30
0.0
 11
-134.69366122798505
 21
-346.52631251987077
 31
0.0
  0
LINE
  8
0
  6
CONTINUOUS
 62
               3
  5
198
 10
-139.66106533240912
 20
-510.52631251987066
 30
0.0
 11
-134.69366122798505
 21
-510.52631251987066
 31
0.0
  0
LINE
  8
0
  6
CONTINUOUS
 62
               3
  5
199
 10
-414.68571428571482
 20
67.473687480127268
 30
0.0
 11
-414.68571428571482
 21
52.438879271278864
 31
0.0
  0
LINE
  8
0
  6
CONTINUOUS
 62
               3
  5
19A
 10
-391.18571428571676
 20
52.438879271281138
 30
0.0
 11
-391.18571428571505
 21
34.922691240702363
 31
0.0
  0
LINE
  8
0
  6
CONTINUOUS
 62
               3
  5
19B
 10
-262.18571428571522
 20
52.438879271280797
 30
0.0
 11
-262.18571428571522
 21
34.922691240701965
 31
0.0
  0
LINE
  8
0
  6
CONTINUOUS
 62
               3
  5
19C
 10
-251.18571428571508
 20
67.473687480128632
 30
0.0
 11
-251.18571428571497
 21
52.438879271280797
 31
0.0
  0
LINE
  8
0
  6
CONTINUOUS
 62
               3
  5
19D
 10
-414.68571428571482
 20
52.438879271278864
 30
0.0
 11
-251.18571428571494
 21
52.438879271280797
 31
0.0
  0
LINE
  8
0
  6
CONTINUOUS
 62
               3
  5
19E
 10
-414.68571428571482
 20
67.473687480127268
 30
0.0
 11
-251.18571428571508
 21
67.473687480128632
 31
0.0
  0
LINE
  8
0
  6
CONTINUOUS
 62
               3
  5
19F
 10
-392.66106533240873
 20
77.500711005315196
 30
0.0
 11
-392.66106533240873
 21
67.473687480127268
 31
0.0
  0
LINE
  8
0
  6
CONTINUOUS
 62
               3
  5
1A0
 10
-260.66106533240884
 20
77.500711005315196
 30
0.0
 11
-260.66106533240884
 21
67.473687480128632
 31
0.0
  0
LINE
  8
0
  6
CONTINUOUS
 62
               3
  5
1A1
 10
-414.68571428571482
 20
92.500711005315196
 30
0.0
 11
-251.16106533240821
 21
92.500711005315196
 31
0.0
  0
LINE
  8
0
  6
CONTINUOUS
 62
               3
  5
1A2
 10
-414.68571428571482
 20
77.500711005315196
 30
0.0
 11
-251.16106533240867
 21
77.500711005315196
 31
0.0
  0
LINE
  8
0
  6
CONTINUOUS
 62
               3
  5
1A3
 10
-251.16106533240867
 20
77.500711005315196
 30
0.0
 11
-251.16106533240821
 21
92.500711005315196
 31
0.0
  0
LINE
  8
0
  6
CONTINUOUS
 62
               3
  5
1A4
 10
-414.68571428571482
 20
77.500711005315196
 30
0.0
 11
-414.68571428571482
 21
92.500711005315196
 31
0.0
  0
LINE
  8
0
  6
CONTINUOUS
 62
               3
  5
1A5
 10
-391.18571428571505
 20
34.922691240702363
 30
0.0
 11
-262.18571428571522
 21
34.922691240701965
 31
0.0
  0
LINE
  8
0
  6
CONTINUOUS
 62
               3
  5
1A6
 10
-385.18571428571516
 20
-220.58518702291556
 30
0.0
 11
-385.18571428571516
 21
34.922691240702136
 31
0.0
  0
LINE
  8
0
  6
CONTINUOUS
 62
               3
  5
1A7
 10
-268.18571428571511
 20
-220.38747425689536
 30
0.0
 11
-268.18571428571511
 21
34.922691240702136
 31
0.0
  0
LINE
  8
0
  6
CONTINUOUS
 62
               3
  5
1A8
 10
-399.18571428571516
 20
-12.526312519872079
 30
0.0
 11
-254.18571428571511
 21
-12.526312519872079
 31
0.0
  0
LINE
  8
0
  6
CONTINUOUS
 62
               3
  5
1A9
 10
-254.18571428571511
 20
-5.5263125198720786
 30
0.0
 11
-254.18571428571511
 21
-12.526312519872079
 31
0.0
  0
LINE
  8
0
  6
CONTINUOUS
 62
               3
  5
1AA
 10
-254.18571428571511
 20
-5.5263125198720786
 30
0.0
 11
-399.18571428571516
 21
-5.5263125198720786
 31
0.0
  0
LINE
  8
0
  6
CONTINUOUS
 62
               3
  5
1AB
 10
-399.18571428571516
 20
-5.5263125198720786
 30
0.0
 11
-399.18571428571516
 21
-12.526312519872079
 31
0.0
  0
LINE
  8
0
  6
CONTINUOUS
 62
               3
  5
1AC
 10
-399.18571428571516
 20
-62.526312519872079
 30
0.0
 11
-254.18571428571511
 21
-62.526312519872079
 31
0.0
  0
LINE
  8
0
  6
CONTINUOUS
 62
               3
  5
1AD
 10
-254.18571428571511
 20
-55.526312519872079
 30
0.0
 11
-254.18571428571511
 21
-62.526312519872079
 31
0.0
  0
LINE
  8
0
  6
CONTINUOUS
 62
               3
  5
1AE
 10
-254.18571428571511
 20
-55.526312519872079
 30
0.0
 11
-399.18571428571516
 21
-55.526312519872079
 31
0.0
  0
LINE
  8
0
  6
CONTINUOUS
 62
               3
  5
1AF
 10
-399.18571428571516
 20
-55.526312519872079
 30
0.0
 11
-399.18571428571516
 21
-62.526312519872079
 31
0.0
  0
LINE
  8
0
  6
CONTINUOUS
 62
               3
  5
1B0
 10
-399.18571428571516
 20
-112.52631251987208
 30
0.0
 11
-254.18571428571511
 21
-112.52631251987208
 31
0.0
  0
LINE
  8
0
  6
CONTINUOUS
 62
               3
  5
1B1
 10
-254.18571428571511
 20
-105.52631251987208
 30
0.0
 11
-254.18571428571511
 21
-112.52631251987208
 31
0.0
  0
LINE
  8
0
  6
CONTINUOUS
 62
               3
  5
1B2
 10
-254.18571428571511
 20
-105.52631251987208
 30
0.0
 11
-399.18571428571516
 21
-105.52631251987208
 31
0.0
  0
LINE
  8
0
  6
CONTINUOUS
 62
               3
  5
1B3
 10
-399.18571428571516
 20
-105.52631251987208
 30
0.0
 11
-399.18571428571516
 21
-112.52631251987208
 31
0.0
  0
LINE
  8
0
  6
CONTINUOUS
 62
               3
  5
1B4
 10
-399.18571428571516
 20
-162.52631251987205
 30
0.0
 11
-254.18571428571511
 21
-162.52631251987205
 31
0.0
  0
LINE
  8
0
  6
CONTINUOUS
 62
               3
  5
1B5
 10
-254.18571428571511
 20
-155.52631251987205
 30
0.0
 11
-254.18571428571511
 21
-162.52631251987205
 31
0.0
  0
LINE
  8
0
  6
CONTINUOUS
 62
               3
  5
1B6
 10
-254.18571428571511
 20
-155.52631251987205
 30
0.0
 11
-399.18571428571516
 21
-155.52631251987205
 31
0.0
  0
LINE
  8
0
  6
CONTINUOUS
 62
               3
  5
1B7
 10
-399.18571428571516
 20
-155.52631251987205
 30
0.0
 11
-399.18571428571516
 21
-162.52631251987205
 31
0.0
  0
ARC
  8
0
  6
CONTINUOUS
 62
               3
  5
1B8
 10
-403.18571428571505
 20
-220.58518702291556
 30
0.0
 40
18.0
 50
314.99999999993963
 51
359.99999999993042
  0
ARC
  8
0
  6
CONTINUOUS
 62
               3
  5
1B9
 10
-250.18571428571511
 20
-220.38747425689536
 30
0.0
 40
18.0
 50
179.99999999996558
 51
225.08070175769407
  0
LINE
  8
0
  6
CONTINUOUS
 62
               3
  5
1BA
 10
-399.74518633943967
 20
-313.02631251987202
 30
0.0
 11
-216.98990859286266
 21
-313.02631251987202
 31
0.0
  0
LINE
  8
0
  6
CONTINUOUS
 62
               3
  5
1BB
 10
-221.39080288245759
 20
-308.02631251987208
 30
0.0
 11
-401.08744120140915
 21
-308.02631251987208
 31
0.0
  0
LINE
  8
0
  6
CONTINUOUS
 62
               3
  5
1BC
 10
-347.24265157585046
 20
-454.52631251987202
 30
0.0
 11
-304.29399035046055
 21
-454.52631251987202
 31
0.0
  0
LINE
  8
0
  6
CONTINUOUS
 62
               3
  5
1BD
 10
-343.68571428571505
 20
-454.52631251987202
 30
0.0
 11
-343.68571428571505
 21
-484.52631251987202
 31
0.0
  0
LINE
  8
0
  6
CONTINUOUS
 62
               3
  5
1BE
 10
-309.68571428571505
 20
-484.52631251987202
 30
0.0
 11
-309.68571428571505
 21
-454.52631251987202
 31
0.0
  0
LINE
  8
0
  6
CONTINUOUS
 62
               3
  5
1BF
 10
-343.68571428571505
 20
-484.52631251987202
 30
0.0
 11
-309.68571428571505
 21
-484.52631251987202
 31
0.0
  0
LINE
  8
0
  6
CONTINUOUS
 62
               3
  5
1C0
 10
-331.68571428571505
 20
-454.52631251987202
 30
0.0
 11
-331.68571428571505
 21
-484.52631251987202
 31
0.0
  0
LINE
  8
0
  6
CONTINUOUS
 62
               3
  5
1C1
 10
-321.68571428571505
 20
-484.52631251987202
 30
0.0
 11
-321.68571428571505
 21
-454.52631251987202
 31
0.0
  0
LINE
  8
0
  6
CONTINUOUS
 62
               3
  5
1C2
 10
-347.24265157585046
 20
-454.52631251987202
 30
0.0
 11
-351.29675659453738
 21
-408.1876801153935
 31
0.0
  0
ARC
  8
0
  6
CONTINUOUS
 62
               3
  5
1C3
 10
-298.50551943910972
 20
-409.84611767326663
 30
0.0
 40
9.9999999999999964
 50
117.72027269076911
 51
332.2797273091445
  0
ARC
  8
0
  6
CONTINUOUS
 62
               3
  5
1C4
 10
-285.2270829765402
 20
-416.82344704126274
 30
0.0
 40
4.9999999999999982
 50
64.456602312026305
 51
152.27972730917895
  0
ARC
  8
0
  6
CONTINUOUS
 62
               3
  5
1C5
 10
-305.48284880710582
 20
-396.56768121069695
 30
0.0
 40
4.9999999999999982
 50
297.7202726907351
 51
385.5433976878868
  0
ARC
  8
0
  6
CONTINUOUS
 62
               3
  5
1C6
 10
-234.8659091323205
 20
-346.20650736647741
 30
0.0
 40
9.9999999999999964
 50
297.72027269073504
 51
512.27972730910938
  0
ARC
  8
0
  6
CONTINUOUS
 62
               3
  5
1C7
 10
-248.14434559489001
 20
-339.22917799848119
 30
0.0
 40
4.9999999999999982
 50
244.45660231199182
 51
332.2797273091445
  0
ARC
  8
0
  6
CONTINUOUS
 62
               3
  5
1C8
 10
-227.88857976432439
 20
-359.4849438290471
 30
0.0
 40
4.9999999999999982
 50
117.72027269076949
 51
205.54339768792224
  0
LINE
  8
0
  6
CONTINUOUS
 62
               3
  5
1C9
 10
-308.44968329278288
 20
-410.90139263805077
 30
0.0
 11
-311.43445162724447
 21
-382.7750498614011
 31
0.0
  0
LINE
  8
0
  6
CONTINUOUS
 62
               3
  5
1CA
 10
-261.93697694418603
 20
-333.27757517834283
 30
0.0
 11
-233.81063416753622
 21
-336.26234351280425
 31
0.0
  0
LINE
  8
0
  6
CONTINUOUS
 62
               3
  5
1CB
 10
-299.56079440389402
 20
-419.79028152693968
 30
0.0
 11
-271.43445162724419
 21
-422.7750498614011
 31
0.0
  0
LINE
  8
0
  6
CONTINUOUS
 62
               3
  5
1CC
 10
-221.93697694418603
 20
-373.27757517834277
 30
0.0
 11
-224.92174527864736
 21
-345.15123240169311
 31
0.0
  0
ARC
  8
0
  6
CONTINUOUS
 62
               3
  5
1CD
 10
-266.68571428571511
 20
-378.02631251987202
 30
0.0
 40
45.0
 50
83.942441268965311
 51
186.057558730983
  0
ARC
  8
0
  6
CONTINUOUS
 62
               3
  5
1CE
 10
-266.68571428571511
 20
-378.02631251987202
 30
0.0
 40
38.0
 50
64.45660231202632
 51
205.54339768792207
  0
ARC
  8
0
  6
CONTINUOUS
 62
               3
  5
1CF
 10
-266.68571428571511
 20
-378.02631251987202
 30
0.0
 40
45.0
 50
263.94244126893096
 51
366.0575587309479
  0
ARC
  8
0
  6
CONTINUOUS
 62
               3
  5
1D0
 10
-266.68571428571511
 20
-378.02631251987202
 30
0.0
 40
38.0
 50
244.45660231199182
 51
385.54339768788691
  0
CIRCLE
  8
0
  6
CONTINUOUS
 62
               3
  5
1D1
 10
-234.8659091323205
 20
-346.20650736647741
 30
0.0
 40
6.2999999999999989
  0
CIRCLE
  8
0
  6
CONTINUOUS
 62
               3
  5
1D2
 10
-298.50551943910972
 20
-409.84611767326663
 30
0.0
 40
6.2999999999999989
  0
ARC
  8
0
  6
CONTINUOUS
 62
               3
  5
1D3
 10
391.31428571428569
 20
-427.52631251987179
 30
0.0
 40
104.5
 50
300.46887311819489
 51
359.99999999993042
  0
CIRCLE
  8
0
  6
CONTINUOUS
 62
               3
  5
1D4
 10
391.31428571428569
 20
-427.52631251987179
 30
0.0
 40
84.5
  0
ARC
  8
0
  6
CONTINUOUS
 62
               3
  5
1D5
 10
391.31428571428569
 20
-532.52631251987191
 30
0.0
 40
14.0
 50
239.53112688170177
 51
300.46887311819484
  0
LINE
  8
0
  6
CONTINUOUS
 62
               3
  5
1D6
 10
384.21530300156144
 20
-544.59297918653851
 30
0.0
 11
338.32545046573796
 21
-517.59536013891943
 31
0.0
  0
LINE
  8
0
  6
CONTINUOUS
 62
               3
  5
1D7
 10
398.41326842700977
 20
-544.59297918653851
 30
0.0
 11
444.30312096283325
 21
-517.59536013891943
 31
0.0
  0
ARC
  8
0
  6
CONTINUOUS
 62
               3
  5
1D8
 10
482.24695311165158
 20
-375.02631251987179
 30
0.0
 40
14.0
 50
359.5311268816788
 51
420.46887311817113
  0
LINE
  8
0
  6
CONTINUOUS
 62
               3
  5
1D9
 10
496.24648434034577
 20
-375.14087855678412
 30
0.0
 11
495.81078667132493
 21
-428.38146615253856
 31
0.0
  0
LINE
  8
0
  6
CONTINUOUS
 62
               3
  5
1DA
 10
489.14750162762186
 20
-362.84507981629292
 30
0.0
 11
442.82195142277726
 21
-336.60211126815744
 31
0.0
  0
ARC
  8
0
  6
CONTINUOUS
 62
               3
  5
1DB
 10
300.38161831691963
 20
-375.02631251987174
 30
0.0
 40
14.0
 50
119.53112688172462
 51
180.46887311821783
  0
LINE
  8
0
  6
CONTINUOUS
 62
               3
  5
1DC
 10
293.48106980094951
 20
-362.84507981629275
 30
0.0
 11
339.80662000579395
 21
-336.60211126815727
 31
0.0
  0
LINE
  8
0
  6
CONTINUOUS
 62
               3
  5
1DD
 10
286.38208708822543
 20
-375.14087855678406
 30
0.0
 11
286.81778475724627
 21
-428.38146615253851
 31
0.0
  0
ARC
  8
0
  6
CONTINUOUS
 62
               3
  5
1DE
 10
391.31428571428569
 20
-427.52631251987179
 30
0.0
 40
104.5
 50
180.4688731182178
 51
239.53112688170182
  0
ARC
  8
0
  6
CONTINUOUS
 62
               3
  5
1DF
 10
391.31428571428569
 20
-427.52631251987179
 30
0.0
 40
104.5
 50
60.468873118240737
 51
119.53112688172475
  0
LINE
  8
0
  6
CONTINUOUS
 62
               3
  5
1E0
 10
307.81428571428557
 20
-258.41108883072286
 30
0.0
 11
307.81428571428557
 21
-333.02631251987174
 31
0.0
  0
ARC
  8
0
  6
CONTINUOUS
 62
               3
  5
1E1
 10
320.81428571428569
 20
-258.41108883072286
 30
0.0
 40
13.0
 50
134.99999999997422
 51
179.99999999996555
  0
LINE
  8
0
  6
CONTINUOUS
 62
               3
  5
1E2
 10
474.81428571428557
 20
-258.41108883072297
 30
0.0
 11
474.81428571428557
 21
-333.02631251987179
 31
0.0
  0
LINE
  8
0
  6
CONTINUOUS
 62
               3
  5
1E3
 10
327.54220777564365
 20
-233.29839045851455
 30
0.0
 11
311.62189755886055
 21
-249.21870067529784
 31
0.0
  0
ARC
  8
0
  6
CONTINUOUS
 62
               3
  5
1E4
 10
461.81428571428563
 20
-258.41108883072297
 30
0.0
 40
13.0
 50
0.0000000000000313
 51
0.9465120543343289
  0
LINE
  8
0
  6
CONTINUOUS
 62
               3
  5
1E5
 10
455.08636365292756
 20
-233.29839045851466
 30
0.0
 11
471.00667386971065
 21
-249.21870067529807
 31
0.0
  0
ARC
  8
0
  6
CONTINUOUS
 62
               3
  5
1E6
 10
461.81428571428563
 20
-258.41108883072297
 30
0.0
 40
13.0
 50
0.0
 51
44.99999999999136
  0
ARC
  8
0
  6
CONTINUOUS
 62
               3
  5
1E7
 10
320.81428571428569
 20
-258.41108883072286
 30
0.0
 40
13.0
 50
179.05348794563176
 51
179.99999999996555
  0
CIRCLE
  8
0
  6
CONTINUOUS
 62
               3
  5
1E8
 10
300.38161831691963
 20
-375.02631251987179
 30
0.0
 40
9.0
  0
CIRCLE
  8
0
  6
CONTINUOUS
 62
               3
  5
1E9
 10
482.24695311165158
 20
-375.02631251987191
 30
0.0
 40
9.0
  0
CIRCLE
  8
0
  6
CONTINUOUS
 62
               3
  5
1EA
 10
391.31428571428569
 20
-532.52631251987191
 30
0.0
 40
9.0
  0
LINE
  8
0
  6
CONTINUOUS
 62
               3
  5
1EB
 10
326.78963676097931
 20
52.473687480128092
 30
0.0
 11
326.78963676097931
 21
34.904378031562828
 31
0.0
  0
LINE
  8
0
  6
CONTINUOUS
 62
               3
  5
1EC
 10
455.78963676097908
 20
52.473687480128092
 30
0.0
 11
455.78963676097908
 21
34.904378031562828
 31
0.0
  0
LINE
  8
0
  6
CONTINUOUS
 62
               3
  5
1ED
 10
315.83893466759213
 20
67.473687480128092
 30
0.0
 11
315.83893466759173
 21
52.473687480128092
 31
0.0
  0
LINE
  8
0
  6
CONTINUOUS
 62
               3
  5
1EE
 10
315.83893466759213
 20
67.473687480128092
 30
0.0
 11
466.78963676097936
 21
67.473687480128092
 31
0.0
  0
LINE
  8
0
  6
CONTINUOUS
 62
               3
  5
1EF
 10
315.83893466759173
 20
52.473687480128092
 30
0.0
 11
466.78963676097959
 21
52.473687480128092
 31
0.0
  0
LINE
  8
0
  6
CONTINUOUS
 62
               3
  5
1F0
 10
466.78963676097936
 20
67.473687480128092
 30
0.0
 11
466.78963676097959
 21
52.473687480128092
 31
0.0
  0
LINE
  8
0
  6
CONTINUOUS
 62
               3
  5
1F1
 10
315.83893466759207
 20
92.487970166563855
 30
0.0
 11
466.83893466759213
 21
92.487970166563855
 31
0.0
  0
LINE
  8
0
  6
CONTINUOUS
 62
               3
  5
1F2
 10
315.83893466759201
 20
77.487970166563855
 30
0.0
 11
466.83893466759213
 21
77.487970166563855
 31
0.0
  0
LINE
  8
0
  6
CONTINUOUS
 62
               3
  5
1F3
 10
466.83893466759213
 20
77.487970166563855
 30
0.0
 11
466.83893466759213
 21
92.487970166563855
 31
0.0
  0
LINE
  8
0
  6
CONTINUOUS
 62
               3
  5
1F4
 10
315.83893466759207
 20
92.487970166563855
 30
0.0
 11
315.83893466759201
 21
77.487970166563855
 31
0.0
  0
LINE
  8
0
  6
CONTINUOUS
 62
               3
  5
1F5
 10
325.31428571428569
 20
67.473687480128092
 30
0.0
 11
325.31428571428569
 21
77.487970166563855
 31
0.0
  0
LINE
  8
0
  6
CONTINUOUS
 62
               3
  5
1F6
 10
457.31428571428569
 20
77.487970166563855
 30
0.0
 11
457.31428571428563
 21
67.473687480128092
 31
0.0
  0
LINE
  8
0
  6
CONTINUOUS
 62
               3
  5
1F7
 10
326.78963676097931
 20
34.904378031562828
 30
0.0
 11
455.78963676097908
 21
34.904378031562828
 31
0.0
  0
LINE
  8
0
  6
CONTINUOUS
 62
               3
  5
1F8
 10
332.81428571428569
 20
34.904378031562828
 30
0.0
 11
332.81428571428569
 21
-220.57046839715676
 31
0.0
  0
LINE
  8
0
  6
CONTINUOUS
 62
               3
  5
1F9
 10
449.81428571428557
 20
-220.57046839715696
 30
0.0
 11
449.81428571428569
 21
34.904378031562828
 31
0.0
  0
LINE
  8
0
  6
CONTINUOUS
 62
               3
  5
1FA
 10
332.81428571428569
 20
-12.526312519871937
 30
0.0
 11
449.81428571428563
 21
-12.52631251987188
 31
0.0
  0
LINE
  8
0
  6
CONTINUOUS
 62
               3
  5
1FB
 10
449.81428571428563
 20
-5.5263125198718797
 30
0.0
 11
332.81428571428569
 21
-5.5263125198718797
 31
0.0
  0
LINE
  8
0
  6
CONTINUOUS
 62
               3
  5
1FC
 10
332.81428571428569
 20
-62.526312519871937
 30
0.0
 11
449.81428571428563
 21
-62.52631251987188
 31
0.0
  0
LINE
  8
0
  6
CONTINUOUS
 62
               3
  5
1FD
 10
449.81428571428563
 20
-55.52631251987188
 30
0.0
 11
332.81428571428569
 21
-55.52631251987188
 31
0.0
  0
LINE
  8
0
  6
CONTINUOUS
 62
               3
  5
1FE
 10
332.81428571428569
 20
-112.52631251987194
 30
0.0
 11
449.81428571428563
 21
-112.52631251987188
 31
0.0
  0
LINE
  8
0
  6
CONTINUOUS
 62
               3
  5
1FF
 10
449.81428571428563
 20
-105.52631251987188
 30
0.0
 11
332.81428571428569
 21
-105.52631251987188
 31
0.0
  0
LINE
  8
0
  6
CONTINUOUS
 62
               3
  5
200
 10
332.81428571428569
 20
-162.52631251987196
 30
0.0
 11
449.81428571428563
 21
-162.52631251987177
 31
0.0
  0
LINE
  8
0
  6
CONTINUOUS
 62
               3
  5
201
 10
449.81428571428563
 20
-155.52631251987177
 30
0.0
 11
332.81428571428569
 21
-155.52631251987177
 31
0.0
  0
ARC
  8
0
  6
CONTINUOUS
 62
               3
  5
202
 10
314.81428571428569
 20
-220.57046839715676
 30
0.0
 40
18.0
 50
314.99999999994031
 51
359.99999999993042
  0
ARC
  8
0
  6
CONTINUOUS
 62
               3
  5
203
 10
467.81428571428557
 20
-220.57046839715696
 30
0.0
 40
18.0
 50
179.99999999996558
 51
224.99999999995626
  0
LINE
  8
0
  6
CONTINUOUS
 62
               3
  5
204
 10
307.81428571428557
 20
-313.02631251987179
 30
0.0
 11
474.81428571428557
 21
-313.02631251987185
 31
0.0
  0
LINE
  8
0
  6
CONTINUOUS
 62
               3
  5
205
 10
474.81428571428557
 20
-308.02631251987185
 30
0.0
 11
307.81428571428557
 21
-308.02631251987185
 31
0.0
  0
LINE
  8
0
  6
CONTINUOUS
 62
               3
  5
206
 10
286.31428571428478
 20
-333.02631251987179
 30
0.0
 11
286.31428571428478
 21
-423.0263125198727
 31
0.0
  0
LINE
  8
0
  6
CONTINUOUS
 62
               3
  5
207
 10
278.31428571428586
 20
-333.02631251987179
 30
0.0
 11
266.31428571428569
 21
-333.02631251987179
 31
0.0
  0
LINE
  8
0
  6
CONTINUOUS
 62
               3
  5
208
 10
278.31428571428586
 20
-423.02631251987333
 30
0.0
 11
266.31428571428569
 21
-423.02631251987185
 31
0.0
  0
LINE
  8
0
  6
CONTINUOUS
 62
               3
  5
209
 10
278.31428571428586
 20
-333.02631251987179
 30
0.0
 11
278.31428571428586
 21
-423.02631251987333
 31
0.0
  0
LINE
  8
0
  6
CONTINUOUS
 62
               3
  5
20A
 10
266.31428571428569
 20
-333.02631251987179
 30
0.0
 11
266.31428571428569
 21
-423.02631251987185
 31
0.0
  0
LINE
  8
0
  6
CONTINUOUS
 62
               3
  5
20B
 10
278.31428571428586
 20
-340.32289475817834
 30
0.0
 11
286.31428571428478
 21
-340.32289475817834
 31
0.0
  0
LINE
  8
0
  6
CONTINUOUS
 62
               3
  5
20C
 10
324.31428571428444
 20
-333.02631251987179
 30
0.0
 11
286.31428571428478
 21
-333.02631251987179
 31
0.0
  0
LINE
  8
0
  6
CONTINUOUS
 62
               3
  5
20D
 10
286.31428571428478
 20
-423.0263125198727
 30
0.0
 11
286.77396052351094
 21
-423.0263125198727
 31
0.0
  0
LINE
  8
0
  6
CONTINUOUS
 62
               3
  5
20E
 10
278.31428571428586
 20
-415.72973028156525
 30
0.0
 11
286.31428571428478
 21
-415.72973028156525
 31
0.0
  0
LINE
  8
0
  6
CONTINUOUS
 62
               3
  5
20F
 10
504.31428571428546
 20
-333.02631251987179
 30
0.0
 11
516.31428571428569
 21
-333.02631251987179
 31
0.0
  0
LINE
  8
0
  6
CONTINUOUS
 62
               3
  5
210
 10
504.31428571428546
 20
-340.32289475817834
 30
0.0
 11
496.3142857142866
 21
-340.32289475817834
 31
0.0
  0
LINE
  8
0
  6
CONTINUOUS
 62
               3
  5
211
 10
458.31428571428694
 20
-333.02631251987179
 30
0.0
 11
496.3142857142866
 21
-333.02631251987179
 31
0.0
  0
LINE
  8
0
  6
CONTINUOUS
 62
               3
  5
212
 10
504.31428571428546
 20
-423.02631251987333
 30
0.0
 11
516.31428571428569
 21
-423.02631251987185
 31
0.0
  0
LINE
  8
0
  6
CONTINUOUS
 62
               3
  5
213
 10
504.31428571428546
 20
-333.02631251987179
 30
0.0
 11
504.31428571428546
 21
-423.02631251987333
 31
0.0
  0
LINE
  8
0
  6
CONTINUOUS
 62
               3
  5
214
 10
516.31428571428569
 20
-333.02631251987179
 30
0.0
 11
516.31428571428569
 21
-423.02631251987185
 31
0.0
  0
LINE
  8
0
  6
CONTINUOUS
 62
               3
  5
215
 10
496.3142857142866
 20
-423.0263125198727
 30
0.0
 11
495.85461090506038
 21
-423.0263125198727
 31
0.0
  0
LINE
  8
0
  6
CONTINUOUS
 62
               3
  5
216
 10
504.31428571428546
 20
-415.72973028156525
 30
0.0
 11
496.3142857142866
 21
-415.72973028156525
 31
0.0
  0
LINE
  8
0
  6
CONTINUOUS
 62
               3
  5
217
 10
496.3142857142866
 20
-333.02631251987179
 30
0.0
 11
496.3142857142866
 21
-423.0263125198727
 31
0.0
  0
ARC
  8
0
  6
CONTINUOUS
 62
               3
  5
218
 10
324.31428571428444
 20
-343.02631251987174
 30
0.0
 40
9.9999999999999982
 50
17.722151675484941
 51
89.999999999999787
  0
ARC
  8
0
  6
CONTINUOUS
 62
               3
  5
219
 10
458.31428571428694
 20
-343.02631251987174
 30
0.0
 40
9.9999999999999982
 50
89.999999999999829
 51
162.27784832451465
  0
ENDSEC
  0
EOF
