  0
SECTION
  2
HEADER
  9
$ACADVER
  1
AC1009
  9
$INSBASE
 10
0.0
 20
0.0
 30
0.0
  9
$EXTMIN
 10
-451.76715190884585
 20
-575.71150007946005
 30
0.0
  9
$EXTMAX
 10
521.5315688049343
 20
655.91825301913536
 30
0.0
  9
$LIMMIN
 10
-482.18273693115145
 20
-614.19992986379111
  9
$LIMMAX
 10
551.94715382723996
 20
694.40668280346642
  9
$ORTHOMODE
 70
               0
  9
$REGENMODE
 70
               1
  9
$FILLMODE
 70
               1
  9
$QTEXTMODE
 70
               0
  9
$MIRRTEXT
 70
               1
  9
$DRAGMODE
 70
               2
  9
$LTSCALE
 40
1.0
  9
$OSMODE
 70
               0
  9
$ATTMODE
 70
               1
  9
$TEXTSIZE
 40
0.2
  9
$TRACEWID
 40
0.05
  9
$TEXTSTYLE
  7
STANDARD
  9
$CLAYER
  8
0
  9
$CELTYPE
  6
CONTINUOUS
  9
$CECOLOR
 62
             256
  9
$DIMSCALE
 40
1.0
  9
$DIMASZ
 40
0.18
  9
$DIMEXO
 40
0.0625
  9
$DIMDLI
 40
0.38
  9
$DIMRND
 40
0.0
  9
$DIMDLE
 40
0.0
  9
$DIMEXE
 40
0.18
  9
$DIMTP
 40
0.0
  9
$DIMTM
 40
0.0
  9
$DIMTXT
 40
0.18
  9
$DIMCEN
 40
0.09
  9
$DIMTSZ
 40
0.0
  9
$DIMTOL
 70
               0
  9
$DIMLIM
 70
               0
  9
$DIMTIH
 70
               1
  9
$DIMTOH
 70
               1
  9
$DIMSE1
 70
               0
  9
$DIMSE2
 70
               0
  9
$DIMTAD
 70
               0
  9
$DIMZIN
 70
               0
  9
$DIMBLK
  1

  9
$DIMASO
 70
               1
  9
$DIMSHO
 70
               1
  9
$DIMPOST
  1

  9
$DIMAPOST
  1

  9
$DIMALT
 70
               0
  9
$DIMALTD
 70
               2
  9
$DIMALTF
 40
25.399999999999999
  9
$DIMLFAC
 40
1.0
  9
$DIMTOFL
 70
               0
  9
$DIMTVP
 40
0.0
  9
$DIMTIX
 70
               0
  9
$DIMSOXD
 70
               0
  9
$DIMSAH
 70
               0
  9
$DIMBLK1
  1

  9
$DIMBLK2
  1

  9
$DIMSTYLE
  2
STANDARD
  9
$DIMCLRD
 70
               0
  9
$DIMCLRE
 70
               0
  9
$DIMCLRT
 70
               0
  9
$DIMTFAC
 40
1.0
  9
$DIMGAP
 40
0.09
  9
$LUNITS
 70
               2
  9
$LUPREC
 70
               4
  9
$AXISMODE
 70
               0
  9
$AXISUNIT
 10
0.0
 20
0.0
  9
$SKETCHINC
 40
0.1
  9
$FILLETRAD
 40
0.0
  9
$AUNITS
 70
               0
  9
$AUPREC
 70
               0
  9
$MENU
  1
acad
  9
$ELEVATION
 40
0.0
  9
$PELEVATION
 40
0.0
  9
$THICKNESS
 40
0.0
  9
$LIMCHECK
 70
               0
  9
$BLIPMODE
 70
               1
  9
$CHAMFERA
 40
0.0
  9
$CHAMFERB
 40
0.0
  9
$SKPOLY
 70
               0
  9
$TDCREATE
 40
0.000000000
  9
$TDUPDATE
 40
0.000000000
  9
$TDINDWG
 40
0.0000000000
  9
$TDUSRTIMER
 40
0.0000000000
  9
$USRTIMER
 70
               1
  9
$ANGBASE
 50
0.0
  9
$ANGDIR
 70
               0
  9
$PDMODE
 70
               0
  9
$PDSIZE
 40
1.0
  9
$PLINEWID
 40
0.0
  9
$COORDS
 70
               1
  9
$SPLFRAME
 70
               0
  9
$SPLINETYPE
 70
               6
  9
$SPLINESEGS
 70
               8
  9
$ATTDIA
 70
               0
  9
$ATTREQ
 70
               1
  9
$HANDLING
 70
               1
  9
$HANDSEED
  5
225
  9
$SURFTAB1
 70
               6
  9
$SURFTAB2
 70
               6
  9
$SURFTYPE
 70
               6
  9
$SURFU
 70
               6
  9
$SURFV
 70
               6
  9
$UCSNAME
  2

  9
$UCSORG
 10
0.0
 20
0.0
 30
0.0
  9
$UCSXDIR
 10
1.0
 20
0.0
 30
0.0
  9
$UCSYDIR
 10
0.0
 20
1.0
 30
0.0
  9
$PUCSNAME
  2

  9
$PUCSORG
 10
0.0
 20
0.0
 30
0.0
  9
$PUCSXDIR
 10
1.0
 20
0.0
 30
0.0
  9
$PUCSYDIR
 10
0.0
 20
1.0
 30
0.0
  9
$USERI1
 70
               0
  9
$USERI2
 70
               0
  9
$USERI3
 70
               0
  9
$USERI4
 70
               0
  9
$USERI5
 70
               0
  9
$USERR1
 40
0.0
  9
$USERR2
 40
0.0
  9
$USERR3
 40
0.0
  9
$USERR4
 40
0.0
  9
$USERR5
 40
0.0
  9
$WORLDVIEW
 70
               1
  9
$SHADEDGE
 70
               3
  9
$SHADEDIF
 70
              70
  9
$TILEMODE
 70
               1
  9
$MAXACTVP
 70
              16
  9
$PINSBASE
 10
0.0
 20
0.0
 30
0.0
  9
$PLIMCHECK
 70
               0
  9
$PEXTMIN
 10
1.0000000000000000E+20
 20
1.0000000000000000E+20
 30
1.0000000000000000E+20
  9
$PEXTMAX
 10
-1.0000000000000000E+20
 20
-1.0000000000000000E+20
 30
-1.0000000000000000E+20
  9
$PLIMMIN
 10
0.0
 20
0.0
  9
$PLIMMAX
 10
12.0
 20
9.0
  9
$UNITMODE
 70
               0
  9
$VISRETAIN
 70
               0
  9
$PLINEGEN
 70
               1
  9
$PSLTSCALE
 70
               0
  9
$TREEDEPTH
 70
            3020
  9
$DWGCODEPAGE
  3
dos932
  0
ENDSEC
  0
SECTION
  2
TABLES
  0
TABLE
  2
VPORT
 70
               1
  0
VPORT
  2
*ACTIVE
 70
               0
 10
0.0
 20
0.0
 11
1.0
 21
1.0
 12
34.882208448044253
 22
40.103376469837656
 13
0.0
 23
0.0
 14
1.0
 24
1.0
 15
0.0
 25
0.0
 16
0.0
 26
0.0
 36
1.0
 17
0.0
 27
0.0
 37
0.0
 40
1308.6066126672577
 41
0.7902526861381083
 42
50.0
 43
0.0
 44
0.0
 50
0.0
 51
0.0
 71
               0
 72
             100
 73
               1
 74
               1
 75
               0
 76
               0
 77
               0
 78
               0
  0
ENDTAB
  0
TABLE
  2
LTYPE
 70
              26
  0
LTYPE
  2
CONTINUOUS
 70
               0
  3
Solid line
 72
              65
 73
               0
 40
0.0
  0
LTYPE
  2
HIDDENX2
 70
               0
  3
CADPAC FUSION LINETYPE
 72
              65
 73
               2
 40
80.0
 49
60.0
 49
-20.0
  0
LTYPE
  2
HIDDEN
 70
               0
  3
CADPAC FUSION LINETYPE
 72
              65
 73
               2
 40
60.0
 49
40.0
 49
-20.0
  0
LTYPE
  2
HIDDEN2
 70
               0
  3
CADPAC FUSION LINETYPE
 72
              65
 73
               2
 40
50.0
 49
30.0
 49
-20.0
  0
LTYPE
  2
DASHED
 70
               0
  3
CADPAC FUSION LINETYPE
 72
              65
 73
               2
 40
60.0
 49
40.0
 49
-20.0
  0
LTYPE
  2
DASHED2
 70
               0
  3
CADPAC FUSION LINETYPE
 72
              65
 73
               2
 40
45.0
 49
30.0
 49
-15.0
  0
LTYPE
  2
DASHEDX2
 70
               0
  3
CADPAC FUSION LINETYPE
 72
              65
 73
               2
 40
90.0
 49
60.0
 49
-30.0
  0
LTYPE
  2
DOTX2
 70
               0
  3
CADPAC FUSION LINETYPE
 72
              65
 73
               2
 40
25.0
 49
0.0
 49
-25.0
  0
LTYPE
  2
DOT
 70
               0
  3
CADPAC FUSION LINETYPE
 72
              65
 73
               2
 40
20.0
 49
0.0
 49
-20.0
  0
LTYPE
  2
DOTS
 70
               0
  3
CADPAC FUSION LINETYPE
 72
              65
 73
               2
 40
20.0
 49
0.0
 49
-20.0
  0
LTYPE
  2
DOT2
 70
               0
  3
CADPAC FUSION LINETYPE
 72
              65
 73
               2
 40
15.0
 49
0.0
 49
-15.0
  0
LTYPE
  2
CENTERX2
 70
               0
  3
CADPAC FUSION LINETYPE
 72
              65
 73
               4
 40
120.0
 49
50.0
 49
-25.0
 49
20.0
 49
-25.0
  0
LTYPE
  2
CENTER
 70
               0
  3
CADPAC FUSION LINETYPE
 72
              65
 73
               4
 40
92.0
 49
40.0
 49
-20.0
 49
12.0
 49
-20.0
  0
LTYPE
  2
CENTER2
 70
               0
  3
CADPAC FUSION LINETYPE
 72
              65
 73
               4
 40
64.0
 49
30.0
 49
-15.0
 49
4.0
 49
-15.0
  0
LTYPE
  2
DASHDOTX2
 70
               0
  3
CADPAC FUSION LINETYPE
 72
              65
 73
               4
 40
100.0
 49
50.0
 49
-25.0
 49
0.0
 49
-25.0
  0
LTYPE
  2
DASHDOT
 70
               0
  3
CADPAC FUSION LINETYPE
 72
              65
 73
               4
 40
80.0
 49
40.0
 49
-20.0
 49
0.0
 49
-20.0
  0
LTYPE
  2
DASHDOT2
 70
               0
  3
CADPAC FUSION LINETYPE
 72
              65
 73
               4
 40
60.0
 49
30.0
 49
-15.0
 49
0.0
 49
-15.0
  0
LTYPE
  2
DIVIDEX2
 70
               0
  3
CADPAC FUSION LINETYPE
 72
              65
 73
               6
 40
125.0
 49
50.0
 49
-25.0
 49
0.0
 49
-25.0
 49
0.0
 49
-25.0
  0
LTYPE
  2
DIVIDE
 70
               0
  3
CADPAC FUSION LINETYPE
 72
              65
 73
               6
 40
100.0
 49
40.0
 49
-20.0
 49
0.0
 49
-20.0
 49
0.0
 49
-20.0
  0
LTYPE
  2
DIVIDE2
 70
               0
  3
CADPAC FUSION LINETYPE
 72
              65
 73
               6
 40
75.0
 49
30.0
 49
-15.0
 49
0.0
 49
-15.0
 49
0.0
 49
-15.0
  0
LTYPE
  2
BORDERX2
 70
               0
  3
CADPAC FUSION LINETYPE
 72
              65
 73
               6
 40
175.0
 49
50.0
 49
-25.0
 49
50.0
 49
-25.0
 49
0.0
 49
-25.0
  0
LTYPE
  2
BORDER
 70
               0
  3
CADPAC FUSION LINETYPE
 72
              65
 73
               6
 40
140.0
 49
40.0
 49
-20.0
 49
40.0
 49
-20.0
 49
0.0
 49
-20.0
  0
LTYPE
  2
BORDER2
 70
               0
  3
CADPAC FUSION LINETYPE
 72
              65
 73
               6
 40
105.0
 49
30.0
 49
-15.0
 49
30.0
 49
-15.0
 49
0.0
 49
-15.0
  0
LTYPE
  2
PHANTOMX2
 70
               0
  3
CADPAC FUSION LINETYPE
 72
              65
 73
               6
 40
150.0
 49
50.0
 49
-20.0
 49
20.0
 49
-20.0
 49
20.0
 49
-20.0
  0
LTYPE
  2
PHANTOM
 70
               0
  3
CADPAC FUSION LINETYPE
 72
              65
 73
               6
 40
124.0
 49
40.0
 49
-20.0
 49
12.0
 49
-20.0
 49
12.0
 49
-20.0
  0
LTYPE
  2
PHANTOM2
 70
               0
  3
CADPAC FUSION LINETYPE
 72
              65
 73
               6
 40
106.0
 49
30.0
 49
-20.0
 49
8.0
 49
-20.0
 49
8.0
 49
-20.0
  0
ENDTAB
  0
TABLE
  2
LAYER
 70
             256
  0
LAYER
  2
0
 70
               0
 62
               7
  6
CONTINUOUS
  0
LAYER
  2
LAYER001
 70
               0
 62
               7
  6
CONTINUOUS
  0
LAYER
  2
LAYER002
 70
               0
 62
               7
  6
CONTINUOUS
  0
LAYER
  2
LAYER003
 70
               0
 62
               7
  6
CONTINUOUS
  0
LAYER
  2
LAYER004
 70
               0
 62
               7
  6
CONTINUOUS
  0
LAYER
  2
LAYER005
 70
               0
 62
               7
  6
CONTINUOUS
  0
LAYER
  2
LAYER006
 70
               0
 62
               7
  6
CONTINUOUS
  0
LAYER
  2
LAYER007
 70
               0
 62
               7
  6
CONTINUOUS
  0
LAYER
  2
LAYER008
 70
               0
 62
               7
  6
CONTINUOUS
  0
LAYER
  2
LAYER009
 70
               0
 62
               7
  6
CONTINUOUS
  0
LAYER
  2
LAYER010
 70
               0
 62
               7
  6
CONTINUOUS
  0
LAYER
  2
LAYER011
 70
               0
 62
               7
  6
CONTINUOUS
  0
LAYER
  2
LAYER012
 70
               0
 62
               7
  6
CONTINUOUS
  0
LAYER
  2
LAYER013
 70
               0
 62
               7
  6
CONTINUOUS
  0
LAYER
  2
LAYER014
 70
               0
 62
               7
  6
CONTINUOUS
  0
LAYER
  2
LAYER015
 70
               0
 62
               7
  6
CONTINUOUS
  0
LAYER
  2
LAYER016
 70
               0
 62
               7
  6
CONTINUOUS
  0
LAYER
  2
LAYER017
 70
               0
 62
               7
  6
CONTINUOUS
  0
LAYER
  2
LAYER018
 70
               0
 62
               7
  6
CONTINUOUS
  0
LAYER
  2
LAYER019
 70
               0
 62
               7
  6
CONTINUOUS
  0
LAYER
  2
LAYER020
 70
               0
 62
               7
  6
CONTINUOUS
  0
LAYER
  2
LAYER021
 70
               0
 62
               7
  6
CONTINUOUS
  0
LAYER
  2
LAYER022
 70
               0
 62
               7
  6
CONTINUOUS
  0
LAYER
  2
LAYER023
 70
               0
 62
               7
  6
CONTINUOUS
  0
LAYER
  2
LAYER024
 70
               0
 62
               7
  6
CONTINUOUS
  0
LAYER
  2
LAYER025
 70
               0
 62
               7
  6
CONTINUOUS
  0
LAYER
  2
LAYER026
 70
               0
 62
               7
  6
CONTINUOUS
  0
LAYER
  2
LAYER027
 70
               0
 62
               7
  6
CONTINUOUS
  0
LAYER
  2
LAYER028
 70
               0
 62
               7
  6
CONTINUOUS
  0
LAYER
  2
LAYER029
 70
               0
 62
               7
  6
CONTINUOUS
  0
LAYER
  2
LAYER030
 70
               0
 62
               7
  6
CONTINUOUS
  0
LAYER
  2
LAYER031
 70
               0
 62
               7
  6
CONTINUOUS
  0
LAYER
  2
LAYER032
 70
               0
 62
               7
  6
CONTINUOUS
  0
LAYER
  2
LAYER033
 70
               0
 62
               7
  6
CONTINUOUS
  0
LAYER
  2
LAYER034
 70
               0
 62
               7
  6
CONTINUOUS
  0
LAYER
  2
LAYER035
 70
               0
 62
               7
  6
CONTINUOUS
  0
LAYER
  2
LAYER036
 70
               0
 62
               7
  6
CONTINUOUS
  0
LAYER
  2
LAYER037
 70
               0
 62
               7
  6
CONTINUOUS
  0
LAYER
  2
LAYER038
 70
               0
 62
               7
  6
CONTINUOUS
  0
LAYER
  2
LAYER039
 70
               0
 62
               7
  6
CONTINUOUS
  0
LAYER
  2
LAYER040
 70
               0
 62
               7
  6
CONTINUOUS
  0
LAYER
  2
LAYER041
 70
               0
 62
               7
  6
CONTINUOUS
  0
LAYER
  2
LAYER042
 70
               0
 62
               7
  6
CONTINUOUS
  0
LAYER
  2
LAYER043
 70
               0
 62
               7
  6
CONTINUOUS
  0
LAYER
  2
LAYER044
 70
               0
 62
               7
  6
CONTINUOUS
  0
LAYER
  2
LAYER045
 70
               0
 62
               7
  6
CONTINUOUS
  0
LAYER
  2
LAYER046
 70
               0
 62
               7
  6
CONTINUOUS
  0
LAYER
  2
LAYER047
 70
               0
 62
               7
  6
CONTINUOUS
  0
LAYER
  2
LAYER048
 70
               0
 62
               7
  6
CONTINUOUS
  0
LAYER
  2
LAYER049
 70
               0
 62
               7
  6
CONTINUOUS
  0
LAYER
  2
LAYER050
 70
               0
 62
               7
  6
CONTINUOUS
  0
LAYER
  2
LAYER051
 70
               0
 62
               7
  6
CONTINUOUS
  0
LAYER
  2
LAYER052
 70
               0
 62
               7
  6
CONTINUOUS
  0
LAYER
  2
LAYER053
 70
               0
 62
               7
  6
CONTINUOUS
  0
LAYER
  2
LAYER054
 70
               0
 62
               7
  6
CONTINUOUS
  0
LAYER
  2
LAYER055
 70
               0
 62
               7
  6
CONTINUOUS
  0
LAYER
  2
LAYER056
 70
               0
 62
               7
  6
CONTINUOUS
  0
LAYER
  2
LAYER057
 70
               0
 62
               7
  6
CONTINUOUS
  0
LAYER
  2
LAYER058
 70
               0
 62
               7
  6
CONTINUOUS
  0
LAYER
  2
LAYER059
 70
               0
 62
               7
  6
CONTINUOUS
  0
LAYER
  2
LAYER060
 70
               0
 62
               7
  6
CONTINUOUS
  0
LAYER
  2
LAYER061
 70
               0
 62
               7
  6
CONTINUOUS
  0
LAYER
  2
LAYER062
 70
               0
 62
               7
  6
CONTINUOUS
  0
LAYER
  2
LAYER063
 70
               0
 62
               7
  6
CONTINUOUS
  0
LAYER
  2
LAYER064
 70
               0
 62
               7
  6
CONTINUOUS
  0
LAYER
  2
LAYER065
 70
               0
 62
               7
  6
CONTINUOUS
  0
LAYER
  2
LAYER066
 70
               0
 62
               7
  6
CONTINUOUS
  0
LAYER
  2
LAYER067
 70
               0
 62
               7
  6
CONTINUOUS
  0
LAYER
  2
LAYER068
 70
               0
 62
               7
  6
CONTINUOUS
  0
LAYER
  2
LAYER069
 70
               0
 62
               7
  6
CONTINUOUS
  0
LAYER
  2
LAYER070
 70
               0
 62
               7
  6
CONTINUOUS
  0
LAYER
  2
LAYER071
 70
               0
 62
               7
  6
CONTINUOUS
  0
LAYER
  2
LAYER072
 70
               0
 62
               7
  6
CONTINUOUS
  0
LAYER
  2
LAYER073
 70
               0
 62
               7
  6
CONTINUOUS
  0
LAYER
  2
LAYER074
 70
               0
 62
               7
  6
CONTINUOUS
  0
LAYER
  2
LAYER075
 70
               0
 62
               7
  6
CONTINUOUS
  0
LAYER
  2
LAYER076
 70
               0
 62
               7
  6
CONTINUOUS
  0
LAYER
  2
LAYER077
 70
               0
 62
               7
  6
CONTINUOUS
  0
LAYER
  2
LAYER078
 70
               0
 62
               7
  6
CONTINUOUS
  0
LAYER
  2
LAYER079
 70
               0
 62
               7
  6
CONTINUOUS
  0
LAYER
  2
LAYER080
 70
               0
 62
               7
  6
CONTINUOUS
  0
LAYER
  2
LAYER081
 70
               0
 62
               7
  6
CONTINUOUS
  0
LAYER
  2
LAYER082
 70
               0
 62
               7
  6
CONTINUOUS
  0
LAYER
  2
LAYER083
 70
               0
 62
               7
  6
CONTINUOUS
  0
LAYER
  2
LAYER084
 70
               0
 62
               7
  6
CONTINUOUS
  0
LAYER
  2
LAYER085
 70
               0
 62
               7
  6
CONTINUOUS
  0
LAYER
  2
LAYER086
 70
               0
 62
               7
  6
CONTINUOUS
  0
LAYER
  2
LAYER087
 70
               0
 62
               7
  6
CONTINUOUS
  0
LAYER
  2
LAYER088
 70
               0
 62
               7
  6
CONTINUOUS
  0
LAYER
  2
LAYER089
 70
               0
 62
               7
  6
CONTINUOUS
  0
LAYER
  2
LAYER090
 70
               0
 62
               7
  6
CONTINUOUS
  0
LAYER
  2
LAYER091
 70
               0
 62
               7
  6
CONTINUOUS
  0
LAYER
  2
LAYER092
 70
               0
 62
               7
  6
CONTINUOUS
  0
LAYER
  2
LAYER093
 70
               0
 62
               7
  6
CONTINUOUS
  0
LAYER
  2
LAYER094
 70
               0
 62
               7
  6
CONTINUOUS
  0
LAYER
  2
LAYER095
 70
               0
 62
               7
  6
CONTINUOUS
  0
LAYER
  2
LAYER096
 70
               0
 62
               7
  6
CONTINUOUS
  0
LAYER
  2
LAYER097
 70
               0
 62
               7
  6
CONTINUOUS
  0
LAYER
  2
LAYER098
 70
               0
 62
               7
  6
CONTINUOUS
  0
LAYER
  2
LAYER099
 70
               0
 62
               7
  6
CONTINUOUS
  0
LAYER
  2
LAYER100
 70
               0
 62
               7
  6
CONTINUOUS
  0
LAYER
  2
LAYER101
 70
               0
 62
               7
  6
CONTINUOUS
  0
LAYER
  2
LAYER102
 70
               0
 62
               7
  6
CONTINUOUS
  0
LAYER
  2
LAYER103
 70
               0
 62
               7
  6
CONTINUOUS
  0
LAYER
  2
LAYER104
 70
               0
 62
               7
  6
CONTINUOUS
  0
LAYER
  2
LAYER105
 70
               0
 62
               7
  6
CONTINUOUS
  0
LAYER
  2
LAYER106
 70
               0
 62
               7
  6
CONTINUOUS
  0
LAYER
  2
LAYER107
 70
               0
 62
               7
  6
CONTINUOUS
  0
LAYER
  2
LAYER108
 70
               0
 62
               7
  6
CONTINUOUS
  0
LAYER
  2
LAYER109
 70
               0
 62
               7
  6
CONTINUOUS
  0
LAYER
  2
LAYER110
 70
               0
 62
               7
  6
CONTINUOUS
  0
LAYER
  2
LAYER111
 70
               0
 62
               7
  6
CONTINUOUS
  0
LAYER
  2
LAYER112
 70
               0
 62
               7
  6
CONTINUOUS
  0
LAYER
  2
LAYER113
 70
               0
 62
               7
  6
CONTINUOUS
  0
LAYER
  2
LAYER114
 70
               0
 62
               7
  6
CONTINUOUS
  0
LAYER
  2
LAYER115
 70
               0
 62
               7
  6
CONTINUOUS
  0
LAYER
  2
LAYER116
 70
               0
 62
               7
  6
CONTINUOUS
  0
LAYER
  2
LAYER117
 70
               0
 62
               7
  6
CONTINUOUS
  0
LAYER
  2
LAYER118
 70
               0
 62
               7
  6
CONTINUOUS
  0
LAYER
  2
LAYER119
 70
               0
 62
               7
  6
CONTINUOUS
  0
LAYER
  2
LAYER120
 70
               0
 62
               7
  6
CONTINUOUS
  0
LAYER
  2
LAYER121
 70
               0
 62
               7
  6
CONTINUOUS
  0
LAYER
  2
LAYER122
 70
               0
 62
               7
  6
CONTINUOUS
  0
LAYER
  2
LAYER123
 70
               0
 62
               7
  6
CONTINUOUS
  0
LAYER
  2
LAYER124
 70
               0
 62
               7
  6
CONTINUOUS
  0
LAYER
  2
LAYER125
 70
               0
 62
               7
  6
CONTINUOUS
  0
LAYER
  2
LAYER126
 70
               0
 62
               7
  6
CONTINUOUS
  0
LAYER
  2
LAYER127
 70
               0
 62
               7
  6
CONTINUOUS
  0
LAYER
  2
LAYER128
 70
               0
 62
               7
  6
CONTINUOUS
  0
LAYER
  2
LAYER129
 70
               0
 62
               7
  6
CONTINUOUS
  0
LAYER
  2
LAYER130
 70
               0
 62
               7
  6
CONTINUOUS
  0
LAYER
  2
LAYER131
 70
               0
 62
               7
  6
CONTINUOUS
  0
LAYER
  2
LAYER132
 70
               0
 62
               7
  6
CONTINUOUS
  0
LAYER
  2
LAYER133
 70
               0
 62
               7
  6
CONTINUOUS
  0
LAYER
  2
LAYER134
 70
               0
 62
               7
  6
CONTINUOUS
  0
LAYER
  2
LAYER135
 70
               0
 62
               7
  6
CONTINUOUS
  0
LAYER
  2
LAYER136
 70
               0
 62
               7
  6
CONTINUOUS
  0
LAYER
  2
LAYER137
 70
               0
 62
               7
  6
CONTINUOUS
  0
LAYER
  2
LAYER138
 70
               0
 62
               7
  6
CONTINUOUS
  0
LAYER
  2
LAYER139
 70
               0
 62
               7
  6
CONTINUOUS
  0
LAYER
  2
LAYER140
 70
               0
 62
               7
  6
CONTINUOUS
  0
LAYER
  2
LAYER141
 70
               0
 62
               7
  6
CONTINUOUS
  0
LAYER
  2
LAYER142
 70
               0
 62
               7
  6
CONTINUOUS
  0
LAYER
  2
LAYER143
 70
               0
 62
               7
  6
CONTINUOUS
  0
LAYER
  2
LAYER144
 70
               0
 62
               7
  6
CONTINUOUS
  0
LAYER
  2
LAYER145
 70
               0
 62
               7
  6
CONTINUOUS
  0
LAYER
  2
LAYER146
 70
               0
 62
               7
  6
CONTINUOUS
  0
LAYER
  2
LAYER147
 70
               0
 62
               7
  6
CONTINUOUS
  0
LAYER
  2
LAYER148
 70
               0
 62
               7
  6
CONTINUOUS
  0
LAYER
  2
LAYER149
 70
               0
 62
               7
  6
CONTINUOUS
  0
LAYER
  2
LAYER150
 70
               0
 62
               7
  6
CONTINUOUS
  0
LAYER
  2
LAYER151
 70
               0
 62
               7
  6
CONTINUOUS
  0
LAYER
  2
LAYER152
 70
               0
 62
               7
  6
CONTINUOUS
  0
LAYER
  2
LAYER153
 70
               0
 62
               7
  6
CONTINUOUS
  0
LAYER
  2
LAYER154
 70
               0
 62
               7
  6
CONTINUOUS
  0
LAYER
  2
LAYER155
 70
               0
 62
               7
  6
CONTINUOUS
  0
LAYER
  2
LAYER156
 70
               0
 62
               7
  6
CONTINUOUS
  0
LAYER
  2
LAYER157
 70
               0
 62
               7
  6
CONTINUOUS
  0
LAYER
  2
LAYER158
 70
               0
 62
               7
  6
CONTINUOUS
  0
LAYER
  2
LAYER159
 70
               0
 62
               7
  6
CONTINUOUS
  0
LAYER
  2
LAYER160
 70
               0
 62
               7
  6
CONTINUOUS
  0
LAYER
  2
LAYER161
 70
               0
 62
               7
  6
CONTINUOUS
  0
LAYER
  2
LAYER162
 70
               0
 62
               7
  6
CONTINUOUS
  0
LAYER
  2
LAYER163
 70
               0
 62
               7
  6
CONTINUOUS
  0
LAYER
  2
LAYER164
 70
               0
 62
               7
  6
CONTINUOUS
  0
LAYER
  2
LAYER165
 70
               0
 62
               7
  6
CONTINUOUS
  0
LAYER
  2
LAYER166
 70
               0
 62
               7
  6
CONTINUOUS
  0
LAYER
  2
LAYER167
 70
               0
 62
               7
  6
CONTINUOUS
  0
LAYER
  2
LAYER168
 70
               0
 62
               7
  6
CONTINUOUS
  0
LAYER
  2
LAYER169
 70
               0
 62
               7
  6
CONTINUOUS
  0
LAYER
  2
LAYER170
 70
               0
 62
               7
  6
CONTINUOUS
  0
LAYER
  2
LAYER171
 70
               0
 62
               7
  6
CONTINUOUS
  0
LAYER
  2
LAYER172
 70
               0
 62
               7
  6
CONTINUOUS
  0
LAYER
  2
LAYER173
 70
               0
 62
               7
  6
CONTINUOUS
  0
LAYER
  2
LAYER174
 70
               0
 62
               7
  6
CONTINUOUS
  0
LAYER
  2
LAYER175
 70
               0
 62
               7
  6
CONTINUOUS
  0
LAYER
  2
LAYER176
 70
               0
 62
               7
  6
CONTINUOUS
  0
LAYER
  2
LAYER177
 70
               0
 62
               7
  6
CONTINUOUS
  0
LAYER
  2
LAYER178
 70
               0
 62
               7
  6
CONTINUOUS
  0
LAYER
  2
LAYER179
 70
               0
 62
               7
  6
CONTINUOUS
  0
LAYER
  2
LAYER180
 70
               0
 62
               7
  6
CONTINUOUS
  0
LAYER
  2
LAYER181
 70
               0
 62
               7
  6
CONTINUOUS
  0
LAYER
  2
LAYER182
 70
               0
 62
               7
  6
CONTINUOUS
  0
LAYER
  2
LAYER183
 70
               0
 62
               7
  6
CONTINUOUS
  0
LAYER
  2
LAYER184
 70
               0
 62
               7
  6
CONTINUOUS
  0
LAYER
  2
LAYER185
 70
               0
 62
               7
  6
CONTINUOUS
  0
LAYER
  2
LAYER186
 70
               0
 62
               7
  6
CONTINUOUS
  0
LAYER
  2
LAYER187
 70
               0
 62
               7
  6
CONTINUOUS
  0
LAYER
  2
LAYER188
 70
               0
 62
               7
  6
CONTINUOUS
  0
LAYER
  2
LAYER189
 70
               0
 62
               7
  6
CONTINUOUS
  0
LAYER
  2
LAYER190
 70
               0
 62
               7
  6
CONTINUOUS
  0
LAYER
  2
LAYER191
 70
               0
 62
               7
  6
CONTINUOUS
  0
LAYER
  2
LAYER192
 70
               0
 62
               7
  6
CONTINUOUS
  0
LAYER
  2
LAYER193
 70
               0
 62
               7
  6
CONTINUOUS
  0
LAYER
  2
LAYER194
 70
               0
 62
               7
  6
CONTINUOUS
  0
LAYER
  2
LAYER195
 70
               0
 62
               7
  6
CONTINUOUS
  0
LAYER
  2
LAYER196
 70
               0
 62
               7
  6
CONTINUOUS
  0
LAYER
  2
LAYER197
 70
               0
 62
               7
  6
CONTINUOUS
  0
LAYER
  2
LAYER198
 70
               0
 62
               7
  6
CONTINUOUS
  0
LAYER
  2
LAYER199
 70
               0
 62
               7
  6
CONTINUOUS
  0
LAYER
  2
LAYER200
 70
               0
 62
               7
  6
CONTINUOUS
  0
LAYER
  2
LAYER201
 70
               0
 62
               7
  6
CONTINUOUS
  0
LAYER
  2
LAYER202
 70
               0
 62
               7
  6
CONTINUOUS
  0
LAYER
  2
LAYER203
 70
               0
 62
               7
  6
CONTINUOUS
  0
LAYER
  2
LAYER204
 70
               0
 62
               7
  6
CONTINUOUS
  0
LAYER
  2
LAYER205
 70
               0
 62
               7
  6
CONTINUOUS
  0
LAYER
  2
LAYER206
 70
               0
 62
               7
  6
CONTINUOUS
  0
LAYER
  2
LAYER207
 70
               0
 62
               7
  6
CONTINUOUS
  0
LAYER
  2
LAYER208
 70
               0
 62
               7
  6
CONTINUOUS
  0
LAYER
  2
LAYER209
 70
               0
 62
               7
  6
CONTINUOUS
  0
LAYER
  2
LAYER210
 70
               0
 62
               7
  6
CONTINUOUS
  0
LAYER
  2
LAYER211
 70
               0
 62
               7
  6
CONTINUOUS
  0
LAYER
  2
LAYER212
 70
               0
 62
               7
  6
CONTINUOUS
  0
LAYER
  2
LAYER213
 70
               0
 62
               7
  6
CONTINUOUS
  0
LAYER
  2
LAYER214
 70
               0
 62
               7
  6
CONTINUOUS
  0
LAYER
  2
LAYER215
 70
               0
 62
               7
  6
CONTINUOUS
  0
LAYER
  2
LAYER216
 70
               0
 62
               7
  6
CONTINUOUS
  0
LAYER
  2
LAYER217
 70
               0
 62
               7
  6
CONTINUOUS
  0
LAYER
  2
LAYER218
 70
               0
 62
               7
  6
CONTINUOUS
  0
LAYER
  2
LAYER219
 70
               0
 62
               7
  6
CONTINUOUS
  0
LAYER
  2
LAYER220
 70
               0
 62
               7
  6
CONTINUOUS
  0
LAYER
  2
LAYER221
 70
               0
 62
               7
  6
CONTINUOUS
  0
LAYER
  2
LAYER222
 70
               0
 62
               7
  6
CONTINUOUS
  0
LAYER
  2
LAYER223
 70
               0
 62
               7
  6
CONTINUOUS
  0
LAYER
  2
LAYER224
 70
               0
 62
               7
  6
CONTINUOUS
  0
LAYER
  2
LAYER225
 70
               0
 62
               7
  6
CONTINUOUS
  0
LAYER
  2
LAYER226
 70
               0
 62
               7
  6
CONTINUOUS
  0
LAYER
  2
LAYER227
 70
               0
 62
               7
  6
CONTINUOUS
  0
LAYER
  2
LAYER228
 70
               0
 62
               7
  6
CONTINUOUS
  0
LAYER
  2
LAYER229
 70
               0
 62
               7
  6
CONTINUOUS
  0
LAYER
  2
LAYER230
 70
               0
 62
               7
  6
CONTINUOUS
  0
LAYER
  2
LAYER231
 70
               0
 62
               7
  6
CONTINUOUS
  0
LAYER
  2
LAYER232
 70
               0
 62
               7
  6
CONTINUOUS
  0
LAYER
  2
LAYER233
 70
               0
 62
               7
  6
CONTINUOUS
  0
LAYER
  2
LAYER234
 70
               0
 62
               7
  6
CONTINUOUS
  0
LAYER
  2
LAYER235
 70
               0
 62
               7
  6
CONTINUOUS
  0
LAYER
  2
LAYER236
 70
               0
 62
               7
  6
CONTINUOUS
  0
LAYER
  2
LAYER237
 70
               0
 62
               7
  6
CONTINUOUS
  0
LAYER
  2
LAYER238
 70
               0
 62
               7
  6
CONTINUOUS
  0
LAYER
  2
LAYER239
 70
               0
 62
               7
  6
CONTINUOUS
  0
LAYER
  2
LAYER240
 70
               0
 62
               7
  6
CONTINUOUS
  0
LAYER
  2
LAYER241
 70
               0
 62
               7
  6
CONTINUOUS
  0
LAYER
  2
LAYER242
 70
               0
 62
               7
  6
CONTINUOUS
  0
LAYER
  2
LAYER243
 70
               0
 62
               7
  6
CONTINUOUS
  0
LAYER
  2
LAYER244
 70
               0
 62
               7
  6
CONTINUOUS
  0
LAYER
  2
LAYER245
 70
               0
 62
               7
  6
CONTINUOUS
  0
LAYER
  2
LAYER246
 70
               0
 62
               7
  6
CONTINUOUS
  0
LAYER
  2
LAYER247
 70
               0
 62
               7
  6
CONTINUOUS
  0
LAYER
  2
LAYER248
 70
               0
 62
               7
  6
CONTINUOUS
  0
LAYER
  2
LAYER249
 70
               0
 62
               7
  6
CONTINUOUS
  0
LAYER
  2
LAYER250
 70
               0
 62
               7
  6
CONTINUOUS
  0
LAYER
  2
LAYER251
 70
               0
 62
               7
  6
CONTINUOUS
  0
LAYER
  2
LAYER252
 70
               0
 62
               7
  6
CONTINUOUS
  0
LAYER
  2
LAYER253
 70
               0
 62
               7
  6
CONTINUOUS
  0
LAYER
  2
LAYER254
 70
               0
 62
               7
  6
CONTINUOUS
  0
LAYER
  2
LAYER255
 70
               0
 62
               7
  6
CONTINUOUS
  0
ENDTAB
  0
TABLE
  2
STYLE
 70
               1
  0
STYLE
  2
STANDARD
 70
               0
 40
0.0
 41
1.0
 50
0.0
 71
               0
 42
0.0
  3
txt
  4

  0
ENDTAB
  0
TABLE
  2
VIEW
 70
               0
  0
VIEW
  2
QQQQ
 70
               0
 40
1308.6066126672577
 10
34.882208448044253
 20
40.103376469837656
 41
1034.1298907583914
 11
0.0
 21
0.0
 31
1.0
 12
100.0
 22
100.0
 32
0.0
 42
50.0
 43
0.0
 44
0.0
 50
0.0
 71
               0
  0
ENDTAB
  0
TABLE
  2
UCS
 70
               0
  0
ENDTAB
  0
TABLE
  2
APPID
 70
               1
  0
APPID
  2
ACAD
 70
               0
  0
ENDTAB
  0
TABLE
  2
DIMSTYLE
 70
               1
  0
DIMSTYLE
  2
STANDARD
 70
               0
  3

  4

  5

  6

  7

 40
1.0
 41
0.18
 42
0.0625
 43
0.38
 44
0.18
 45
0.0
 46
0.0
 47
0.0
 48
0.0
140
0.18
141
0.09
142
0.0
143
25.399999999999999
144
1.0
145
0.0
146
1.0
147
0.09
 71
               0
 72
               0
 73
               1
 74
               1
 75
               0
 76
               0
 77
               0
 78
               0
170
               0
171
               2
172
               0
173
               0
174
               0
175
               0
176
               0
177
               0
178
               0
  0
ENDTAB
  0
ENDSEC
  0
SECTION
  2
BLOCKS
  0
ENDSEC
  0
SECTION
  2
ENTITIES
  0
POINT
  8
0
  6
CONTINUOUS
 62
               7
  5
136
 10
-326.68571428571511
 20
-427.52631251987202
 30
0.0
  0
POINT
  8
0
  6
CONTINUOUS
 62
               7
  5
137
 10
-326.68571428571516
 20
520.73306545954688
 30
0.0
  0
POINT
  8
0
  6
CONTINUOUS
 62
               7
  5
138
 10
-326.68571428571516
 20
-427.52631251987196
 30
0.0
  0
POINT
  8
0
  6
CONTINUOUS
 62
               7
  5
139
 10
391.31428571428569
 20
-427.52631251987174
 30
0.0
  0
POINT
  8
0
  6
CONTINUOUS
 62
               7
  5
13A
 10
-326.68571428571511
 20
-427.52631251987202
 30
0.0
  0
POINT
  8
0
  6
CONTINUOUS
 62
               7
  5
13B
 10
-326.68571428571505
 20
-427.52631251987202
 30
0.0
  0
POINT
  8
0
  6
CONTINUOUS
 62
               7
  5
13C
 10
-326.68571428571511
 20
-427.52631251987202
 30
0.0
  0
POINT
  8
0
  6
CONTINUOUS
 62
               5
  5
13D
 10
-326.68571428571511
 20
-427.52631251987202
 30
0.0
  0
POINT
  8
0
  6
CONTINUOUS
 62
               5
  5
13E
 10
-326.68571428571511
 20
-427.52631251987202
 30
0.0
  0
POINT
  8
0
  6
CONTINUOUS
 62
               5
  5
13F
 10
-326.68571428571511
 20
-427.52631251987202
 30
0.0
  0
LINE
  8
0
  6
DASHDOT
 62
               4
  5
140
 10
-433.04986881819622
 20
520.73306545954688
 30
0.0
 11
-56.303754801670095
 21
520.73306545954688
 31
0.0
  0
LINE
  8
0
  6
DASHDOT
 62
               4
  5
141
 10
-326.68571428571516
 20
615.34845007493141
 30
0.0
 11
-326.68571428571516
 21
428.01803325636308
 31
0.0
  0
LINE
  8
0
  6
DASHDOT
 62
               4
  5
142
 10
-347.38913204740891
 20
-427.52631251987202
 30
0.0
 11
-59.727936295828016
 21
-427.52631251987202
 31
0.0
  0
ARC
  8
0
  6
DASHDOT
 62
               4
  5
143
 10
-157.68571428571499
 20
-258.52631251987208
 30
0.0
 40
169.0
 50
179.99999999993119
 51
268.71324725135327
  0
LINE
  8
0
  6
DASHDOT
 62
               4
  5
144
 10
-326.68571428571511
 20
104.64226281187351
 30
0.0
 11
-326.68571428571511
 21
-481.05177918619734
 31
0.0
  0
LINE
  8
0
  6
DASHDOT
 62
               4
  5
145
 10
-342.18676030624181
 20
-378.02735854039838
 30
0.0
 11
-212.18676030624181
 21
-378.02735854039838
 31
0.0
  0
LINE
  8
0
  6
DASHDOT
 62
               4
  5
146
 10
-277.18676030624181
 20
-443.02735854039838
 30
0.0
 11
-277.18676030624181
 21
-313.02735854039838
 31
0.0
  0
LINE
  8
0
  6
DASHDOT
 62
               4
  5
147
 10
391.31428571428569
 20
97.473687480127353
 30
0.0
 11
391.31428571428569
 21
-552.02631251987168
 31
0.0
  0
LINE
  8
0
  6
DASHDOT
 62
               4
  5
148
 10
279.81428571428671
 20
-427.52631251987174
 30
0.0
 11
502.81428571428461
 21
-427.52631251987174
 31
0.0
  0
LINE
  8
0
  6
DASHED
 62
               4
  5
149
 10
-147.68571428571516
 20
450.73306545954688
 30
0.0
 11
-147.68571428571516
 21
590.73306545954688
 31
0.0
  0
LINE
  8
0
  6
DASHED
 62
               4
  5
14A
 10
-383.68571428571499
 20
24.473687480128035
 30
0.0
 11
-269.68571428571522
 21
24.473687480127808
 31
0.0
  0
LINE
  8
0
  6
DASHED
 62
               4
  5
14B
 10
-147.68571428571539
 20
-491.80119403645972
 30
0.0
 11
-147.68571428571539
 21
-361.35095706963511
 31
0.0
  0
LINE
  8
0
  6
DASHED
 62
               4
  5
14C
 10
334.31428571428523
 20
24.473687480128319
 30
0.0
 11
448.31428571428501
 21
24.473687480128319
 31
0.0
  0
ARC
  8
0
  6
CONTINUOUS
 62
               3
  5
14D
 10
-402.68571428571522
 20
520.73306545954688
 30
0.0
 40
12.0
 50
146.67068162521619
 51
179.99999999993119
  0
LINE
  8
0
  6
CONTINUOUS
 62
               3
  5
14E
 10
-412.71203007518869
 20
527.32647062605588
 30
0.0
 11
-389.76795112782042
 21
562.21657296550086
 31
0.0
  0
ARC
  8
0
  6
CONTINUOUS
 62
               3
  5
14F
 10
-288.68571428571494
 20
586.55099614716414
 30
0.0
 40
12.0
 50
26.670681625262063
 51
93.329318374692193
  0
LINE
  8
0
  6
CONTINUOUS
 62
               3
  5
150
 10
-277.96250001933748
 20
591.93733774395878
 30
0.0
 11
-259.2188245264237
 21
554.62213133937973
 31
0.0
  0
LINE
  8
0
  6
CONTINUOUS
 62
               3
  5
151
 10
-289.38261276261863
 20
598.53074291046778
 30
0.0
 11
-331.07036720290142
 21
596.10563884533371
 31
0.0
  0
ARC
  8
0
  6
CONTINUOUS
 62
               3
  5
152
 10
-326.68571428571516
 20
520.73306545954688
 30
0.0
 40
75.499999999999986
 50
93.329318374691937
 51
146.67068162521622
  0
ARC
  8
0
  6
CONTINUOUS
 62
               3
  5
153
 10
-326.68571428571516
 20
520.73306545954688
 30
0.0
 40
75.499999999999986
 50
0.0
 51
26.670681625262148
  0
LINE
  8
0
  6
CONTINUOUS
 62
               3
  5
154
 10
-232.18571428571528
 20
590.23306545954665
 30
0.0
 11
-157.96020408725786
 21
590.23306545954665
 31
0.0
  0
ARC
  8
0
  6
CONTINUOUS
 62
               3
  5
155
 10
-157.96020408725786
 20
595.23306545954665
 30
0.0
 40
4.9999999999999991
 50
269.99999999989683
 51
337.38013505183039
  0
LINE
  8
0
  6
CONTINUOUS
 62
               3
  5
156
 10
-130.17023996241343
 20
613.23306545954642
 30
0.0
 11
-111.68571428571516
 21
613.23306545954688
 31
0.0
  0
LINE
  8
0
  6
CONTINUOUS
 62
               3
  5
157
 10
-145.96020408725798
 20
598.23306545954688
 30
0.0
 11
-130.17023996241343
 21
598.23306545954688
 31
0.0
  0
ARC
  8
0
  6
CONTINUOUS
 62
               3
  5
158
 10
-145.96020408725798
 20
590.23306545954665
 30
0.0
 40
7.9999999999999991
 50
89.999999999965709
 51
157.3801350518992
  0
ARC
  8
0
  6
CONTINUOUS
 62
               3
  5
159
 10
-303.67280998557879
 20
520.73306545954688
 30
0.0
 40
68.5
 50
0.0
 51
63.351069140187519
  0
ARC
  8
0
  6
CONTINUOUS
 62
               3
  5
15A
 10
-299.25588603862542
 20
520.73306545954688
 30
0.0
 40
68.5
 50
0.0
 51
68.566508314374872
  0
ARC
  8
0
  6
CONTINUOUS
 62
               3
  5
15B
 10
-402.68571428571522
 20
520.73306545954688
 30
0.0
 40
12.0
 50
179.9999999999313
 51
213.32931837464625
  0
LINE
  8
0
  6
CONTINUOUS
 62
               3
  5
15C
 10
-412.71203007518869
 20
514.13966029303788
 30
0.0
 11
-389.76795112782042
 21
479.2495579535929
 31
0.0
  0
ARC
  8
0
  6
CONTINUOUS
 62
               3
  5
15D
 10
-288.68571428571494
 20
454.91513477192962
 30
0.0
 40
12.0
 50
266.67068162517023
 51
333.32931837460029
  0
LINE
  8
0
  6
CONTINUOUS
 62
               3
  5
15E
 10
-277.96250001933748
 20
449.52879317513487
 30
0.0
 11
-259.2188245264237
 21
486.84399957971402
 31
0.0
  0
LINE
  8
0
  6
CONTINUOUS
 62
               3
  5
15F
 10
-289.38261276261863
 20
442.93538800862586
 30
0.0
 11
-331.07036720290142
 21
445.36049207376004
 31
0.0
  0
ARC
  8
0
  6
CONTINUOUS
 62
               3
  5
160
 10
-326.68571428571516
 20
520.73306545954688
 30
0.0
 40
75.499999999999986
 50
213.32931837464614
 51
266.6706816251704
  0
ARC
  8
0
  6
CONTINUOUS
 62
               3
  5
161
 10
-326.68571428571516
 20
520.73306545954688
 30
0.0
 40
75.499999999999986
 50
333.32931837460035
 51
359.99999999986164
  0
LINE
  8
0
  6
CONTINUOUS
 62
               3
  5
162
 10
-232.18571428571528
 20
451.23306545954699
 30
0.0
 11
-157.96020408725786
 21
451.23306545954699
 31
0.0
  0
LINE
  8
0
  6
CONTINUOUS
 62
               3
  5
163
 10
-111.68571428571516
 20
428.23306545954688
 30
0.0
 11
-111.68571428571516
 21
613.23306545954688
 31
0.0
  0
LINE
  8
0
  6
CONTINUOUS
 62
               3
  5
164
 10
-130.17023996241343
 20
428.23306545954745
 30
0.0
 11
-130.1702399624134
 21
613.23306545954745
 31
0.0
  0
ARC
  8
0
  6
CONTINUOUS
 62
               3
  5
165
 10
-157.96020408725786
 20
446.23306545954699
 30
0.0
 40
4.9999999999999991
 50
22.619864948032031
 51
89.999999999965439
  0
LINE
  8
0
  6
CONTINUOUS
 62
               3
  5
166
 10
-130.17023996241343
 20
428.23306545954745
 30
0.0
 11
-111.68571428571516
 21
428.23306545954688
 31
0.0
  0
LINE
  8
0
  6
CONTINUOUS
 62
               3
  5
167
 10
-145.96020408725798
 20
443.23306545954688
 30
0.0
 11
-130.17023996241343
 21
443.23306545954688
 31
0.0
  0
ARC
  8
0
  6
CONTINUOUS
 62
               3
  5
168
 10
-145.96020408725798
 20
451.23306545954699
 30
0.0
 40
7.9999999999999991
 50
202.61986494796315
 51
269.99999999989683
  0
ARC
  8
0
  6
CONTINUOUS
 62
               3
  5
169
 10
-303.67280998557879
 20
520.73306545954688
 30
0.0
 40
68.5
 50
296.64893085967498
 51
359.99999999986164
  0
ARC
  8
0
  6
CONTINUOUS
 62
               3
  5
16A
 10
-299.25588603862542
 20
520.73306545954688
 30
0.0
 40
68.5
 50
291.43349168548758
 51
359.99999999986164
  0
LINE
  8
0
  6
CONTINUOUS
 62
               3
  5
16B
 10
-98.68571428571488
 20
613.23306545954688
 30
0.0
 11
-98.68571428571488
 21
428.23306545954688
 31
0.0
  0
LINE
  8
0
  6
CONTINUOUS
 62
               3
  5
16C
 10
-79.685714285715164
 20
428.23306545954688
 30
0.0
 11
-79.685714285715164
 21
613.23306545954688
 31
0.0
  0
LINE
  8
0
  6
CONTINUOUS
 62
               3
  5
16D
 10
-98.68571428571488
 20
613.23306545954688
 30
0.0
 11
-79.685714285715164
 21
613.23306545954688
 31
0.0
  0
LINE
  8
0
  6
CONTINUOUS
 62
               3
  5
16E
 10
-98.68571428571488
 20
428.23306545954688
 30
0.0
 11
-79.685714285715164
 21
428.23306545954688
 31
0.0
  0
CIRCLE
  8
0
  6
CONTINUOUS
 62
               3
  5
16F
 10
-402.68571428571522
 20
520.73306545954688
 30
0.0
 40
8.25
  0
CIRCLE
  8
0
  6
CONTINUOUS
 62
               3
  5
170
 10
-288.68571428571494
 20
586.55099614716414
 30
0.0
 40
8.25
  0
CIRCLE
  8
0
  6
CONTINUOUS
 62
               3
  5
171
 10
-288.68571428571494
 20
454.91513477192962
 30
0.0
 40
8.25
  0
CIRCLE
  8
0
  6
CONTINUOUS
 62
               3
  5
172
 10
-326.68571428571516
 20
520.73306545954688
 30
0.0
 40
58.5
  0
CIRCLE
  8
0
  6
CONTINUOUS
 62
               3
  5
173
 10
-326.68571428571516
 20
520.73306545954688
 30
0.0
 40
52.5
  0
LINE
  8
0
  6
CONTINUOUS
 62
               3
  5
174
 10
-111.20118860901704
 20
598.23306545954688
 30
0.0
 11
-98.68571428571488
 21
598.23306545954688
 31
0.0
  0
LINE
  8
0
  6
CONTINUOUS
 62
               3
  5
175
 10
-111.20118860901704
 20
443.23306545954688
 30
0.0
 11
-98.68571428571488
 21
443.23306545954688
 31
0.0
  0
LINE
  8
0
  6
CONTINUOUS
 62
               3
  5
176
 10
-232.18571428571528
 20
612.23306545954688
 30
0.0
 11
-232.18571428571528
 21
574.73306545954688
 31
0.0
  0
ARC
  8
0
  6
CONTINUOUS
 62
               3
  5
177
 10
-242.18571428571528
 20
574.73306545954688
 30
0.0
 40
9.9999999999999982
 50
222.94139984107002
 51
359.99999999986164
  0
LINE
  8
0
  6
CONTINUOUS
 62
               3
  5
178
 10
-232.18571428571499
 20
620.23306545954676
 30
0.0
 11
-232.18571428571499
 21
632.23306545954699
 31
0.0
  0
LINE
  8
0
  6
CONTINUOUS
 62
               3
  5
179
 10
-239.18676030624118
 20
620.23306545954711
 30
0.0
 11
-239.18676030624118
 21
612.23306545954688
 31
0.0
  0
LINE
  8
0
  6
CONTINUOUS
 62
               3
  5
17A
 10
-322.18571428571556
 20
612.23306545954688
 30
0.0
 11
-232.18571428571499
 21
612.23306545954688
 31
0.0
  0
LINE
  8
0
  6
CONTINUOUS
 62
               3
  5
17B
 10
-322.18571428571556
 20
620.23306545954711
 30
0.0
 11
-232.18571428571499
 21
620.23306545954711
 31
0.0
  0
LINE
  8
0
  6
CONTINUOUS
 62
               3
  5
17C
 10
-322.18571428571556
 20
632.23306545954699
 30
0.0
 11
-232.18571428571499
 21
632.23306545954699
 31
0.0
  0
LINE
  8
0
  6
CONTINUOUS
 62
               3
  5
17D
 10
-322.18571428571556
 20
620.23306545954676
 30
0.0
 11
-322.18571428571556
 21
632.23306545954699
 31
0.0
  0
LINE
  8
0
  6
CONTINUOUS
 62
               3
  5
17E
 10
-315.18676030624141
 20
620.23306545954711
 30
0.0
 11
-315.18676030624141
 21
612.23306545954688
 31
0.0
  0
LINE
  8
0
  6
CONTINUOUS
 62
               3
  5
17F
 10
-322.18571428571499
 20
612.23306545954688
 30
0.0
 11
-322.18571428571499
 21
596.6224862552283
 31
0.0
  0
ARC
  8
0
  6
CONTINUOUS
 62
               3
  5
180
 10
-300.74978176740564
 20
520.23306545954688
 30
0.0
 40
69.999999999999986
 50
42.941399841138988
 51
68.020807192832962
  0
LINE
  8
0
  6
CONTINUOUS
 62
               3
  5
181
 10
-232.18571428571528
 20
429.23306545954682
 30
0.0
 11
-232.18571428571528
 21
466.73306545954682
 31
0.0
  0
ARC
  8
0
  6
CONTINUOUS
 62
               3
  5
182
 10
-300.74978176740564
 20
521.23306545954688
 30
0.0
 40
69.999999999999986
 50
291.97919280702922
 51
317.05860015872349
  0
LINE
  8
0
  6
CONTINUOUS
 62
               3
  5
183
 10
-232.18571428571499
 20
421.23306545954694
 30
0.0
 11
-232.18571428571499
 21
409.23306545954688
 31
0.0
  0
LINE
  8
0
  6
CONTINUOUS
 62
               3
  5
184
 10
-239.18676030624118
 20
421.23306545954665
 30
0.0
 11
-239.18676030624118
 21
429.23306545954682
 31
0.0
  0
ARC
  8
0
  6
CONTINUOUS
 62
               3
  5
185
 10
-242.18571428571528
 20
466.73306545954682
 30
0.0
 40
9.9999999999999982
 50
0.0
 51
137.05860015879227
  0
LINE
  8
0
  6
CONTINUOUS
 62
               3
  5
186
 10
-322.18571428571556
 20
429.23306545954682
 30
0.0
 11
-232.18571428571499
 21
429.23306545954682
 31
0.0
  0
LINE
  8
0
  6
CONTINUOUS
 62
               3
  5
187
 10
-322.18571428571556
 20
421.23306545954665
 30
0.0
 11
-232.18571428571499
 21
421.23306545954665
 31
0.0
  0
LINE
  8
0
  6
CONTINUOUS
 62
               3
  5
188
 10
-322.18571428571556
 20
409.23306545954654
 30
0.0
 11
-232.18571428571499
 21
409.23306545954654
 31
0.0
  0
LINE
  8
0
  6
CONTINUOUS
 62
               3
  5
189
 10
-322.18571428571556
 20
421.23306545954694
 30
0.0
 11
-322.18571428571556
 21
409.23306545954688
 31
0.0
  0
LINE
  8
0
  6
CONTINUOUS
 62
               3
  5
18A
 10
-315.18676030624141
 20
421.23306545954665
 30
0.0
 11
-315.18676030624141
 21
429.23306545954682
 31
0.0
  0
LINE
  8
0
  6
CONTINUOUS
 62
               3
  5
18B
 10
-322.18571428571499
 20
429.23306545954682
 30
0.0
 11
-322.18571428571499
 21
444.84364466386558
 31
0.0
  0
LINE
  8
0
  6
CONTINUOUS
 62
               3
  5
18C
 10
-111.68571428571511
 20
-337.52631251986827
 30
0.0
 11
-111.68571428571491
 21
-532.02631251987259
 31
0.0
  0
LINE
  8
0
  6
CONTINUOUS
 62
               3
  5
18D
 10
-152.67777427892941
 20
-350.02631251987088
 30
0.0
 11
-129.6857142857161
 21
-350.02631251987407
 31
0.0
  0
LINE
  8
0
  6
CONTINUOUS
 62
               3
  5
18E
 10
-152.67777427892941
 20
-505.0263125198752
 30
0.0
 11
-129.6857142857161
 21
-505.02631251986486
 31
0.0
  0
LINE
  8
0
  6
CONTINUOUS
 62
               3
  5
18F
 10
-129.6857142857161
 20
-337.52631251987259
 30
0.0
 11
-111.68571428571511
 21
-337.52631251986827
 31
0.0
  0
LINE
  8
0
  6
CONTINUOUS
 62
               3
  5
190
 10
-129.68571428571491
 20
-532.02631251987668
 30
0.0
 11
-111.68571428571491
 21
-532.02631251987259
 31
0.0
  0
ARC
  8
0
  6
CONTINUOUS
 62
               3
  5
191
 10
-157.68571428571499
 20
-258.52631251987208
 30
0.0
 40
100.5
 50
178.81459326879536
 51
269.99999999989683
  0
ARC
  8
0
  6
CONTINUOUS
 62
               3
  5
192
 10
-271.1666688223454
 20
-256.44714021936028
 30
0.0
 40
13.0
 50
358.95035716797679
 51
408.23846758614519
  0
ARC
  8
0
  6
CONTINUOUS
 62
               3
  5
193
 10
-157.68571428571499
 20
-258.52631251987208
 30
0.0
 40
239.5
 50
179.99999999993119
 51
269.99999999989683
  0
LINE
  8
0
  6
CONTINUOUS
 62
               3
  5
194
 10
-414.68571428571488
 20
52.473687480127211
 30
0.0
 11
-414.68571428571488
 21
37.438879271278893
 31
0.0
  0
LINE
  8
0
  6
CONTINUOUS
 62
               3
  5
195
 10
-391.1857142857167
 20
37.43887927128111
 30
0.0
 11
-391.18571428571499
 21
19.922691240702306
 31
0.0
  0
ARC
  8
0
  6
CONTINUOUS
 62
               3
  5
196
 10
-384.18571428571539
 20
-258.52631251987208
 30
0.0
 40
13.0
 50
126.86989764579465
 51
179.99999999993116
  0
LINE
  8
0
  6
CONTINUOUS
 62
               3
  5
197
 10
-262.18571428571522
 20
37.438879271280712
 30
0.0
 11
-262.18571428571522
 21
19.922691240701909
 31
0.0
  0
LINE
  8
0
  6
CONTINUOUS
 62
               3
  5
198
 10
-251.21036323902166
 20
52.473687480128575
 30
0.0
 11
-251.21036323902155
 21
37.438879271280712
 31
0.0
  0
LINE
  8
0
  6
CONTINUOUS
 62
               3
  5
199
 10
-414.68571428571488
 20
37.438879271278893
 30
0.0
 11
-251.18571428571491
 21
37.438879271280712
 31
0.0
  0
LINE
  8
0
  6
CONTINUOUS
 62
               3
  5
19A
 10
-414.68571428571488
 20
52.473687480127211
 30
0.0
 11
-251.18571428571491
 21
52.473687480128575
 31
0.0
  0
LINE
  8
0
  6
CONTINUOUS
 62
               3
  5
19B
 10
-129.6857142857161
 20
-337.52631251987259
 30
0.0
 11
-129.68571428571491
 21
-532.02631251987668
 31
0.0
  0
LINE
  8
0
  6
CONTINUOUS
 62
               3
  5
19C
 10
-98.685714285715193
 20
-346.52631251987214
 30
0.0
 11
-111.67777427892952
 21
-346.52631251987214
 31
0.0
  0
LINE
  8
0
  6
CONTINUOUS
 62
               3
  5
19D
 10
-98.685714285715193
 20
-508.52631251987202
 30
0.0
 11
-111.67777427892941
 21
-508.52631251987202
 31
0.0
  0
LINE
  8
0
  6
CONTINUOUS
 62
               3
  5
19E
 10
-79.685714285715108
 20
-337.52631251987253
 30
0.0
 11
-98.685714285715193
 21
-337.52631251987214
 31
0.0
  0
LINE
  8
0
  6
CONTINUOUS
 62
               3
  5
19F
 10
-79.685714285715108
 20
-532.02631251987236
 30
0.0
 11
-98.685714285715193
 21
-532.02631251987214
 31
0.0
  0
LINE
  8
0
  6
CONTINUOUS
 62
               3
  5
1A0
 10
-98.685714285715193
 20
-337.52631251987214
 30
0.0
 11
-98.685714285715193
 21
-532.02631251987214
 31
0.0
  0
LINE
  8
0
  6
CONTINUOUS
 62
               3
  5
1A1
 10
-79.685714285715108
 20
-532.02631251987236
 30
0.0
 11
-79.685714285715108
 21
-337.52631251987253
 31
0.0
  0
LINE
  8
0
  6
CONTINUOUS
 62
               3
  5
1A2
 10
-392.66106533240873
 20
64.47368748012795
 30
0.0
 11
-392.66106533240873
 21
52.473687480127211
 31
0.0
  0
LINE
  8
0
  6
CONTINUOUS
 62
               3
  5
1A3
 10
-260.66106533240884
 20
64.47368748012795
 30
0.0
 11
-260.66106533240884
 21
52.473687480128575
 31
0.0
  0
LINE
  8
0
  6
CONTINUOUS
 62
               3
  5
1A4
 10
-414.68571428571477
 20
79.47368748012795
 30
0.0
 11
-251.18571428571479
 21
79.47368748012795
 31
0.0
  0
LINE
  8
0
  6
CONTINUOUS
 62
               3
  5
1A5
 10
-414.68571428571488
 20
64.47368748012795
 30
0.0
 11
-251.18571428571491
 21
64.47368748012795
 31
0.0
  0
LINE
  8
0
  6
CONTINUOUS
 62
               3
  5
1A6
 10
-251.18571428571528
 20
64.47368748012795
 30
0.0
 11
-251.18571428571479
 21
79.47368748012795
 31
0.0
  0
LINE
  8
0
  6
CONTINUOUS
 62
               3
  5
1A7
 10
-414.68571428571488
 20
64.47368748012795
 30
0.0
 11
-414.68571428571477
 21
79.47368748012795
 31
0.0
  0
LINE
  8
0
  6
CONTINUOUS
 62
               3
  5
1A8
 10
-152.67777427892941
 20
-350.02631251987088
 30
0.0
 11
-152.67777427892941
 21
-505.0263125198752
 31
0.0
  0
LINE
  8
0
  6
CONTINUOUS
 62
               3
  5
1A9
 10
-152.67777427892941
 20
-359.02631251987202
 30
0.0
 11
-157.68571428571499
 21
-359.02631251987202
 31
0.0
  0
LINE
  8
0
  6
CONTINUOUS
 62
               3
  5
1AA
 10
-157.68571428571499
 20
-498.02631251987214
 30
0.0
 11
-152.67777427892941
 21
-498.02631251987214
 31
0.0
  0
LINE
  8
0
  6
CONTINUOUS
 62
               3
  5
1AB
 10
-391.18571428571499
 20
19.922691240702306
 30
0.0
 11
-262.18571428571522
 21
19.922691240701909
 31
0.0
  0
LINE
  8
0
  6
CONTINUOUS
 62
               3
  5
1AC
 10
-385.18571428571511
 20
-234.52631251987188
 30
0.0
 11
-385.18571428571511
 21
19.922691240702136
 31
0.0
  0
LINE
  8
0
  6
CONTINUOUS
 62
               3
  5
1AD
 10
-268.18571428571511
 20
-234.06944025253807
 30
0.0
 11
-268.18571428571511
 21
19.922691240702136
 31
0.0
  0
ARC
  8
0
  6
CONTINUOUS
 62
               3
  5
1AE
 10
-402.18571428571511
 20
-234.52631251987188
 30
0.0
 40
17.0
 50
306.86989764572616
 51
359.99999999986164
  0
ARC
  8
0
  6
CONTINUOUS
 62
               3
  5
1AF
 10
-251.18571428571511
 20
-234.06944025253807
 30
0.0
 40
17.0
 50
179.99999999993119
 51
228.23846758621477
  0
LINE
  8
0
  6
CONTINUOUS
 62
               3
  5
1B0
 10
-387.03097802578009
 20
-327.52631251987202
 30
0.0
 11
-230.75588603862667
 21
-327.52631251987202
 31
0.0
  0
LINE
  8
0
  6
CONTINUOUS
 62
               3
  5
1B1
 10
-235.17280998557982
 20
-322.52631251987202
 30
0.0
 11
-388.47620369114964
 21
-322.52631251987202
 31
0.0
  0
LINE
  8
0
  6
CONTINUOUS
 62
               3
  5
1B2
 10
-399.18571428571511
 20
-27.526312519872192
 30
0.0
 11
-254.18571428571511
 21
-27.526312519872192
 31
0.0
  0
LINE
  8
0
  6
CONTINUOUS
 62
               3
  5
1B3
 10
-254.18571428571511
 20
-20.526312519872192
 30
0.0
 11
-254.18571428571511
 21
-27.526312519872192
 31
0.0
  0
LINE
  8
0
  6
CONTINUOUS
 62
               3
  5
1B4
 10
-254.18571428571511
 20
-20.526312519872192
 30
0.0
 11
-399.18571428571511
 21
-20.526312519872192
 31
0.0
  0
LINE
  8
0
  6
CONTINUOUS
 62
               3
  5
1B5
 10
-399.18571428571511
 20
-20.526312519872192
 30
0.0
 11
-399.18571428571511
 21
-27.526312519872192
 31
0.0
  0
LINE
  8
0
  6
CONTINUOUS
 62
               3
  5
1B6
 10
-399.18571428571511
 20
-77.526312519872192
 30
0.0
 11
-254.18571428571511
 21
-77.526312519872192
 31
0.0
  0
LINE
  8
0
  6
CONTINUOUS
 62
               3
  5
1B7
 10
-254.18571428571511
 20
-70.526312519872192
 30
0.0
 11
-254.18571428571511
 21
-77.526312519872192
 31
0.0
  0
LINE
  8
0
  6
CONTINUOUS
 62
               3
  5
1B8
 10
-254.18571428571511
 20
-70.526312519872192
 30
0.0
 11
-399.18571428571511
 21
-70.526312519872192
 31
0.0
  0
LINE
  8
0
  6
CONTINUOUS
 62
               3
  5
1B9
 10
-399.18571428571511
 20
-70.526312519872192
 30
0.0
 11
-399.18571428571511
 21
-77.526312519872192
 31
0.0
  0
LINE
  8
0
  6
CONTINUOUS
 62
               3
  5
1BA
 10
-399.18571428571511
 20
-127.52631251987208
 30
0.0
 11
-254.18571428571511
 21
-127.52631251987208
 31
0.0
  0
LINE
  8
0
  6
CONTINUOUS
 62
               3
  5
1BB
 10
-254.18571428571511
 20
-120.52631251987219
 30
0.0
 11
-254.18571428571511
 21
-127.52631251987208
 31
0.0
  0
LINE
  8
0
  6
CONTINUOUS
 62
               3
  5
1BC
 10
-254.18571428571511
 20
-120.52631251987219
 30
0.0
 11
-399.18571428571511
 21
-120.52631251987219
 31
0.0
  0
LINE
  8
0
  6
CONTINUOUS
 62
               3
  5
1BD
 10
-399.18571428571511
 20
-120.52631251987219
 30
0.0
 11
-399.18571428571511
 21
-127.52631251987208
 31
0.0
  0
LINE
  8
0
  6
CONTINUOUS
 62
               3
  5
1BE
 10
-399.18571428571511
 20
-177.52631251987208
 30
0.0
 11
-254.18571428571511
 21
-177.52631251987208
 31
0.0
  0
LINE
  8
0
  6
CONTINUOUS
 62
               3
  5
1BF
 10
-254.18571428571511
 20
-170.52631251987208
 30
0.0
 11
-254.18571428571511
 21
-177.52631251987208
 31
0.0
  0
LINE
  8
0
  6
CONTINUOUS
 62
               3
  5
1C0
 10
-254.18571428571511
 20
-170.52631251987208
 30
0.0
 11
-399.18571428571511
 21
-170.52631251987208
 31
0.0
  0
LINE
  8
0
  6
CONTINUOUS
 62
               3
  5
1C1
 10
-399.18571428571511
 20
-170.52631251987208
 30
0.0
 11
-399.18571428571511
 21
-177.52631251987208
 31
0.0
  0
LINE
  8
0
  6
CONTINUOUS
 62
               3
  5
1C2
 10
-347.24265157585052
 20
-447.52631251987202
 30
0.0
 11
-304.78856945854977
 21
-447.52631251987202
 31
0.0
  0
LINE
  8
0
  6
CONTINUOUS
 62
               3
  5
1C3
 10
-343.68571428571511
 20
-447.52631251987202
 30
0.0
 11
-343.68571428571511
 21
-477.52631251987202
 31
0.0
  0
LINE
  8
0
  6
CONTINUOUS
 62
               3
  5
1C4
 10
-309.68571428571511
 20
-477.52631251987202
 30
0.0
 11
-309.68571428571511
 21
-447.52631251987202
 31
0.0
  0
LINE
  8
0
  6
CONTINUOUS
 62
               3
  5
1C5
 10
-343.68571428571511
 20
-477.52631251987202
 30
0.0
 11
-309.68571428571511
 21
-477.52631251987202
 31
0.0
  0
LINE
  8
0
  6
CONTINUOUS
 62
               3
  5
1C6
 10
-331.68571428571511
 20
-447.52631251987202
 30
0.0
 11
-331.68571428571511
 21
-477.52631251987202
 31
0.0
  0
LINE
  8
0
  6
CONTINUOUS
 62
               3
  5
1C7
 10
-321.68571428571511
 20
-477.52631251987202
 30
0.0
 11
-321.68571428571511
 21
-447.52631251987202
 31
0.0
  0
LINE
  8
0
  6
CONTINUOUS
 62
               3
  5
1C8
 10
-347.24265157585052
 20
-447.52631251987202
 30
0.0
 11
-351.46409570621324
 21
-399.27498531664082
 31
0.0
  0
ARC
  8
0
  6
CONTINUOUS
 62
               3
  5
1C9
 10
-309.00656545963642
 20
-409.84716369379299
 30
0.0
 40
9.9999999999999964
 50
117.72027269074661
 51
332.27972730908107
  0
ARC
  8
0
  6
CONTINUOUS
 62
               3
  5
1CA
 10
-295.7281289970669
 20
-416.8244930617891
 30
0.0
 40
4.9999999999999982
 50
64.456602312013985
 51
152.27972730914988
  0
ARC
  8
0
  6
CONTINUOUS
 62
               3
  5
1CB
 10
-315.98389482763253
 20
-396.56872723122331
 30
0.0
 40
4.9999999999999982
 50
297.72027269067814
 51
385.54339768781318
  0
ARC
  8
0
  6
CONTINUOUS
 62
               3
  5
1CC
 10
-245.3669551528472
 20
-346.20755338700377
 30
0.0
 40
9.9999999999999964
 50
297.72027269067814
 51
512.27972730901138
  0
ARC
  8
0
  6
CONTINUOUS
 62
               3
  5
1CD
 10
-258.64539161541671
 20
-339.23022401900755
 30
0.0
 40
4.9999999999999982
 50
244.45660231194512
 51
332.27972730908107
  0
ARC
  8
0
  6
CONTINUOUS
 62
               3
  5
1CE
 10
-238.38962578485109
 20
-359.48598984957346
 30
0.0
 40
4.9999999999999982
 50
117.720272690747
 51
205.54339768788293
  0
LINE
  8
0
  6
CONTINUOUS
 62
               3
  5
1CF
 10
-318.95072931330958
 20
-410.90243865857713
 30
0.0
 11
-321.93549764777117
 21
-382.77609588192746
 31
0.0
  0
LINE
  8
0
  6
CONTINUOUS
 62
               3
  5
1D0
 10
-272.43802296471273
 20
-333.27862119886919
 30
0.0
 11
-244.31168018806289
 21
-336.26338953333061
 31
0.0
  0
LINE
  8
0
  6
CONTINUOUS
 62
               3
  5
1D1
 10
-310.06184042442072
 20
-419.79132754746604
 30
0.0
 11
-281.93549764777089
 21
-422.77609588192746
 31
0.0
  0
LINE
  8
0
  6
CONTINUOUS
 62
               3
  5
1D2
 10
-232.43802296471273
 20
-373.27862119886913
 30
0.0
 11
-235.42279129917404
 21
-345.15227842221947
 31
0.0
  0
ARC
  8
0
  6
CONTINUOUS
 62
               3
  5
1D3
 10
-277.18676030624181
 20
-378.02735854039838
 30
0.0
 40
45.0
 50
83.942441268949281
 51
186.05755873094745
  0
ARC
  8
0
  6
CONTINUOUS
 62
               3
  5
1D4
 10
-277.18676030624181
 20
-378.02735854039838
 30
0.0
 40
38.0
 50
64.456602312014013
 51
205.54339768788276
  0
ARC
  8
0
  6
CONTINUOUS
 62
               3
  5
1D5
 10
-277.18676030624181
 20
-378.02735854039838
 30
0.0
 40
45.0
 50
263.94244126888054
 51
366.05755873087799
  0
ARC
  8
0
  6
CONTINUOUS
 62
               3
  5
1D6
 10
-277.18676030624181
 20
-378.02735854039838
 30
0.0
 40
38.0
 50
244.45660231194512
 51
385.54339768781324
  0
CIRCLE
  8
0
  6
CONTINUOUS
 62
               3
  5
1D7
 10
-245.3669551528472
 20
-346.20755338700377
 30
0.0
 40
6.2999999999999989
  0
CIRCLE
  8
0
  6
CONTINUOUS
 62
               3
  5
1D8
 10
-309.00656545963642
 20
-409.84716369379299
 30
0.0
 40
6.2999999999999989
  0
ARC
  8
0
  6
CONTINUOUS
 62
               3
  5
1D9
 10
391.31428571428569
 20
-427.52631251987174
 30
0.0
 40
90.0
 50
302.88320949568157
 51
359.99999999986164
  0
ARC
  8
0
  6
CONTINUOUS
 62
               3
  5
1DA
 10
391.31428571428569
 20
-518.02631251987168
 30
0.0
 40
14.0
 50
237.11679050411198
 51
302.88320949568163
  0
LINE
  8
0
  6
CONTINUOUS
 62
               3
  5
1DB
 10
383.71328844495224
 20
-529.78321859721973
 30
0.0
 11
342.45073183999864
 21
-503.10642301710914
 31
0.0
  0
LINE
  8
0
  6
CONTINUOUS
 62
               3
  5
1DC
 10
398.91528298361931
 20
-529.78321859721973
 30
0.0
 11
440.17783958857274
 21
-503.10642301710925
 31
0.0
  0
ARC
  8
0
  6
CONTINUOUS
 62
               3
  5
1DD
 10
469.68958475677732
 20
-382.27631251987162
 30
0.0
 40
14.0
 50
357.11679050406616
 51
422.88320949563507
  0
LINE
  8
0
  6
CONTINUOUS
 62
               3
  5
1DE
 10
483.67186272433514
 20
-382.98051621053685
 30
0.0
 11
481.20035836287184
 21
-432.05333624557511
 31
0.0
  0
LINE
  8
0
  6
CONTINUOUS
 62
               3
  5
1DF
 10
476.07086545500164
 20
-369.81520275185881
 30
0.0
 11
432.33680448858479
 21
-347.41917829693085
 31
0.0
  0
ARC
  8
0
  6
CONTINUOUS
 62
               3
  5
1E0
 10
312.93898667179405
 20
-382.27631251987162
 30
0.0
 40
14.0
 50
104.56013385555077
 51
182.88320949572744
  0
LINE
  8
0
  6
CONTINUOUS
 62
               3
  5
1E1
 10
306.5577059735698
 20
-369.81520275185864
 30
0.0
 11
350.29176693998681
 21
-347.41917829693085
 31
0.0
  0
LINE
  8
0
  6
CONTINUOUS
 62
               3
  5
1E2
 10
298.95670870423612
 20
-382.98051621053662
 30
0.0
 11
301.42821306569954
 21
-432.053336245575
 31
0.0
  0
ARC
  8
0
  6
CONTINUOUS
 62
               3
  5
1E3
 10
391.31428571428569
 20
-427.52631251987174
 30
0.0
 40
90.0
 50
179.99999999993119
 51
237.11679050411189
  0
ARC
  8
0
  6
CONTINUOUS
 62
               3
  5
1E4
 10
391.31428571428569
 20
-427.52631251987174
 30
0.0
 40
90.0
 50
62.883209495773364
 51
117.11679050415775
  0
CIRCLE
  8
0
  6
CONTINUOUS
 62
               3
  5
1E5
 10
391.31428571428569
 20
-427.52631251987174
 30
0.0
 40
71.5
  0
LINE
  8
0
  6
CONTINUOUS
 62
               3
  5
1E6
 10
321.81428571428569
 20
-332.02735854039804
 30
0.0
 11
321.81428571428569
 21
-256.70546912825478
 31
0.0
  0
ARC
  8
0
  6
CONTINUOUS
 62
               3
  5
1E7
 10
332.8142857142858
 20
-256.70546912825478
 30
0.0
 40
11.0
 50
133.55420875229666
 51
179.99999999993119
  0
LINE
  8
0
  6
CONTINUOUS
 62
               3
  5
1E8
 10
460.81428571428569
 20
-332.02735854039821
 30
0.0
 11
460.81428571428569
 21
-256.75214109817892
 31
0.0
  0
ARC
  8
0
  6
CONTINUOUS
 62
               3
  5
1E9
 10
449.81428571428563
 20
-256.75214109817892
 30
0.0
 40
11.0
 50
0.0
 51
46.688891510049039
  0
CIRCLE
  8
0
  6
CONTINUOUS
 62
               3
  5
1EA
 10
312.93898667179405
 20
-382.27631251987162
 30
0.0
 40
9.0
  0
CIRCLE
  8
0
  6
CONTINUOUS
 62
               3
  5
1EB
 10
469.68958475677732
 20
-382.27631251987162
 30
0.0
 40
9.0
  0
CIRCLE
  8
0
  6
CONTINUOUS
 62
               3
  5
1EC
 10
391.31428571428569
 20
-518.02631251987168
 30
0.0
 40
9.0
  0
LINE
  8
0
  6
CONTINUOUS
 62
               3
  5
1ED
 10
315.83893466759218
 20
52.473687480128262
 30
0.0
 11
315.83893466759173
 21
37.473687480128262
 31
0.0
  0
LINE
  8
0
  6
CONTINUOUS
 62
               3
  5
1EE
 10
315.83893466759218
 20
52.473687480128262
 30
0.0
 11
466.78963676097931
 21
52.473687480128262
 31
0.0
  0
LINE
  8
0
  6
CONTINUOUS
 62
               3
  5
1EF
 10
315.83893466759173
 20
37.473687480128262
 30
0.0
 11
466.78963676097965
 21
37.473687480128262
 31
0.0
  0
LINE
  8
0
  6
CONTINUOUS
 62
               3
  5
1F0
 10
466.78963676097931
 20
52.473687480128262
 30
0.0
 11
466.78963676097965
 21
37.473687480128262
 31
0.0
  0
LINE
  8
0
  6
CONTINUOUS
 62
               3
  5
1F1
 10
315.83893466759207
 20
79.473687480128262
 30
0.0
 11
466.83893466759213
 21
79.473687480128262
 31
0.0
  0
LINE
  8
0
  6
CONTINUOUS
 62
               3
  5
1F2
 10
315.83893466759207
 20
64.473687480128376
 30
0.0
 11
466.83893466759213
 21
64.473687480128376
 31
0.0
  0
LINE
  8
0
  6
CONTINUOUS
 62
               3
  5
1F3
 10
466.83893466759213
 20
64.473687480128376
 30
0.0
 11
466.83893466759213
 21
79.473687480128262
 31
0.0
  0
LINE
  8
0
  6
CONTINUOUS
 62
               3
  5
1F4
 10
315.83893466759207
 20
79.473687480128262
 30
0.0
 11
315.83893466759207
 21
64.473687480128376
 31
0.0
  0
LINE
  8
0
  6
CONTINUOUS
 62
               3
  5
1F5
 10
325.3142857142858
 20
52.469404793691638
 30
0.0
 11
325.3142857142858
 21
64.473687480128376
 31
0.0
  0
LINE
  8
0
  6
CONTINUOUS
 62
               3
  5
1F6
 10
457.31428571428563
 20
64.473687480128376
 30
0.0
 11
457.31428571428563
 21
52.469404793691638
 31
0.0
  0
ARC
  8
0
  6
CONTINUOUS
 62
               3
  5
1F7
 10
459.78963676089745
 20
-237.3230848765798
 30
0.0
 40
9.9999999999999982
 50
179.99999999993119
 51
235.71445380771351
  0
LINE
  8
0
  6
CONTINUOUS
 62
               3
  5
1F8
 10
332.78963676106241
 20
10.201908157078662
 30
0.0
 11
332.78963676106241
 21
-238.22021998887243
 31
0.0
  0
ARC
  8
0
  6
CONTINUOUS
 62
               3
  5
1F9
 10
322.78963676106207
 20
-238.22021998887243
 30
0.0
 40
9.9999999999999982
 50
298.64181973488479
 51
359.99999999986164
  0
LINE
  8
0
  6
CONTINUOUS
 62
               3
  5
1FA
 10
449.78963676089745
 20
10.201908157078662
 30
0.0
 11
449.78963676089745
 21
-237.3230848765798
 31
0.0
  0
LINE
  8
0
  6
CONTINUOUS
 62
               3
  5
1FB
 10
326.78963676097976
 20
37.473687480128262
 30
0.0
 11
326.78963676097919
 21
20.594213002539391
 31
0.0
  0
LINE
  8
0
  6
CONTINUOUS
 62
               3
  5
1FC
 10
455.78963676097896
 20
37.473687480128262
 30
0.0
 11
455.78963676097896
 21
20.594213002539391
 31
0.0
  0
ARC
  8
0
  6
CONTINUOUS
 62
               3
  5
1FD
 10
333.78963676097965
 20
20.594213002539391
 30
0.0
 40
7.0
 50
179.99999999993119
 51
240.00000000036488
  0
ARC
  8
0
  6
CONTINUOUS
 62
               3
  5
1FE
 10
327.78963676106207
 20
10.201908157078662
 30
0.0
 40
4.9999999999999991
 50
0.0
 51
60.000000000433992
  0
ARC
  8
0
  6
CONTINUOUS
 62
               3
  5
1FF
 10
448.78963676097908
 20
20.594213002539391
 30
0.0
 40
7.0
 50
299.99999999943338
 51
359.99999999986147
  0
ARC
  8
0
  6
CONTINUOUS
 62
               3
  5
200
 10
454.78963676089745
 20
10.201908157078662
 30
0.0
 40
4.9999999999999991
 50
119.99999999950275
 51
179.99999999993119
  0
LINE
  8
0
  6
CONTINUOUS
 62
               3
  5
201
 10
332.78963676106241
 20
-27.526312519875148
 30
0.0
 11
449.78963676089745
 21
-27.526312519873443
 31
0.0
  0
LINE
  8
0
  6
CONTINUOUS
 62
               3
  5
202
 10
332.78963676106241
 20
-77.526312519875148
 30
0.0
 11
449.7896367608983
 21
-77.526312519873443
 31
0.0
  0
LINE
  8
0
  6
CONTINUOUS
 62
               3
  5
203
 10
332.78963676106241
 20
-127.52631251987515
 30
0.0
 11
449.78963676089887
 21
-127.52631251987344
 31
0.0
  0
LINE
  8
0
  6
CONTINUOUS
 62
               3
  5
204
 10
332.78963676106241
 20
-177.52631251987515
 30
0.0
 11
449.78963676089973
 21
-177.52631251987344
 31
0.0
  0
LINE
  8
0
  6
CONTINUOUS
 62
               3
  5
205
 10
321.8142857142858
 20
-322.52631251987441
 30
0.0
 11
460.81428571428546
 21
-322.52631251987441
 31
0.0
  0
LINE
  8
0
  6
CONTINUOUS
 62
               3
  5
206
 10
321.8142857142858
 20
-327.52631251987435
 30
0.0
 11
460.81428571428546
 21
-327.52631251987435
 31
0.0
  0
LINE
  8
0
  6
CONTINUOUS
 62
               3
  5
207
 10
325.23483955888764
 20
-248.73351855280455
 30
0.0
 11
327.58296239289837
 21
-246.99655347086716
 31
0.0
  0
LINE
  8
0
  6
CONTINUOUS
 62
               3
  5
208
 10
454.15646042035746
 20
-245.58548914630543
 30
0.0
 11
457.35983955888742
 21
-248.7481035434059
 31
0.0
  0
ARC
  8
0
  6
CONTINUOUS
 62
               3
  5
209
 10
337.31428571428552
 20
-342.02735854039804
 30
0.0
 40
9.9999999999999982
 50
312.94139984103629
 51
449.99999999982725
  0
ARC
  8
0
  6
CONTINUOUS
 62
               3
  5
20A
 10
391.81428571428569
 20
-400.59142602208851
 30
0.0
 40
69.999999999999986
 50
132.94139984110447
 51
135.94655891044385
  0
ARC
  8
0
  6
CONTINUOUS
 62
               3
  5
20B
 10
445.31428571428563
 20
-342.02735854039798
 30
0.0
 40
9.9999999999999982
 50
89.999999999965638
 51
227.05860015875737
  0
ARC
  8
0
  6
CONTINUOUS
 62
               3
  5
20C
 10
390.81428571428546
 20
-400.59142602208851
 30
0.0
 40
69.999999999999986
 50
44.05344108948772
 51
47.058600158826771
  0
LINE
  8
0
  6
CONTINUOUS
 62
               3
  5
20D
 10
445.31428571428563
 20
-332.02735854039821
 30
0.0
 11
482.81428571428569
 21
-332.02735854039821
 31
0.0
  0
LINE
  8
0
  6
CONTINUOUS
 62
               3
  5
20E
 10
337.31428571428552
 20
-332.02735854039804
 30
0.0
 11
299.8142857142858
 21
-332.02735854039804
 31
0.0
  0
LINE
  8
0
  6
CONTINUOUS
 62
               3
  5
20F
 10
300.92326455023692
 20
-422.02735854039815
 30
0.0
 11
299.8142857142858
 21
-422.02735854039815
 31
0.0
  0
LINE
  8
0
  6
CONTINUOUS
 62
               3
  5
210
 10
299.8142857142858
 20
-332.02735854039804
 30
0.0
 11
299.8142857142858
 21
-377.4037131339195
 31
0.0
  0
LINE
  8
0
  6
CONTINUOUS
 62
               3
  5
211
 10
299.8142857142858
 20
-400.00808975502827
 30
0.0
 11
299.8142857142858
 21
-422.02735854039804
 31
0.0
  0
LINE
  8
0
  6
CONTINUOUS
 62
               3
  5
212
 10
291.81428571428688
 20
-332.02735854039804
 30
0.0
 11
279.81428571428671
 21
-332.02735854039804
 31
0.0
  0
LINE
  8
0
  6
CONTINUOUS
 62
               3
  5
213
 10
291.81428571428688
 20
-422.02735854039815
 30
0.0
 11
279.81428571428671
 21
-422.02735854039815
 31
0.0
  0
LINE
  8
0
  6
CONTINUOUS
 62
               3
  5
214
 10
291.81428571428688
 20
-332.02735854039804
 30
0.0
 11
291.81428571428688
 21
-422.0273585403969
 31
0.0
  0
LINE
  8
0
  6
CONTINUOUS
 62
               3
  5
215
 10
279.81428571428671
 20
-332.02735854039804
 30
0.0
 11
279.81428571428671
 21
-422.02735854039815
 31
0.0
  0
LINE
  8
0
  6
CONTINUOUS
 62
               3
  5
216
 10
291.81428571428688
 20
-339.32394077870458
 30
0.0
 11
299.8142857142858
 21
-339.32394077870458
 31
0.0
  0
LINE
  8
0
  6
CONTINUOUS
 62
               3
  5
217
 10
291.81428571428688
 20
-415.32394077870458
 30
0.0
 11
299.8142857142858
 21
-415.32394077870458
 31
0.0
  0
LINE
  8
0
  6
CONTINUOUS
 62
               3
  5
218
 10
482.81428571428569
 20
-332.02735854039821
 30
0.0
 11
482.81428571428569
 21
-377.40371313391967
 31
0.0
  0
LINE
  8
0
  6
CONTINUOUS
 62
               3
  5
219
 10
490.81428571428449
 20
-332.02735854039821
 30
0.0
 11
502.81428571428472
 21
-332.02735854039821
 31
0.0
  0
LINE
  8
0
  6
CONTINUOUS
 62
               3
  5
21A
 10
490.81428571428449
 20
-339.32394077870475
 30
0.0
 11
482.81428571428569
 21
-339.32394077870475
 31
0.0
  0
LINE
  8
0
  6
CONTINUOUS
 62
               3
  5
21B
 10
490.81428571428449
 20
-422.02735854039827
 30
0.0
 11
502.81428571428472
 21
-422.02735854039827
 31
0.0
  0
LINE
  8
0
  6
CONTINUOUS
 62
               3
  5
21C
 10
490.81428571428449
 20
-332.02735854039821
 30
0.0
 11
490.81428571428449
 21
-422.02735854039707
 31
0.0
  0
LINE
  8
0
  6
CONTINUOUS
 62
               3
  5
21D
 10
502.81428571428472
 20
-332.02735854039821
 30
0.0
 11
502.81428571428472
 21
-422.02735854039827
 31
0.0
  0
LINE
  8
0
  6
CONTINUOUS
 62
               3
  5
21E
 10
490.81428571428449
 20
-415.3239407787047
 30
0.0
 11
482.81428571428569
 21
-415.3239407787047
 31
0.0
  0
LINE
  8
0
  6
CONTINUOUS
 62
               3
  5
21F
 10
481.7053068783348
 20
-422.02735854039821
 30
0.0
 11
482.81428571428569
 21
-422.02735854039821
 31
0.0
  0
LINE
  8
0
  6
CONTINUOUS
 62
               3
  5
220
 10
482.81428571428569
 20
-400.00808975502775
 30
0.0
 11
482.81428571428569
 21
-422.02735854039821
 31
0.0
  0
ARC
  8
0
  6
DASHED
 62
               3
  5
221
 10
-288.68571428571494
 20
586.55099614716414
 30
0.0
 40
12.0
 50
13.692635082553235
 51
26.670681625262063
  0
ARC
  8
0
  6
DASHED
 62
               3
  5
222
 10
-288.68571428571494
 20
454.91513477192962
 30
0.0
 40
12.0
 50
333.32931837460029
 51
346.3073649173092
  0
ENDSEC
  0
EOF
