  0
SECTION
  2
HEADER
  9
$ACADVER
  1
AC1009
  9
$INSBASE
 10
0.0
 20
0.0
 30
0.0
  9
$EXTMIN
 10
-410.97993160054733
 20
-477.89764705882374
 30
0.0
  9
$EXTMAX
 10
521.38006839945274
 20
524.66235294117632
 30
0.0
  9
$LIMMIN
 10
-440.11618160054735
 20
-509.22764705882372
  9
$LIMMAX
 10
550.51631839945276
 20
555.99235294117636
  9
$ORTHOMODE
 70
               0
  9
$REGENMODE
 70
               1
  9
$FILLMODE
 70
               1
  9
$QTEXTMODE
 70
               0
  9
$MIRRTEXT
 70
               1
  9
$DRAGMODE
 70
               2
  9
$LTSCALE
 40
1.0
  9
$OSMODE
 70
               0
  9
$ATTMODE
 70
               1
  9
$TEXTSIZE
 40
0.2
  9
$TRACEWID
 40
0.05
  9
$TEXTSTYLE
  7
STANDARD
  9
$CLAYER
  8
0
  9
$CELTYPE
  6
CONTINUOUS
  9
$CECOLOR
 62
             256
  9
$DIMSCALE
 40
1.0
  9
$DIMASZ
 40
0.18
  9
$DIMEXO
 40
0.0625
  9
$DIMDLI
 40
0.38
  9
$DIMRND
 40
0.0
  9
$DIMDLE
 40
0.0
  9
$DIMEXE
 40
0.18
  9
$DIMTP
 40
0.0
  9
$DIMTM
 40
0.0
  9
$DIMTXT
 40
0.18
  9
$DIMCEN
 40
0.09
  9
$DIMTSZ
 40
0.0
  9
$DIMTOL
 70
               0
  9
$DIMLIM
 70
               0
  9
$DIMTIH
 70
               1
  9
$DIMTOH
 70
               1
  9
$DIMSE1
 70
               0
  9
$DIMSE2
 70
               0
  9
$DIMTAD
 70
               0
  9
$DIMZIN
 70
               0
  9
$DIMBLK
  1

  9
$DIMASO
 70
               1
  9
$DIMSHO
 70
               1
  9
$DIMPOST
  1

  9
$DIMAPOST
  1

  9
$DIMALT
 70
               0
  9
$DIMALTD
 70
               2
  9
$DIMALTF
 40
25.399999999999999
  9
$DIMLFAC
 40
1.0
  9
$DIMTOFL
 70
               0
  9
$DIMTVP
 40
0.0
  9
$DIMTIX
 70
               0
  9
$DIMSOXD
 70
               0
  9
$DIMSAH
 70
               0
  9
$DIMBLK1
  1

  9
$DIMBLK2
  1

  9
$DIMSTYLE
  2
STANDARD
  9
$DIMCLRD
 70
               0
  9
$DIMCLRE
 70
               0
  9
$DIMCLRT
 70
               0
  9
$DIMTFAC
 40
1.0
  9
$DIMGAP
 40
0.09
  9
$LUNITS
 70
               2
  9
$LUPREC
 70
               4
  9
$AXISMODE
 70
               0
  9
$AXISUNIT
 10
0.0
 20
0.0
  9
$SKETCHINC
 40
0.1
  9
$FILLETRAD
 40
0.0
  9
$AUNITS
 70
               0
  9
$AUPREC
 70
               0
  9
$MENU
  1
acad
  9
$ELEVATION
 40
0.0
  9
$PELEVATION
 40
0.0
  9
$THICKNESS
 40
0.0
  9
$LIMCHECK
 70
               0
  9
$BLIPMODE
 70
               1
  9
$CHAMFERA
 40
0.0
  9
$CHAMFERB
 40
0.0
  9
$SKPOLY
 70
               0
  9
$TDCREATE
 40
0.000000000
  9
$TDUPDATE
 40
0.000000000
  9
$TDINDWG
 40
0.0000000000
  9
$TDUSRTIMER
 40
0.0000000000
  9
$USRTIMER
 70
               1
  9
$ANGBASE
 50
0.0
  9
$ANGDIR
 70
               0
  9
$PDMODE
 70
               0
  9
$PDSIZE
 40
1.0
  9
$PLINEWID
 40
0.0
  9
$COORDS
 70
               1
  9
$SPLFRAME
 70
               0
  9
$SPLINETYPE
 70
               6
  9
$SPLINESEGS
 70
               8
  9
$ATTDIA
 70
               0
  9
$ATTREQ
 70
               1
  9
$HANDLING
 70
               1
  9
$HANDSEED
  5
1FD
  9
$SURFTAB1
 70
               6
  9
$SURFTAB2
 70
               6
  9
$SURFTYPE
 70
               6
  9
$SURFU
 70
               6
  9
$SURFV
 70
               6
  9
$UCSNAME
  2

  9
$UCSORG
 10
0.0
 20
0.0
 30
0.0
  9
$UCSXDIR
 10
1.0
 20
0.0
 30
0.0
  9
$UCSYDIR
 10
0.0
 20
1.0
 30
0.0
  9
$PUCSNAME
  2

  9
$PUCSORG
 10
0.0
 20
0.0
 30
0.0
  9
$PUCSXDIR
 10
1.0
 20
0.0
 30
0.0
  9
$PUCSYDIR
 10
0.0
 20
1.0
 30
0.0
  9
$USERI1
 70
               0
  9
$USERI2
 70
               0
  9
$USERI3
 70
               0
  9
$USERI4
 70
               0
  9
$USERI5
 70
               0
  9
$USERR1
 40
0.0
  9
$USERR2
 40
0.0
  9
$USERR3
 40
0.0
  9
$USERR4
 40
0.0
  9
$USERR5
 40
0.0
  9
$WORLDVIEW
 70
               1
  9
$SHADEDGE
 70
               3
  9
$SHADEDIF
 70
              70
  9
$TILEMODE
 70
               1
  9
$MAXACTVP
 70
              16
  9
$PINSBASE
 10
0.0
 20
0.0
 30
0.0
  9
$PLIMCHECK
 70
               0
  9
$PEXTMIN
 10
1.0000000000000000E+20
 20
1.0000000000000000E+20
 30
1.0000000000000000E+20
  9
$PEXTMAX
 10
-1.0000000000000000E+20
 20
-1.0000000000000000E+20
 30
-1.0000000000000000E+20
  9
$PLIMMIN
 10
0.0
 20
0.0
  9
$PLIMMAX
 10
12.0
 20
9.0
  9
$UNITMODE
 70
               0
  9
$VISRETAIN
 70
               0
  9
$PLINEGEN
 70
               1
  9
$PSLTSCALE
 70
               0
  9
$TREEDEPTH
 70
            3020
  9
$DWGCODEPAGE
  3
dos932
  0
ENDSEC
  0
SECTION
  2
TABLES
  0
TABLE
  2
VPORT
 70
               1
  0
VPORT
  2
*ACTIVE
 70
               0
 10
0.0
 20
0.0
 11
1.0
 21
1.0
 12
55.200068399452704
 22
23.382352941176322
 13
0.0
 23
0.0
 14
1.0
 24
1.0
 15
0.0
 25
0.0
 16
0.0
 26
0.0
 36
1.0
 17
0.0
 27
0.0
 37
0.0
 40
1065.22
 41
0.9299792531120333
 42
50.0
 43
0.0
 44
0.0
 50
0.0
 51
0.0
 71
               0
 72
             100
 73
               1
 74
               1
 75
               0
 76
               0
 77
               0
 78
               0
  0
ENDTAB
  0
TABLE
  2
LTYPE
 70
              26
  0
LTYPE
  2
CONTINUOUS
 70
               0
  3
Solid line
 72
              65
 73
               0
 40
0.0
  0
LTYPE
  2
HIDDENX2
 70
               0
  3
CADPAC FUSION LINETYPE
 72
              65
 73
               2
 40
80.0
 49
60.0
 49
-20.0
  0
LTYPE
  2
HIDDEN
 70
               0
  3
CADPAC FUSION LINETYPE
 72
              65
 73
               2
 40
60.0
 49
40.0
 49
-20.0
  0
LTYPE
  2
HIDDEN2
 70
               0
  3
CADPAC FUSION LINETYPE
 72
              65
 73
               2
 40
50.0
 49
30.0
 49
-20.0
  0
LTYPE
  2
DASHED
 70
               0
  3
CADPAC FUSION LINETYPE
 72
              65
 73
               2
 40
60.0
 49
40.0
 49
-20.0
  0
LTYPE
  2
DASHED2
 70
               0
  3
CADPAC FUSION LINETYPE
 72
              65
 73
               2
 40
45.0
 49
30.0
 49
-15.0
  0
LTYPE
  2
DASHEDX2
 70
               0
  3
CADPAC FUSION LINETYPE
 72
              65
 73
               2
 40
90.0
 49
60.0
 49
-30.0
  0
LTYPE
  2
DOTX2
 70
               0
  3
CADPAC FUSION LINETYPE
 72
              65
 73
               2
 40
25.0
 49
0.0
 49
-25.0
  0
LTYPE
  2
DOT
 70
               0
  3
CADPAC FUSION LINETYPE
 72
              65
 73
               2
 40
20.0
 49
0.0
 49
-20.0
  0
LTYPE
  2
DOTS
 70
               0
  3
CADPAC FUSION LINETYPE
 72
              65
 73
               2
 40
20.0
 49
0.0
 49
-20.0
  0
LTYPE
  2
DOT2
 70
               0
  3
CADPAC FUSION LINETYPE
 72
              65
 73
               2
 40
15.0
 49
0.0
 49
-15.0
  0
LTYPE
  2
CENTERX2
 70
               0
  3
CADPAC FUSION LINETYPE
 72
              65
 73
               4
 40
120.0
 49
50.0
 49
-25.0
 49
20.0
 49
-25.0
  0
LTYPE
  2
CENTER
 70
               0
  3
CADPAC FUSION LINETYPE
 72
              65
 73
               4
 40
92.0
 49
40.0
 49
-20.0
 49
12.0
 49
-20.0
  0
LTYPE
  2
CENTER2
 70
               0
  3
CADPAC FUSION LINETYPE
 72
              65
 73
               4
 40
64.0
 49
30.0
 49
-15.0
 49
4.0
 49
-15.0
  0
LTYPE
  2
DASHDOTX2
 70
               0
  3
CADPAC FUSION LINETYPE
 72
              65
 73
               4
 40
100.0
 49
50.0
 49
-25.0
 49
0.0
 49
-25.0
  0
LTYPE
  2
DASHDOT
 70
               0
  3
CADPAC FUSION LINETYPE
 72
              65
 73
               4
 40
80.0
 49
40.0
 49
-20.0
 49
0.0
 49
-20.0
  0
LTYPE
  2
DASHDOT2
 70
               0
  3
CADPAC FUSION LINETYPE
 72
              65
 73
               4
 40
60.0
 49
30.0
 49
-15.0
 49
0.0
 49
-15.0
  0
LTYPE
  2
DIVIDEX2
 70
               0
  3
CADPAC FUSION LINETYPE
 72
              65
 73
               6
 40
125.0
 49
50.0
 49
-25.0
 49
0.0
 49
-25.0
 49
0.0
 49
-25.0
  0
LTYPE
  2
DIVIDE
 70
               0
  3
CADPAC FUSION LINETYPE
 72
              65
 73
               6
 40
100.0
 49
40.0
 49
-20.0
 49
0.0
 49
-20.0
 49
0.0
 49
-20.0
  0
LTYPE
  2
DIVIDE2
 70
               0
  3
CADPAC FUSION LINETYPE
 72
              65
 73
               6
 40
75.0
 49
30.0
 49
-15.0
 49
0.0
 49
-15.0
 49
0.0
 49
-15.0
  0
LTYPE
  2
BORDERX2
 70
               0
  3
CADPAC FUSION LINETYPE
 72
              65
 73
               6
 40
175.0
 49
50.0
 49
-25.0
 49
50.0
 49
-25.0
 49
0.0
 49
-25.0
  0
LTYPE
  2
BORDER
 70
               0
  3
CADPAC FUSION LINETYPE
 72
              65
 73
               6
 40
140.0
 49
40.0
 49
-20.0
 49
40.0
 49
-20.0
 49
0.0
 49
-20.0
  0
LTYPE
  2
BORDER2
 70
               0
  3
CADPAC FUSION LINETYPE
 72
              65
 73
               6
 40
105.0
 49
30.0
 49
-15.0
 49
30.0
 49
-15.0
 49
0.0
 49
-15.0
  0
LTYPE
  2
PHANTOMX2
 70
               0
  3
CADPAC FUSION LINETYPE
 72
              65
 73
               6
 40
150.0
 49
50.0
 49
-20.0
 49
20.0
 49
-20.0
 49
20.0
 49
-20.0
  0
LTYPE
  2
PHANTOM
 70
               0
  3
CADPAC FUSION LINETYPE
 72
              65
 73
               6
 40
124.0
 49
40.0
 49
-20.0
 49
12.0
 49
-20.0
 49
12.0
 49
-20.0
  0
LTYPE
  2
PHANTOM2
 70
               0
  3
CADPAC FUSION LINETYPE
 72
              65
 73
               6
 40
106.0
 49
30.0
 49
-20.0
 49
8.0
 49
-20.0
 49
8.0
 49
-20.0
  0
ENDTAB
  0
TABLE
  2
LAYER
 70
             256
  0
LAYER
  2
0
 70
               0
 62
               7
  6
CONTINUOUS
  0
LAYER
  2
LAYER001
 70
               0
 62
               7
  6
CONTINUOUS
  0
LAYER
  2
LAYER002
 70
               0
 62
               7
  6
CONTINUOUS
  0
LAYER
  2
LAYER003
 70
               0
 62
               7
  6
CONTINUOUS
  0
LAYER
  2
LAYER004
 70
               0
 62
               7
  6
CONTINUOUS
  0
LAYER
  2
LAYER005
 70
               0
 62
               7
  6
CONTINUOUS
  0
LAYER
  2
LAYER006
 70
               0
 62
               7
  6
CONTINUOUS
  0
LAYER
  2
LAYER007
 70
               0
 62
               7
  6
CONTINUOUS
  0
LAYER
  2
LAYER008
 70
               0
 62
               7
  6
CONTINUOUS
  0
LAYER
  2
LAYER009
 70
               0
 62
               7
  6
CONTINUOUS
  0
LAYER
  2
LAYER010
 70
               0
 62
               7
  6
CONTINUOUS
  0
LAYER
  2
LAYER011
 70
               0
 62
               7
  6
CONTINUOUS
  0
LAYER
  2
LAYER012
 70
               0
 62
               7
  6
CONTINUOUS
  0
LAYER
  2
LAYER013
 70
               0
 62
               7
  6
CONTINUOUS
  0
LAYER
  2
LAYER014
 70
               0
 62
               7
  6
CONTINUOUS
  0
LAYER
  2
LAYER015
 70
               0
 62
               7
  6
CONTINUOUS
  0
LAYER
  2
LAYER016
 70
               0
 62
               7
  6
CONTINUOUS
  0
LAYER
  2
LAYER017
 70
               0
 62
               7
  6
CONTINUOUS
  0
LAYER
  2
LAYER018
 70
               0
 62
               7
  6
CONTINUOUS
  0
LAYER
  2
LAYER019
 70
               0
 62
               7
  6
CONTINUOUS
  0
LAYER
  2
LAYER020
 70
               0
 62
               7
  6
CONTINUOUS
  0
LAYER
  2
LAYER021
 70
               0
 62
               7
  6
CONTINUOUS
  0
LAYER
  2
LAYER022
 70
               0
 62
               7
  6
CONTINUOUS
  0
LAYER
  2
LAYER023
 70
               0
 62
               7
  6
CONTINUOUS
  0
LAYER
  2
LAYER024
 70
               0
 62
               7
  6
CONTINUOUS
  0
LAYER
  2
LAYER025
 70
               0
 62
               7
  6
CONTINUOUS
  0
LAYER
  2
LAYER026
 70
               0
 62
               7
  6
CONTINUOUS
  0
LAYER
  2
LAYER027
 70
               0
 62
               7
  6
CONTINUOUS
  0
LAYER
  2
LAYER028
 70
               0
 62
               7
  6
CONTINUOUS
  0
LAYER
  2
LAYER029
 70
               0
 62
               7
  6
CONTINUOUS
  0
LAYER
  2
LAYER030
 70
               0
 62
               7
  6
CONTINUOUS
  0
LAYER
  2
LAYER031
 70
               0
 62
               7
  6
CONTINUOUS
  0
LAYER
  2
LAYER032
 70
               0
 62
               7
  6
CONTINUOUS
  0
LAYER
  2
LAYER033
 70
               0
 62
               7
  6
CONTINUOUS
  0
LAYER
  2
LAYER034
 70
               0
 62
               7
  6
CONTINUOUS
  0
LAYER
  2
LAYER035
 70
               0
 62
               7
  6
CONTINUOUS
  0
LAYER
  2
LAYER036
 70
               0
 62
               7
  6
CONTINUOUS
  0
LAYER
  2
LAYER037
 70
               0
 62
               7
  6
CONTINUOUS
  0
LAYER
  2
LAYER038
 70
               0
 62
               7
  6
CONTINUOUS
  0
LAYER
  2
LAYER039
 70
               0
 62
               7
  6
CONTINUOUS
  0
LAYER
  2
LAYER040
 70
               0
 62
               7
  6
CONTINUOUS
  0
LAYER
  2
LAYER041
 70
               0
 62
               7
  6
CONTINUOUS
  0
LAYER
  2
LAYER042
 70
               0
 62
               7
  6
CONTINUOUS
  0
LAYER
  2
LAYER043
 70
               0
 62
               7
  6
CONTINUOUS
  0
LAYER
  2
LAYER044
 70
               0
 62
               7
  6
CONTINUOUS
  0
LAYER
  2
LAYER045
 70
               0
 62
               7
  6
CONTINUOUS
  0
LAYER
  2
LAYER046
 70
               0
 62
               7
  6
CONTINUOUS
  0
LAYER
  2
LAYER047
 70
               0
 62
               7
  6
CONTINUOUS
  0
LAYER
  2
LAYER048
 70
               0
 62
               7
  6
CONTINUOUS
  0
LAYER
  2
LAYER049
 70
               0
 62
               7
  6
CONTINUOUS
  0
LAYER
  2
LAYER050
 70
               0
 62
               7
  6
CONTINUOUS
  0
LAYER
  2
LAYER051
 70
               0
 62
               7
  6
CONTINUOUS
  0
LAYER
  2
LAYER052
 70
               0
 62
               7
  6
CONTINUOUS
  0
LAYER
  2
LAYER053
 70
               0
 62
               7
  6
CONTINUOUS
  0
LAYER
  2
LAYER054
 70
               0
 62
               7
  6
CONTINUOUS
  0
LAYER
  2
LAYER055
 70
               0
 62
               7
  6
CONTINUOUS
  0
LAYER
  2
LAYER056
 70
               0
 62
               7
  6
CONTINUOUS
  0
LAYER
  2
LAYER057
 70
               0
 62
               7
  6
CONTINUOUS
  0
LAYER
  2
LAYER058
 70
               0
 62
               7
  6
CONTINUOUS
  0
LAYER
  2
LAYER059
 70
               0
 62
               7
  6
CONTINUOUS
  0
LAYER
  2
LAYER060
 70
               0
 62
               7
  6
CONTINUOUS
  0
LAYER
  2
LAYER061
 70
               0
 62
               7
  6
CONTINUOUS
  0
LAYER
  2
LAYER062
 70
               0
 62
               7
  6
CONTINUOUS
  0
LAYER
  2
LAYER063
 70
               0
 62
               7
  6
CONTINUOUS
  0
LAYER
  2
LAYER064
 70
               0
 62
               7
  6
CONTINUOUS
  0
LAYER
  2
LAYER065
 70
               0
 62
               7
  6
CONTINUOUS
  0
LAYER
  2
LAYER066
 70
               0
 62
               7
  6
CONTINUOUS
  0
LAYER
  2
LAYER067
 70
               0
 62
               7
  6
CONTINUOUS
  0
LAYER
  2
LAYER068
 70
               0
 62
               7
  6
CONTINUOUS
  0
LAYER
  2
LAYER069
 70
               0
 62
               7
  6
CONTINUOUS
  0
LAYER
  2
LAYER070
 70
               0
 62
               7
  6
CONTINUOUS
  0
LAYER
  2
LAYER071
 70
               0
 62
               7
  6
CONTINUOUS
  0
LAYER
  2
LAYER072
 70
               0
 62
               7
  6
CONTINUOUS
  0
LAYER
  2
LAYER073
 70
               0
 62
               7
  6
CONTINUOUS
  0
LAYER
  2
LAYER074
 70
               0
 62
               7
  6
CONTINUOUS
  0
LAYER
  2
LAYER075
 70
               0
 62
               7
  6
CONTINUOUS
  0
LAYER
  2
LAYER076
 70
               0
 62
               7
  6
CONTINUOUS
  0
LAYER
  2
LAYER077
 70
               0
 62
               7
  6
CONTINUOUS
  0
LAYER
  2
LAYER078
 70
               0
 62
               7
  6
CONTINUOUS
  0
LAYER
  2
LAYER079
 70
               0
 62
               7
  6
CONTINUOUS
  0
LAYER
  2
LAYER080
 70
               0
 62
               7
  6
CONTINUOUS
  0
LAYER
  2
LAYER081
 70
               0
 62
               7
  6
CONTINUOUS
  0
LAYER
  2
LAYER082
 70
               0
 62
               7
  6
CONTINUOUS
  0
LAYER
  2
LAYER083
 70
               0
 62
               7
  6
CONTINUOUS
  0
LAYER
  2
LAYER084
 70
               0
 62
               7
  6
CONTINUOUS
  0
LAYER
  2
LAYER085
 70
               0
 62
               7
  6
CONTINUOUS
  0
LAYER
  2
LAYER086
 70
               0
 62
               7
  6
CONTINUOUS
  0
LAYER
  2
LAYER087
 70
               0
 62
               7
  6
CONTINUOUS
  0
LAYER
  2
LAYER088
 70
               0
 62
               7
  6
CONTINUOUS
  0
LAYER
  2
LAYER089
 70
               0
 62
               7
  6
CONTINUOUS
  0
LAYER
  2
LAYER090
 70
               0
 62
               7
  6
CONTINUOUS
  0
LAYER
  2
LAYER091
 70
               0
 62
               7
  6
CONTINUOUS
  0
LAYER
  2
LAYER092
 70
               0
 62
               7
  6
CONTINUOUS
  0
LAYER
  2
LAYER093
 70
               0
 62
               7
  6
CONTINUOUS
  0
LAYER
  2
LAYER094
 70
               0
 62
               7
  6
CONTINUOUS
  0
LAYER
  2
LAYER095
 70
               0
 62
               7
  6
CONTINUOUS
  0
LAYER
  2
LAYER096
 70
               0
 62
               7
  6
CONTINUOUS
  0
LAYER
  2
LAYER097
 70
               0
 62
               7
  6
CONTINUOUS
  0
LAYER
  2
LAYER098
 70
               0
 62
               7
  6
CONTINUOUS
  0
LAYER
  2
LAYER099
 70
               0
 62
               7
  6
CONTINUOUS
  0
LAYER
  2
LAYER100
 70
               0
 62
               7
  6
CONTINUOUS
  0
LAYER
  2
LAYER101
 70
               0
 62
               7
  6
CONTINUOUS
  0
LAYER
  2
LAYER102
 70
               0
 62
               7
  6
CONTINUOUS
  0
LAYER
  2
LAYER103
 70
               0
 62
               7
  6
CONTINUOUS
  0
LAYER
  2
LAYER104
 70
               0
 62
               7
  6
CONTINUOUS
  0
LAYER
  2
LAYER105
 70
               0
 62
               7
  6
CONTINUOUS
  0
LAYER
  2
LAYER106
 70
               0
 62
               7
  6
CONTINUOUS
  0
LAYER
  2
LAYER107
 70
               0
 62
               7
  6
CONTINUOUS
  0
LAYER
  2
LAYER108
 70
               0
 62
               7
  6
CONTINUOUS
  0
LAYER
  2
LAYER109
 70
               0
 62
               7
  6
CONTINUOUS
  0
LAYER
  2
LAYER110
 70
               0
 62
               7
  6
CONTINUOUS
  0
LAYER
  2
LAYER111
 70
               0
 62
               7
  6
CONTINUOUS
  0
LAYER
  2
LAYER112
 70
               0
 62
               7
  6
CONTINUOUS
  0
LAYER
  2
LAYER113
 70
               0
 62
               7
  6
CONTINUOUS
  0
LAYER
  2
LAYER114
 70
               0
 62
               7
  6
CONTINUOUS
  0
LAYER
  2
LAYER115
 70
               0
 62
               7
  6
CONTINUOUS
  0
LAYER
  2
LAYER116
 70
               0
 62
               7
  6
CONTINUOUS
  0
LAYER
  2
LAYER117
 70
               0
 62
               7
  6
CONTINUOUS
  0
LAYER
  2
LAYER118
 70
               0
 62
               7
  6
CONTINUOUS
  0
LAYER
  2
LAYER119
 70
               0
 62
               7
  6
CONTINUOUS
  0
LAYER
  2
LAYER120
 70
               0
 62
               7
  6
CONTINUOUS
  0
LAYER
  2
LAYER121
 70
               0
 62
               7
  6
CONTINUOUS
  0
LAYER
  2
LAYER122
 70
               0
 62
               7
  6
CONTINUOUS
  0
LAYER
  2
LAYER123
 70
               0
 62
               7
  6
CONTINUOUS
  0
LAYER
  2
LAYER124
 70
               0
 62
               7
  6
CONTINUOUS
  0
LAYER
  2
LAYER125
 70
               0
 62
               7
  6
CONTINUOUS
  0
LAYER
  2
LAYER126
 70
               0
 62
               7
  6
CONTINUOUS
  0
LAYER
  2
LAYER127
 70
               0
 62
               7
  6
CONTINUOUS
  0
LAYER
  2
LAYER128
 70
               0
 62
               7
  6
CONTINUOUS
  0
LAYER
  2
LAYER129
 70
               0
 62
               7
  6
CONTINUOUS
  0
LAYER
  2
LAYER130
 70
               0
 62
               7
  6
CONTINUOUS
  0
LAYER
  2
LAYER131
 70
               0
 62
               7
  6
CONTINUOUS
  0
LAYER
  2
LAYER132
 70
               0
 62
               7
  6
CONTINUOUS
  0
LAYER
  2
LAYER133
 70
               0
 62
               7
  6
CONTINUOUS
  0
LAYER
  2
LAYER134
 70
               0
 62
               7
  6
CONTINUOUS
  0
LAYER
  2
LAYER135
 70
               0
 62
               7
  6
CONTINUOUS
  0
LAYER
  2
LAYER136
 70
               0
 62
               7
  6
CONTINUOUS
  0
LAYER
  2
LAYER137
 70
               0
 62
               7
  6
CONTINUOUS
  0
LAYER
  2
LAYER138
 70
               0
 62
               7
  6
CONTINUOUS
  0
LAYER
  2
LAYER139
 70
               0
 62
               7
  6
CONTINUOUS
  0
LAYER
  2
LAYER140
 70
               0
 62
               7
  6
CONTINUOUS
  0
LAYER
  2
LAYER141
 70
               0
 62
               7
  6
CONTINUOUS
  0
LAYER
  2
LAYER142
 70
               0
 62
               7
  6
CONTINUOUS
  0
LAYER
  2
LAYER143
 70
               0
 62
               7
  6
CONTINUOUS
  0
LAYER
  2
LAYER144
 70
               0
 62
               7
  6
CONTINUOUS
  0
LAYER
  2
LAYER145
 70
               0
 62
               7
  6
CONTINUOUS
  0
LAYER
  2
LAYER146
 70
               0
 62
               7
  6
CONTINUOUS
  0
LAYER
  2
LAYER147
 70
               0
 62
               7
  6
CONTINUOUS
  0
LAYER
  2
LAYER148
 70
               0
 62
               7
  6
CONTINUOUS
  0
LAYER
  2
LAYER149
 70
               0
 62
               7
  6
CONTINUOUS
  0
LAYER
  2
LAYER150
 70
               0
 62
               7
  6
CONTINUOUS
  0
LAYER
  2
LAYER151
 70
               0
 62
               7
  6
CONTINUOUS
  0
LAYER
  2
LAYER152
 70
               0
 62
               7
  6
CONTINUOUS
  0
LAYER
  2
LAYER153
 70
               0
 62
               7
  6
CONTINUOUS
  0
LAYER
  2
LAYER154
 70
               0
 62
               7
  6
CONTINUOUS
  0
LAYER
  2
LAYER155
 70
               0
 62
               7
  6
CONTINUOUS
  0
LAYER
  2
LAYER156
 70
               0
 62
               7
  6
CONTINUOUS
  0
LAYER
  2
LAYER157
 70
               0
 62
               7
  6
CONTINUOUS
  0
LAYER
  2
LAYER158
 70
               0
 62
               7
  6
CONTINUOUS
  0
LAYER
  2
LAYER159
 70
               0
 62
               7
  6
CONTINUOUS
  0
LAYER
  2
LAYER160
 70
               0
 62
               7
  6
CONTINUOUS
  0
LAYER
  2
LAYER161
 70
               0
 62
               7
  6
CONTINUOUS
  0
LAYER
  2
LAYER162
 70
               0
 62
               7
  6
CONTINUOUS
  0
LAYER
  2
LAYER163
 70
               0
 62
               7
  6
CONTINUOUS
  0
LAYER
  2
LAYER164
 70
               0
 62
               7
  6
CONTINUOUS
  0
LAYER
  2
LAYER165
 70
               0
 62
               7
  6
CONTINUOUS
  0
LAYER
  2
LAYER166
 70
               0
 62
               7
  6
CONTINUOUS
  0
LAYER
  2
LAYER167
 70
               0
 62
               7
  6
CONTINUOUS
  0
LAYER
  2
LAYER168
 70
               0
 62
               7
  6
CONTINUOUS
  0
LAYER
  2
LAYER169
 70
               0
 62
               7
  6
CONTINUOUS
  0
LAYER
  2
LAYER170
 70
               0
 62
               7
  6
CONTINUOUS
  0
LAYER
  2
LAYER171
 70
               0
 62
               7
  6
CONTINUOUS
  0
LAYER
  2
LAYER172
 70
               0
 62
               7
  6
CONTINUOUS
  0
LAYER
  2
LAYER173
 70
               0
 62
               7
  6
CONTINUOUS
  0
LAYER
  2
LAYER174
 70
               0
 62
               7
  6
CONTINUOUS
  0
LAYER
  2
LAYER175
 70
               0
 62
               7
  6
CONTINUOUS
  0
LAYER
  2
LAYER176
 70
               0
 62
               7
  6
CONTINUOUS
  0
LAYER
  2
LAYER177
 70
               0
 62
               7
  6
CONTINUOUS
  0
LAYER
  2
LAYER178
 70
               0
 62
               7
  6
CONTINUOUS
  0
LAYER
  2
LAYER179
 70
               0
 62
               7
  6
CONTINUOUS
  0
LAYER
  2
LAYER180
 70
               0
 62
               7
  6
CONTINUOUS
  0
LAYER
  2
LAYER181
 70
               0
 62
               7
  6
CONTINUOUS
  0
LAYER
  2
LAYER182
 70
               0
 62
               7
  6
CONTINUOUS
  0
LAYER
  2
LAYER183
 70
               0
 62
               7
  6
CONTINUOUS
  0
LAYER
  2
LAYER184
 70
               0
 62
               7
  6
CONTINUOUS
  0
LAYER
  2
LAYER185
 70
               0
 62
               7
  6
CONTINUOUS
  0
LAYER
  2
LAYER186
 70
               0
 62
               7
  6
CONTINUOUS
  0
LAYER
  2
LAYER187
 70
               0
 62
               7
  6
CONTINUOUS
  0
LAYER
  2
LAYER188
 70
               0
 62
               7
  6
CONTINUOUS
  0
LAYER
  2
LAYER189
 70
               0
 62
               7
  6
CONTINUOUS
  0
LAYER
  2
LAYER190
 70
               0
 62
               7
  6
CONTINUOUS
  0
LAYER
  2
LAYER191
 70
               0
 62
               7
  6
CONTINUOUS
  0
LAYER
  2
LAYER192
 70
               0
 62
               7
  6
CONTINUOUS
  0
LAYER
  2
LAYER193
 70
               0
 62
               7
  6
CONTINUOUS
  0
LAYER
  2
LAYER194
 70
               0
 62
               7
  6
CONTINUOUS
  0
LAYER
  2
LAYER195
 70
               0
 62
               7
  6
CONTINUOUS
  0
LAYER
  2
LAYER196
 70
               0
 62
               7
  6
CONTINUOUS
  0
LAYER
  2
LAYER197
 70
               0
 62
               7
  6
CONTINUOUS
  0
LAYER
  2
LAYER198
 70
               0
 62
               7
  6
CONTINUOUS
  0
LAYER
  2
LAYER199
 70
               0
 62
               7
  6
CONTINUOUS
  0
LAYER
  2
LAYER200
 70
               0
 62
               7
  6
CONTINUOUS
  0
LAYER
  2
LAYER201
 70
               0
 62
               7
  6
CONTINUOUS
  0
LAYER
  2
LAYER202
 70
               0
 62
               7
  6
CONTINUOUS
  0
LAYER
  2
LAYER203
 70
               0
 62
               7
  6
CONTINUOUS
  0
LAYER
  2
LAYER204
 70
               0
 62
               7
  6
CONTINUOUS
  0
LAYER
  2
LAYER205
 70
               0
 62
               7
  6
CONTINUOUS
  0
LAYER
  2
LAYER206
 70
               0
 62
               7
  6
CONTINUOUS
  0
LAYER
  2
LAYER207
 70
               0
 62
               7
  6
CONTINUOUS
  0
LAYER
  2
LAYER208
 70
               0
 62
               7
  6
CONTINUOUS
  0
LAYER
  2
LAYER209
 70
               0
 62
               7
  6
CONTINUOUS
  0
LAYER
  2
LAYER210
 70
               0
 62
               7
  6
CONTINUOUS
  0
LAYER
  2
LAYER211
 70
               0
 62
               7
  6
CONTINUOUS
  0
LAYER
  2
LAYER212
 70
               0
 62
               7
  6
CONTINUOUS
  0
LAYER
  2
LAYER213
 70
               0
 62
               7
  6
CONTINUOUS
  0
LAYER
  2
LAYER214
 70
               0
 62
               7
  6
CONTINUOUS
  0
LAYER
  2
LAYER215
 70
               0
 62
               7
  6
CONTINUOUS
  0
LAYER
  2
LAYER216
 70
               0
 62
               7
  6
CONTINUOUS
  0
LAYER
  2
LAYER217
 70
               0
 62
               7
  6
CONTINUOUS
  0
LAYER
  2
LAYER218
 70
               0
 62
               7
  6
CONTINUOUS
  0
LAYER
  2
LAYER219
 70
               0
 62
               7
  6
CONTINUOUS
  0
LAYER
  2
LAYER220
 70
               0
 62
               7
  6
CONTINUOUS
  0
LAYER
  2
LAYER221
 70
               0
 62
               7
  6
CONTINUOUS
  0
LAYER
  2
LAYER222
 70
               0
 62
               7
  6
CONTINUOUS
  0
LAYER
  2
LAYER223
 70
               0
 62
               7
  6
CONTINUOUS
  0
LAYER
  2
LAYER224
 70
               0
 62
               7
  6
CONTINUOUS
  0
LAYER
  2
LAYER225
 70
               0
 62
               7
  6
CONTINUOUS
  0
LAYER
  2
LAYER226
 70
               0
 62
               7
  6
CONTINUOUS
  0
LAYER
  2
LAYER227
 70
               0
 62
               7
  6
CONTINUOUS
  0
LAYER
  2
LAYER228
 70
               0
 62
               7
  6
CONTINUOUS
  0
LAYER
  2
LAYER229
 70
               0
 62
               7
  6
CONTINUOUS
  0
LAYER
  2
LAYER230
 70
               0
 62
               7
  6
CONTINUOUS
  0
LAYER
  2
LAYER231
 70
               0
 62
               7
  6
CONTINUOUS
  0
LAYER
  2
LAYER232
 70
               0
 62
               7
  6
CONTINUOUS
  0
LAYER
  2
LAYER233
 70
               0
 62
               7
  6
CONTINUOUS
  0
LAYER
  2
LAYER234
 70
               0
 62
               7
  6
CONTINUOUS
  0
LAYER
  2
LAYER235
 70
               0
 62
               7
  6
CONTINUOUS
  0
LAYER
  2
LAYER236
 70
               0
 62
               7
  6
CONTINUOUS
  0
LAYER
  2
LAYER237
 70
               0
 62
               7
  6
CONTINUOUS
  0
LAYER
  2
LAYER238
 70
               0
 62
               7
  6
CONTINUOUS
  0
LAYER
  2
LAYER239
 70
               0
 62
               7
  6
CONTINUOUS
  0
LAYER
  2
LAYER240
 70
               0
 62
               7
  6
CONTINUOUS
  0
LAYER
  2
LAYER241
 70
               0
 62
               7
  6
CONTINUOUS
  0
LAYER
  2
LAYER242
 70
               0
 62
               7
  6
CONTINUOUS
  0
LAYER
  2
LAYER243
 70
               0
 62
               7
  6
CONTINUOUS
  0
LAYER
  2
LAYER244
 70
               0
 62
               7
  6
CONTINUOUS
  0
LAYER
  2
LAYER245
 70
               0
 62
               7
  6
CONTINUOUS
  0
LAYER
  2
LAYER246
 70
               0
 62
               7
  6
CONTINUOUS
  0
LAYER
  2
LAYER247
 70
               0
 62
               7
  6
CONTINUOUS
  0
LAYER
  2
LAYER248
 70
               0
 62
               7
  6
CONTINUOUS
  0
LAYER
  2
LAYER249
 70
               0
 62
               7
  6
CONTINUOUS
  0
LAYER
  2
LAYER250
 70
               0
 62
               7
  6
CONTINUOUS
  0
LAYER
  2
LAYER251
 70
               0
 62
               7
  6
CONTINUOUS
  0
LAYER
  2
LAYER252
 70
               0
 62
               7
  6
CONTINUOUS
  0
LAYER
  2
LAYER253
 70
               0
 62
               7
  6
CONTINUOUS
  0
LAYER
  2
LAYER254
 70
               0
 62
               7
  6
CONTINUOUS
  0
LAYER
  2
LAYER255
 70
               0
 62
               7
  6
CONTINUOUS
  0
ENDTAB
  0
TABLE
  2
STYLE
 70
               1
  0
STYLE
  2
STANDARD
 70
               0
 40
0.0
 41
1.0
 50
0.0
 71
               0
 42
0.0
  3
txt
  4

  0
ENDTAB
  0
TABLE
  2
VIEW
 70
               0
  0
VIEW
  2
QQQQ
 70
               0
 40
1065.22
 10
55.200068399452704
 20
23.382352941176322
 41
990.63250000000016
 11
0.0
 21
0.0
 31
1.0
 12
100.0
 22
100.0
 32
0.0
 42
50.0
 43
0.0
 44
0.0
 50
0.0
 71
               0
  0
ENDTAB
  0
TABLE
  2
UCS
 70
               0
  0
ENDTAB
  0
TABLE
  2
APPID
 70
               1
  0
APPID
  2
ACAD
 70
               0
  0
ENDTAB
  0
TABLE
  2
DIMSTYLE
 70
               1
  0
DIMSTYLE
  2
STANDARD
 70
               0
  3

  4

  5

  6

  7

 40
1.0
 41
0.18
 42
0.0625
 43
0.38
 44
0.18
 45
0.0
 46
0.0
 47
0.0
 48
0.0
140
0.18
141
0.09
142
0.0
143
25.399999999999999
144
1.0
145
0.0
146
1.0
147
0.09
 71
               0
 72
               0
 73
               1
 74
               1
 75
               0
 76
               0
 77
               0
 78
               0
170
               0
171
               2
172
               0
173
               0
174
               0
175
               0
176
               0
177
               0
178
               0
  0
ENDTAB
  0
ENDSEC
  0
SECTION
  2
BLOCKS
  0
ENDSEC
  0
SECTION
  2
ENTITIES
  0
ARC
  8
0
  6
CONTINUOUS
 62
               3
  5
136
 10
391.95006839945273
 20
-344.11764705882376
 30
0.0
 40
90.0
 50
302.88320949568157
 51
359.99999999986164
  0
ARC
  8
0
  6
CONTINUOUS
 62
               3
  5
137
 10
391.95006839945273
 20
-434.61764705882371
 30
0.0
 40
14.0
 50
237.11679050411198
 51
302.88320949568163
  0
LINE
  8
0
  6
CONTINUOUS
 62
               3
  5
138
 10
384.34907113011928
 20
-446.3745531361717
 30
0.0
 11
343.08651452516568
 21
-419.69775755606122
 31
0.0
  0
LINE
  8
0
  6
CONTINUOUS
 62
               3
  5
139
 10
399.55106566878635
 20
-446.3745531361717
 30
0.0
 11
440.81362227373984
 21
-419.69775755606133
 31
0.0
  0
ARC
  8
0
  6
CONTINUOUS
 62
               3
  5
13A
 10
470.32536744194442
 20
-298.86764705882371
 30
0.0
 40
14.0
 50
357.11679050406616
 51
422.88320949563501
  0
LINE
  8
0
  6
CONTINUOUS
 62
               3
  5
13B
 10
484.30764540950219
 20
-299.57185074948882
 30
0.0
 11
481.83614104803894
 21
-348.64467078452719
 31
0.0
  0
LINE
  8
0
  6
CONTINUOUS
 62
               3
  5
13C
 10
476.70664814016868
 20
-286.40653729081077
 30
0.0
 11
432.97258717375183
 21
-264.01051283588288
 31
0.0
  0
ARC
  8
0
  6
CONTINUOUS
 62
               3
  5
13D
 10
313.5747693569611
 20
-298.86764705882371
 30
0.0
 40
14.0
 50
117.11679050415775
 51
182.88320949572741
  0
LINE
  8
0
  6
CONTINUOUS
 62
               3
  5
13E
 10
307.19348865873678
 20
-286.4065372908106
 30
0.0
 11
350.9275496251538
 21
-264.01051283588288
 31
0.0
  0
LINE
  8
0
  6
CONTINUOUS
 62
               3
  5
13F
 10
299.59249138940316
 20
-299.57185074948865
 30
0.0
 11
302.06399575086658
 21
-348.64467078452702
 31
0.0
  0
ARC
  8
0
  6
CONTINUOUS
 62
               3
  5
140
 10
391.95006839945273
 20
-344.11764705882376
 30
0.0
 40
90.0
 50
179.99999999993119
 51
237.11679050411189
  0
ARC
  8
0
  6
CONTINUOUS
 62
               3
  5
141
 10
391.95006839945273
 20
-344.11764705882376
 30
0.0
 40
90.0
 50
62.883209495773364
 51
117.11679050415775
  0
CIRCLE
  8
0
  6
CONTINUOUS
 62
               3
  5
142
 10
391.95006839945273
 20
-344.11764705882376
 30
0.0
 40
71.5
  0
LINE
  8
0
  6
CONTINUOUS
 62
               3
  5
143
 10
322.45006839945273
 20
-249.11764705882374
 30
0.0
 11
322.45006839945273
 21
-175.11764705882371
 31
0.0
  0
LINE
  8
0
  6
CONTINUOUS
 62
               3
  5
144
 10
461.45006839945279
 20
-249.11764705882388
 30
0.0
 11
461.45006839945279
 21
-175.11764705882382
 31
0.0
  0
LINE
  8
0
  6
CONTINUOUS
 62
               3
  5
145
 10
322.45006839945273
 20
-175.11764705882382
 30
0.0
 11
461.45006839945279
 21
-175.11764705882382
 31
0.0
  0
LINE
  8
0
  6
CONTINUOUS
 62
               3
  5
146
 10
322.42541944614595
 20
-170.11764705882382
 30
0.0
 11
461.45006839945279
 21
-170.11764705882382
 31
0.0
  0
ARC
  8
0
  6
CONTINUOUS
 62
               3
  5
147
 10
461.45006839945279
 20
-172.61764705882382
 30
0.0
 40
2.5
 50
269.99999999989683
 51
449.99999999982737
  0
ARC
  8
0
  6
CONTINUOUS
 62
               3
  5
148
 10
322.45006839945273
 20
-172.61764705882371
 30
0.0
 40
2.5
 50
89.999999999965596
 51
269.99999999989711
  0
CIRCLE
  8
0
  6
CONTINUOUS
 62
               3
  5
149
 10
313.5747693569611
 20
-298.86764705882371
 30
0.0
 40
9.0
  0
CIRCLE
  8
0
  6
CONTINUOUS
 62
               3
  5
14A
 10
470.32536744194442
 20
-298.86764705882371
 30
0.0
 40
9.0
  0
CIRCLE
  8
0
  6
CONTINUOUS
 62
               3
  5
14B
 10
391.95006839945273
 20
-434.61764705882371
 30
0.0
 40
9.0
  0
LINE
  8
0
  6
CONTINUOUS
 62
               3
  5
14C
 10
445.95006839945268
 20
-249.11764705882388
 30
0.0
 11
483.45006839945268
 21
-249.11764705882388
 31
0.0
  0
LINE
  8
0
  6
CONTINUOUS
 62
               3
  5
14D
 10
482.34108956350178
 20
-339.11764705882388
 30
0.0
 11
483.45006839945268
 21
-339.11764705882388
 31
0.0
  0
LINE
  8
0
  6
CONTINUOUS
 62
               3
  5
14E
 10
337.95006839945256
 20
-249.11764705882374
 30
0.0
 11
300.45006839945285
 21
-249.11764705882374
 31
0.0
  0
LINE
  8
0
  6
CONTINUOUS
 62
               3
  5
14F
 10
301.55904723540397
 20
-339.11764705882371
 30
0.0
 11
300.45006839945285
 21
-339.11764705882371
 31
0.0
  0
LINE
  8
0
  6
CONTINUOUS
 62
               3
  5
150
 10
300.45006839945285
 20
-249.11764705882374
 30
0.0
 11
300.45006839945285
 21
-294.49400165234516
 31
0.0
  0
LINE
  8
0
  6
CONTINUOUS
 62
               3
  5
151
 10
300.45006839945285
 20
-316.59942429398029
 30
0.0
 11
300.45006839945285
 21
-339.11764705882371
 31
0.0
  0
LINE
  8
0
  6
CONTINUOUS
 62
               3
  5
152
 10
483.45006839945268
 20
-249.11764705882388
 30
0.0
 11
483.45006839945268
 21
-294.49400165234533
 31
0.0
  0
LINE
  8
0
  6
CONTINUOUS
 62
               3
  5
153
 10
483.45006839945268
 20
-317.09837827345348
 30
0.0
 11
483.45006839945268
 21
-339.11764705882388
 31
0.0
  0
LINE
  8
0
  6
CONTINUOUS
 62
               3
  5
154
 10
292.4500683994529
 20
-249.11764705882374
 30
0.0
 11
280.45006839945273
 21
-249.11764705882374
 31
0.0
  0
LINE
  8
0
  6
CONTINUOUS
 62
               3
  5
155
 10
292.4500683994529
 20
-339.11764705882371
 30
0.0
 11
280.45006839945273
 21
-339.11764705882371
 31
0.0
  0
LINE
  8
0
  6
CONTINUOUS
 62
               3
  5
156
 10
292.4500683994529
 20
-249.11764705882374
 30
0.0
 11
292.4500683994529
 21
-339.11764705882263
 31
0.0
  0
LINE
  8
0
  6
CONTINUOUS
 62
               3
  5
157
 10
280.45006839945273
 20
-249.11764705882374
 30
0.0
 11
280.45006839945273
 21
-339.11764705882371
 31
0.0
  0
LINE
  8
0
  6
CONTINUOUS
 62
               3
  5
158
 10
292.4500683994529
 20
-256.41422929713025
 30
0.0
 11
300.45006839945285
 21
-256.41422929713025
 31
0.0
  0
LINE
  8
0
  6
CONTINUOUS
 62
               3
  5
159
 10
292.4500683994529
 20
-332.41422929713019
 30
0.0
 11
300.45006839945285
 21
-332.41422929713019
 31
0.0
  0
LINE
  8
0
  6
CONTINUOUS
 62
               3
  5
15A
 10
491.45006839945256
 20
-249.11764705882388
 30
0.0
 11
503.45006839945279
 21
-249.11764705882388
 31
0.0
  0
LINE
  8
0
  6
CONTINUOUS
 62
               3
  5
15B
 10
491.45006839945256
 20
-339.11764705882399
 30
0.0
 11
503.45006839945279
 21
-339.11764705882399
 31
0.0
  0
LINE
  8
0
  6
CONTINUOUS
 62
               3
  5
15C
 10
491.45006839945256
 20
-249.11764705882388
 30
0.0
 11
491.45006839945256
 21
-339.11764705882274
 31
0.0
  0
LINE
  8
0
  6
CONTINUOUS
 62
               3
  5
15D
 10
503.45006839945279
 20
-249.11764705882388
 30
0.0
 11
503.45006839945279
 21
-339.11764705882399
 31
0.0
  0
LINE
  8
0
  6
CONTINUOUS
 62
               3
  5
15E
 10
491.45006839945256
 20
-256.41422929713042
 30
0.0
 11
483.45006839945268
 21
-256.41422929713042
 31
0.0
  0
LINE
  8
0
  6
CONTINUOUS
 62
               3
  5
15F
 10
491.45006839945256
 20
-332.41422929713036
 30
0.0
 11
483.45006839945268
 21
-332.41422929713036
 31
0.0
  0
ARC
  8
0
  6
CONTINUOUS
 62
               3
  5
160
 10
445.95006839945268
 20
-259.11764705882388
 30
0.0
 40
9.9999999999999982
 50
89.999999999965638
 51
227.05860015875734
  0
ARC
  8
0
  6
CONTINUOUS
 62
               3
  5
161
 10
391.4500683994525
 20
-317.68171454051452
 30
0.0
 40
69.999999999999986
 50
45.214259710681596
 51
47.058600158826749
  0
ARC
  8
0
  6
CONTINUOUS
 62
               3
  5
162
 10
337.95006839945256
 20
-259.11764705882388
 30
0.0
 40
9.9999999999999982
 50
312.94139984103629
 51
449.99999999982725
  0
ARC
  8
0
  6
CONTINUOUS
 62
               3
  5
163
 10
392.45006839945273
 20
-317.68171454051452
 30
0.0
 40
69.999999999999986
 50
132.94139984110447
 51
134.78574028924999
  0
LINE
  8
0
  6
CONTINUOUS
 62
               3
  5
164
 10
325.45006839945347
 20
-129.11764705882359
 30
0.0
 11
325.45006839945211
 21
-143.11764705882359
 31
0.0
  0
LINE
  8
0
  6
CONTINUOUS
 62
               3
  5
165
 10
325.45006839945347
 20
-129.11764705882359
 30
0.0
 11
458.45006839945199
 21
-129.11764705882359
 31
0.0
  0
LINE
  8
0
  6
CONTINUOUS
 62
               3
  5
166
 10
458.45006839945199
 20
-129.11764705882359
 30
0.0
 11
458.45006839945324
 21
-143.11764705882359
 31
0.0
  0
LINE
  8
0
  6
CONTINUOUS
 62
               3
  5
167
 10
458.45006839945268
 20
-120.11764705882371
 30
0.0
 11
325.45006839945268
 21
-120.11764705882371
 31
0.0
  0
LINE
  8
0
  6
CONTINUOUS
 62
               3
  5
168
 10
458.45006839945268
 20
-106.11764705882359
 30
0.0
 11
325.45006839945268
 21
-106.11764705882359
 31
0.0
  0
LINE
  8
0
  6
CONTINUOUS
 62
               3
  5
169
 10
458.45006839945268
 20
-120.11764705882371
 30
0.0
 11
458.45006839945268
 21
-106.11764705882359
 31
0.0
  0
LINE
  8
0
  6
CONTINUOUS
 62
               3
  5
16A
 10
325.45006839945268
 20
-106.11764705882359
 30
0.0
 11
325.45006839945268
 21
-120.11764705882371
 31
0.0
  0
ARC
  8
0
  6
CONTINUOUS
 62
               3
  5
16B
 10
334.45114166323532
 20
-175.81491841339673
 30
0.0
 40
13.0
 50
109.45209668776734
 51
154.65041294894053
  0
ARC
  8
0
  6
CONTINUOUS
 62
               3
  5
16C
 10
447.45006873329868
 20
-175.10894171025151
 30
0.0
 40
13.0
 50
22.578306246695103
 51
70.547903312163669
  0
LINE
  8
0
  6
CONTINUOUS
 62
               3
  5
16D
 10
330.12189950058979
 20
-163.55695519362934
 30
0.0
 11
337.61516153893109
 21
-160.91050036499792
 31
0.0
  0
ARC
  8
0
  6
CONTINUOUS
 62
               3
  5
16E
 10
335.95006839945239
 20
-156.1958991266257
 30
0.0
 40
4.9999999999999991
 50
289.45209668769854
 51
359.99999999986176
  0
LINE
  8
0
  6
CONTINUOUS
 62
               3
  5
16F
 10
451.77931089594421
 20
-162.85097849048412
 30
0.0
 11
446.28497525997358
 21
-160.91050036499792
 31
0.0
  0
ARC
  8
0
  6
CONTINUOUS
 62
               3
  5
170
 10
447.95006839945228
 20
-156.19589912662593
 30
0.0
 40
4.9999999999999991
 50
179.99999999993119
 51
250.54790331209497
  0
LINE
  8
0
  6
CONTINUOUS
 62
               3
  5
171
 10
325.45006839945211
 20
-143.11764705882359
 30
0.0
 11
458.45006839945324
 21
-143.11764705882359
 31
0.0
  0
LINE
  8
0
  6
CONTINUOUS
 62
               3
  5
172
 10
340.95006839945239
 20
-156.1958991266257
 30
0.0
 11
340.95006839945239
 21
-143.11764705882359
 31
0.0
  0
LINE
  8
0
  6
CONTINUOUS
 62
               3
  5
173
 10
442.95006839945228
 20
-156.19589912662593
 30
0.0
 11
442.95006839945222
 21
-143.11764705882359
 31
0.0
  0
LINE
  8
0
  6
CONTINUOUS
 62
               3
  5
174
 10
340.95006839945273
 20
-129.11764705882359
 30
0.0
 11
340.95006839945273
 21
-120.11764705882371
 31
0.0
  0
LINE
  8
0
  6
CONTINUOUS
 62
               3
  5
175
 10
442.95006839945279
 20
-120.11764705882371
 30
0.0
 11
442.95006839945279
 21
-129.11764705882359
 31
0.0
  0
LINE
  8
0
  6
CONTINUOUS
 62
               3
  5
176
 10
-213.5499316005463
 20
463.38235294117624
 30
0.0
 11
-134.04993160054715
 21
463.38235294117624
 31
0.0
  0
LINE
  8
0
  6
CONTINUOUS
 62
               3
  5
177
 10
-213.54993160054801
 20
324.38235294117646
 30
0.0
 11
-134.04993160054715
 21
324.38235294117646
 31
0.0
  0
LINE
  8
0
  6
CONTINUOUS
 62
               3
  5
178
 10
-93.049931600547097
 20
486.38235294117635
 30
0.0
 11
-93.049931600547097
 21
301.38235294117635
 31
0.0
  0
LINE
  8
0
  6
CONTINUOUS
 62
               3
  5
179
 10
-111.04993160054721
 20
486.38235294117635
 30
0.0
 11
-111.04993160054721
 21
301.38235294117635
 31
0.0
  0
LINE
  8
0
  6
CONTINUOUS
 62
               3
  5
17A
 10
-134.04993160054715
 20
316.38235294117635
 30
0.0
 11
-111.04993160054721
 21
316.38235294117635
 31
0.0
  0
LINE
  8
0
  6
CONTINUOUS
 62
               3
  5
17B
 10
-134.04993160054715
 20
471.38235294117635
 30
0.0
 11
-111.04993160054721
 21
471.38235294117635
 31
0.0
  0
LINE
  8
0
  6
CONTINUOUS
 62
               3
  5
17C
 10
-79.049931600547097
 20
486.38235294117635
 30
0.0
 11
-79.049931600547097
 21
301.38235294117635
 31
0.0
  0
LINE
  8
0
  6
CONTINUOUS
 62
               3
  5
17D
 10
-303.54993160054755
 20
485.38235294117646
 30
0.0
 11
-213.54993160054698
 21
485.38235294117646
 31
0.0
  0
LINE
  8
0
  6
CONTINUOUS
 62
               3
  5
17E
 10
-303.54993160054698
 20
485.38235294117646
 30
0.0
 11
-303.54993160054698
 21
465.74159034319734
 31
0.0
  0
LINE
  8
0
  6
CONTINUOUS
 62
               3
  5
17F
 10
-213.54993160054732
 20
485.38235294117646
 30
0.0
 11
-213.54993160054732
 21
447.88235294117646
 31
0.0
  0
ARC
  8
0
  6
CONTINUOUS
 62
               3
  5
180
 10
-223.54993160054732
 20
447.88235294117646
 30
0.0
 40
9.9999999999999982
 50
222.94139984107002
 51
359.99999999986164
  0
ARC
  8
0
  6
CONTINUOUS
 62
               3
  5
181
 10
-282.11399908223768
 20
393.38235294117635
 30
0.0
 40
69.999999999999986
 50
42.941399841138988
 51
95.043218999198743
  0
LINE
  8
0
  6
CONTINUOUS
 62
               3
  5
182
 10
-303.54993160054755
 20
302.38235294117624
 30
0.0
 11
-213.54993160054698
 21
302.38235294117624
 31
0.0
  0
LINE
  8
0
  6
CONTINUOUS
 62
               3
  5
183
 10
-303.54993160054698
 20
302.38235294117624
 30
0.0
 11
-303.54993160054698
 21
322.02311553915547
 31
0.0
  0
LINE
  8
0
  6
CONTINUOUS
 62
               3
  5
184
 10
-213.54993160054732
 20
302.38235294117624
 30
0.0
 11
-213.54993160054732
 21
339.88235294117624
 31
0.0
  0
ARC
  8
0
  6
CONTINUOUS
 62
               3
  5
185
 10
-223.54993160054732
 20
339.88235294117624
 30
0.0
 40
9.9999999999999982
 50
0.0
 51
137.05860015879227
  0
ARC
  8
0
  6
CONTINUOUS
 62
               3
  5
186
 10
-282.11399908223768
 20
394.38235294117635
 30
0.0
 40
69.999999999999986
 50
264.95678100066334
 51
317.05860015872349
  0
LINE
  8
0
  6
CONTINUOUS
 62
               3
  5
187
 10
-303.54993160054755
 20
493.38235294117646
 30
0.0
 11
-213.54993160054698
 21
493.38235294117646
 31
0.0
  0
LINE
  8
0
  6
CONTINUOUS
 62
               3
  5
188
 10
-303.54993160054755
 20
505.38235294117635
 30
0.0
 11
-213.54993160054698
 21
505.38235294117635
 31
0.0
  0
LINE
  8
0
  6
CONTINUOUS
 62
               3
  5
189
 10
-303.54993160054755
 20
493.38235294117624
 30
0.0
 11
-303.54993160054755
 21
505.38235294117635
 31
0.0
  0
LINE
  8
0
  6
CONTINUOUS
 62
               3
  5
18A
 10
-213.54993160054698
 20
493.38235294117624
 30
0.0
 11
-213.54993160054698
 21
505.38235294117635
 31
0.0
  0
LINE
  8
0
  6
CONTINUOUS
 62
               3
  5
18B
 10
-296.55097762107346
 20
493.38235294117646
 30
0.0
 11
-296.55097762107346
 21
485.38235294117646
 31
0.0
  0
LINE
  8
0
  6
CONTINUOUS
 62
               3
  5
18C
 10
-220.55097762107323
 20
493.38235294117646
 30
0.0
 11
-220.55097762107323
 21
485.38235294117646
 31
0.0
  0
LINE
  8
0
  6
CONTINUOUS
 62
               3
  5
18D
 10
-303.54993160054755
 20
294.38235294117635
 30
0.0
 11
-213.54993160054698
 21
294.38235294117635
 31
0.0
  0
LINE
  8
0
  6
CONTINUOUS
 62
               3
  5
18E
 10
-303.54993160054755
 20
282.38235294117635
 30
0.0
 11
-213.54993160054698
 21
282.38235294117635
 31
0.0
  0
LINE
  8
0
  6
CONTINUOUS
 62
               3
  5
18F
 10
-303.54993160054755
 20
294.38235294117669
 30
0.0
 11
-303.54993160054755
 21
282.38235294117669
 31
0.0
  0
LINE
  8
0
  6
CONTINUOUS
 62
               3
  5
190
 10
-213.54993160054698
 20
294.38235294117669
 30
0.0
 11
-213.54993160054698
 21
282.38235294117669
 31
0.0
  0
LINE
  8
0
  6
CONTINUOUS
 62
               3
  5
191
 10
-296.55097762107346
 20
294.38235294117635
 30
0.0
 11
-296.55097762107346
 21
302.38235294117624
 31
0.0
  0
LINE
  8
0
  6
CONTINUOUS
 62
               3
  5
192
 10
-220.55097762107323
 20
294.38235294117635
 30
0.0
 11
-220.55097762107323
 21
302.38235294117624
 31
0.0
  0
CIRCLE
  8
0
  6
CONTINUOUS
 62
               3
  5
193
 10
-308.04993160054721
 20
393.88235294117646
 30
0.0
 40
46.0
  0
ARC
  8
0
  6
CONTINUOUS
 62
               3
  5
194
 10
-308.04993160054721
 20
393.88235294117646
 30
0.0
 40
61.999999999999993
 50
217.47199518273075
 51
262.52800481708579
  0
ARC
  8
0
  6
CONTINUOUS
 62
               3
  5
195
 10
-371.04993160054732
 20
393.88235294117646
 30
0.0
 40
12.0
 50
142.52800481713089
 51
217.47199518273098
  0
LINE
  8
0
  6
CONTINUOUS
 62
               3
  5
196
 10
-380.57374112435662
 20
401.18283594945717
 30
0.0
 11
-357.25628080689614
 21
431.60151515062671
 31
0.0
  0
LINE
  8
0
  6
CONTINUOUS
 62
               3
  5
197
 10
-380.57374112435662
 20
386.58186993289587
 30
0.0
 11
-357.25628080689614
 21
356.16319073172622
 31
0.0
  0
ARC
  8
0
  6
CONTINUOUS
 62
               3
  5
198
 10
-276.5499316005471
 20
339.32275250275688
 30
0.0
 40
12.0
 50
262.52800481708562
 51
337.47199518268434
  0
LINE
  8
0
  6
CONTINUOUS
 62
               3
  5
199
 10
-278.11043058371013
 20
327.42465001019332
 30
0.0
 11
-316.11250968022262
 21
332.40882339626478
 31
0.0
  0
LINE
  8
0
  6
CONTINUOUS
 62
               3
  5
19A
 10
-265.46562309357478
 20
334.72513301847391
 30
0.0
 11
-250.78100431452265
 21
370.12798560571503
 31
0.0
  0
ARC
  8
0
  6
CONTINUOUS
 62
               3
  5
19B
 10
-276.5499316005471
 20
448.44195337959616
 30
0.0
 40
12.0
 50
22.528004817177461
 51
97.471995182776709
  0
LINE
  8
0
  6
CONTINUOUS
 62
               3
  5
19C
 10
-265.46562309357478
 20
453.0395728638789
 30
0.0
 11
-250.78100431452265
 21
417.6367202766379
 31
0.0
  0
LINE
  8
0
  6
CONTINUOUS
 62
               3
  5
19D
 10
-278.11043058371013
 20
460.34005587215961
 30
0.0
 11
-316.11250968022262
 21
455.35588248608815
 31
0.0
  0
ARC
  8
0
  6
CONTINUOUS
 62
               3
  5
19E
 10
-308.04993160054721
 20
393.88235294117646
 30
0.0
 40
61.999999999999993
 50
337.47199518268491
 51
382.52800481703912
  0
ARC
  8
0
  6
CONTINUOUS
 62
               3
  5
19F
 10
-308.04993160054721
 20
393.88235294117646
 30
0.0
 40
61.999999999999993
 50
97.471995182776666
 51
142.5280048171316
  0
CIRCLE
  8
0
  6
CONTINUOUS
 62
               3
  5
1A0
 10
-371.04993160054732
 20
393.88235294117646
 30
0.0
 40
8.2666666666666657
  0
CIRCLE
  8
0
  6
CONTINUOUS
 62
               3
  5
1A1
 10
-276.5499316005471
 20
448.44195337959616
 30
0.0
 40
8.2666666666666657
  0
CIRCLE
  8
0
  6
CONTINUOUS
 62
               3
  5
1A2
 10
-276.5499316005471
 20
339.32275250275688
 30
0.0
 40
8.2666666666666657
  0
ARC
  8
0
  6
CONTINUOUS
 62
               3
  5
1A3
 10
-308.04993160054721
 20
393.88235294117646
 30
0.0
 40
69.5
 50
190.6085916708239
 51
289.39140832899244
  0
ARC
  8
0
  6
CONTINUOUS
 62
               3
  5
1A4
 10
-308.04993160054721
 20
393.88235294117646
 30
0.0
 40
72.0
 50
306.9135633967615
 51
413.08643660296246
  0
ARC
  8
0
  6
CONTINUOUS
 62
               3
  5
1A5
 10
-308.04993160054721
 20
393.88235294117646
 30
0.0
 40
72.0
 50
186.91356339680732
 51
293.08643660300913
  0
ARC
  8
0
  6
CONTINUOUS
 62
               3
  5
1A6
 10
-308.04993160054721
 20
393.88235294117646
 30
0.0
 40
72.0
 50
66.913563396853434
 51
173.08643660305484
  0
ARC
  8
0
  6
CONTINUOUS
 62
               3
  5
1A7
 10
-308.04993160054721
 20
393.88235294117646
 30
0.0
 40
69.5
 50
70.608591670870155
 51
169.39140832903828
  0
ARC
  8
0
  6
CONTINUOUS
 62
               3
  5
1A8
 10
-308.04993160054721
 20
393.88235294117646
 30
0.0
 40
69.5
 50
310.60859167077831
 51
409.39140832894577
  0
LINE
  8
0
  6
CONTINUOUS
 62
               3
  5
1A9
 10
-134.04993160054715
 20
471.38235294117635
 30
0.0
 11
-134.04993160054715
 21
316.38235294117635
 31
0.0
  0
LINE
  8
0
  6
CONTINUOUS
 62
               3
  5
1AA
 10
-79.049931600547097
 20
474.88235294117635
 30
0.0
 11
-93.049931600547211
 21
474.88235294117635
 31
0.0
  0
LINE
  8
0
  6
CONTINUOUS
 62
               3
  5
1AB
 10
-93.049931600547211
 20
312.88235294117635
 30
0.0
 11
-79.049931600547097
 21
312.88235294117635
 31
0.0
  0
LINE
  8
0
  6
CONTINUOUS
 62
               3
  5
1AC
 10
-61.049931600547097
 20
301.38235294117635
 30
0.0
 11
-61.049931600547097
 21
486.38235294117635
 31
0.0
  0
LINE
  8
0
  6
CONTINUOUS
 62
               3
  5
1AD
 10
-61.049931600547097
 20
486.38235294117635
 30
0.0
 11
-79.049931600547097
 21
486.38235294117635
 31
0.0
  0
LINE
  8
0
  6
CONTINUOUS
 62
               3
  5
1AE
 10
-93.049931600547097
 20
486.38235294117635
 30
0.0
 11
-111.04993160054721
 21
486.38235294117635
 31
0.0
  0
LINE
  8
0
  6
CONTINUOUS
 62
               3
  5
1AF
 10
-61.049931600547097
 20
301.38235294117635
 30
0.0
 11
-79.049931600547097
 21
301.38235294117635
 31
0.0
  0
LINE
  8
0
  6
CONTINUOUS
 62
               3
  5
1B0
 10
-93.049931600547097
 20
301.38235294117635
 30
0.0
 11
-111.04993160054721
 21
301.38235294117635
 31
0.0
  0
LINE
  8
0
  6
CONTINUOUS
 62
               3
  5
1B1
 10
-93.049931600547325
 20
-254.1176470588197
 30
0.0
 11
-93.04993160054704
 21
-448.61764705882422
 31
0.0
  0
LINE
  8
0
  6
CONTINUOUS
 62
               3
  5
1B2
 10
-134.04993160054892
 20
-266.61764705882251
 30
0.0
 11
-111.04993160055005
 21
-266.61764705882564
 31
0.0
  0
LINE
  8
0
  6
CONTINUOUS
 62
               3
  5
1B3
 10
-134.04993160055267
 20
-421.61764705882615
 30
0.0
 11
-111.04993160055875
 21
-421.61764705881637
 31
0.0
  0
LINE
  8
0
  6
CONTINUOUS
 62
               3
  5
1B4
 10
-111.04993160054846
 20
-254.11764705882428
 30
0.0
 11
-93.049931600547325
 21
-254.1176470588197
 31
0.0
  0
LINE
  8
0
  6
CONTINUOUS
 62
               3
  5
1B5
 10
-111.04993160054715
 20
-448.6176470588282
 30
0.0
 11
-93.04993160054704
 21
-448.61764705882422
 31
0.0
  0
ARC
  8
0
  6
CONTINUOUS
 62
               3
  5
1B6
 10
-139.04993160054715
 20
-175.11764705882359
 30
0.0
 40
100.5
 50
179.99999999993119
 51
272.85171354051812
  0
ARC
  8
0
  6
CONTINUOUS
 62
               3
  5
1B7
 10
-139.04993160054715
 20
-175.11764705882359
 30
0.0
 40
239.5
 50
179.99999999993119
 51
271.19624096676665
  0
LINE
  8
0
  6
CONTINUOUS
 62
               3
  5
1B8
 10
-111.04993160054846
 20
-254.11764705882428
 30
0.0
 11
-111.04993160054715
 21
-448.6176470588282
 31
0.0
  0
LINE
  8
0
  6
CONTINUOUS
 62
               3
  5
1B9
 10
-79.049931600547268
 20
-263.11764705882365
 30
0.0
 11
-93.049931600547325
 21
-263.11764705882365
 31
0.0
  0
LINE
  8
0
  6
CONTINUOUS
 62
               3
  5
1BA
 10
-79.049931600547268
 20
-425.11764705882359
 30
0.0
 11
-93.04993160054704
 21
-425.11764705882359
 31
0.0
  0
LINE
  8
0
  6
CONTINUOUS
 62
               3
  5
1BB
 10
-61.049931600547268
 20
-254.11764705882402
 30
0.0
 11
-79.049931600547268
 21
-254.11764705882362
 31
0.0
  0
LINE
  8
0
  6
CONTINUOUS
 62
               3
  5
1BC
 10
-61.049931600547268
 20
-448.61764705882376
 30
0.0
 11
-79.049931600547268
 21
-448.61764705882354
 31
0.0
  0
LINE
  8
0
  6
CONTINUOUS
 62
               3
  5
1BD
 10
-79.049931600547268
 20
-254.11764705882362
 30
0.0
 11
-79.049931600547268
 21
-448.61764705882354
 31
0.0
  0
LINE
  8
0
  6
CONTINUOUS
 62
               3
  5
1BE
 10
-61.049931600547268
 20
-448.61764705882376
 30
0.0
 11
-61.049931600547268
 21
-254.11764705882402
 31
0.0
  0
LINE
  8
0
  6
CONTINUOUS
 62
               3
  5
1BF
 10
-383.04993160054516
 20
-129.1176470588243
 30
0.0
 11
-246.04993160055346
 21
-129.117647058823
 31
0.0
  0
LINE
  8
0
  6
CONTINUOUS
 62
               3
  5
1C0
 10
-378.53014535531906
 20
-175.11764705882359
 30
0.0
 11
-239.54993160054698
 21
-175.11764705882359
 31
0.0
  0
LINE
  8
0
  6
CONTINUOUS
 62
               3
  5
1C1
 10
-377.23393852957304
 20
-170.11764705882359
 30
0.0
 11
-240.54630774283851
 21
-170.11764705882359
 31
0.0
  0
LINE
  8
0
  6
CONTINUOUS
 62
               3
  5
1C2
 10
-257.04993160054823
 20
-143.1176470588295
 30
0.0
 11
-257.04993160054755
 21
-156.19589912662551
 31
0.0
  0
LINE
  8
0
  6
CONTINUOUS
 62
               3
  5
1C3
 10
-359.0499316005338
 20
-143.1176470588438
 30
0.0
 11
-359.04993160054744
 21
-156.19589912662531
 31
0.0
  0
LINE
  8
0
  6
CONTINUOUS
 62
               3
  5
1C4
 10
-383.04993160054516
 20
-129.1176470588243
 30
0.0
 11
-383.04993160054448
 21
-143.1176470588172
 31
0.0
  0
LINE
  8
0
  6
CONTINUOUS
 62
               3
  5
1C5
 10
-246.04993160055346
 20
-129.117647058823
 30
0.0
 11
-246.04993160054426
 21
-143.11764705882891
 31
0.0
  0
ARC
  8
0
  6
CONTINUOUS
 62
               3
  5
1C6
 10
-365.54885833676451
 20
-175.8149184133963
 30
0.0
 40
13.0
 50
109.45209668776747
 51
176.92539338565359
  0
ARC
  8
0
  6
CONTINUOUS
 62
               3
  5
1C7
 10
-139.04993160054744
 20
-175.11764705882371
 30
0.0
 40
100.5
 50
179.99560546483963
 51
188.58368168547548
  0
ARC
  8
0
  6
CONTINUOUS
 62
               3
  5
1C8
 10
-252.54993126670115
 20
-175.1089417102512
 30
0.0
 40
13.0
 50
359.99560546477079
 51
430.54790331202531
  0
LINE
  8
0
  6
CONTINUOUS
 62
               3
  5
1C9
 10
-369.87810049941004
 20
-163.55695519362899
 30
0.0
 11
-362.38483846106874
 21
-160.91050036499749
 31
0.0
  0
ARC
  8
0
  6
CONTINUOUS
 62
               3
  5
1CA
 10
-364.04993160054744
 20
-156.19589912662531
 30
0.0
 40
4.9999999999999982
 50
289.45209668769883
 51
359.99999999986176
  0
LINE
  8
0
  6
CONTINUOUS
 62
               3
  5
1CB
 10
-248.22068910405562
 20
-162.8509784904837
 30
0.0
 11
-253.71502474002625
 21
-160.91050036499749
 31
0.0
  0
ARC
  8
0
  6
CONTINUOUS
 62
               3
  5
1CC
 10
-252.04993160054755
 20
-156.19589912662551
 30
0.0
 40
4.9999999999999982
 50
179.99999999993119
 51
250.54790331209497
  0
LINE
  8
0
  6
CONTINUOUS
 62
               3
  5
1CD
 10
-246.04993160054823
 20
-120.11764705882365
 30
0.0
 11
-383.04993160054698
 21
-120.11764705882365
 31
0.0
  0
LINE
  8
0
  6
CONTINUOUS
 62
               3
  5
1CE
 10
-383.04993160054664
 20
-120.11764705882365
 30
0.0
 11
-383.0499316005463
 21
-106.11764705882365
 31
0.0
  0
LINE
  8
0
  6
CONTINUOUS
 62
               3
  5
1CF
 10
-246.04993160054823
 20
-120.11764705882365
 30
0.0
 11
-246.04993160054823
 21
-106.11764705882354
 31
0.0
  0
LINE
  8
0
  6
CONTINUOUS
 62
               3
  5
1D0
 10
-246.04993160054823
 20
-106.11764705882354
 30
0.0
 11
-383.0499316005463
 21
-106.11764705882365
 31
0.0
  0
LINE
  8
0
  6
CONTINUOUS
 62
               3
  5
1D1
 10
-359.04993160054744
 20
-129.1176470588243
 30
0.0
 11
-359.04993160054744
 21
-120.11764705882365
 31
0.0
  0
LINE
  8
0
  6
CONTINUOUS
 62
               3
  5
1D2
 10
-257.04993160054732
 20
-129.117647058823
 30
0.0
 11
-257.04993160054732
 21
-120.11764705882365
 31
0.0
  0
LINE
  8
0
  6
CONTINUOUS
 62
               3
  5
1D3
 10
-383.04993160054448
 20
-143.1176470588172
 30
0.0
 11
-246.04993160054426
 21
-143.11764705882891
 31
0.0
  0
LINE
  8
0
  6
CONTINUOUS
 62
               3
  5
1D4
 10
-134.04993160054721
 20
-266.61764705882251
 30
0.0
 11
-134.04993160054721
 21
-421.61764705882615
 31
0.0
  0
LINE
  8
0
  6
CONTINUOUS
 62
               3
  5
1D5
 10
-328.60686889068268
 20
-364.11764705882365
 30
0.0
 11
-286.15278677338199
 21
-364.11764705882365
 31
0.0
  0
LINE
  8
0
  6
CONTINUOUS
 62
               3
  5
1D6
 10
-325.04993160054721
 20
-364.11764705882365
 30
0.0
 11
-325.04993160054721
 21
-394.11764705882365
 31
0.0
  0
LINE
  8
0
  6
CONTINUOUS
 62
               3
  5
1D7
 10
-291.04993160054721
 20
-394.11764705882365
 30
0.0
 11
-291.04993160054721
 21
-364.11764705882365
 31
0.0
  0
LINE
  8
0
  6
CONTINUOUS
 62
               3
  5
1D8
 10
-325.04993160054721
 20
-394.11764705882365
 30
0.0
 11
-291.04993160054721
 21
-394.11764705882365
 31
0.0
  0
LINE
  8
0
  6
CONTINUOUS
 62
               3
  5
1D9
 10
-313.04993160054721
 20
-364.11764705882365
 30
0.0
 11
-313.04993160054721
 21
-394.11764705882365
 31
0.0
  0
LINE
  8
0
  6
CONTINUOUS
 62
               3
  5
1DA
 10
-303.04993160054721
 20
-394.11764705882365
 30
0.0
 11
-303.04993160054721
 21
-364.11764705882365
 31
0.0
  0
LINE
  8
0
  6
CONTINUOUS
 62
               3
  5
1DB
 10
-328.60686889068268
 20
-364.11764705882365
 30
0.0
 11
-332.82831302104535
 21
-315.86631985559245
 31
0.0
  0
ARC
  8
0
  6
CONTINUOUS
 62
               3
  5
1DC
 10
-290.36973675394177
 20
-325.93745221221837
 30
0.0
 40
9.9999999999999964
 50
117.72027269076911
 51
332.2797273091445
  0
ARC
  8
0
  6
CONTINUOUS
 62
               3
  5
1DD
 10
-277.09130029137202
 20
-332.91478158021448
 30
0.0
 40
4.9999999999999982
 50
64.456602312026334
 51
152.27972730917887
  0
ARC
  8
0
  6
CONTINUOUS
 62
               3
  5
1DE
 10
-297.34706612193793
 20
-312.65901574964874
 30
0.0
 40
4.9999999999999982
 50
297.72027269073504
 51
385.54339768788685
  0
ARC
  8
0
  6
CONTINUOUS
 62
               3
  5
1DF
 10
-226.73012644715232
 20
-262.29784190542927
 30
0.0
 40
9.9999999999999964
 50
297.7202726907351
 51
512.27972730910938
  0
ARC
  8
0
  6
CONTINUOUS
 62
               3
  5
1E0
 10
-240.00856290972206
 20
-255.32051253743299
 30
0.0
 40
4.9999999999999982
 50
244.45660231199182
 51
332.2797273091445
  0
ARC
  8
0
  6
CONTINUOUS
 62
               3
  5
1E1
 10
-219.75279707915627
 20
-275.5762783679989
 30
0.0
 40
4.9999999999999982
 50
117.72027269076951
 51
205.54339768792207
  0
LINE
  8
0
  6
CONTINUOUS
 62
               3
  5
1E2
 10
-300.31390060761498
 20
-326.99272717700256
 30
0.0
 11
-303.29866894207623
 21
-298.86638440035284
 31
0.0
  0
LINE
  8
0
  6
CONTINUOUS
 62
               3
  5
1E3
 10
-253.80119425901785
 20
-249.36890971729451
 30
0.0
 11
-225.67485148236835
 21
-252.35367805175611
 31
0.0
  0
LINE
  8
0
  6
CONTINUOUS
 62
               3
  5
1E4
 10
-291.42501171872584
 20
-335.88161606589142
 30
0.0
 11
-263.29866894207601
 21
-338.86638440035284
 31
0.0
  0
LINE
  8
0
  6
CONTINUOUS
 62
               3
  5
1E5
 10
-213.80119425901819
 20
-289.36890971729446
 30
0.0
 11
-216.78596259347944
 21
-261.24256694064496
 31
0.0
  0
ARC
  8
0
  6
CONTINUOUS
 62
               3
  5
1E6
 10
-258.54993160054721
 20
-294.11764705882382
 30
0.0
 40
45.0
 50
83.942441268965311
 51
186.057558730983
  0
ARC
  8
0
  6
CONTINUOUS
 62
               3
  5
1E7
 10
-258.54993160054721
 20
-294.11764705882382
 30
0.0
 40
38.0
 50
64.45660231202632
 51
205.54339768792207
  0
ARC
  8
0
  6
CONTINUOUS
 62
               3
  5
1E8
 10
-258.54993160054721
 20
-294.11764705882382
 30
0.0
 40
45.0
 50
263.94244126893096
 51
366.0575587309479
  0
ARC
  8
0
  6
CONTINUOUS
 62
               3
  5
1E9
 10
-258.54993160054721
 20
-294.11764705882382
 30
0.0
 40
38.0
 50
244.45660231199182
 51
385.54339768788691
  0
CIRCLE
  8
0
  6
CONTINUOUS
 62
               3
  5
1EA
 10
-226.73012644715232
 20
-262.29784190542927
 30
0.0
 40
6.2999999999999989
  0
CIRCLE
  8
0
  6
CONTINUOUS
 62
               3
  5
1EB
 10
-290.36973675394177
 20
-325.93745221221837
 30
0.0
 40
6.2999999999999989
  0
LINE
  8
0
  6
DASHDOT
 62
               4
  5
1EC
 10
391.95006839945273
 20
-94.117647058823707
 30
0.0
 11
391.95006839945273
 21
-458.61764705882371
 31
0.0
  0
LINE
  8
0
  6
DASHDOT
 62
               4
  5
1ED
 10
291.83599664923486
 20
-344.11764705882376
 30
0.0
 11
492.06414014967066
 21
-344.11764705882376
 31
0.0
  0
LINE
  8
0
  6
DASHDOT
 62
               4
  5
1EE
 10
-393.04993160054732
 20
393.88235294117635
 30
0.0
 11
-51.049931600547097
 21
393.88235294117635
 31
0.0
  0
LINE
  8
0
  6
DASHDOT
 62
               4
  5
1EF
 10
-308.04993160054721
 20
475.88235294117646
 30
0.0
 11
-308.04993160054721
 21
311.88235294117646
 31
0.0
  0
LINE
  8
0
  6
DASHDOT
 62
               4
  5
1F0
 10
-318.75334936224101
 20
-344.11764705882365
 30
0.0
 11
-51.049931600547268
 21
-344.11764705882365
 31
0.0
  0
ARC
  8
0
  6
DASHDOT
 62
               4
  5
1F1
 10
-139.04993160054715
 20
-175.11764705882359
 30
0.0
 40
169.0
 50
179.99999999993119
 51
268.71324725135327
  0
LINE
  8
0
  6
DASHDOT
 62
               4
  5
1F2
 10
-308.04993160054721
 20
-94.117647058823593
 30
0.0
 11
-308.04993160054721
 21
-413.02609644483528
 31
0.0
  0
LINE
  8
0
  6
DASHDOT
 62
               4
  5
1F3
 10
-313.54993160054721
 20
-294.11764705882382
 30
0.0
 11
-203.54993160054721
 21
-294.11764705882382
 31
0.0
  0
LINE
  8
0
  6
DASHDOT
 62
               4
  5
1F4
 10
-258.54993160054721
 20
-349.11764705882382
 30
0.0
 11
-258.54993160054721
 21
-239.11764705882382
 31
0.0
  0
LINE
  8
0
  6
DASHED
 62
               7
  5
1F5
 10
436.45006839945279
 20
-152.11764705882359
 30
0.0
 11
347.45006839945273
 21
-152.11764705882359
 31
0.0
  0
LINE
  8
0
  6
DASHED
 62
               7
  5
1F6
 10
-129.04993160054715
 20
463.88235294117635
 30
0.0
 11
-129.04993160054715
 21
323.88235294117635
 31
0.0
  0
LINE
  8
0
  6
DASHED
 62
               7
  5
1F7
 10
-129.04993160054721
 20
-414.11764705882359
 30
0.0
 11
-129.04993160054721
 21
-274.11764705882365
 31
0.0
  0
LINE
  8
0
  6
DASHED
 62
               7
  5
1F8
 10
-352.54993160054721
 20
-152.11764705882359
 30
0.0
 11
-263.54993160054721
 21
-152.11764705882359
 31
0.0
  0
POINT
  8
0
  6
CONTINUOUS
 62
               5
  5
1F9
 10
-308.04993160054721
 20
-344.11764705882365
 30
0.0
  0
POINT
  8
0
  6
CONTINUOUS
 62
               5
  5
1FA
 10
-303.0697008601918
 20
-338.63741631846841
 30
0.0
  0
ENDSEC
  0
EOF
