  0
SECTION
  2
HEADER
  9
$ACADVER
  1
AC1009
  9
$INSBASE
 10
0.0
 20
0.0
 30
0.0
  9
$EXTMIN
 10
-378.46769151182917
 20
-503.70717854430649
 30
0.0
  9
$EXTMAX
 10
538.81230848816995
 20
437.49282145569379
 30
0.0
  9
$LIMMIN
 10
-407.13269151182914
 20
-533.11967854430645
  9
$LIMMAX
 10
567.47730848816991
 20
466.90532145569381
  9
$ORTHOMODE
 70
               0
  9
$REGENMODE
 70
               1
  9
$FILLMODE
 70
               1
  9
$QTEXTMODE
 70
               0
  9
$MIRRTEXT
 70
               1
  9
$DRAGMODE
 70
               2
  9
$LTSCALE
 40
1.0
  9
$OSMODE
 70
               0
  9
$ATTMODE
 70
               1
  9
$TEXTSIZE
 40
0.2
  9
$TRACEWID
 40
0.05
  9
$TEXTSTYLE
  7
STANDARD
  9
$CLAYER
  8
0
  9
$CELTYPE
  6
CONTINUOUS
  9
$CECOLOR
 62
             256
  9
$DIMSCALE
 40
1.0
  9
$DIMASZ
 40
0.18
  9
$DIMEXO
 40
0.0625
  9
$DIMDLI
 40
0.38
  9
$DIMRND
 40
0.0
  9
$DIMDLE
 40
0.0
  9
$DIMEXE
 40
0.18
  9
$DIMTP
 40
0.0
  9
$DIMTM
 40
0.0
  9
$DIMTXT
 40
0.18
  9
$DIMCEN
 40
0.09
  9
$DIMTSZ
 40
0.0
  9
$DIMTOL
 70
               0
  9
$DIMLIM
 70
               0
  9
$DIMTIH
 70
               1
  9
$DIMTOH
 70
               1
  9
$DIMSE1
 70
               0
  9
$DIMSE2
 70
               0
  9
$DIMTAD
 70
               0
  9
$DIMZIN
 70
               0
  9
$DIMBLK
  1

  9
$DIMASO
 70
               1
  9
$DIMSHO
 70
               1
  9
$DIMPOST
  1

  9
$DIMAPOST
  1

  9
$DIMALT
 70
               0
  9
$DIMALTD
 70
               2
  9
$DIMALTF
 40
25.399999999999999
  9
$DIMLFAC
 40
1.0
  9
$DIMTOFL
 70
               0
  9
$DIMTVP
 40
0.0
  9
$DIMTIX
 70
               0
  9
$DIMSOXD
 70
               0
  9
$DIMSAH
 70
               0
  9
$DIMBLK1
  1

  9
$DIMBLK2
  1

  9
$DIMSTYLE
  2
STANDARD
  9
$DIMCLRD
 70
               0
  9
$DIMCLRE
 70
               0
  9
$DIMCLRT
 70
               0
  9
$DIMTFAC
 40
1.0
  9
$DIMGAP
 40
0.09
  9
$LUNITS
 70
               2
  9
$LUPREC
 70
               4
  9
$AXISMODE
 70
               0
  9
$AXISUNIT
 10
0.0
 20
0.0
  9
$SKETCHINC
 40
0.1
  9
$FILLETRAD
 40
0.0
  9
$AUNITS
 70
               0
  9
$AUPREC
 70
               0
  9
$MENU
  1
acad
  9
$ELEVATION
 40
0.0
  9
$PELEVATION
 40
0.0
  9
$THICKNESS
 40
0.0
  9
$LIMCHECK
 70
               0
  9
$BLIPMODE
 70
               1
  9
$CHAMFERA
 40
0.0
  9
$CHAMFERB
 40
0.0
  9
$SKPOLY
 70
               0
  9
$TDCREATE
 40
0.000000000
  9
$TDUPDATE
 40
0.000000000
  9
$TDINDWG
 40
0.0000000000
  9
$TDUSRTIMER
 40
0.0000000000
  9
$USRTIMER
 70
               1
  9
$ANGBASE
 50
0.0
  9
$ANGDIR
 70
               0
  9
$PDMODE
 70
               0
  9
$PDSIZE
 40
1.0
  9
$PLINEWID
 40
0.0
  9
$COORDS
 70
               1
  9
$SPLFRAME
 70
               0
  9
$SPLINETYPE
 70
               6
  9
$SPLINESEGS
 70
               8
  9
$ATTDIA
 70
               0
  9
$ATTREQ
 70
               1
  9
$HANDLING
 70
               1
  9
$HANDSEED
  5
1ED
  9
$SURFTAB1
 70
               6
  9
$SURFTAB2
 70
               6
  9
$SURFTYPE
 70
               6
  9
$SURFU
 70
               6
  9
$SURFV
 70
               6
  9
$UCSNAME
  2

  9
$UCSORG
 10
0.0
 20
0.0
 30
0.0
  9
$UCSXDIR
 10
1.0
 20
0.0
 30
0.0
  9
$UCSYDIR
 10
0.0
 20
1.0
 30
0.0
  9
$PUCSNAME
  2

  9
$PUCSORG
 10
0.0
 20
0.0
 30
0.0
  9
$PUCSXDIR
 10
1.0
 20
0.0
 30
0.0
  9
$PUCSYDIR
 10
0.0
 20
1.0
 30
0.0
  9
$USERI1
 70
               0
  9
$USERI2
 70
               0
  9
$USERI3
 70
               0
  9
$USERI4
 70
               0
  9
$USERI5
 70
               0
  9
$USERR1
 40
0.0
  9
$USERR2
 40
0.0
  9
$USERR3
 40
0.0
  9
$USERR4
 40
0.0
  9
$USERR5
 40
0.0
  9
$WORLDVIEW
 70
               1
  9
$SHADEDGE
 70
               3
  9
$SHADEDIF
 70
              70
  9
$TILEMODE
 70
               1
  9
$MAXACTVP
 70
              16
  9
$PINSBASE
 10
0.0
 20
0.0
 30
0.0
  9
$PLIMCHECK
 70
               0
  9
$PEXTMIN
 10
1.0000000000000000E+20
 20
1.0000000000000000E+20
 30
1.0000000000000000E+20
  9
$PEXTMAX
 10
-1.0000000000000000E+20
 20
-1.0000000000000000E+20
 30
-1.0000000000000000E+20
  9
$PLIMMIN
 10
0.0
 20
0.0
  9
$PLIMMAX
 10
12.0
 20
9.0
  9
$UNITMODE
 70
               0
  9
$VISRETAIN
 70
               0
  9
$PLINEGEN
 70
               1
  9
$PSLTSCALE
 70
               0
  9
$TREEDEPTH
 70
            3020
  9
$DWGCODEPAGE
  3
dos932
  0
ENDSEC
  0
SECTION
  2
TABLES
  0
TABLE
  2
VPORT
 70
               1
  0
VPORT
  2
*ACTIVE
 70
               0
 10
0.0
 20
0.0
 11
1.0
 21
1.0
 12
80.172308488170387
 22
-33.107178544306322
 13
0.0
 23
0.0
 14
1.0
 24
1.0
 15
0.0
 25
0.0
 16
0.0
 26
0.0
 36
1.0
 17
0.0
 27
0.0
 37
0.0
 40
1000.0250000000003
 41
0.9745856353591147
 42
50.0
 43
0.0
 44
0.0
 50
0.0
 51
0.0
 71
               0
 72
             100
 73
               1
 74
               1
 75
               0
 76
               0
 77
               0
 78
               0
  0
ENDTAB
  0
TABLE
  2
LTYPE
 70
              26
  0
LTYPE
  2
CONTINUOUS
 70
               0
  3
Solid line
 72
              65
 73
               0
 40
0.0
  0
LTYPE
  2
HIDDENX2
 70
               0
  3
CADPAC FUSION LINETYPE
 72
              65
 73
               2
 40
80.0
 49
60.0
 49
-20.0
  0
LTYPE
  2
HIDDEN
 70
               0
  3
CADPAC FUSION LINETYPE
 72
              65
 73
               2
 40
60.0
 49
40.0
 49
-20.0
  0
LTYPE
  2
HIDDEN2
 70
               0
  3
CADPAC FUSION LINETYPE
 72
              65
 73
               2
 40
50.0
 49
30.0
 49
-20.0
  0
LTYPE
  2
DASHED
 70
               0
  3
CADPAC FUSION LINETYPE
 72
              65
 73
               2
 40
60.0
 49
40.0
 49
-20.0
  0
LTYPE
  2
DASHED2
 70
               0
  3
CADPAC FUSION LINETYPE
 72
              65
 73
               2
 40
45.0
 49
30.0
 49
-15.0
  0
LTYPE
  2
DASHEDX2
 70
               0
  3
CADPAC FUSION LINETYPE
 72
              65
 73
               2
 40
90.0
 49
60.0
 49
-30.0
  0
LTYPE
  2
DOTX2
 70
               0
  3
CADPAC FUSION LINETYPE
 72
              65
 73
               2
 40
25.0
 49
0.0
 49
-25.0
  0
LTYPE
  2
DOT
 70
               0
  3
CADPAC FUSION LINETYPE
 72
              65
 73
               2
 40
20.0
 49
0.0
 49
-20.0
  0
LTYPE
  2
DOTS
 70
               0
  3
CADPAC FUSION LINETYPE
 72
              65
 73
               2
 40
20.0
 49
0.0
 49
-20.0
  0
LTYPE
  2
DOT2
 70
               0
  3
CADPAC FUSION LINETYPE
 72
              65
 73
               2
 40
15.0
 49
0.0
 49
-15.0
  0
LTYPE
  2
CENTERX2
 70
               0
  3
CADPAC FUSION LINETYPE
 72
              65
 73
               4
 40
120.0
 49
50.0
 49
-25.0
 49
20.0
 49
-25.0
  0
LTYPE
  2
CENTER
 70
               0
  3
CADPAC FUSION LINETYPE
 72
              65
 73
               4
 40
92.0
 49
40.0
 49
-20.0
 49
12.0
 49
-20.0
  0
LTYPE
  2
CENTER2
 70
               0
  3
CADPAC FUSION LINETYPE
 72
              65
 73
               4
 40
64.0
 49
30.0
 49
-15.0
 49
4.0
 49
-15.0
  0
LTYPE
  2
DASHDOTX2
 70
               0
  3
CADPAC FUSION LINETYPE
 72
              65
 73
               4
 40
100.0
 49
50.0
 49
-25.0
 49
0.0
 49
-25.0
  0
LTYPE
  2
DASHDOT
 70
               0
  3
CADPAC FUSION LINETYPE
 72
              65
 73
               4
 40
80.0
 49
40.0
 49
-20.0
 49
0.0
 49
-20.0
  0
LTYPE
  2
DASHDOT2
 70
               0
  3
CADPAC FUSION LINETYPE
 72
              65
 73
               4
 40
60.0
 49
30.0
 49
-15.0
 49
0.0
 49
-15.0
  0
LTYPE
  2
DIVIDEX2
 70
               0
  3
CADPAC FUSION LINETYPE
 72
              65
 73
               6
 40
125.0
 49
50.0
 49
-25.0
 49
0.0
 49
-25.0
 49
0.0
 49
-25.0
  0
LTYPE
  2
DIVIDE
 70
               0
  3
CADPAC FUSION LINETYPE
 72
              65
 73
               6
 40
100.0
 49
40.0
 49
-20.0
 49
0.0
 49
-20.0
 49
0.0
 49
-20.0
  0
LTYPE
  2
DIVIDE2
 70
               0
  3
CADPAC FUSION LINETYPE
 72
              65
 73
               6
 40
75.0
 49
30.0
 49
-15.0
 49
0.0
 49
-15.0
 49
0.0
 49
-15.0
  0
LTYPE
  2
BORDERX2
 70
               0
  3
CADPAC FUSION LINETYPE
 72
              65
 73
               6
 40
175.0
 49
50.0
 49
-25.0
 49
50.0
 49
-25.0
 49
0.0
 49
-25.0
  0
LTYPE
  2
BORDER
 70
               0
  3
CADPAC FUSION LINETYPE
 72
              65
 73
               6
 40
140.0
 49
40.0
 49
-20.0
 49
40.0
 49
-20.0
 49
0.0
 49
-20.0
  0
LTYPE
  2
BORDER2
 70
               0
  3
CADPAC FUSION LINETYPE
 72
              65
 73
               6
 40
105.0
 49
30.0
 49
-15.0
 49
30.0
 49
-15.0
 49
0.0
 49
-15.0
  0
LTYPE
  2
PHANTOMX2
 70
               0
  3
CADPAC FUSION LINETYPE
 72
              65
 73
               6
 40
150.0
 49
50.0
 49
-20.0
 49
20.0
 49
-20.0
 49
20.0
 49
-20.0
  0
LTYPE
  2
PHANTOM
 70
               0
  3
CADPAC FUSION LINETYPE
 72
              65
 73
               6
 40
124.0
 49
40.0
 49
-20.0
 49
12.0
 49
-20.0
 49
12.0
 49
-20.0
  0
LTYPE
  2
PHANTOM2
 70
               0
  3
CADPAC FUSION LINETYPE
 72
              65
 73
               6
 40
106.0
 49
30.0
 49
-20.0
 49
8.0
 49
-20.0
 49
8.0
 49
-20.0
  0
ENDTAB
  0
TABLE
  2
LAYER
 70
             256
  0
LAYER
  2
0
 70
               0
 62
               7
  6
CONTINUOUS
  0
LAYER
  2
LAYER001
 70
               0
 62
               7
  6
CONTINUOUS
  0
LAYER
  2
LAYER002
 70
               0
 62
               7
  6
CONTINUOUS
  0
LAYER
  2
LAYER003
 70
               0
 62
               7
  6
CONTINUOUS
  0
LAYER
  2
LAYER004
 70
               0
 62
               7
  6
CONTINUOUS
  0
LAYER
  2
LAYER005
 70
               0
 62
               7
  6
CONTINUOUS
  0
LAYER
  2
LAYER006
 70
               0
 62
               7
  6
CONTINUOUS
  0
LAYER
  2
LAYER007
 70
               0
 62
               7
  6
CONTINUOUS
  0
LAYER
  2
LAYER008
 70
               0
 62
               7
  6
CONTINUOUS
  0
LAYER
  2
LAYER009
 70
               0
 62
               7
  6
CONTINUOUS
  0
LAYER
  2
LAYER010
 70
               0
 62
               7
  6
CONTINUOUS
  0
LAYER
  2
LAYER011
 70
               0
 62
               7
  6
CONTINUOUS
  0
LAYER
  2
LAYER012
 70
               0
 62
               7
  6
CONTINUOUS
  0
LAYER
  2
LAYER013
 70
               0
 62
               7
  6
CONTINUOUS
  0
LAYER
  2
LAYER014
 70
               0
 62
               7
  6
CONTINUOUS
  0
LAYER
  2
LAYER015
 70
               0
 62
               7
  6
CONTINUOUS
  0
LAYER
  2
LAYER016
 70
               0
 62
               7
  6
CONTINUOUS
  0
LAYER
  2
LAYER017
 70
               0
 62
               7
  6
CONTINUOUS
  0
LAYER
  2
LAYER018
 70
               0
 62
               7
  6
CONTINUOUS
  0
LAYER
  2
LAYER019
 70
               0
 62
               7
  6
CONTINUOUS
  0
LAYER
  2
LAYER020
 70
               0
 62
               7
  6
CONTINUOUS
  0
LAYER
  2
LAYER021
 70
               0
 62
               7
  6
CONTINUOUS
  0
LAYER
  2
LAYER022
 70
               0
 62
               7
  6
CONTINUOUS
  0
LAYER
  2
LAYER023
 70
               0
 62
               7
  6
CONTINUOUS
  0
LAYER
  2
LAYER024
 70
               0
 62
               7
  6
CONTINUOUS
  0
LAYER
  2
LAYER025
 70
               0
 62
               7
  6
CONTINUOUS
  0
LAYER
  2
LAYER026
 70
               0
 62
               7
  6
CONTINUOUS
  0
LAYER
  2
LAYER027
 70
               0
 62
               7
  6
CONTINUOUS
  0
LAYER
  2
LAYER028
 70
               0
 62
               7
  6
CONTINUOUS
  0
LAYER
  2
LAYER029
 70
               0
 62
               7
  6
CONTINUOUS
  0
LAYER
  2
LAYER030
 70
               0
 62
               7
  6
CONTINUOUS
  0
LAYER
  2
LAYER031
 70
               0
 62
               7
  6
CONTINUOUS
  0
LAYER
  2
LAYER032
 70
               0
 62
               7
  6
CONTINUOUS
  0
LAYER
  2
LAYER033
 70
               0
 62
               7
  6
CONTINUOUS
  0
LAYER
  2
LAYER034
 70
               0
 62
               7
  6
CONTINUOUS
  0
LAYER
  2
LAYER035
 70
               0
 62
               7
  6
CONTINUOUS
  0
LAYER
  2
LAYER036
 70
               0
 62
               7
  6
CONTINUOUS
  0
LAYER
  2
LAYER037
 70
               0
 62
               7
  6
CONTINUOUS
  0
LAYER
  2
LAYER038
 70
               0
 62
               7
  6
CONTINUOUS
  0
LAYER
  2
LAYER039
 70
               0
 62
               7
  6
CONTINUOUS
  0
LAYER
  2
LAYER040
 70
               0
 62
               7
  6
CONTINUOUS
  0
LAYER
  2
LAYER041
 70
               0
 62
               7
  6
CONTINUOUS
  0
LAYER
  2
LAYER042
 70
               0
 62
               7
  6
CONTINUOUS
  0
LAYER
  2
LAYER043
 70
               0
 62
               7
  6
CONTINUOUS
  0
LAYER
  2
LAYER044
 70
               0
 62
               7
  6
CONTINUOUS
  0
LAYER
  2
LAYER045
 70
               0
 62
               7
  6
CONTINUOUS
  0
LAYER
  2
LAYER046
 70
               0
 62
               7
  6
CONTINUOUS
  0
LAYER
  2
LAYER047
 70
               0
 62
               7
  6
CONTINUOUS
  0
LAYER
  2
LAYER048
 70
               0
 62
               7
  6
CONTINUOUS
  0
LAYER
  2
LAYER049
 70
               0
 62
               7
  6
CONTINUOUS
  0
LAYER
  2
LAYER050
 70
               0
 62
               7
  6
CONTINUOUS
  0
LAYER
  2
LAYER051
 70
               0
 62
               7
  6
CONTINUOUS
  0
LAYER
  2
LAYER052
 70
               0
 62
               7
  6
CONTINUOUS
  0
LAYER
  2
LAYER053
 70
               0
 62
               7
  6
CONTINUOUS
  0
LAYER
  2
LAYER054
 70
               0
 62
               7
  6
CONTINUOUS
  0
LAYER
  2
LAYER055
 70
               0
 62
               7
  6
CONTINUOUS
  0
LAYER
  2
LAYER056
 70
               0
 62
               7
  6
CONTINUOUS
  0
LAYER
  2
LAYER057
 70
               0
 62
               7
  6
CONTINUOUS
  0
LAYER
  2
LAYER058
 70
               0
 62
               7
  6
CONTINUOUS
  0
LAYER
  2
LAYER059
 70
               0
 62
               7
  6
CONTINUOUS
  0
LAYER
  2
LAYER060
 70
               0
 62
               7
  6
CONTINUOUS
  0
LAYER
  2
LAYER061
 70
               0
 62
               7
  6
CONTINUOUS
  0
LAYER
  2
LAYER062
 70
               0
 62
               7
  6
CONTINUOUS
  0
LAYER
  2
LAYER063
 70
               0
 62
               7
  6
CONTINUOUS
  0
LAYER
  2
LAYER064
 70
               0
 62
               7
  6
CONTINUOUS
  0
LAYER
  2
LAYER065
 70
               0
 62
               7
  6
CONTINUOUS
  0
LAYER
  2
LAYER066
 70
               0
 62
               7
  6
CONTINUOUS
  0
LAYER
  2
LAYER067
 70
               0
 62
               7
  6
CONTINUOUS
  0
LAYER
  2
LAYER068
 70
               0
 62
               7
  6
CONTINUOUS
  0
LAYER
  2
LAYER069
 70
               0
 62
               7
  6
CONTINUOUS
  0
LAYER
  2
LAYER070
 70
               0
 62
               7
  6
CONTINUOUS
  0
LAYER
  2
LAYER071
 70
               0
 62
               7
  6
CONTINUOUS
  0
LAYER
  2
LAYER072
 70
               0
 62
               7
  6
CONTINUOUS
  0
LAYER
  2
LAYER073
 70
               0
 62
               7
  6
CONTINUOUS
  0
LAYER
  2
LAYER074
 70
               0
 62
               7
  6
CONTINUOUS
  0
LAYER
  2
LAYER075
 70
               0
 62
               7
  6
CONTINUOUS
  0
LAYER
  2
LAYER076
 70
               0
 62
               7
  6
CONTINUOUS
  0
LAYER
  2
LAYER077
 70
               0
 62
               7
  6
CONTINUOUS
  0
LAYER
  2
LAYER078
 70
               0
 62
               7
  6
CONTINUOUS
  0
LAYER
  2
LAYER079
 70
               0
 62
               7
  6
CONTINUOUS
  0
LAYER
  2
LAYER080
 70
               0
 62
               7
  6
CONTINUOUS
  0
LAYER
  2
LAYER081
 70
               0
 62
               7
  6
CONTINUOUS
  0
LAYER
  2
LAYER082
 70
               0
 62
               7
  6
CONTINUOUS
  0
LAYER
  2
LAYER083
 70
               0
 62
               7
  6
CONTINUOUS
  0
LAYER
  2
LAYER084
 70
               0
 62
               7
  6
CONTINUOUS
  0
LAYER
  2
LAYER085
 70
               0
 62
               7
  6
CONTINUOUS
  0
LAYER
  2
LAYER086
 70
               0
 62
               7
  6
CONTINUOUS
  0
LAYER
  2
LAYER087
 70
               0
 62
               7
  6
CONTINUOUS
  0
LAYER
  2
LAYER088
 70
               0
 62
               7
  6
CONTINUOUS
  0
LAYER
  2
LAYER089
 70
               0
 62
               7
  6
CONTINUOUS
  0
LAYER
  2
LAYER090
 70
               0
 62
               7
  6
CONTINUOUS
  0
LAYER
  2
LAYER091
 70
               0
 62
               7
  6
CONTINUOUS
  0
LAYER
  2
LAYER092
 70
               0
 62
               7
  6
CONTINUOUS
  0
LAYER
  2
LAYER093
 70
               0
 62
               7
  6
CONTINUOUS
  0
LAYER
  2
LAYER094
 70
               0
 62
               7
  6
CONTINUOUS
  0
LAYER
  2
LAYER095
 70
               0
 62
               7
  6
CONTINUOUS
  0
LAYER
  2
LAYER096
 70
               0
 62
               7
  6
CONTINUOUS
  0
LAYER
  2
LAYER097
 70
               0
 62
               7
  6
CONTINUOUS
  0
LAYER
  2
LAYER098
 70
               0
 62
               7
  6
CONTINUOUS
  0
LAYER
  2
LAYER099
 70
               0
 62
               7
  6
CONTINUOUS
  0
LAYER
  2
LAYER100
 70
               0
 62
               7
  6
CONTINUOUS
  0
LAYER
  2
LAYER101
 70
               0
 62
               7
  6
CONTINUOUS
  0
LAYER
  2
LAYER102
 70
               0
 62
               7
  6
CONTINUOUS
  0
LAYER
  2
LAYER103
 70
               0
 62
               7
  6
CONTINUOUS
  0
LAYER
  2
LAYER104
 70
               0
 62
               7
  6
CONTINUOUS
  0
LAYER
  2
LAYER105
 70
               0
 62
               7
  6
CONTINUOUS
  0
LAYER
  2
LAYER106
 70
               0
 62
               7
  6
CONTINUOUS
  0
LAYER
  2
LAYER107
 70
               0
 62
               7
  6
CONTINUOUS
  0
LAYER
  2
LAYER108
 70
               0
 62
               7
  6
CONTINUOUS
  0
LAYER
  2
LAYER109
 70
               0
 62
               7
  6
CONTINUOUS
  0
LAYER
  2
LAYER110
 70
               0
 62
               7
  6
CONTINUOUS
  0
LAYER
  2
LAYER111
 70
               0
 62
               7
  6
CONTINUOUS
  0
LAYER
  2
LAYER112
 70
               0
 62
               7
  6
CONTINUOUS
  0
LAYER
  2
LAYER113
 70
               0
 62
               7
  6
CONTINUOUS
  0
LAYER
  2
LAYER114
 70
               0
 62
               7
  6
CONTINUOUS
  0
LAYER
  2
LAYER115
 70
               0
 62
               7
  6
CONTINUOUS
  0
LAYER
  2
LAYER116
 70
               0
 62
               7
  6
CONTINUOUS
  0
LAYER
  2
LAYER117
 70
               0
 62
               7
  6
CONTINUOUS
  0
LAYER
  2
LAYER118
 70
               0
 62
               7
  6
CONTINUOUS
  0
LAYER
  2
LAYER119
 70
               0
 62
               7
  6
CONTINUOUS
  0
LAYER
  2
LAYER120
 70
               0
 62
               7
  6
CONTINUOUS
  0
LAYER
  2
LAYER121
 70
               0
 62
               7
  6
CONTINUOUS
  0
LAYER
  2
LAYER122
 70
               0
 62
               7
  6
CONTINUOUS
  0
LAYER
  2
LAYER123
 70
               0
 62
               7
  6
CONTINUOUS
  0
LAYER
  2
LAYER124
 70
               0
 62
               7
  6
CONTINUOUS
  0
LAYER
  2
LAYER125
 70
               0
 62
               7
  6
CONTINUOUS
  0
LAYER
  2
LAYER126
 70
               0
 62
               7
  6
CONTINUOUS
  0
LAYER
  2
LAYER127
 70
               0
 62
               7
  6
CONTINUOUS
  0
LAYER
  2
LAYER128
 70
               0
 62
               7
  6
CONTINUOUS
  0
LAYER
  2
LAYER129
 70
               0
 62
               7
  6
CONTINUOUS
  0
LAYER
  2
LAYER130
 70
               0
 62
               7
  6
CONTINUOUS
  0
LAYER
  2
LAYER131
 70
               0
 62
               7
  6
CONTINUOUS
  0
LAYER
  2
LAYER132
 70
               0
 62
               7
  6
CONTINUOUS
  0
LAYER
  2
LAYER133
 70
               0
 62
               7
  6
CONTINUOUS
  0
LAYER
  2
LAYER134
 70
               0
 62
               7
  6
CONTINUOUS
  0
LAYER
  2
LAYER135
 70
               0
 62
               7
  6
CONTINUOUS
  0
LAYER
  2
LAYER136
 70
               0
 62
               7
  6
CONTINUOUS
  0
LAYER
  2
LAYER137
 70
               0
 62
               7
  6
CONTINUOUS
  0
LAYER
  2
LAYER138
 70
               0
 62
               7
  6
CONTINUOUS
  0
LAYER
  2
LAYER139
 70
               0
 62
               7
  6
CONTINUOUS
  0
LAYER
  2
LAYER140
 70
               0
 62
               7
  6
CONTINUOUS
  0
LAYER
  2
LAYER141
 70
               0
 62
               7
  6
CONTINUOUS
  0
LAYER
  2
LAYER142
 70
               0
 62
               7
  6
CONTINUOUS
  0
LAYER
  2
LAYER143
 70
               0
 62
               7
  6
CONTINUOUS
  0
LAYER
  2
LAYER144
 70
               0
 62
               7
  6
CONTINUOUS
  0
LAYER
  2
LAYER145
 70
               0
 62
               7
  6
CONTINUOUS
  0
LAYER
  2
LAYER146
 70
               0
 62
               7
  6
CONTINUOUS
  0
LAYER
  2
LAYER147
 70
               0
 62
               7
  6
CONTINUOUS
  0
LAYER
  2
LAYER148
 70
               0
 62
               7
  6
CONTINUOUS
  0
LAYER
  2
LAYER149
 70
               0
 62
               7
  6
CONTINUOUS
  0
LAYER
  2
LAYER150
 70
               0
 62
               7
  6
CONTINUOUS
  0
LAYER
  2
LAYER151
 70
               0
 62
               7
  6
CONTINUOUS
  0
LAYER
  2
LAYER152
 70
               0
 62
               7
  6
CONTINUOUS
  0
LAYER
  2
LAYER153
 70
               0
 62
               7
  6
CONTINUOUS
  0
LAYER
  2
LAYER154
 70
               0
 62
               7
  6
CONTINUOUS
  0
LAYER
  2
LAYER155
 70
               0
 62
               7
  6
CONTINUOUS
  0
LAYER
  2
LAYER156
 70
               0
 62
               7
  6
CONTINUOUS
  0
LAYER
  2
LAYER157
 70
               0
 62
               7
  6
CONTINUOUS
  0
LAYER
  2
LAYER158
 70
               0
 62
               7
  6
CONTINUOUS
  0
LAYER
  2
LAYER159
 70
               0
 62
               7
  6
CONTINUOUS
  0
LAYER
  2
LAYER160
 70
               0
 62
               7
  6
CONTINUOUS
  0
LAYER
  2
LAYER161
 70
               0
 62
               7
  6
CONTINUOUS
  0
LAYER
  2
LAYER162
 70
               0
 62
               7
  6
CONTINUOUS
  0
LAYER
  2
LAYER163
 70
               0
 62
               7
  6
CONTINUOUS
  0
LAYER
  2
LAYER164
 70
               0
 62
               7
  6
CONTINUOUS
  0
LAYER
  2
LAYER165
 70
               0
 62
               7
  6
CONTINUOUS
  0
LAYER
  2
LAYER166
 70
               0
 62
               7
  6
CONTINUOUS
  0
LAYER
  2
LAYER167
 70
               0
 62
               7
  6
CONTINUOUS
  0
LAYER
  2
LAYER168
 70
               0
 62
               7
  6
CONTINUOUS
  0
LAYER
  2
LAYER169
 70
               0
 62
               7
  6
CONTINUOUS
  0
LAYER
  2
LAYER170
 70
               0
 62
               7
  6
CONTINUOUS
  0
LAYER
  2
LAYER171
 70
               0
 62
               7
  6
CONTINUOUS
  0
LAYER
  2
LAYER172
 70
               0
 62
               7
  6
CONTINUOUS
  0
LAYER
  2
LAYER173
 70
               0
 62
               7
  6
CONTINUOUS
  0
LAYER
  2
LAYER174
 70
               0
 62
               7
  6
CONTINUOUS
  0
LAYER
  2
LAYER175
 70
               0
 62
               7
  6
CONTINUOUS
  0
LAYER
  2
LAYER176
 70
               0
 62
               7
  6
CONTINUOUS
  0
LAYER
  2
LAYER177
 70
               0
 62
               7
  6
CONTINUOUS
  0
LAYER
  2
LAYER178
 70
               0
 62
               7
  6
CONTINUOUS
  0
LAYER
  2
LAYER179
 70
               0
 62
               7
  6
CONTINUOUS
  0
LAYER
  2
LAYER180
 70
               0
 62
               7
  6
CONTINUOUS
  0
LAYER
  2
LAYER181
 70
               0
 62
               7
  6
CONTINUOUS
  0
LAYER
  2
LAYER182
 70
               0
 62
               7
  6
CONTINUOUS
  0
LAYER
  2
LAYER183
 70
               0
 62
               7
  6
CONTINUOUS
  0
LAYER
  2
LAYER184
 70
               0
 62
               7
  6
CONTINUOUS
  0
LAYER
  2
LAYER185
 70
               0
 62
               7
  6
CONTINUOUS
  0
LAYER
  2
LAYER186
 70
               0
 62
               7
  6
CONTINUOUS
  0
LAYER
  2
LAYER187
 70
               0
 62
               7
  6
CONTINUOUS
  0
LAYER
  2
LAYER188
 70
               0
 62
               7
  6
CONTINUOUS
  0
LAYER
  2
LAYER189
 70
               0
 62
               7
  6
CONTINUOUS
  0
LAYER
  2
LAYER190
 70
               0
 62
               7
  6
CONTINUOUS
  0
LAYER
  2
LAYER191
 70
               0
 62
               7
  6
CONTINUOUS
  0
LAYER
  2
LAYER192
 70
               0
 62
               7
  6
CONTINUOUS
  0
LAYER
  2
LAYER193
 70
               0
 62
               7
  6
CONTINUOUS
  0
LAYER
  2
LAYER194
 70
               0
 62
               7
  6
CONTINUOUS
  0
LAYER
  2
LAYER195
 70
               0
 62
               7
  6
CONTINUOUS
  0
LAYER
  2
LAYER196
 70
               0
 62
               7
  6
CONTINUOUS
  0
LAYER
  2
LAYER197
 70
               0
 62
               7
  6
CONTINUOUS
  0
LAYER
  2
LAYER198
 70
               0
 62
               7
  6
CONTINUOUS
  0
LAYER
  2
LAYER199
 70
               0
 62
               7
  6
CONTINUOUS
  0
LAYER
  2
LAYER200
 70
               0
 62
               7
  6
CONTINUOUS
  0
LAYER
  2
LAYER201
 70
               0
 62
               7
  6
CONTINUOUS
  0
LAYER
  2
LAYER202
 70
               0
 62
               7
  6
CONTINUOUS
  0
LAYER
  2
LAYER203
 70
               0
 62
               7
  6
CONTINUOUS
  0
LAYER
  2
LAYER204
 70
               0
 62
               7
  6
CONTINUOUS
  0
LAYER
  2
LAYER205
 70
               0
 62
               7
  6
CONTINUOUS
  0
LAYER
  2
LAYER206
 70
               0
 62
               7
  6
CONTINUOUS
  0
LAYER
  2
LAYER207
 70
               0
 62
               7
  6
CONTINUOUS
  0
LAYER
  2
LAYER208
 70
               0
 62
               7
  6
CONTINUOUS
  0
LAYER
  2
LAYER209
 70
               0
 62
               7
  6
CONTINUOUS
  0
LAYER
  2
LAYER210
 70
               0
 62
               7
  6
CONTINUOUS
  0
LAYER
  2
LAYER211
 70
               0
 62
               7
  6
CONTINUOUS
  0
LAYER
  2
LAYER212
 70
               0
 62
               7
  6
CONTINUOUS
  0
LAYER
  2
LAYER213
 70
               0
 62
               7
  6
CONTINUOUS
  0
LAYER
  2
LAYER214
 70
               0
 62
               7
  6
CONTINUOUS
  0
LAYER
  2
LAYER215
 70
               0
 62
               7
  6
CONTINUOUS
  0
LAYER
  2
LAYER216
 70
               0
 62
               7
  6
CONTINUOUS
  0
LAYER
  2
LAYER217
 70
               0
 62
               7
  6
CONTINUOUS
  0
LAYER
  2
LAYER218
 70
               0
 62
               7
  6
CONTINUOUS
  0
LAYER
  2
LAYER219
 70
               0
 62
               7
  6
CONTINUOUS
  0
LAYER
  2
LAYER220
 70
               0
 62
               7
  6
CONTINUOUS
  0
LAYER
  2
LAYER221
 70
               0
 62
               7
  6
CONTINUOUS
  0
LAYER
  2
LAYER222
 70
               0
 62
               7
  6
CONTINUOUS
  0
LAYER
  2
LAYER223
 70
               0
 62
               7
  6
CONTINUOUS
  0
LAYER
  2
LAYER224
 70
               0
 62
               7
  6
CONTINUOUS
  0
LAYER
  2
LAYER225
 70
               0
 62
               7
  6
CONTINUOUS
  0
LAYER
  2
LAYER226
 70
               0
 62
               7
  6
CONTINUOUS
  0
LAYER
  2
LAYER227
 70
               0
 62
               7
  6
CONTINUOUS
  0
LAYER
  2
LAYER228
 70
               0
 62
               7
  6
CONTINUOUS
  0
LAYER
  2
LAYER229
 70
               0
 62
               7
  6
CONTINUOUS
  0
LAYER
  2
LAYER230
 70
               0
 62
               7
  6
CONTINUOUS
  0
LAYER
  2
LAYER231
 70
               0
 62
               7
  6
CONTINUOUS
  0
LAYER
  2
LAYER232
 70
               0
 62
               7
  6
CONTINUOUS
  0
LAYER
  2
LAYER233
 70
               0
 62
               7
  6
CONTINUOUS
  0
LAYER
  2
LAYER234
 70
               0
 62
               7
  6
CONTINUOUS
  0
LAYER
  2
LAYER235
 70
               0
 62
               7
  6
CONTINUOUS
  0
LAYER
  2
LAYER236
 70
               0
 62
               7
  6
CONTINUOUS
  0
LAYER
  2
LAYER237
 70
               0
 62
               7
  6
CONTINUOUS
  0
LAYER
  2
LAYER238
 70
               0
 62
               7
  6
CONTINUOUS
  0
LAYER
  2
LAYER239
 70
               0
 62
               7
  6
CONTINUOUS
  0
LAYER
  2
LAYER240
 70
               0
 62
               7
  6
CONTINUOUS
  0
LAYER
  2
LAYER241
 70
               0
 62
               7
  6
CONTINUOUS
  0
LAYER
  2
LAYER242
 70
               0
 62
               7
  6
CONTINUOUS
  0
LAYER
  2
LAYER243
 70
               0
 62
               7
  6
CONTINUOUS
  0
LAYER
  2
LAYER244
 70
               0
 62
               7
  6
CONTINUOUS
  0
LAYER
  2
LAYER245
 70
               0
 62
               7
  6
CONTINUOUS
  0
LAYER
  2
LAYER246
 70
               0
 62
               7
  6
CONTINUOUS
  0
LAYER
  2
LAYER247
 70
               0
 62
               7
  6
CONTINUOUS
  0
LAYER
  2
LAYER248
 70
               0
 62
               7
  6
CONTINUOUS
  0
LAYER
  2
LAYER249
 70
               0
 62
               7
  6
CONTINUOUS
  0
LAYER
  2
LAYER250
 70
               0
 62
               7
  6
CONTINUOUS
  0
LAYER
  2
LAYER251
 70
               0
 62
               7
  6
CONTINUOUS
  0
LAYER
  2
LAYER252
 70
               0
 62
               7
  6
CONTINUOUS
  0
LAYER
  2
LAYER253
 70
               0
 62
               7
  6
CONTINUOUS
  0
LAYER
  2
LAYER254
 70
               0
 62
               7
  6
CONTINUOUS
  0
LAYER
  2
LAYER255
 70
               0
 62
               7
  6
CONTINUOUS
  0
ENDTAB
  0
TABLE
  2
STYLE
 70
               1
  0
STYLE
  2
STANDARD
 70
               0
 40
0.0
 41
1.0
 50
0.0
 71
               0
 42
0.0
  3
txt
  4

  0
ENDTAB
  0
TABLE
  2
VIEW
 70
               0
  0
VIEW
  2
QQQQ
 70
               0
 40
1000.0250000000003
 10
80.172308488170387
 20
-33.107178544306322
 41
974.60999999999899
 11
0.0
 21
0.0
 31
1.0
 12
100.0
 22
100.0
 32
0.0
 42
50.0
 43
0.0
 44
0.0
 50
0.0
 71
               0
  0
ENDTAB
  0
TABLE
  2
UCS
 70
               0
  0
ENDTAB
  0
TABLE
  2
APPID
 70
               1
  0
APPID
  2
ACAD
 70
               0
  0
ENDTAB
  0
TABLE
  2
DIMSTYLE
 70
               1
  0
DIMSTYLE
  2
STANDARD
 70
               0
  3

  4

  5

  6

  7

 40
1.0
 41
0.18
 42
0.0625
 43
0.38
 44
0.18
 45
0.0
 46
0.0
 47
0.0
 48
0.0
140
0.18
141
0.09
142
0.0
143
25.399999999999999
144
1.0
145
0.0
146
1.0
147
0.09
 71
               0
 72
               0
 73
               1
 74
               1
 75
               0
 76
               0
 77
               0
 78
               0
170
               0
171
               2
172
               0
173
               0
174
               0
175
               0
176
               0
177
               0
178
               0
  0
ENDTAB
  0
ENDSEC
  0
SECTION
  2
BLOCKS
  0
ENDSEC
  0
SECTION
  2
ENTITIES
  0
LINE
  8
0
  6
CONTINUOUS
 62
               3
  5
136
 10
-90.827691511829059
 20
-475.63182749761296
 30
0.0
 11
-105.82769151182907
 21
-475.63182749761296
 31
0.0
  0
LINE
  8
0
  6
CONTINUOUS
 62
               3
  5
137
 10
-105.82769151182727
 20
-452.13182749761336
 30
0.0
 11
-128.82769151182907
 21
-452.13182749761154
 31
0.0
  0
LINE
  8
0
  6
CONTINUOUS
 62
               3
  5
138
 10
-105.82769151182887
 20
-323.13182749761319
 30
0.0
 11
-128.82769151182907
 21
-323.13182749761359
 31
0.0
  0
LINE
  8
0
  6
CONTINUOUS
 62
               3
  5
139
 10
-90.827691511829059
 20
-312.13182749761285
 30
0.0
 11
-105.82769151182907
 21
-312.13182749761302
 31
0.0
  0
ARC
  8
0
  6
CONTINUOUS
 62
               3
  5
13A
 10
-123.82769151182917
 20
-235.60717854430658
 30
0.0
 40
97.0
 50
184.20897939799946
 51
267.04529986228101
  0
ARC
  8
0
  6
CONTINUOUS
 62
               3
  5
13B
 10
-232.53371710378963
 20
-243.60717854430652
 30
0.0
 40
12.0
 50
4.2089793980338666
 51
41.633198557757055
  0
ARC
  8
0
  6
CONTINUOUS
 62
               3
  5
13C
 10
-219.82769151182913
 20
-232.31306885578127
 30
0.0
 40
4.9999999999999982
 50
179.99999999996558
 51
221.63319855772264
  0
ARC
  8
0
  6
CONTINUOUS
 62
               3
  5
13D
 10
-123.82769151182917
 20
-235.60717854430658
 30
0.0
 40
209.0
 50
182.32737214108732
 51
268.62915678746725
  0
ARC
  8
0
  6
CONTINUOUS
 62
               3
  5
13E
 10
-320.66518793972
 20
-243.60717854430652
 30
0.0
 40
12.0
 50
131.04243859083763
 51
182.32737214108735
  0
ARC
  8
0
  6
CONTINUOUS
 62
               3
  5
13F
 10
-331.82769151182896
 20
-230.78538015240179
 30
0.0
 40
4.9999999999999982
 50
311.04243859080321
 51
359.99999999993048
  0
LINE
  8
0
  6
CONTINUOUS
 62
               3
  5
140
 10
-224.82769151182882
 20
-216.57458264874208
 30
0.0
 11
-224.82769151182913
 21
-232.31306885578127
 31
0.0
  0
LINE
  8
0
  6
CONTINUOUS
 62
               3
  5
141
 10
-326.82769151182902
 20
-216.57458264873057
 30
0.0
 11
-326.82769151182902
 21
-230.78538015240179
 31
0.0
  0
LINE
  8
0
  6
CONTINUOUS
 62
               3
  5
142
 10
-350.82769151182799
 20
-202.60717854430646
 30
0.0
 11
-350.82769151182987
 21
-216.57458264873057
 31
0.0
  0
LINE
  8
0
  6
CONTINUOUS
 62
               3
  5
143
 10
-213.82769151182993
 20
-202.60717854430646
 30
0.0
 11
-213.82769151182865
 21
-216.57458264874236
 31
0.0
  0
LINE
  8
0
  6
CONTINUOUS
 62
               3
  5
144
 10
-90.827691511829059
 20
-312.13182749761285
 30
0.0
 11
-90.827691511829059
 21
-475.63182749761296
 31
0.0
  0
LINE
  8
0
  6
CONTINUOUS
 62
               3
  5
145
 10
-350.82769151182799
 20
-202.60717854430646
 30
0.0
 11
-213.82769151182993
 21
-202.60717854430646
 31
0.0
  0
LINE
  8
0
  6
CONTINUOUS
 62
               3
  5
146
 10
-350.82769151182987
 20
-216.57458264873057
 30
0.0
 11
-213.82769151182865
 21
-216.57458264874236
 31
0.0
  0
LINE
  8
0
  6
CONTINUOUS
 62
               3
  5
147
 10
-105.82769151182907
 20
-475.63182749761296
 30
0.0
 11
-105.82769151182907
 21
-312.13182749761302
 31
0.0
  0
LINE
  8
0
  6
CONTINUOUS
 62
               3
  5
148
 10
-332.65528924497238
 20
-244.09448818897636
 30
0.0
 11
-220.56608125880308
 21
-244.09448818897636
 31
0.0
  0
LINE
  8
0
  6
CONTINUOUS
 62
               3
  5
149
 10
-331.78434374206887
 20
-239.09448818897636
 30
0.0
 11
-221.4145613014407
 21
-239.09448818897636
 31
0.0
  0
ARC
  8
0
  6
CONTINUOUS
 62
               3
  5
14A
 10
-263.12772740557909
 20
-374.90721443805637
 30
0.0
 40
9.9999999999999964
 50
117.72027269076911
 51
332.2797273091445
  0
ARC
  8
0
  6
CONTINUOUS
 62
               3
  5
14B
 10
-249.84929094300929
 20
-381.88454380605248
 30
0.0
 40
4.9999999999999982
 50
64.456602312026334
 51
152.27972730917887
  0
ARC
  8
0
  6
CONTINUOUS
 62
               3
  5
14C
 10
-270.1050567735752
 20
-361.62877797548674
 30
0.0
 40
4.9999999999999982
 50
297.72027269073504
 51
385.54339768788685
  0
ARC
  8
0
  6
CONTINUOUS
 62
               3
  5
14D
 10
-199.48811709878956
 20
-311.26760413126726
 30
0.0
 40
9.9999999999999964
 50
297.7202726907351
 51
512.27972730910938
  0
ARC
  8
0
  6
CONTINUOUS
 62
               3
  5
14E
 10
-212.76655356135936
 20
-304.29027476327099
 30
0.0
 40
4.9999999999999982
 50
244.45660231199182
 51
332.2797273091445
  0
ARC
  8
0
  6
CONTINUOUS
 62
               3
  5
14F
 10
-192.51078773079348
 20
-324.54604059383689
 30
0.0
 40
4.9999999999999982
 50
117.72027269076951
 51
205.54339768792207
  0
LINE
  8
0
  6
CONTINUOUS
 62
               3
  5
150
 10
-273.0718912592522
 20
-375.96248940284056
 30
0.0
 11
-276.05665959371356
 21
-347.83614662619084
 31
0.0
  0
LINE
  8
0
  6
CONTINUOUS
 62
               3
  5
151
 10
-226.55918491065512
 20
-298.33867194313251
 30
0.0
 11
-198.43284213400557
 21
-301.3234402775941
 31
0.0
  0
LINE
  8
0
  6
CONTINUOUS
 62
               3
  5
152
 10
-264.18300237036311
 20
-384.85137829172942
 30
0.0
 11
-236.05665959371328
 21
-387.83614662619084
 31
0.0
  0
LINE
  8
0
  6
CONTINUOUS
 62
               3
  5
153
 10
-186.5591849106554
 20
-338.33867194313245
 30
0.0
 11
-189.54395324511671
 21
-310.21232916648296
 31
0.0
  0
ARC
  8
0
  6
CONTINUOUS
 62
               3
  5
154
 10
-231.30792225218448
 20
-343.08740928466182
 30
0.0
 40
45.0
 50
83.942441268965311
 51
186.057558730983
  0
ARC
  8
0
  6
CONTINUOUS
 62
               3
  5
155
 10
-231.30792225218448
 20
-343.08740928466182
 30
0.0
 40
38.0
 50
64.45660231202632
 51
205.54339768792207
  0
ARC
  8
0
  6
CONTINUOUS
 62
               3
  5
156
 10
-231.30792225218448
 20
-343.08740928466182
 30
0.0
 40
45.0
 50
263.94244126893096
 51
366.0575587309479
  0
ARC
  8
0
  6
CONTINUOUS
 62
               3
  5
157
 10
-231.30792225218448
 20
-343.08740928466182
 30
0.0
 40
38.0
 50
244.45660231199182
 51
385.54339768788691
  0
CIRCLE
  8
0
  6
CONTINUOUS
 62
               3
  5
158
 10
-199.48811709878956
 20
-311.26760413126726
 30
0.0
 40
6.2999999999999989
  0
CIRCLE
  8
0
  6
CONTINUOUS
 62
               3
  5
159
 10
-263.12772740557909
 20
-374.90721443805637
 30
0.0
 40
6.2999999999999989
  0
LINE
  8
0
  6
CONTINUOUS
 62
               3
  5
15A
 10
-80.827691511829059
 20
-453.60717854430675
 30
0.0
 11
-90.827691511829059
 21
-453.60717854430675
 31
0.0
  0
LINE
  8
0
  6
CONTINUOUS
 62
               3
  5
15B
 10
-80.827691511829059
 20
-321.60717854430692
 30
0.0
 11
-90.827691511829059
 21
-321.60717854430692
 31
0.0
  0
LINE
  8
0
  6
CONTINUOUS
 62
               3
  5
15C
 10
-65.827691511829073
 20
-475.6318274976129
 30
0.0
 11
-65.827691511829073
 21
-312.10717854430618
 31
0.0
  0
LINE
  8
0
  6
CONTINUOUS
 62
               3
  5
15D
 10
-80.827691511829059
 20
-475.6318274976129
 30
0.0
 11
-80.827691511829059
 21
-312.10717854430646
 31
0.0
  0
LINE
  8
0
  6
CONTINUOUS
 62
               3
  5
15E
 10
-80.827691511829059
 20
-312.10717854430646
 30
0.0
 11
-65.827691511829073
 21
-312.10717854430618
 31
0.0
  0
LINE
  8
0
  6
CONTINUOUS
 62
               3
  5
15F
 10
-80.827691511829059
 20
-475.6318274976129
 30
0.0
 11
-65.827691511829073
 21
-475.6318274976129
 31
0.0
  0
LINE
  8
0
  6
CONTINUOUS
 62
               3
  5
160
 10
-213.82769151182973
 20
-191.60717854430646
 30
0.0
 11
-350.82769151182845
 21
-191.60717854430646
 31
0.0
  0
LINE
  8
0
  6
CONTINUOUS
 62
               3
  5
161
 10
-350.82769151182816
 20
-191.60717854430646
 30
0.0
 11
-350.82769151182788
 21
-177.60717854430638
 31
0.0
  0
LINE
  8
0
  6
CONTINUOUS
 62
               3
  5
162
 10
-213.82769151182973
 20
-191.60717854430646
 30
0.0
 11
-213.82769151182973
 21
-177.60717854430646
 31
0.0
  0
LINE
  8
0
  6
CONTINUOUS
 62
               3
  5
163
 10
-213.82769151182973
 20
-177.60717854430646
 30
0.0
 11
-350.82769151182788
 21
-177.60717854430646
 31
0.0
  0
LINE
  8
0
  6
CONTINUOUS
 62
               3
  5
164
 10
-326.82769151182902
 20
-202.60717854430646
 30
0.0
 11
-326.82769151182902
 21
-191.60717854430646
 31
0.0
  0
LINE
  8
0
  6
CONTINUOUS
 62
               3
  5
165
 10
-224.82769151182885
 20
-202.60717854430646
 30
0.0
 11
-224.82769151182885
 21
-191.60717854430646
 31
0.0
  0
LINE
  8
0
  6
CONTINUOUS
 62
               3
  5
166
 10
-128.82769151182907
 20
-323.13182749761359
 30
0.0
 11
-128.82769151182907
 21
-452.13182749761154
 31
0.0
  0
LINE
  8
0
  6
CONTINUOUS
 62
               3
  5
167
 10
-296.38462880196448
 20
-399.60717854430641
 30
0.0
 11
-253.38462880196448
 21
-399.60717854430641
 31
0.0
  0
LINE
  8
0
  6
CONTINUOUS
 62
               3
  5
168
 10
-292.82769151182907
 20
-399.60717854430641
 30
0.0
 11
-292.82769151182907
 21
-429.60717854430641
 31
0.0
  0
LINE
  8
0
  6
CONTINUOUS
 62
               3
  5
169
 10
-258.82769151182907
 20
-429.60717854430641
 30
0.0
 11
-258.82769151182907
 21
-399.60717854430641
 31
0.0
  0
LINE
  8
0
  6
CONTINUOUS
 62
               3
  5
16A
 10
-292.82769151182907
 20
-429.60717854430641
 30
0.0
 11
-258.82769151182907
 21
-429.60717854430641
 31
0.0
  0
LINE
  8
0
  6
CONTINUOUS
 62
               3
  5
16B
 10
-280.82769151182907
 20
-399.60717854430641
 30
0.0
 11
-280.82769151182907
 21
-429.60717854430641
 31
0.0
  0
LINE
  8
0
  6
CONTINUOUS
 62
               3
  5
16C
 10
-270.82769151182907
 20
-429.60717854430641
 30
0.0
 11
-270.82769151182907
 21
-399.60717854430641
 31
0.0
  0
LINE
  8
0
  6
CONTINUOUS
 62
               3
  5
16D
 10
-296.38462880196448
 20
-399.60717854430641
 30
0.0
 11
-301.03879479357437
 21
-346.40981783447262
 31
0.0
  0
LINE
  8
0
  6
CONTINUOUS
 62
               3
  5
16E
 10
-276.3076915118296
 20
407.39282145569388
 30
0.0
 11
-186.30769151182901
 21
407.39282145569388
 31
0.0
  0
LINE
  8
0
  6
CONTINUOUS
 62
               3
  5
16F
 10
-276.3076915118296
 20
419.39282145569376
 30
0.0
 11
-186.30769151182901
 21
419.39282145569376
 31
0.0
  0
LINE
  8
0
  6
CONTINUOUS
 62
               3
  5
170
 10
-276.3076915118296
 20
407.39282145569359
 30
0.0
 11
-276.3076915118296
 21
419.39282145569376
 31
0.0
  0
LINE
  8
0
  6
CONTINUOUS
 62
               3
  5
171
 10
-186.30769151182901
 20
407.39282145569359
 30
0.0
 11
-186.30769151182901
 21
419.39282145569376
 31
0.0
  0
LINE
  8
0
  6
CONTINUOUS
 62
               3
  5
172
 10
-269.30873753235545
 20
407.39282145569388
 30
0.0
 11
-269.30873753235545
 21
400.39282145569371
 31
0.0
  0
LINE
  8
0
  6
CONTINUOUS
 62
               3
  5
173
 10
-193.3087375323552
 20
407.39282145569388
 30
0.0
 11
-193.3087375323552
 21
400.39282145569371
 31
0.0
  0
LINE
  8
0
  6
CONTINUOUS
 62
               3
  5
174
 10
-276.3076915118296
 20
237.39282145569345
 30
0.0
 11
-186.30769151182901
 21
237.39282145569345
 31
0.0
  0
LINE
  8
0
  6
CONTINUOUS
 62
               3
  5
175
 10
-276.3076915118296
 20
225.39282145569342
 30
0.0
 11
-186.30769151182901
 21
225.39282145569342
 31
0.0
  0
LINE
  8
0
  6
CONTINUOUS
 62
               3
  5
176
 10
-276.3076915118296
 20
237.39282145569373
 30
0.0
 11
-276.3076915118296
 21
225.39282145569371
 31
0.0
  0
LINE
  8
0
  6
CONTINUOUS
 62
               3
  5
177
 10
-186.30769151182901
 20
237.39282145569373
 30
0.0
 11
-186.30769151182901
 21
225.39282145569371
 31
0.0
  0
LINE
  8
0
  6
CONTINUOUS
 62
               3
  5
178
 10
-269.30873753235545
 20
237.39282145569345
 30
0.0
 11
-269.30873753235545
 21
244.39282145569362
 31
0.0
  0
LINE
  8
0
  6
CONTINUOUS
 62
               3
  5
179
 10
-193.3087375323552
 20
237.39282145569345
 30
0.0
 11
-193.3087375323552
 21
244.39282145569362
 31
0.0
  0
CIRCLE
  8
0
  6
CONTINUOUS
 62
               3
  5
17A
 10
-275.82769151182902
 20
322.39282145569359
 30
0.0
 40
46.0
  0
ARC
  8
0
  6
CONTINUOUS
 62
               3
  5
17B
 10
-275.82769151182902
 20
322.39282145569359
 30
0.0
 40
61.999999999999993
 50
217.47199518277233
 51
262.52800481713598
  0
ARC
  8
0
  6
CONTINUOUS
 62
               3
  5
17C
 10
-338.82769151182919
 20
322.39282145569359
 30
0.0
 40
12.0
 50
142.52800481715857
 51
217.47199518277262
  0
LINE
  8
0
  6
CONTINUOUS
 62
               3
  5
17D
 10
-348.35150103563848
 20
329.6933044639743
 30
0.0
 11
-325.03404071817806
 21
360.1119836651439
 31
0.0
  0
LINE
  8
0
  6
CONTINUOUS
 62
               3
  5
17E
 10
-348.35150103563848
 20
315.092338447413
 30
0.0
 11
-325.03404071817806
 21
284.67365924624346
 31
0.0
  0
ARC
  8
0
  6
CONTINUOUS
 62
               3
  5
17F
 10
-244.32769151182893
 20
267.83322101727401
 30
0.0
 40
12.0
 50
262.52800481713581
 51
337.47199518274914
  0
LINE
  8
0
  6
CONTINUOUS
 62
               3
  5
180
 10
-245.8881904949919
 20
255.9351185247105
 30
0.0
 11
-283.89026959150442
 21
260.91929191078191
 31
0.0
  0
LINE
  8
0
  6
CONTINUOUS
 62
               3
  5
181
 10
-233.24338300485661
 20
263.2356015329911
 30
0.0
 11
-218.55876422580448
 21
298.63845412023221
 31
0.0
  0
ARC
  8
0
  6
CONTINUOUS
 62
               3
  5
182
 10
-244.32769151182893
 20
376.95242189411329
 30
0.0
 40
12.0
 50
22.528004817181461
 51
97.471995182795368
  0
LINE
  8
0
  6
CONTINUOUS
 62
               3
  5
183
 10
-233.24338300485647
 20
381.55004137839609
 30
0.0
 11
-218.55876422580448
 21
346.14718879115509
 31
0.0
  0
LINE
  8
0
  6
CONTINUOUS
 62
               3
  5
184
 10
-245.8881904949919
 20
388.85052438667685
 30
0.0
 11
-283.89026959150442
 21
383.86635100060528
 31
0.0
  0
ARC
  8
0
  6
CONTINUOUS
 62
               3
  5
185
 10
-275.82769151182902
 20
322.39282145569359
 30
0.0
 40
61.999999999999993
 50
337.47199518274937
 51
382.52800481711222
  0
ARC
  8
0
  6
CONTINUOUS
 62
               3
  5
186
 10
-275.82769151182902
 20
322.39282145569359
 30
0.0
 40
61.999999999999993
 50
97.471995182795283
 51
142.52800481715883
  0
LINE
  8
0
  6
CONTINUOUS
 62
               3
  5
187
 10
-186.30769151182901
 20
379.39282145569359
 30
0.0
 11
-128.82769151182902
 21
379.39282145569359
 31
0.0
  0
LINE
  8
0
  6
CONTINUOUS
 62
               3
  5
188
 10
-186.30769151182901
 20
265.39282145569371
 30
0.0
 11
-128.82769151182902
 21
265.39282145569371
 31
0.0
  0
LINE
  8
0
  6
CONTINUOUS
 62
               3
  5
189
 10
-105.82769151182747
 20
257.86817250238602
 30
0.0
 11
-128.82769151182902
 21
257.8681725023888
 31
0.0
  0
LINE
  8
0
  6
CONTINUOUS
 62
               3
  5
18A
 10
-105.82769151182877
 20
386.86817250238676
 30
0.0
 11
-128.82769151182902
 21
386.86817250238676
 31
0.0
  0
LINE
  8
0
  6
CONTINUOUS
 62
               3
  5
18B
 10
-90.827691511828775
 20
397.86817250238255
 30
0.0
 11
-105.82769151182877
 21
397.86817250238954
 31
0.0
  0
LINE
  8
0
  6
CONTINUOUS
 62
               3
  5
18C
 10
-90.827691511829173
 20
246.91747040899313
 30
0.0
 11
-105.82769151182877
 21
246.91747040899529
 31
0.0
  0
LINE
  8
0
  6
CONTINUOUS
 62
               3
  5
18D
 10
-90.827691511828775
 20
397.86817250238255
 30
0.0
 11
-90.827691511829173
 21
246.91747040899313
 31
0.0
  0
LINE
  8
0
  6
CONTINUOUS
 62
               3
  5
18E
 10
-276.30769151182903
 20
400.39282145569371
 30
0.0
 11
-186.30769151182901
 21
400.39282145569371
 31
0.0
  0
LINE
  8
0
  6
CONTINUOUS
 62
               3
  5
18F
 10
-276.30769151182903
 20
400.39282145569371
 30
0.0
 11
-276.30769151182903
 21
384.8608461640556
 31
0.0
  0
LINE
  8
0
  6
CONTINUOUS
 62
               3
  5
190
 10
-186.30769151182901
 20
400.39282145569371
 30
0.0
 11
-186.30769151182901
 21
332.39282145569359
 31
0.0
  0
LINE
  8
0
  6
CONTINUOUS
 62
               3
  5
191
 10
-186.30769151182901
 20
312.39282145569359
 30
0.0
 11
-186.30769151182901
 21
244.39282145569362
 31
0.0
  0
LINE
  8
0
  6
CONTINUOUS
 62
               3
  5
192
 10
-276.30769151182903
 20
244.39282145569362
 30
0.0
 11
-186.30769151182901
 21
244.39282145569362
 31
0.0
  0
LINE
  8
0
  6
CONTINUOUS
 62
               3
  5
193
 10
-276.30769151182903
 20
244.39282145569362
 30
0.0
 11
-276.30769151182903
 21
259.92479674733204
 31
0.0
  0
ARC
  8
0
  6
CONTINUOUS
 62
               3
  5
194
 10
-196.30769151182901
 20
332.39282145569359
 30
0.0
 40
9.9999999999999982
 50
197.87232645065367
 51
359.99999999993042
  0
ARC
  8
0
  6
CONTINUOUS
 62
               3
  5
195
 10
-196.30769151182901
 20
312.39282145569359
 30
0.0
 40
9.9999999999999982
 50
0.0
 51
162.12798715148833
  0
ARC
  8
0
  6
CONTINUOUS
 62
               3
  5
196
 10
-272.93014252979106
 20
309.39282145569365
 30
0.0
 40
69.999999999999986
 50
16.542077273425956
 51
45.800956686295983
  0
ARC
  8
0
  6
CONTINUOUS
 62
               3
  5
197
 10
-272.93014252979106
 20
335.39282145569371
 30
0.0
 40
69.999999999999986
 50
314.19904331363529
 51
343.45792272650527
  0
LINE
  8
0
  6
CONTINUOUS
 62
               3
  5
198
 10
-80.82769151182957
 20
246.91747040900037
 30
0.0
 11
-80.82769151182957
 21
397.86817250239022
 31
0.0
  0
LINE
  8
0
  6
CONTINUOUS
 62
               3
  5
199
 10
-65.82769151182876
 20
246.91747040899497
 30
0.0
 11
-65.827691511829272
 21
397.86817250239278
 31
0.0
  0
LINE
  8
0
  6
CONTINUOUS
 62
               3
  5
19A
 10
-65.82769151182876
 20
246.91747040899497
 30
0.0
 11
-80.827691511829272
 21
246.91747040900037
 31
0.0
  0
LINE
  8
0
  6
CONTINUOUS
 62
               3
  5
19B
 10
-80.82769151182957
 20
397.86817250238681
 30
0.0
 11
-65.827691511829272
 21
397.86817250239363
 31
0.0
  0
CIRCLE
  8
0
  6
CONTINUOUS
 62
               3
  5
19C
 10
-338.82769151182919
 20
322.39282145569359
 30
0.0
 40
8.2666666666666657
  0
CIRCLE
  8
0
  6
CONTINUOUS
 62
               3
  5
19D
 10
-244.32769151182893
 20
376.95242189411329
 30
0.0
 40
8.2666666666666657
  0
CIRCLE
  8
0
  6
CONTINUOUS
 62
               3
  5
19E
 10
-244.32769151182893
 20
267.83322101727401
 30
0.0
 40
8.2666666666666657
  0
LINE
  8
0
  6
CONTINUOUS
 62
               3
  5
19F
 10
-80.82769151182957
 20
388.39282145569371
 30
0.0
 11
-90.827691511828974
 21
388.39282145569371
 31
0.0
  0
LINE
  8
0
  6
CONTINUOUS
 62
               3
  5
1A0
 10
-90.827691511829173
 20
256.39282145569365
 30
0.0
 11
-80.82769151182957
 21
256.39282145569365
 31
0.0
  0
LINE
  8
0
  6
CONTINUOUS
 62
               3
  5
1A1
 10
-105.82769151182877
 20
397.86817250238255
 30
0.0
 11
-105.82769151182877
 21
246.91747040899529
 31
0.0
  0
LINE
  8
0
  6
CONTINUOUS
 62
               3
  5
1A2
 10
-128.82769151182902
 20
386.86817250238676
 30
0.0
 11
-128.82769151182902
 21
257.8681725023888
 31
0.0
  0
ARC
  8
0
  6
CONTINUOUS
 62
               3
  5
1A3
 10
414.17230848817098
 20
-307.56764002501706
 30
0.0
 40
9.9999999999999982
 50
332.95139485457508
 51
449.99999999991331
  0
LINE
  8
0
  6
CONTINUOUS
 62
               3
  5
1A4
 10
357.67230848817172
 20
-202.60717854430646
 30
0.0
 11
357.67230848817024
 21
-216.60717854430067
 31
0.0
  0
LINE
  8
0
  6
CONTINUOUS
 62
               3
  5
1A5
 10
357.67230848817172
 20
-202.60717854430646
 30
0.0
 11
490.67230848817019
 21
-202.60717854430646
 31
0.0
  0
LINE
  8
0
  6
CONTINUOUS
 62
               3
  5
1A6
 10
357.67230848817024
 20
-216.60717854430067
 30
0.0
 11
490.67230848817161
 21
-216.60717854431226
 31
0.0
  0
LINE
  8
0
  6
CONTINUOUS
 62
               3
  5
1A7
 10
367.17230848817093
 20
-244.09448818897656
 30
0.0
 11
367.17230848817093
 21
-297.56764002501706
 31
0.0
  0
ARC
  8
0
  6
CONTINUOUS
 62
               3
  5
1A8
 10
379.17230848817098
 20
-243.74686154921758
 30
0.0
 40
12.0
 50
130.32021506994579
 51
157.18867580699015
  0
LINE
  8
0
  6
CONTINUOUS
 62
               3
  5
1A9
 10
481.17230848817098
 20
-244.09448818897656
 30
0.0
 11
481.17230848817098
 21
-297.56764002501706
 31
0.0
  0
LINE
  8
0
  6
CONTINUOUS
 62
               3
  5
1AA
 10
367.17230848817093
 20
-244.09448818897656
 30
0.0
 11
481.17230848817098
 21
-244.09448818897656
 31
0.0
  0
LINE
  8
0
  6
CONTINUOUS
 62
               3
  5
1AB
 10
367.17230848817093
 20
-239.09448818897656
 30
0.0
 11
481.17230848817098
 21
-239.09448818897656
 31
0.0
  0
ARC
  8
0
  6
CONTINUOUS
 62
               3
  5
1AC
 10
367.17230848817093
 20
-241.59448818897656
 30
0.0
 40
2.5
 50
89.999999999982862
 51
269.99999999994839
  0
ARC
  8
0
  6
CONTINUOUS
 62
               3
  5
1AD
 10
368.17230848817104
 20
-230.78538015240181
 30
0.0
 40
4.9999999999999991
 50
310.32021506991128
 51
359.99999999993048
  0
ARC
  8
0
  6
CONTINUOUS
 62
               3
  5
1AE
 10
469.17230848817098
 20
-243.74686154921758
 30
0.0
 40
12.0
 50
22.811324192975349
 51
49.679784930019835
  0
ARC
  8
0
  6
CONTINUOUS
 62
               3
  5
1AF
 10
481.17230848817098
 20
-241.59448818897656
 30
0.0
 40
2.5
 50
269.99999999994839
 51
449.9999999999132
  0
ARC
  8
0
  6
CONTINUOUS
 62
               3
  5
1B0
 10
480.17230848817104
 20
-230.78538015240181
 30
0.0
 40
4.9999999999999991
 50
179.99999999996558
 51
229.67978492998546
  0
LINE
  8
0
  6
CONTINUOUS
 62
               3
  5
1B1
 10
346.17230848817098
 20
-297.56764002501706
 30
0.0
 11
346.17230848817098
 21
-387.60717854430663
 31
0.0
  0
LINE
  8
0
  6
CONTINUOUS
 62
               3
  5
1B2
 10
502.17230848817093
 20
-297.56764002501706
 30
0.0
 11
502.17230848817093
 21
-387.60717854430663
 31
0.0
  0
LINE
  8
0
  6
CONTINUOUS
 62
               3
  5
1B3
 10
346.17230848817098
 20
-297.56764002501706
 30
0.0
 11
414.17230848817098
 21
-297.56764002501706
 31
0.0
  0
LINE
  8
0
  6
CONTINUOUS
 62
               3
  5
1B4
 10
434.17230848817098
 20
-297.56764002501706
 30
0.0
 11
502.17230848817093
 21
-297.56764002501706
 31
0.0
  0
LINE
  8
0
  6
CONTINUOUS
 62
               3
  5
1B5
 10
346.17230848817098
 20
-387.60717854430663
 30
0.0
 11
348.54466644357939
 21
-387.60717854430663
 31
0.0
  0
LINE
  8
0
  6
CONTINUOUS
 62
               3
  5
1B6
 10
499.79995053276264
 20
-387.60717854430663
 30
0.0
 11
502.17230848817093
 21
-387.60717854430663
 31
0.0
  0
ARC
  8
0
  6
CONTINUOUS
 62
               3
  5
1B7
 10
434.17230848817098
 20
-307.56764002501706
 30
0.0
 40
9.9999999999999982
 50
89.999999999982762
 51
207.04860514532157
  0
LINE
  8
0
  6
CONTINUOUS
 62
               3
  5
1B8
 10
490.67230848817019
 20
-202.60717854430646
 30
0.0
 11
490.67230848817161
 21
-216.60717854431255
 31
0.0
  0
ARC
  8
0
  6
CONTINUOUS
 62
               3
  5
1B9
 10
424.17230848817081
 20
-387.60717854430646
 30
0.0
 40
75.499999999999986
 50
303.32931837466964
 51
356.67068162520422
  0
ARC
  8
0
  6
CONTINUOUS
 62
               3
  5
1BA
 10
424.17230848817076
 20
-463.60717854430646
 30
0.0
 40
12.0
 50
236.67068162522702
 51
303.32931837466992
  0
LINE
  8
0
  6
CONTINUOUS
 62
               3
  5
1BB
 10
417.57890332166147
 20
-473.63349433378005
 30
0.0
 11
382.68880098221683
 21
-450.68941538641178
 31
0.0
  0
LINE
  8
0
  6
CONTINUOUS
 62
               3
  5
1BC
 10
430.76571365468004
 20
-473.63349433378005
 30
0.0
 11
465.65581599412479
 21
-450.68941538641178
 31
0.0
  0
ARC
  8
0
  6
CONTINUOUS
 62
               3
  5
1BD
 10
489.99023917578808
 20
-349.60717854430635
 30
0.0
 40
12.0
 50
356.67068162520417
 51
423.32931837464616
  0
LINE
  8
0
  6
CONTINUOUS
 62
               3
  5
1BE
 10
501.96998593909211
 20
-350.30407702121005
 30
0.0
 11
499.54488187395765
 21
-391.99183146149232
 31
0.0
  0
LINE
  8
0
  6
CONTINUOUS
 62
               3
  5
1BF
 10
495.37658077258283
 20
-338.88396427792907
 30
0.0
 11
458.06137436800367
 21
-320.14028878501529
 31
0.0
  0
ARC
  8
0
  6
CONTINUOUS
 62
               3
  5
1C0
 10
358.35437780055355
 20
-349.60717854430629
 30
0.0
 40
12.0
 50
116.67068162525001
 51
183.32931837469283
  0
LINE
  8
0
  6
CONTINUOUS
 62
               3
  5
1C1
 10
352.9680362037588
 20
-338.88396427792907
 30
0.0
 11
390.28324260833796
 21
-320.14028878501529
 31
0.0
  0
LINE
  8
0
  6
CONTINUOUS
 62
               3
  5
1C2
 10
346.37463103724951
 20
-350.30407702120999
 30
0.0
 11
348.79973510238398
 21
-391.99183146149227
 31
0.0
  0
ARC
  8
0
  6
CONTINUOUS
 62
               3
  5
1C3
 10
424.17230848817081
 20
-387.60717854430646
 30
0.0
 40
75.499999999999986
 50
183.32931837469252
 51
236.67068162522702
  0
ARC
  8
0
  6
CONTINUOUS
 62
               3
  5
1C4
 10
424.17230848817081
 20
-387.60717854430646
 30
0.0
 40
75.499999999999986
 50
63.329318374715513
 51
116.67068162525001
  0
CIRCLE
  8
0
  6
CONTINUOUS
 62
               3
  5
1C5
 10
424.17230848817081
 20
-387.60717854430646
 30
0.0
 40
58.5
  0
CIRCLE
  8
0
  6
CONTINUOUS
 62
               3
  5
1C6
 10
358.35437780055361
 20
-349.60717854430629
 30
0.0
 40
8.2666666666666657
  0
CIRCLE
  8
0
  6
CONTINUOUS
 62
               3
  5
1C7
 10
489.99023917578813
 20
-349.60717854430646
 30
0.0
 40
8.2666666666666657
  0
CIRCLE
  8
0
  6
CONTINUOUS
 62
               3
  5
1C8
 10
424.17230848817076
 20
-463.60717854430635
 30
0.0
 40
8.2666666666666657
  0
LINE
  8
0
  6
CONTINUOUS
 62
               3
  5
1C9
 10
509.17230848816973
 20
-297.56764002501706
 30
0.0
 11
521.17230848816996
 21
-297.56764002501706
 31
0.0
  0
LINE
  8
0
  6
CONTINUOUS
 62
               3
  5
1CA
 10
509.17230848816973
 20
-387.56764002501711
 30
0.0
 11
521.17230848816996
 21
-387.56764002501711
 31
0.0
  0
LINE
  8
0
  6
CONTINUOUS
 62
               3
  5
1CB
 10
509.17230848816973
 20
-297.56764002501706
 30
0.0
 11
509.17230848816973
 21
-387.56764002501592
 31
0.0
  0
LINE
  8
0
  6
CONTINUOUS
 62
               3
  5
1CC
 10
521.17230848816996
 20
-297.56764002501706
 30
0.0
 11
521.17230848816996
 21
-387.56764002501711
 31
0.0
  0
LINE
  8
0
  6
CONTINUOUS
 62
               3
  5
1CD
 10
509.17230848816973
 20
-304.8642222633236
 30
0.0
 11
502.17230848817093
 21
-304.8642222633236
 31
0.0
  0
LINE
  8
0
  6
CONTINUOUS
 62
               3
  5
1CE
 10
509.17230848816973
 20
-380.86422226332354
 30
0.0
 11
502.17230848817093
 21
-380.86422226332354
 31
0.0
  0
LINE
  8
0
  6
CONTINUOUS
 62
               3
  5
1CF
 10
339.17230848817212
 20
-297.56764002501706
 30
0.0
 11
327.17230848817189
 21
-297.56764002501706
 31
0.0
  0
LINE
  8
0
  6
CONTINUOUS
 62
               3
  5
1D0
 10
339.17230848817212
 20
-387.56764002501711
 30
0.0
 11
327.17230848817189
 21
-387.56764002501711
 31
0.0
  0
LINE
  8
0
  6
CONTINUOUS
 62
               3
  5
1D1
 10
339.17230848817212
 20
-297.56764002501706
 30
0.0
 11
339.17230848817212
 21
-387.56764002501592
 31
0.0
  0
LINE
  8
0
  6
CONTINUOUS
 62
               3
  5
1D2
 10
327.17230848817189
 20
-297.56764002501706
 30
0.0
 11
327.17230848817189
 21
-387.56764002501711
 31
0.0
  0
LINE
  8
0
  6
CONTINUOUS
 62
               3
  5
1D3
 10
339.17230848817212
 20
-304.8642222633236
 30
0.0
 11
346.17230848817098
 21
-304.8642222633236
 31
0.0
  0
LINE
  8
0
  6
CONTINUOUS
 62
               3
  5
1D4
 10
339.17230848817212
 20
-380.86422226332354
 30
0.0
 11
346.17230848817098
 21
-380.86422226332354
 31
0.0
  0
LINE
  8
0
  6
CONTINUOUS
 62
               3
  5
1D5
 10
490.67230848817098
 20
-191.60717854430658
 30
0.0
 11
357.67230848817098
 21
-191.60717854430658
 31
0.0
  0
LINE
  8
0
  6
CONTINUOUS
 62
               3
  5
1D6
 10
490.67230848817098
 20
-177.60717854430646
 30
0.0
 11
357.67230848817098
 21
-177.60717854430646
 31
0.0
  0
LINE
  8
0
  6
CONTINUOUS
 62
               3
  5
1D7
 10
490.67230848817098
 20
-191.60717854430658
 30
0.0
 11
490.67230848817098
 21
-177.60717854430646
 31
0.0
  0
LINE
  8
0
  6
CONTINUOUS
 62
               3
  5
1D8
 10
357.67230848817098
 20
-177.60717854430646
 30
0.0
 11
357.67230848817098
 21
-191.60717854430658
 31
0.0
  0
LINE
  8
0
  6
CONTINUOUS
 62
               3
  5
1D9
 10
373.17230848817104
 20
-230.78538015240181
 30
0.0
 11
373.17230848817104
 21
-216.60717854430206
 31
0.0
  0
LINE
  8
0
  6
CONTINUOUS
 62
               3
  5
1DA
 10
475.17230848817104
 20
-230.78538015240181
 30
0.0
 11
475.17230848817104
 21
-216.60717854431095
 31
0.0
  0
LINE
  8
0
  6
CONTINUOUS
 62
               3
  5
1DB
 10
373.17230848817098
 20
-191.60717854430658
 30
0.0
 11
373.17230848817098
 21
-202.60717854430646
 31
0.0
  0
LINE
  8
0
  6
CONTINUOUS
 62
               3
  5
1DC
 10
475.17230848817098
 20
-202.60717854430646
 30
0.0
 11
475.17230848817098
 21
-191.60717854430658
 31
0.0
  0
ARC
  8
0
  6
DASHDOT
 62
               4
  5
1DD
 10
-123.82769151182917
 20
-235.60717854430658
 30
0.0
 40
152.0
 50
178.11594976887417
 51
269.99999999994839
  0
LINE
  8
0
  6
DASHDOT
 62
               4
  5
1DE
 10
-275.82769151182902
 20
-397.60717854430641
 30
0.0
 11
-275.82769151182902
 21
-167.60717854430646
 31
0.0
  0
LINE
  8
0
  6
DASHDOT
 62
               4
  5
1DF
 10
-285.82769151182902
 20
-387.60717854430641
 30
0.0
 11
-55.827691511829073
 21
-387.60717854430658
 31
0.0
  0
LINE
  8
0
  6
DASHDOT
 62
               4
  5
1E0
 10
-286.30792225218448
 20
-343.08740928466182
 30
0.0
 11
-176.30792225218448
 21
-343.08740928466182
 31
0.0
  0
LINE
  8
0
  6
DASHDOT
 62
               4
  5
1E1
 10
-231.30792225218448
 20
-398.08740928466182
 30
0.0
 11
-231.30792225218448
 21
-288.08740928466182
 31
0.0
  0
LINE
  8
0
  6
DASHDOT
 62
               4
  5
1E2
 10
-275.82769151182902
 20
394.92380069923126
 30
0.0
 11
-275.82769151182902
 21
249.86184221215493
 31
0.0
  0
LINE
  8
0
  6
DASHDOT
 62
               4
  5
1E3
 10
-360.82769151182919
 20
322.39282145569359
 30
0.0
 11
-55.827691511828959
 21
322.39282145569359
 31
0.0
  0
LINE
  8
0
  6
DASHDOT
 62
               4
  5
1E4
 10
338.5446664435791
 20
-387.60717854430646
 30
0.0
 11
509.79995053276252
 21
-387.60717854430646
 31
0.0
  0
LINE
  8
0
  6
DASHDOT
 62
               4
  5
1E5
 10
424.17230848817098
 20
-167.60717854430646
 30
0.0
 11
424.17230848817098
 21
-485.60717854430646
 31
0.0
  0
LINE
  8
0
  6
DASHED
 62
               4
  5
1E6
 10
-123.82769151182907
 20
-444.63184244272327
 30
0.0
 11
-123.82769151182907
 21
-330.63184244272344
 31
0.0
  0
LINE
  8
0
  6
DASHED
 62
               4
  5
1E7
 10
-320.32769151182896
 20
-230.60717854430646
 30
0.0
 11
-231.32769151182919
 21
-230.60717854430646
 31
0.0
  0
POINT
  8
0
  6
CONTINUOUS
 62
               5
  5
1E8
 10
-275.82769151182907
 20
-387.60717854430641
 30
0.0
  0
LINE
  8
0
  6
DASHED
 62
               7
  5
1E9
 10
-123.82769151182904
 20
379.39282145569359
 30
0.0
 11
-123.82769151182904
 21
265.39282145569371
 31
0.0
  0
LINE
  8
0
  6
HIDDENX2
 62
               7
  5
1EA
 10
379.67230848817098
 20
-230.60717854430649
 30
0.0
 11
468.67230848817098
 21
-230.60717854430649
 31
0.0
  0
ENDSEC
  0
EOF
