  0
SECTION
  2
HEADER
  9
$ACADVER
  1
AC1009
  9
$INSBASE
 10
0.0
 20
0.0
 30
0.0
  9
$EXTMIN
 10
-388.96808398950185
 20
-459.15511811023629
 30
0.0
  9
$EXTMAX
 10
528.31191601049727
 20
482.04488188976399
 30
0.0
  9
$LIMMIN
 10
-417.63308398950181
 20
-488.56761811023631
  9
$LIMMAX
 10
556.97691601049723
 20
511.45738188976401
  9
$ORTHOMODE
 70
               0
  9
$REGENMODE
 70
               1
  9
$FILLMODE
 70
               1
  9
$QTEXTMODE
 70
               0
  9
$MIRRTEXT
 70
               1
  9
$DRAGMODE
 70
               2
  9
$LTSCALE
 40
1.0
  9
$OSMODE
 70
               0
  9
$ATTMODE
 70
               1
  9
$TEXTSIZE
 40
0.2
  9
$TRACEWID
 40
0.05
  9
$TEXTSTYLE
  7
STANDARD
  9
$CLAYER
  8
0
  9
$CELTYPE
  6
CONTINUOUS
  9
$CECOLOR
 62
             256
  9
$DIMSCALE
 40
1.0
  9
$DIMASZ
 40
0.18
  9
$DIMEXO
 40
0.0625
  9
$DIMDLI
 40
0.38
  9
$DIMRND
 40
0.0
  9
$DIMDLE
 40
0.0
  9
$DIMEXE
 40
0.18
  9
$DIMTP
 40
0.0
  9
$DIMTM
 40
0.0
  9
$DIMTXT
 40
0.18
  9
$DIMCEN
 40
0.09
  9
$DIMTSZ
 40
0.0
  9
$DIMTOL
 70
               0
  9
$DIMLIM
 70
               0
  9
$DIMTIH
 70
               1
  9
$DIMTOH
 70
               1
  9
$DIMSE1
 70
               0
  9
$DIMSE2
 70
               0
  9
$DIMTAD
 70
               0
  9
$DIMZIN
 70
               0
  9
$DIMBLK
  1

  9
$DIMASO
 70
               1
  9
$DIMSHO
 70
               1
  9
$DIMPOST
  1

  9
$DIMAPOST
  1

  9
$DIMALT
 70
               0
  9
$DIMALTD
 70
               2
  9
$DIMALTF
 40
25.399999999999999
  9
$DIMLFAC
 40
1.0
  9
$DIMTOFL
 70
               0
  9
$DIMTVP
 40
0.0
  9
$DIMTIX
 70
               0
  9
$DIMSOXD
 70
               0
  9
$DIMSAH
 70
               0
  9
$DIMBLK1
  1

  9
$DIMBLK2
  1

  9
$DIMSTYLE
  2
STANDARD
  9
$DIMCLRD
 70
               0
  9
$DIMCLRE
 70
               0
  9
$DIMCLRT
 70
               0
  9
$DIMTFAC
 40
1.0
  9
$DIMGAP
 40
0.09
  9
$LUNITS
 70
               2
  9
$LUPREC
 70
               4
  9
$AXISMODE
 70
               0
  9
$AXISUNIT
 10
0.0
 20
0.0
  9
$SKETCHINC
 40
0.1
  9
$FILLETRAD
 40
0.0
  9
$AUNITS
 70
               0
  9
$AUPREC
 70
               0
  9
$MENU
  1
acad
  9
$ELEVATION
 40
0.0
  9
$PELEVATION
 40
0.0
  9
$THICKNESS
 40
0.0
  9
$LIMCHECK
 70
               0
  9
$BLIPMODE
 70
               1
  9
$CHAMFERA
 40
0.0
  9
$CHAMFERB
 40
0.0
  9
$SKPOLY
 70
               0
  9
$TDCREATE
 40
0.000000000
  9
$TDUPDATE
 40
0.000000000
  9
$TDINDWG
 40
0.0000000000
  9
$TDUSRTIMER
 40
0.0000000000
  9
$USRTIMER
 70
               1
  9
$ANGBASE
 50
0.0
  9
$ANGDIR
 70
               0
  9
$PDMODE
 70
               0
  9
$PDSIZE
 40
1.0
  9
$PLINEWID
 40
0.0
  9
$COORDS
 70
               1
  9
$SPLFRAME
 70
               0
  9
$SPLINETYPE
 70
               6
  9
$SPLINESEGS
 70
               8
  9
$ATTDIA
 70
               0
  9
$ATTREQ
 70
               1
  9
$HANDLING
 70
               1
  9
$HANDSEED
  5
1ED
  9
$SURFTAB1
 70
               6
  9
$SURFTAB2
 70
               6
  9
$SURFTYPE
 70
               6
  9
$SURFU
 70
               6
  9
$SURFV
 70
               6
  9
$UCSNAME
  2

  9
$UCSORG
 10
0.0
 20
0.0
 30
0.0
  9
$UCSXDIR
 10
1.0
 20
0.0
 30
0.0
  9
$UCSYDIR
 10
0.0
 20
1.0
 30
0.0
  9
$PUCSNAME
  2

  9
$PUCSORG
 10
0.0
 20
0.0
 30
0.0
  9
$PUCSXDIR
 10
1.0
 20
0.0
 30
0.0
  9
$PUCSYDIR
 10
0.0
 20
1.0
 30
0.0
  9
$USERI1
 70
               0
  9
$USERI2
 70
               0
  9
$USERI3
 70
               0
  9
$USERI4
 70
               0
  9
$USERI5
 70
               0
  9
$USERR1
 40
0.0
  9
$USERR2
 40
0.0
  9
$USERR3
 40
0.0
  9
$USERR4
 40
0.0
  9
$USERR5
 40
0.0
  9
$WORLDVIEW
 70
               1
  9
$SHADEDGE
 70
               3
  9
$SHADEDIF
 70
              70
  9
$TILEMODE
 70
               1
  9
$MAXACTVP
 70
              16
  9
$PINSBASE
 10
0.0
 20
0.0
 30
0.0
  9
$PLIMCHECK
 70
               0
  9
$PEXTMIN
 10
1.0000000000000000E+20
 20
1.0000000000000000E+20
 30
1.0000000000000000E+20
  9
$PEXTMAX
 10
-1.0000000000000000E+20
 20
-1.0000000000000000E+20
 30
-1.0000000000000000E+20
  9
$PLIMMIN
 10
0.0
 20
0.0
  9
$PLIMMAX
 10
12.0
 20
9.0
  9
$UNITMODE
 70
               0
  9
$VISRETAIN
 70
               0
  9
$PLINEGEN
 70
               1
  9
$PSLTSCALE
 70
               0
  9
$TREEDEPTH
 70
            3020
  9
$DWGCODEPAGE
  3
dos932
  0
ENDSEC
  0
SECTION
  2
TABLES
  0
TABLE
  2
VPORT
 70
               1
  0
VPORT
  2
*ACTIVE
 70
               0
 10
0.0
 20
0.0
 11
1.0
 21
1.0
 12
69.671916010497711
 22
11.444881889763849
 13
0.0
 23
0.0
 14
1.0
 24
1.0
 15
0.0
 25
0.0
 16
0.0
 26
0.0
 36
1.0
 17
0.0
 27
0.0
 37
0.0
 40
1000.0250000000003
 41
0.9745856353591147
 42
50.0
 43
0.0
 44
0.0
 50
0.0
 51
0.0
 71
               0
 72
             100
 73
               1
 74
               1
 75
               0
 76
               0
 77
               0
 78
               0
  0
ENDTAB
  0
TABLE
  2
LTYPE
 70
              26
  0
LTYPE
  2
CONTINUOUS
 70
               0
  3
Solid line
 72
              65
 73
               0
 40
0.0
  0
LTYPE
  2
HIDDENX2
 70
               0
  3
CADPAC FUSION LINETYPE
 72
              65
 73
               2
 40
80.0
 49
60.0
 49
-20.0
  0
LTYPE
  2
HIDDEN
 70
               0
  3
CADPAC FUSION LINETYPE
 72
              65
 73
               2
 40
60.0
 49
40.0
 49
-20.0
  0
LTYPE
  2
HIDDEN2
 70
               0
  3
CADPAC FUSION LINETYPE
 72
              65
 73
               2
 40
50.0
 49
30.0
 49
-20.0
  0
LTYPE
  2
DASHED
 70
               0
  3
CADPAC FUSION LINETYPE
 72
              65
 73
               2
 40
60.0
 49
40.0
 49
-20.0
  0
LTYPE
  2
DASHED2
 70
               0
  3
CADPAC FUSION LINETYPE
 72
              65
 73
               2
 40
45.0
 49
30.0
 49
-15.0
  0
LTYPE
  2
DASHEDX2
 70
               0
  3
CADPAC FUSION LINETYPE
 72
              65
 73
               2
 40
90.0
 49
60.0
 49
-30.0
  0
LTYPE
  2
DOTX2
 70
               0
  3
CADPAC FUSION LINETYPE
 72
              65
 73
               2
 40
25.0
 49
0.0
 49
-25.0
  0
LTYPE
  2
DOT
 70
               0
  3
CADPAC FUSION LINETYPE
 72
              65
 73
               2
 40
20.0
 49
0.0
 49
-20.0
  0
LTYPE
  2
DOTS
 70
               0
  3
CADPAC FUSION LINETYPE
 72
              65
 73
               2
 40
20.0
 49
0.0
 49
-20.0
  0
LTYPE
  2
DOT2
 70
               0
  3
CADPAC FUSION LINETYPE
 72
              65
 73
               2
 40
15.0
 49
0.0
 49
-15.0
  0
LTYPE
  2
CENTERX2
 70
               0
  3
CADPAC FUSION LINETYPE
 72
              65
 73
               4
 40
120.0
 49
50.0
 49
-25.0
 49
20.0
 49
-25.0
  0
LTYPE
  2
CENTER
 70
               0
  3
CADPAC FUSION LINETYPE
 72
              65
 73
               4
 40
92.0
 49
40.0
 49
-20.0
 49
12.0
 49
-20.0
  0
LTYPE
  2
CENTER2
 70
               0
  3
CADPAC FUSION LINETYPE
 72
              65
 73
               4
 40
64.0
 49
30.0
 49
-15.0
 49
4.0
 49
-15.0
  0
LTYPE
  2
DASHDOTX2
 70
               0
  3
CADPAC FUSION LINETYPE
 72
              65
 73
               4
 40
100.0
 49
50.0
 49
-25.0
 49
0.0
 49
-25.0
  0
LTYPE
  2
DASHDOT
 70
               0
  3
CADPAC FUSION LINETYPE
 72
              65
 73
               4
 40
80.0
 49
40.0
 49
-20.0
 49
0.0
 49
-20.0
  0
LTYPE
  2
DASHDOT2
 70
               0
  3
CADPAC FUSION LINETYPE
 72
              65
 73
               4
 40
60.0
 49
30.0
 49
-15.0
 49
0.0
 49
-15.0
  0
LTYPE
  2
DIVIDEX2
 70
               0
  3
CADPAC FUSION LINETYPE
 72
              65
 73
               6
 40
125.0
 49
50.0
 49
-25.0
 49
0.0
 49
-25.0
 49
0.0
 49
-25.0
  0
LTYPE
  2
DIVIDE
 70
               0
  3
CADPAC FUSION LINETYPE
 72
              65
 73
               6
 40
100.0
 49
40.0
 49
-20.0
 49
0.0
 49
-20.0
 49
0.0
 49
-20.0
  0
LTYPE
  2
DIVIDE2
 70
               0
  3
CADPAC FUSION LINETYPE
 72
              65
 73
               6
 40
75.0
 49
30.0
 49
-15.0
 49
0.0
 49
-15.0
 49
0.0
 49
-15.0
  0
LTYPE
  2
BORDERX2
 70
               0
  3
CADPAC FUSION LINETYPE
 72
              65
 73
               6
 40
175.0
 49
50.0
 49
-25.0
 49
50.0
 49
-25.0
 49
0.0
 49
-25.0
  0
LTYPE
  2
BORDER
 70
               0
  3
CADPAC FUSION LINETYPE
 72
              65
 73
               6
 40
140.0
 49
40.0
 49
-20.0
 49
40.0
 49
-20.0
 49
0.0
 49
-20.0
  0
LTYPE
  2
BORDER2
 70
               0
  3
CADPAC FUSION LINETYPE
 72
              65
 73
               6
 40
105.0
 49
30.0
 49
-15.0
 49
30.0
 49
-15.0
 49
0.0
 49
-15.0
  0
LTYPE
  2
PHANTOMX2
 70
               0
  3
CADPAC FUSION LINETYPE
 72
              65
 73
               6
 40
150.0
 49
50.0
 49
-20.0
 49
20.0
 49
-20.0
 49
20.0
 49
-20.0
  0
LTYPE
  2
PHANTOM
 70
               0
  3
CADPAC FUSION LINETYPE
 72
              65
 73
               6
 40
124.0
 49
40.0
 49
-20.0
 49
12.0
 49
-20.0
 49
12.0
 49
-20.0
  0
LTYPE
  2
PHANTOM2
 70
               0
  3
CADPAC FUSION LINETYPE
 72
              65
 73
               6
 40
106.0
 49
30.0
 49
-20.0
 49
8.0
 49
-20.0
 49
8.0
 49
-20.0
  0
ENDTAB
  0
TABLE
  2
LAYER
 70
             256
  0
LAYER
  2
0
 70
               0
 62
               7
  6
CONTINUOUS
  0
LAYER
  2
LAYER001
 70
               0
 62
               7
  6
CONTINUOUS
  0
LAYER
  2
LAYER002
 70
               0
 62
               7
  6
CONTINUOUS
  0
LAYER
  2
LAYER003
 70
               0
 62
               7
  6
CONTINUOUS
  0
LAYER
  2
LAYER004
 70
               0
 62
               7
  6
CONTINUOUS
  0
LAYER
  2
LAYER005
 70
               0
 62
               7
  6
CONTINUOUS
  0
LAYER
  2
LAYER006
 70
               0
 62
               7
  6
CONTINUOUS
  0
LAYER
  2
LAYER007
 70
               0
 62
               7
  6
CONTINUOUS
  0
LAYER
  2
LAYER008
 70
               0
 62
               7
  6
CONTINUOUS
  0
LAYER
  2
LAYER009
 70
               0
 62
               7
  6
CONTINUOUS
  0
LAYER
  2
LAYER010
 70
               0
 62
               7
  6
CONTINUOUS
  0
LAYER
  2
LAYER011
 70
               0
 62
               7
  6
CONTINUOUS
  0
LAYER
  2
LAYER012
 70
               0
 62
               7
  6
CONTINUOUS
  0
LAYER
  2
LAYER013
 70
               0
 62
               7
  6
CONTINUOUS
  0
LAYER
  2
LAYER014
 70
               0
 62
               7
  6
CONTINUOUS
  0
LAYER
  2
LAYER015
 70
               0
 62
               7
  6
CONTINUOUS
  0
LAYER
  2
LAYER016
 70
               0
 62
               7
  6
CONTINUOUS
  0
LAYER
  2
LAYER017
 70
               0
 62
               7
  6
CONTINUOUS
  0
LAYER
  2
LAYER018
 70
               0
 62
               7
  6
CONTINUOUS
  0
LAYER
  2
LAYER019
 70
               0
 62
               7
  6
CONTINUOUS
  0
LAYER
  2
LAYER020
 70
               0
 62
               7
  6
CONTINUOUS
  0
LAYER
  2
LAYER021
 70
               0
 62
               7
  6
CONTINUOUS
  0
LAYER
  2
LAYER022
 70
               0
 62
               7
  6
CONTINUOUS
  0
LAYER
  2
LAYER023
 70
               0
 62
               7
  6
CONTINUOUS
  0
LAYER
  2
LAYER024
 70
               0
 62
               7
  6
CONTINUOUS
  0
LAYER
  2
LAYER025
 70
               0
 62
               7
  6
CONTINUOUS
  0
LAYER
  2
LAYER026
 70
               0
 62
               7
  6
CONTINUOUS
  0
LAYER
  2
LAYER027
 70
               0
 62
               7
  6
CONTINUOUS
  0
LAYER
  2
LAYER028
 70
               0
 62
               7
  6
CONTINUOUS
  0
LAYER
  2
LAYER029
 70
               0
 62
               7
  6
CONTINUOUS
  0
LAYER
  2
LAYER030
 70
               0
 62
               7
  6
CONTINUOUS
  0
LAYER
  2
LAYER031
 70
               0
 62
               7
  6
CONTINUOUS
  0
LAYER
  2
LAYER032
 70
               0
 62
               7
  6
CONTINUOUS
  0
LAYER
  2
LAYER033
 70
               0
 62
               7
  6
CONTINUOUS
  0
LAYER
  2
LAYER034
 70
               0
 62
               7
  6
CONTINUOUS
  0
LAYER
  2
LAYER035
 70
               0
 62
               7
  6
CONTINUOUS
  0
LAYER
  2
LAYER036
 70
               0
 62
               7
  6
CONTINUOUS
  0
LAYER
  2
LAYER037
 70
               0
 62
               7
  6
CONTINUOUS
  0
LAYER
  2
LAYER038
 70
               0
 62
               7
  6
CONTINUOUS
  0
LAYER
  2
LAYER039
 70
               0
 62
               7
  6
CONTINUOUS
  0
LAYER
  2
LAYER040
 70
               0
 62
               7
  6
CONTINUOUS
  0
LAYER
  2
LAYER041
 70
               0
 62
               7
  6
CONTINUOUS
  0
LAYER
  2
LAYER042
 70
               0
 62
               7
  6
CONTINUOUS
  0
LAYER
  2
LAYER043
 70
               0
 62
               7
  6
CONTINUOUS
  0
LAYER
  2
LAYER044
 70
               0
 62
               7
  6
CONTINUOUS
  0
LAYER
  2
LAYER045
 70
               0
 62
               7
  6
CONTINUOUS
  0
LAYER
  2
LAYER046
 70
               0
 62
               7
  6
CONTINUOUS
  0
LAYER
  2
LAYER047
 70
               0
 62
               7
  6
CONTINUOUS
  0
LAYER
  2
LAYER048
 70
               0
 62
               7
  6
CONTINUOUS
  0
LAYER
  2
LAYER049
 70
               0
 62
               7
  6
CONTINUOUS
  0
LAYER
  2
LAYER050
 70
               0
 62
               7
  6
CONTINUOUS
  0
LAYER
  2
LAYER051
 70
               0
 62
               7
  6
CONTINUOUS
  0
LAYER
  2
LAYER052
 70
               0
 62
               7
  6
CONTINUOUS
  0
LAYER
  2
LAYER053
 70
               0
 62
               7
  6
CONTINUOUS
  0
LAYER
  2
LAYER054
 70
               0
 62
               7
  6
CONTINUOUS
  0
LAYER
  2
LAYER055
 70
               0
 62
               7
  6
CONTINUOUS
  0
LAYER
  2
LAYER056
 70
               0
 62
               7
  6
CONTINUOUS
  0
LAYER
  2
LAYER057
 70
               0
 62
               7
  6
CONTINUOUS
  0
LAYER
  2
LAYER058
 70
               0
 62
               7
  6
CONTINUOUS
  0
LAYER
  2
LAYER059
 70
               0
 62
               7
  6
CONTINUOUS
  0
LAYER
  2
LAYER060
 70
               0
 62
               7
  6
CONTINUOUS
  0
LAYER
  2
LAYER061
 70
               0
 62
               7
  6
CONTINUOUS
  0
LAYER
  2
LAYER062
 70
               0
 62
               7
  6
CONTINUOUS
  0
LAYER
  2
LAYER063
 70
               0
 62
               7
  6
CONTINUOUS
  0
LAYER
  2
LAYER064
 70
               0
 62
               7
  6
CONTINUOUS
  0
LAYER
  2
LAYER065
 70
               0
 62
               7
  6
CONTINUOUS
  0
LAYER
  2
LAYER066
 70
               0
 62
               7
  6
CONTINUOUS
  0
LAYER
  2
LAYER067
 70
               0
 62
               7
  6
CONTINUOUS
  0
LAYER
  2
LAYER068
 70
               0
 62
               7
  6
CONTINUOUS
  0
LAYER
  2
LAYER069
 70
               0
 62
               7
  6
CONTINUOUS
  0
LAYER
  2
LAYER070
 70
               0
 62
               7
  6
CONTINUOUS
  0
LAYER
  2
LAYER071
 70
               0
 62
               7
  6
CONTINUOUS
  0
LAYER
  2
LAYER072
 70
               0
 62
               7
  6
CONTINUOUS
  0
LAYER
  2
LAYER073
 70
               0
 62
               7
  6
CONTINUOUS
  0
LAYER
  2
LAYER074
 70
               0
 62
               7
  6
CONTINUOUS
  0
LAYER
  2
LAYER075
 70
               0
 62
               7
  6
CONTINUOUS
  0
LAYER
  2
LAYER076
 70
               0
 62
               7
  6
CONTINUOUS
  0
LAYER
  2
LAYER077
 70
               0
 62
               7
  6
CONTINUOUS
  0
LAYER
  2
LAYER078
 70
               0
 62
               7
  6
CONTINUOUS
  0
LAYER
  2
LAYER079
 70
               0
 62
               7
  6
CONTINUOUS
  0
LAYER
  2
LAYER080
 70
               0
 62
               7
  6
CONTINUOUS
  0
LAYER
  2
LAYER081
 70
               0
 62
               7
  6
CONTINUOUS
  0
LAYER
  2
LAYER082
 70
               0
 62
               7
  6
CONTINUOUS
  0
LAYER
  2
LAYER083
 70
               0
 62
               7
  6
CONTINUOUS
  0
LAYER
  2
LAYER084
 70
               0
 62
               7
  6
CONTINUOUS
  0
LAYER
  2
LAYER085
 70
               0
 62
               7
  6
CONTINUOUS
  0
LAYER
  2
LAYER086
 70
               0
 62
               7
  6
CONTINUOUS
  0
LAYER
  2
LAYER087
 70
               0
 62
               7
  6
CONTINUOUS
  0
LAYER
  2
LAYER088
 70
               0
 62
               7
  6
CONTINUOUS
  0
LAYER
  2
LAYER089
 70
               0
 62
               7
  6
CONTINUOUS
  0
LAYER
  2
LAYER090
 70
               0
 62
               7
  6
CONTINUOUS
  0
LAYER
  2
LAYER091
 70
               0
 62
               7
  6
CONTINUOUS
  0
LAYER
  2
LAYER092
 70
               0
 62
               7
  6
CONTINUOUS
  0
LAYER
  2
LAYER093
 70
               0
 62
               7
  6
CONTINUOUS
  0
LAYER
  2
LAYER094
 70
               0
 62
               7
  6
CONTINUOUS
  0
LAYER
  2
LAYER095
 70
               0
 62
               7
  6
CONTINUOUS
  0
LAYER
  2
LAYER096
 70
               0
 62
               7
  6
CONTINUOUS
  0
LAYER
  2
LAYER097
 70
               0
 62
               7
  6
CONTINUOUS
  0
LAYER
  2
LAYER098
 70
               0
 62
               7
  6
CONTINUOUS
  0
LAYER
  2
LAYER099
 70
               0
 62
               7
  6
CONTINUOUS
  0
LAYER
  2
LAYER100
 70
               0
 62
               7
  6
CONTINUOUS
  0
LAYER
  2
LAYER101
 70
               0
 62
               7
  6
CONTINUOUS
  0
LAYER
  2
LAYER102
 70
               0
 62
               7
  6
CONTINUOUS
  0
LAYER
  2
LAYER103
 70
               0
 62
               7
  6
CONTINUOUS
  0
LAYER
  2
LAYER104
 70
               0
 62
               7
  6
CONTINUOUS
  0
LAYER
  2
LAYER105
 70
               0
 62
               7
  6
CONTINUOUS
  0
LAYER
  2
LAYER106
 70
               0
 62
               7
  6
CONTINUOUS
  0
LAYER
  2
LAYER107
 70
               0
 62
               7
  6
CONTINUOUS
  0
LAYER
  2
LAYER108
 70
               0
 62
               7
  6
CONTINUOUS
  0
LAYER
  2
LAYER109
 70
               0
 62
               7
  6
CONTINUOUS
  0
LAYER
  2
LAYER110
 70
               0
 62
               7
  6
CONTINUOUS
  0
LAYER
  2
LAYER111
 70
               0
 62
               7
  6
CONTINUOUS
  0
LAYER
  2
LAYER112
 70
               0
 62
               7
  6
CONTINUOUS
  0
LAYER
  2
LAYER113
 70
               0
 62
               7
  6
CONTINUOUS
  0
LAYER
  2
LAYER114
 70
               0
 62
               7
  6
CONTINUOUS
  0
LAYER
  2
LAYER115
 70
               0
 62
               7
  6
CONTINUOUS
  0
LAYER
  2
LAYER116
 70
               0
 62
               7
  6
CONTINUOUS
  0
LAYER
  2
LAYER117
 70
               0
 62
               7
  6
CONTINUOUS
  0
LAYER
  2
LAYER118
 70
               0
 62
               7
  6
CONTINUOUS
  0
LAYER
  2
LAYER119
 70
               0
 62
               7
  6
CONTINUOUS
  0
LAYER
  2
LAYER120
 70
               0
 62
               7
  6
CONTINUOUS
  0
LAYER
  2
LAYER121
 70
               0
 62
               7
  6
CONTINUOUS
  0
LAYER
  2
LAYER122
 70
               0
 62
               7
  6
CONTINUOUS
  0
LAYER
  2
LAYER123
 70
               0
 62
               7
  6
CONTINUOUS
  0
LAYER
  2
LAYER124
 70
               0
 62
               7
  6
CONTINUOUS
  0
LAYER
  2
LAYER125
 70
               0
 62
               7
  6
CONTINUOUS
  0
LAYER
  2
LAYER126
 70
               0
 62
               7
  6
CONTINUOUS
  0
LAYER
  2
LAYER127
 70
               0
 62
               7
  6
CONTINUOUS
  0
LAYER
  2
LAYER128
 70
               0
 62
               7
  6
CONTINUOUS
  0
LAYER
  2
LAYER129
 70
               0
 62
               7
  6
CONTINUOUS
  0
LAYER
  2
LAYER130
 70
               0
 62
               7
  6
CONTINUOUS
  0
LAYER
  2
LAYER131
 70
               0
 62
               7
  6
CONTINUOUS
  0
LAYER
  2
LAYER132
 70
               0
 62
               7
  6
CONTINUOUS
  0
LAYER
  2
LAYER133
 70
               0
 62
               7
  6
CONTINUOUS
  0
LAYER
  2
LAYER134
 70
               0
 62
               7
  6
CONTINUOUS
  0
LAYER
  2
LAYER135
 70
               0
 62
               7
  6
CONTINUOUS
  0
LAYER
  2
LAYER136
 70
               0
 62
               7
  6
CONTINUOUS
  0
LAYER
  2
LAYER137
 70
               0
 62
               7
  6
CONTINUOUS
  0
LAYER
  2
LAYER138
 70
               0
 62
               7
  6
CONTINUOUS
  0
LAYER
  2
LAYER139
 70
               0
 62
               7
  6
CONTINUOUS
  0
LAYER
  2
LAYER140
 70
               0
 62
               7
  6
CONTINUOUS
  0
LAYER
  2
LAYER141
 70
               0
 62
               7
  6
CONTINUOUS
  0
LAYER
  2
LAYER142
 70
               0
 62
               7
  6
CONTINUOUS
  0
LAYER
  2
LAYER143
 70
               0
 62
               7
  6
CONTINUOUS
  0
LAYER
  2
LAYER144
 70
               0
 62
               7
  6
CONTINUOUS
  0
LAYER
  2
LAYER145
 70
               0
 62
               7
  6
CONTINUOUS
  0
LAYER
  2
LAYER146
 70
               0
 62
               7
  6
CONTINUOUS
  0
LAYER
  2
LAYER147
 70
               0
 62
               7
  6
CONTINUOUS
  0
LAYER
  2
LAYER148
 70
               0
 62
               7
  6
CONTINUOUS
  0
LAYER
  2
LAYER149
 70
               0
 62
               7
  6
CONTINUOUS
  0
LAYER
  2
LAYER150
 70
               0
 62
               7
  6
CONTINUOUS
  0
LAYER
  2
LAYER151
 70
               0
 62
               7
  6
CONTINUOUS
  0
LAYER
  2
LAYER152
 70
               0
 62
               7
  6
CONTINUOUS
  0
LAYER
  2
LAYER153
 70
               0
 62
               7
  6
CONTINUOUS
  0
LAYER
  2
LAYER154
 70
               0
 62
               7
  6
CONTINUOUS
  0
LAYER
  2
LAYER155
 70
               0
 62
               7
  6
CONTINUOUS
  0
LAYER
  2
LAYER156
 70
               0
 62
               7
  6
CONTINUOUS
  0
LAYER
  2
LAYER157
 70
               0
 62
               7
  6
CONTINUOUS
  0
LAYER
  2
LAYER158
 70
               0
 62
               7
  6
CONTINUOUS
  0
LAYER
  2
LAYER159
 70
               0
 62
               7
  6
CONTINUOUS
  0
LAYER
  2
LAYER160
 70
               0
 62
               7
  6
CONTINUOUS
  0
LAYER
  2
LAYER161
 70
               0
 62
               7
  6
CONTINUOUS
  0
LAYER
  2
LAYER162
 70
               0
 62
               7
  6
CONTINUOUS
  0
LAYER
  2
LAYER163
 70
               0
 62
               7
  6
CONTINUOUS
  0
LAYER
  2
LAYER164
 70
               0
 62
               7
  6
CONTINUOUS
  0
LAYER
  2
LAYER165
 70
               0
 62
               7
  6
CONTINUOUS
  0
LAYER
  2
LAYER166
 70
               0
 62
               7
  6
CONTINUOUS
  0
LAYER
  2
LAYER167
 70
               0
 62
               7
  6
CONTINUOUS
  0
LAYER
  2
LAYER168
 70
               0
 62
               7
  6
CONTINUOUS
  0
LAYER
  2
LAYER169
 70
               0
 62
               7
  6
CONTINUOUS
  0
LAYER
  2
LAYER170
 70
               0
 62
               7
  6
CONTINUOUS
  0
LAYER
  2
LAYER171
 70
               0
 62
               7
  6
CONTINUOUS
  0
LAYER
  2
LAYER172
 70
               0
 62
               7
  6
CONTINUOUS
  0
LAYER
  2
LAYER173
 70
               0
 62
               7
  6
CONTINUOUS
  0
LAYER
  2
LAYER174
 70
               0
 62
               7
  6
CONTINUOUS
  0
LAYER
  2
LAYER175
 70
               0
 62
               7
  6
CONTINUOUS
  0
LAYER
  2
LAYER176
 70
               0
 62
               7
  6
CONTINUOUS
  0
LAYER
  2
LAYER177
 70
               0
 62
               7
  6
CONTINUOUS
  0
LAYER
  2
LAYER178
 70
               0
 62
               7
  6
CONTINUOUS
  0
LAYER
  2
LAYER179
 70
               0
 62
               7
  6
CONTINUOUS
  0
LAYER
  2
LAYER180
 70
               0
 62
               7
  6
CONTINUOUS
  0
LAYER
  2
LAYER181
 70
               0
 62
               7
  6
CONTINUOUS
  0
LAYER
  2
LAYER182
 70
               0
 62
               7
  6
CONTINUOUS
  0
LAYER
  2
LAYER183
 70
               0
 62
               7
  6
CONTINUOUS
  0
LAYER
  2
LAYER184
 70
               0
 62
               7
  6
CONTINUOUS
  0
LAYER
  2
LAYER185
 70
               0
 62
               7
  6
CONTINUOUS
  0
LAYER
  2
LAYER186
 70
               0
 62
               7
  6
CONTINUOUS
  0
LAYER
  2
LAYER187
 70
               0
 62
               7
  6
CONTINUOUS
  0
LAYER
  2
LAYER188
 70
               0
 62
               7
  6
CONTINUOUS
  0
LAYER
  2
LAYER189
 70
               0
 62
               7
  6
CONTINUOUS
  0
LAYER
  2
LAYER190
 70
               0
 62
               7
  6
CONTINUOUS
  0
LAYER
  2
LAYER191
 70
               0
 62
               7
  6
CONTINUOUS
  0
LAYER
  2
LAYER192
 70
               0
 62
               7
  6
CONTINUOUS
  0
LAYER
  2
LAYER193
 70
               0
 62
               7
  6
CONTINUOUS
  0
LAYER
  2
LAYER194
 70
               0
 62
               7
  6
CONTINUOUS
  0
LAYER
  2
LAYER195
 70
               0
 62
               7
  6
CONTINUOUS
  0
LAYER
  2
LAYER196
 70
               0
 62
               7
  6
CONTINUOUS
  0
LAYER
  2
LAYER197
 70
               0
 62
               7
  6
CONTINUOUS
  0
LAYER
  2
LAYER198
 70
               0
 62
               7
  6
CONTINUOUS
  0
LAYER
  2
LAYER199
 70
               0
 62
               7
  6
CONTINUOUS
  0
LAYER
  2
LAYER200
 70
               0
 62
               7
  6
CONTINUOUS
  0
LAYER
  2
LAYER201
 70
               0
 62
               7
  6
CONTINUOUS
  0
LAYER
  2
LAYER202
 70
               0
 62
               7
  6
CONTINUOUS
  0
LAYER
  2
LAYER203
 70
               0
 62
               7
  6
CONTINUOUS
  0
LAYER
  2
LAYER204
 70
               0
 62
               7
  6
CONTINUOUS
  0
LAYER
  2
LAYER205
 70
               0
 62
               7
  6
CONTINUOUS
  0
LAYER
  2
LAYER206
 70
               0
 62
               7
  6
CONTINUOUS
  0
LAYER
  2
LAYER207
 70
               0
 62
               7
  6
CONTINUOUS
  0
LAYER
  2
LAYER208
 70
               0
 62
               7
  6
CONTINUOUS
  0
LAYER
  2
LAYER209
 70
               0
 62
               7
  6
CONTINUOUS
  0
LAYER
  2
LAYER210
 70
               0
 62
               7
  6
CONTINUOUS
  0
LAYER
  2
LAYER211
 70
               0
 62
               7
  6
CONTINUOUS
  0
LAYER
  2
LAYER212
 70
               0
 62
               7
  6
CONTINUOUS
  0
LAYER
  2
LAYER213
 70
               0
 62
               7
  6
CONTINUOUS
  0
LAYER
  2
LAYER214
 70
               0
 62
               7
  6
CONTINUOUS
  0
LAYER
  2
LAYER215
 70
               0
 62
               7
  6
CONTINUOUS
  0
LAYER
  2
LAYER216
 70
               0
 62
               7
  6
CONTINUOUS
  0
LAYER
  2
LAYER217
 70
               0
 62
               7
  6
CONTINUOUS
  0
LAYER
  2
LAYER218
 70
               0
 62
               7
  6
CONTINUOUS
  0
LAYER
  2
LAYER219
 70
               0
 62
               7
  6
CONTINUOUS
  0
LAYER
  2
LAYER220
 70
               0
 62
               7
  6
CONTINUOUS
  0
LAYER
  2
LAYER221
 70
               0
 62
               7
  6
CONTINUOUS
  0
LAYER
  2
LAYER222
 70
               0
 62
               7
  6
CONTINUOUS
  0
LAYER
  2
LAYER223
 70
               0
 62
               7
  6
CONTINUOUS
  0
LAYER
  2
LAYER224
 70
               0
 62
               7
  6
CONTINUOUS
  0
LAYER
  2
LAYER225
 70
               0
 62
               7
  6
CONTINUOUS
  0
LAYER
  2
LAYER226
 70
               0
 62
               7
  6
CONTINUOUS
  0
LAYER
  2
LAYER227
 70
               0
 62
               7
  6
CONTINUOUS
  0
LAYER
  2
LAYER228
 70
               0
 62
               7
  6
CONTINUOUS
  0
LAYER
  2
LAYER229
 70
               0
 62
               7
  6
CONTINUOUS
  0
LAYER
  2
LAYER230
 70
               0
 62
               7
  6
CONTINUOUS
  0
LAYER
  2
LAYER231
 70
               0
 62
               7
  6
CONTINUOUS
  0
LAYER
  2
LAYER232
 70
               0
 62
               7
  6
CONTINUOUS
  0
LAYER
  2
LAYER233
 70
               0
 62
               7
  6
CONTINUOUS
  0
LAYER
  2
LAYER234
 70
               0
 62
               7
  6
CONTINUOUS
  0
LAYER
  2
LAYER235
 70
               0
 62
               7
  6
CONTINUOUS
  0
LAYER
  2
LAYER236
 70
               0
 62
               7
  6
CONTINUOUS
  0
LAYER
  2
LAYER237
 70
               0
 62
               7
  6
CONTINUOUS
  0
LAYER
  2
LAYER238
 70
               0
 62
               7
  6
CONTINUOUS
  0
LAYER
  2
LAYER239
 70
               0
 62
               7
  6
CONTINUOUS
  0
LAYER
  2
LAYER240
 70
               0
 62
               7
  6
CONTINUOUS
  0
LAYER
  2
LAYER241
 70
               0
 62
               7
  6
CONTINUOUS
  0
LAYER
  2
LAYER242
 70
               0
 62
               7
  6
CONTINUOUS
  0
LAYER
  2
LAYER243
 70
               0
 62
               7
  6
CONTINUOUS
  0
LAYER
  2
LAYER244
 70
               0
 62
               7
  6
CONTINUOUS
  0
LAYER
  2
LAYER245
 70
               0
 62
               7
  6
CONTINUOUS
  0
LAYER
  2
LAYER246
 70
               0
 62
               7
  6
CONTINUOUS
  0
LAYER
  2
LAYER247
 70
               0
 62
               7
  6
CONTINUOUS
  0
LAYER
  2
LAYER248
 70
               0
 62
               7
  6
CONTINUOUS
  0
LAYER
  2
LAYER249
 70
               0
 62
               7
  6
CONTINUOUS
  0
LAYER
  2
LAYER250
 70
               0
 62
               7
  6
CONTINUOUS
  0
LAYER
  2
LAYER251
 70
               0
 62
               7
  6
CONTINUOUS
  0
LAYER
  2
LAYER252
 70
               0
 62
               7
  6
CONTINUOUS
  0
LAYER
  2
LAYER253
 70
               0
 62
               7
  6
CONTINUOUS
  0
LAYER
  2
LAYER254
 70
               0
 62
               7
  6
CONTINUOUS
  0
LAYER
  2
LAYER255
 70
               0
 62
               7
  6
CONTINUOUS
  0
ENDTAB
  0
TABLE
  2
STYLE
 70
               1
  0
STYLE
  2
STANDARD
 70
               0
 40
0.0
 41
1.0
 50
0.0
 71
               0
 42
0.0
  3
txt
  4

  0
ENDTAB
  0
TABLE
  2
VIEW
 70
               0
  0
VIEW
  2
QQQQ
 70
               0
 40
1000.0250000000003
 10
69.671916010497711
 20
11.444881889763849
 41
974.60999999999899
 11
0.0
 21
0.0
 31
1.0
 12
100.0
 22
100.0
 32
0.0
 42
50.0
 43
0.0
 44
0.0
 50
0.0
 71
               0
  0
ENDTAB
  0
TABLE
  2
UCS
 70
               0
  0
ENDTAB
  0
TABLE
  2
APPID
 70
               1
  0
APPID
  2
ACAD
 70
               0
  0
ENDTAB
  0
TABLE
  2
DIMSTYLE
 70
               1
  0
DIMSTYLE
  2
STANDARD
 70
               0
  3

  4

  5

  6

  7

 40
1.0
 41
0.18
 42
0.0625
 43
0.38
 44
0.18
 45
0.0
 46
0.0
 47
0.0
 48
0.0
140
0.18
141
0.09
142
0.0
143
25.399999999999999
144
1.0
145
0.0
146
1.0
147
0.09
 71
               0
 72
               0
 73
               1
 74
               1
 75
               0
 76
               0
 77
               0
 78
               0
170
               0
171
               2
172
               0
173
               0
174
               0
175
               0
176
               0
177
               0
178
               0
  0
ENDTAB
  0
ENDSEC
  0
SECTION
  2
BLOCKS
  0
ENDSEC
  0
SECTION
  2
ENTITIES
  0
LINE
  8
0
  6
CONTINUOUS
 62
               3
  5
136
 10
-286.80808398950228
 20
451.94488188976408
 30
0.0
 11
-196.80808398950168
 21
451.94488188976408
 31
0.0
  0
LINE
  8
0
  6
CONTINUOUS
 62
               3
  5
137
 10
-286.80808398950228
 20
463.94488188976396
 30
0.0
 11
-196.80808398950168
 21
463.94488188976396
 31
0.0
  0
LINE
  8
0
  6
CONTINUOUS
 62
               3
  5
138
 10
-286.80808398950228
 20
451.94488188976379
 30
0.0
 11
-286.80808398950228
 21
463.94488188976396
 31
0.0
  0
LINE
  8
0
  6
CONTINUOUS
 62
               3
  5
139
 10
-196.80808398950168
 20
451.94488188976379
 30
0.0
 11
-196.80808398950168
 21
463.94488188976396
 31
0.0
  0
LINE
  8
0
  6
CONTINUOUS
 62
               3
  5
13A
 10
-279.80913001002807
 20
451.94488188976408
 30
0.0
 11
-279.80913001002807
 21
444.94488188976391
 31
0.0
  0
LINE
  8
0
  6
CONTINUOUS
 62
               3
  5
13B
 10
-203.80913001002787
 20
451.94488188976408
 30
0.0
 11
-203.80913001002787
 21
444.94488188976391
 31
0.0
  0
LINE
  8
0
  6
CONTINUOUS
 62
               3
  5
13C
 10
-286.80808398950228
 20
281.94488188976362
 30
0.0
 11
-196.80808398950168
 21
281.94488188976362
 31
0.0
  0
LINE
  8
0
  6
CONTINUOUS
 62
               3
  5
13D
 10
-286.80808398950228
 20
269.94488188976362
 30
0.0
 11
-196.80808398950168
 21
269.94488188976362
 31
0.0
  0
LINE
  8
0
  6
CONTINUOUS
 62
               3
  5
13E
 10
-286.80808398950228
 20
281.94488188976391
 30
0.0
 11
-286.80808398950228
 21
269.94488188976391
 31
0.0
  0
LINE
  8
0
  6
CONTINUOUS
 62
               3
  5
13F
 10
-196.80808398950168
 20
281.94488188976391
 30
0.0
 11
-196.80808398950168
 21
269.94488188976391
 31
0.0
  0
LINE
  8
0
  6
CONTINUOUS
 62
               3
  5
140
 10
-279.80913001002807
 20
281.94488188976362
 30
0.0
 11
-279.80913001002807
 21
288.94488188976379
 31
0.0
  0
LINE
  8
0
  6
CONTINUOUS
 62
               3
  5
141
 10
-203.80913001002787
 20
281.94488188976362
 30
0.0
 11
-203.80913001002787
 21
288.94488188976379
 31
0.0
  0
CIRCLE
  8
0
  6
CONTINUOUS
 62
               3
  5
142
 10
-286.32808398950169
 20
366.94488188976379
 30
0.0
 40
46.0
  0
ARC
  8
0
  6
CONTINUOUS
 62
               3
  5
143
 10
-286.32808398950169
 20
366.94488188976379
 30
0.0
 40
61.999999999999993
 50
217.47199518277233
 51
262.52800481713598
  0
ARC
  8
0
  6
CONTINUOUS
 62
               3
  5
144
 10
-349.32808398950186
 20
366.94488188976379
 30
0.0
 40
12.0
 50
142.52800481715857
 51
217.47199518277262
  0
LINE
  8
0
  6
CONTINUOUS
 62
               3
  5
145
 10
-358.85189351331115
 20
374.2453648980445
 30
0.0
 11
-335.53443319585074
 21
404.6640440992141
 31
0.0
  0
LINE
  8
0
  6
CONTINUOUS
 62
               3
  5
146
 10
-358.85189351331115
 20
359.6443988814832
 30
0.0
 11
-335.53443319585074
 21
329.2257196803136
 31
0.0
  0
ARC
  8
0
  6
CONTINUOUS
 62
               3
  5
147
 10
-254.82808398950158
 20
312.38528145134421
 30
0.0
 40
12.0
 50
262.52800481713581
 51
337.47199518274914
  0
LINE
  8
0
  6
CONTINUOUS
 62
               3
  5
148
 10
-256.38858297266461
 20
300.4871789587807
 30
0.0
 11
-294.3906620691771
 21
305.47135234485211
 31
0.0
  0
LINE
  8
0
  6
CONTINUOUS
 62
               3
  5
149
 10
-243.74377548252926
 20
307.7876619670613
 30
0.0
 11
-229.05915670347713
 21
343.19051455430241
 31
0.0
  0
ARC
  8
0
  6
CONTINUOUS
 62
               3
  5
14A
 10
-254.82808398950158
 20
421.50448232818349
 30
0.0
 40
12.0
 50
22.528004817181461
 51
97.471995182795368
  0
LINE
  8
0
  6
CONTINUOUS
 62
               3
  5
14B
 10
-243.74377548252914
 20
426.10210181246623
 30
0.0
 11
-229.05915670347713
 21
390.69924922522529
 31
0.0
  0
LINE
  8
0
  6
CONTINUOUS
 62
               3
  5
14C
 10
-256.38858297266461
 20
433.40258482074699
 30
0.0
 11
-294.3906620691771
 21
428.41841143467548
 31
0.0
  0
ARC
  8
0
  6
CONTINUOUS
 62
               3
  5
14D
 10
-286.32808398950169
 20
366.94488188976379
 30
0.0
 40
61.999999999999993
 50
337.47199518274937
 51
382.52800481711222
  0
ARC
  8
0
  6
CONTINUOUS
 62
               3
  5
14E
 10
-286.32808398950169
 20
366.94488188976379
 30
0.0
 40
61.999999999999993
 50
97.471995182795283
 51
142.52800481715883
  0
LINE
  8
0
  6
CONTINUOUS
 62
               3
  5
14F
 10
-196.80808398950168
 20
423.94488188976379
 30
0.0
 11
-139.32808398950166
 21
423.94488188976379
 31
0.0
  0
LINE
  8
0
  6
CONTINUOUS
 62
               3
  5
150
 10
-196.80808398950168
 20
309.94488188976391
 30
0.0
 11
-139.32808398950166
 21
309.94488188976391
 31
0.0
  0
LINE
  8
0
  6
CONTINUOUS
 62
               3
  5
151
 10
-116.32808398950013
 20
302.42023293645616
 30
0.0
 11
-139.32808398950166
 21
302.42023293645894
 31
0.0
  0
LINE
  8
0
  6
CONTINUOUS
 62
               3
  5
152
 10
-116.32808398950144
 20
431.4202329364569
 30
0.0
 11
-139.32808398950166
 21
431.4202329364569
 31
0.0
  0
LINE
  8
0
  6
CONTINUOUS
 62
               3
  5
153
 10
-101.32808398950144
 20
442.42023293645275
 30
0.0
 11
-116.32808398950144
 21
442.42023293645968
 31
0.0
  0
LINE
  8
0
  6
CONTINUOUS
 62
               3
  5
154
 10
-101.32808398950183
 20
291.4695308430633
 30
0.0
 11
-116.32808398950144
 21
291.46953084306546
 31
0.0
  0
LINE
  8
0
  6
CONTINUOUS
 62
               3
  5
155
 10
-101.32808398950144
 20
442.42023293645275
 30
0.0
 11
-101.32808398950183
 21
291.4695308430633
 31
0.0
  0
LINE
  8
0
  6
CONTINUOUS
 62
               3
  5
156
 10
-286.80808398950171
 20
444.94488188976391
 30
0.0
 11
-196.80808398950168
 21
444.94488188976391
 31
0.0
  0
LINE
  8
0
  6
CONTINUOUS
 62
               3
  5
157
 10
-286.80808398950171
 20
444.94488188976391
 30
0.0
 11
-286.80808398950171
 21
429.4129065981258
 31
0.0
  0
LINE
  8
0
  6
CONTINUOUS
 62
               3
  5
158
 10
-196.80808398950168
 20
444.94488188976391
 30
0.0
 11
-196.80808398950168
 21
376.94488188976379
 31
0.0
  0
LINE
  8
0
  6
CONTINUOUS
 62
               3
  5
159
 10
-196.80808398950168
 20
356.94488188976379
 30
0.0
 11
-196.80808398950168
 21
288.94488188976379
 31
0.0
  0
LINE
  8
0
  6
CONTINUOUS
 62
               3
  5
15A
 10
-286.80808398950171
 20
288.94488188976379
 30
0.0
 11
-196.80808398950168
 21
288.94488188976379
 31
0.0
  0
LINE
  8
0
  6
CONTINUOUS
 62
               3
  5
15B
 10
-286.80808398950171
 20
288.94488188976379
 30
0.0
 11
-286.80808398950171
 21
304.47685718140218
 31
0.0
  0
ARC
  8
0
  6
CONTINUOUS
 62
               3
  5
15C
 10
-206.80808398950168
 20
376.94488188976379
 30
0.0
 40
9.9999999999999982
 50
197.87232645065367
 51
359.99999999993042
  0
ARC
  8
0
  6
CONTINUOUS
 62
               3
  5
15D
 10
-206.80808398950168
 20
356.94488188976379
 30
0.0
 40
9.9999999999999982
 50
0.0
 51
162.12798715148833
  0
ARC
  8
0
  6
CONTINUOUS
 62
               3
  5
15E
 10
-283.43053500746367
 20
353.94488188976379
 30
0.0
 40
69.999999999999986
 50
16.542077273425956
 51
45.800956686295983
  0
ARC
  8
0
  6
CONTINUOUS
 62
               3
  5
15F
 10
-283.43053500746367
 20
379.94488188976391
 30
0.0
 40
69.999999999999986
 50
314.19904331363529
 51
343.45792272650527
  0
LINE
  8
0
  6
CONTINUOUS
 62
               3
  5
160
 10
-91.328083989502232
 20
291.46953084307057
 30
0.0
 11
-91.328083989502232
 21
442.42023293646042
 31
0.0
  0
LINE
  8
0
  6
CONTINUOUS
 62
               3
  5
161
 10
-76.328083989501422
 20
291.46953084306517
 30
0.0
 11
-76.328083989501934
 21
442.42023293646298
 31
0.0
  0
LINE
  8
0
  6
CONTINUOUS
 62
               3
  5
162
 10
-76.328083989501422
 20
291.46953084306517
 30
0.0
 11
-91.328083989501934
 21
291.46953084307057
 31
0.0
  0
LINE
  8
0
  6
CONTINUOUS
 62
               3
  5
163
 10
-91.328083989502232
 20
442.42023293645701
 30
0.0
 11
-76.328083989501934
 21
442.42023293646383
 31
0.0
  0
CIRCLE
  8
0
  6
CONTINUOUS
 62
               3
  5
164
 10
-349.32808398950186
 20
366.94488188976379
 30
0.0
 40
8.2666666666666657
  0
CIRCLE
  8
0
  6
CONTINUOUS
 62
               3
  5
165
 10
-254.82808398950158
 20
421.50448232818349
 30
0.0
 40
8.2666666666666657
  0
CIRCLE
  8
0
  6
CONTINUOUS
 62
               3
  5
166
 10
-254.82808398950158
 20
312.38528145134421
 30
0.0
 40
8.2666666666666657
  0
LINE
  8
0
  6
CONTINUOUS
 62
               3
  5
167
 10
-91.328083989502232
 20
432.94488188976385
 30
0.0
 11
-101.32808398950164
 21
432.94488188976385
 31
0.0
  0
LINE
  8
0
  6
CONTINUOUS
 62
               3
  5
168
 10
-101.32808398950183
 20
300.94488188976385
 30
0.0
 11
-91.328083989502232
 21
300.94488188976385
 31
0.0
  0
LINE
  8
0
  6
CONTINUOUS
 62
               3
  5
169
 10
-116.32808398950144
 20
442.42023293645275
 30
0.0
 11
-116.32808398950144
 21
291.46953084306546
 31
0.0
  0
LINE
  8
0
  6
CONTINUOUS
 62
               3
  5
16A
 10
-139.32808398950166
 20
431.4202329364569
 30
0.0
 11
-139.32808398950166
 21
302.420232936459
 31
0.0
  0
ARC
  8
0
  6
CONTINUOUS
 62
               3
  5
16B
 10
403.67191601049831
 20
-263.01557959094686
 30
0.0
 40
9.9999999999999982
 50
332.95139485457508
 51
449.99999999991331
  0
LINE
  8
0
  6
CONTINUOUS
 62
               3
  5
16C
 10
347.1719160104991
 20
-158.05511811023626
 30
0.0
 11
347.17191601049763
 21
-172.05511811023047
 31
0.0
  0
LINE
  8
0
  6
CONTINUOUS
 62
               3
  5
16D
 10
347.1719160104991
 20
-158.05511811023626
 30
0.0
 11
480.17191601049751
 21
-158.05511811023626
 31
0.0
  0
LINE
  8
0
  6
CONTINUOUS
 62
               3
  5
16E
 10
347.17191601049763
 20
-172.05511811023047
 30
0.0
 11
480.17191601049899
 21
-172.05511811024206
 31
0.0
  0
LINE
  8
0
  6
CONTINUOUS
 62
               3
  5
16F
 10
356.67191601049831
 20
-199.54242775490638
 30
0.0
 11
356.67191601049831
 21
-253.01557959094686
 31
0.0
  0
ARC
  8
0
  6
CONTINUOUS
 62
               3
  5
170
 10
368.67191601049831
 20
-199.19480111514736
 30
0.0
 40
12.0
 50
130.32021506994579
 51
157.18867580699015
  0
LINE
  8
0
  6
CONTINUOUS
 62
               3
  5
171
 10
470.67191601049842
 20
-199.54242775490638
 30
0.0
 11
470.67191601049842
 21
-253.01557959094686
 31
0.0
  0
LINE
  8
0
  6
CONTINUOUS
 62
               3
  5
172
 10
356.67191601049831
 20
-199.54242775490638
 30
0.0
 11
470.67191601049842
 21
-199.54242775490638
 31
0.0
  0
LINE
  8
0
  6
CONTINUOUS
 62
               3
  5
173
 10
356.67191601049831
 20
-194.54242775490638
 30
0.0
 11
470.67191601049842
 21
-194.54242775490638
 31
0.0
  0
ARC
  8
0
  6
CONTINUOUS
 62
               3
  5
174
 10
356.67191601049831
 20
-197.04242775490638
 30
0.0
 40
2.5
 50
89.999999999982862
 51
269.99999999994839
  0
ARC
  8
0
  6
CONTINUOUS
 62
               3
  5
175
 10
357.67191601049842
 20
-186.23331971833159
 30
0.0
 40
4.9999999999999991
 50
310.32021506991128
 51
359.99999999993048
  0
ARC
  8
0
  6
CONTINUOUS
 62
               3
  5
176
 10
458.67191601049831
 20
-199.19480111514736
 30
0.0
 40
12.0
 50
22.811324192975349
 51
49.679784930019835
  0
ARC
  8
0
  6
CONTINUOUS
 62
               3
  5
177
 10
470.67191601049842
 20
-197.04242775490638
 30
0.0
 40
2.5
 50
269.99999999994839
 51
449.9999999999132
  0
ARC
  8
0
  6
CONTINUOUS
 62
               3
  5
178
 10
469.67191601049842
 20
-186.23331971833159
 30
0.0
 40
4.9999999999999991
 50
179.99999999996558
 51
229.67978492998546
  0
LINE
  8
0
  6
CONTINUOUS
 62
               3
  5
179
 10
335.67191601049842
 20
-253.01557959094686
 30
0.0
 11
335.67191601049842
 21
-343.05511811023649
 31
0.0
  0
LINE
  8
0
  6
CONTINUOUS
 62
               3
  5
17A
 10
491.67191601049831
 20
-253.01557959094686
 30
0.0
 11
491.67191601049831
 21
-343.05511811023649
 31
0.0
  0
LINE
  8
0
  6
CONTINUOUS
 62
               3
  5
17B
 10
335.67191601049842
 20
-253.01557959094686
 30
0.0
 11
403.67191601049831
 21
-253.01557959094686
 31
0.0
  0
LINE
  8
0
  6
CONTINUOUS
 62
               3
  5
17C
 10
423.67191601049831
 20
-253.01557959094686
 30
0.0
 11
491.67191601049831
 21
-253.01557959094686
 31
0.0
  0
LINE
  8
0
  6
CONTINUOUS
 62
               3
  5
17D
 10
335.67191601049842
 20
-343.05511811023649
 30
0.0
 11
338.04427396590677
 21
-343.05511811023649
 31
0.0
  0
LINE
  8
0
  6
CONTINUOUS
 62
               3
  5
17E
 10
489.29955805509007
 20
-343.05511811023649
 30
0.0
 11
491.67191601049831
 21
-343.05511811023649
 31
0.0
  0
ARC
  8
0
  6
CONTINUOUS
 62
               3
  5
17F
 10
423.67191601049831
 20
-263.01557959094686
 30
0.0
 40
9.9999999999999982
 50
89.999999999982762
 51
207.04860514532157
  0
LINE
  8
0
  6
CONTINUOUS
 62
               3
  5
180
 10
480.17191601049751
 20
-158.05511811023626
 30
0.0
 11
480.17191601049899
 21
-172.05511811024235
 31
0.0
  0
ARC
  8
0
  6
CONTINUOUS
 62
               3
  5
181
 10
413.67191601049819
 20
-343.05511811023626
 30
0.0
 40
75.499999999999986
 50
303.32931837466964
 51
356.67068162520422
  0
ARC
  8
0
  6
CONTINUOUS
 62
               3
  5
182
 10
413.67191601049819
 20
-419.05511811023626
 30
0.0
 40
12.0
 50
236.67068162522702
 51
303.32931837466992
  0
LINE
  8
0
  6
CONTINUOUS
 62
               3
  5
183
 10
407.07851084398885
 20
-429.08143389970979
 30
0.0
 11
372.18840850454421
 21
-406.13735495234147
 31
0.0
  0
LINE
  8
0
  6
CONTINUOUS
 62
               3
  5
184
 10
420.26532117700742
 20
-429.08143389970979
 30
0.0
 11
455.15542351645217
 21
-406.13735495234147
 31
0.0
  0
ARC
  8
0
  6
CONTINUOUS
 62
               3
  5
185
 10
479.48984669811546
 20
-305.05511811023615
 30
0.0
 40
12.0
 50
356.67068162520417
 51
423.32931837464616
  0
LINE
  8
0
  6
CONTINUOUS
 62
               3
  5
186
 10
491.46959346141955
 20
-305.75201658713985
 30
0.0
 11
489.04448939628503
 21
-347.43977102742207
 31
0.0
  0
LINE
  8
0
  6
CONTINUOUS
 62
               3
  5
187
 10
484.87618829491021
 20
-294.33190384385881
 30
0.0
 11
447.56098189033105
 21
-275.58822835094503
 31
0.0
  0
ARC
  8
0
  6
CONTINUOUS
 62
               3
  5
188
 10
347.85398532288093
 20
-305.05511811023604
 30
0.0
 40
12.0
 50
116.67068162525001
 51
183.32931837469283
  0
LINE
  8
0
  6
CONTINUOUS
 62
               3
  5
189
 10
342.46764372608618
 20
-294.33190384385881
 30
0.0
 11
379.78285013066534
 21
-275.58822835094503
 31
0.0
  0
LINE
  8
0
  6
CONTINUOUS
 62
               3
  5
18A
 10
335.87423855957684
 20
-305.75201658713974
 30
0.0
 11
338.29934262471136
 21
-347.43977102742207
 31
0.0
  0
ARC
  8
0
  6
CONTINUOUS
 62
               3
  5
18B
 10
413.67191601049819
 20
-343.05511811023626
 30
0.0
 40
75.499999999999986
 50
183.32931837469252
 51
236.67068162522702
  0
ARC
  8
0
  6
CONTINUOUS
 62
               3
  5
18C
 10
413.67191601049819
 20
-343.05511811023626
 30
0.0
 40
75.499999999999986
 50
63.329318374715513
 51
116.67068162525001
  0
CIRCLE
  8
0
  6
CONTINUOUS
 62
               3
  5
18D
 10
413.67191601049819
 20
-343.05511811023626
 30
0.0
 40
58.5
  0
CIRCLE
  8
0
  6
CONTINUOUS
 62
               3
  5
18E
 10
347.85398532288093
 20
-305.05511811023604
 30
0.0
 40
8.2666666666666657
  0
CIRCLE
  8
0
  6
CONTINUOUS
 62
               3
  5
18F
 10
479.48984669811557
 20
-305.05511811023626
 30
0.0
 40
8.2666666666666657
  0
CIRCLE
  8
0
  6
CONTINUOUS
 62
               3
  5
190
 10
413.67191601049819
 20
-419.05511811023604
 30
0.0
 40
8.2666666666666657
  0
LINE
  8
0
  6
CONTINUOUS
 62
               3
  5
191
 10
498.67191601049717
 20
-253.01557959094686
 30
0.0
 11
510.67191601049728
 21
-253.01557959094686
 31
0.0
  0
LINE
  8
0
  6
CONTINUOUS
 62
               3
  5
192
 10
498.67191601049717
 20
-343.01557959094686
 30
0.0
 11
510.67191601049728
 21
-343.01557959094686
 31
0.0
  0
LINE
  8
0
  6
CONTINUOUS
 62
               3
  5
193
 10
498.67191601049717
 20
-253.01557959094686
 30
0.0
 11
498.67191601049717
 21
-343.01557959094572
 31
0.0
  0
LINE
  8
0
  6
CONTINUOUS
 62
               3
  5
194
 10
510.67191601049728
 20
-253.01557959094686
 30
0.0
 11
510.67191601049728
 21
-343.01557959094686
 31
0.0
  0
LINE
  8
0
  6
CONTINUOUS
 62
               3
  5
195
 10
498.67191601049717
 20
-260.3121618292534
 30
0.0
 11
491.67191601049831
 21
-260.3121618292534
 31
0.0
  0
LINE
  8
0
  6
CONTINUOUS
 62
               3
  5
196
 10
498.67191601049717
 20
-336.31216182925328
 30
0.0
 11
491.67191601049831
 21
-336.31216182925328
 31
0.0
  0
LINE
  8
0
  6
CONTINUOUS
 62
               3
  5
197
 10
328.67191601049944
 20
-253.01557959094686
 30
0.0
 11
316.67191601049933
 21
-253.01557959094686
 31
0.0
  0
LINE
  8
0
  6
CONTINUOUS
 62
               3
  5
198
 10
328.67191601049944
 20
-343.01557959094686
 30
0.0
 11
316.67191601049933
 21
-343.01557959094686
 31
0.0
  0
LINE
  8
0
  6
CONTINUOUS
 62
               3
  5
199
 10
328.67191601049944
 20
-253.01557959094686
 30
0.0
 11
328.67191601049944
 21
-343.01557959094572
 31
0.0
  0
LINE
  8
0
  6
CONTINUOUS
 62
               3
  5
19A
 10
316.67191601049933
 20
-253.01557959094686
 30
0.0
 11
316.67191601049933
 21
-343.01557959094686
 31
0.0
  0
LINE
  8
0
  6
CONTINUOUS
 62
               3
  5
19B
 10
328.67191601049944
 20
-260.3121618292534
 30
0.0
 11
335.67191601049842
 21
-260.3121618292534
 31
0.0
  0
LINE
  8
0
  6
CONTINUOUS
 62
               3
  5
19C
 10
328.67191601049944
 20
-336.31216182925328
 30
0.0
 11
335.67191601049842
 21
-336.31216182925328
 31
0.0
  0
LINE
  8
0
  6
CONTINUOUS
 62
               3
  5
19D
 10
480.17191601049831
 20
-147.05511811023638
 30
0.0
 11
347.17191601049842
 21
-147.05511811023638
 31
0.0
  0
LINE
  8
0
  6
CONTINUOUS
 62
               3
  5
19E
 10
480.17191601049831
 20
-133.05511811023626
 30
0.0
 11
347.17191601049842
 21
-133.05511811023626
 31
0.0
  0
LINE
  8
0
  6
CONTINUOUS
 62
               3
  5
19F
 10
480.17191601049831
 20
-147.05511811023638
 30
0.0
 11
480.17191601049831
 21
-133.05511811023626
 31
0.0
  0
LINE
  8
0
  6
CONTINUOUS
 62
               3
  5
1A0
 10
347.17191601049842
 20
-133.05511811023626
 30
0.0
 11
347.17191601049842
 21
-147.05511811023638
 31
0.0
  0
LINE
  8
0
  6
CONTINUOUS
 62
               3
  5
1A1
 10
362.67191601049842
 20
-186.23331971833159
 30
0.0
 11
362.67191601049842
 21
-172.05511811023189
 31
0.0
  0
LINE
  8
0
  6
CONTINUOUS
 62
               3
  5
1A2
 10
464.67191601049842
 20
-186.23331971833159
 30
0.0
 11
464.67191601049842
 21
-172.05511811024076
 31
0.0
  0
LINE
  8
0
  6
CONTINUOUS
 62
               3
  5
1A3
 10
362.67191601049831
 20
-147.05511811023638
 30
0.0
 11
362.67191601049831
 21
-158.05511811023626
 31
0.0
  0
LINE
  8
0
  6
CONTINUOUS
 62
               3
  5
1A4
 10
464.67191601049831
 20
-158.05511811023626
 30
0.0
 11
464.67191601049831
 21
-147.05511811023638
 31
0.0
  0
LINE
  8
0
  6
CONTINUOUS
 62
               3
  5
1A5
 10
-101.32808398950168
 20
-431.07976706354276
 30
0.0
 11
-116.32808398950169
 21
-431.07976706354276
 31
0.0
  0
LINE
  8
0
  6
CONTINUOUS
 62
               3
  5
1A6
 10
-116.32808398949989
 20
-407.57976706354322
 30
0.0
 11
-139.32808398950169
 21
-407.5797670635414
 31
0.0
  0
LINE
  8
0
  6
CONTINUOUS
 62
               3
  5
1A7
 10
-116.32808398950149
 20
-278.57976706354299
 30
0.0
 11
-139.32808398950169
 21
-278.57976706354333
 31
0.0
  0
LINE
  8
0
  6
CONTINUOUS
 62
               3
  5
1A8
 10
-101.32808398950168
 20
-267.57976706354265
 30
0.0
 11
-116.32808398950169
 21
-267.57976706354276
 31
0.0
  0
ARC
  8
0
  6
CONTINUOUS
 62
               3
  5
1A9
 10
-134.32808398950181
 20
-191.05511811023638
 30
0.0
 40
97.0
 50
184.20897939799946
 51
267.04529986228101
  0
ARC
  8
0
  6
CONTINUOUS
 62
               3
  5
1AA
 10
-243.03410958146225
 20
-199.05511811023632
 30
0.0
 40
12.0
 50
4.2089793980338666
 51
41.633198557757055
  0
ARC
  8
0
  6
CONTINUOUS
 62
               3
  5
1AB
 10
-230.32808398950175
 20
-187.7610084217111
 30
0.0
 40
4.9999999999999982
 50
179.99999999996558
 51
221.63319855772264
  0
ARC
  8
0
  6
CONTINUOUS
 62
               3
  5
1AC
 10
-134.32808398950181
 20
-191.05511811023638
 30
0.0
 40
209.0
 50
182.32737214108732
 51
268.62915678746725
  0
ARC
  8
0
  6
CONTINUOUS
 62
               3
  5
1AD
 10
-331.16558041739262
 20
-199.05511811023632
 30
0.0
 40
12.0
 50
131.04243859083763
 51
182.32737214108735
  0
ARC
  8
0
  6
CONTINUOUS
 62
               3
  5
1AE
 10
-342.32808398950158
 20
-186.23331971833159
 30
0.0
 40
4.9999999999999982
 50
311.04243859080321
 51
359.99999999993048
  0
LINE
  8
0
  6
CONTINUOUS
 62
               3
  5
1AF
 10
-235.32808398950144
 20
-172.02252221467188
 30
0.0
 11
-235.32808398950175
 21
-187.7610084217111
 31
0.0
  0
LINE
  8
0
  6
CONTINUOUS
 62
               3
  5
1B0
 10
-337.32808398950158
 20
-172.02252221466034
 30
0.0
 11
-337.32808398950158
 21
-186.23331971833159
 31
0.0
  0
LINE
  8
0
  6
CONTINUOUS
 62
               3
  5
1B1
 10
-361.32808398950056
 20
-158.05511811023626
 30
0.0
 11
-361.32808398950249
 21
-172.02252221466034
 31
0.0
  0
LINE
  8
0
  6
CONTINUOUS
 62
               3
  5
1B2
 10
-224.32808398950255
 20
-158.05511811023626
 30
0.0
 11
-224.32808398950129
 21
-172.02252221467216
 31
0.0
  0
LINE
  8
0
  6
CONTINUOUS
 62
               3
  5
1B3
 10
-101.32808398950168
 20
-267.57976706354265
 30
0.0
 11
-101.32808398950168
 21
-431.07976706354276
 31
0.0
  0
LINE
  8
0
  6
CONTINUOUS
 62
               3
  5
1B4
 10
-361.32808398950056
 20
-158.05511811023626
 30
0.0
 11
-224.32808398950255
 21
-158.05511811023626
 31
0.0
  0
LINE
  8
0
  6
CONTINUOUS
 62
               3
  5
1B5
 10
-361.32808398950249
 20
-172.02252221466034
 30
0.0
 11
-224.32808398950129
 21
-172.02252221467216
 31
0.0
  0
LINE
  8
0
  6
CONTINUOUS
 62
               3
  5
1B6
 10
-116.32808398950169
 20
-431.07976706354276
 30
0.0
 11
-116.32808398950169
 21
-267.57976706354276
 31
0.0
  0
LINE
  8
0
  6
CONTINUOUS
 62
               3
  5
1B7
 10
-343.155681722645
 20
-199.54242775490616
 30
0.0
 11
-231.0664737364757
 21
-199.54242775490616
 31
0.0
  0
LINE
  8
0
  6
CONTINUOUS
 62
               3
  5
1B8
 10
-342.28473621974149
 20
-194.54242775490616
 30
0.0
 11
-231.91495377911332
 21
-194.54242775490616
 31
0.0
  0
ARC
  8
0
  6
CONTINUOUS
 62
               3
  5
1B9
 10
-273.62811988325171
 20
-330.35515400398623
 30
0.0
 40
9.9999999999999964
 50
117.72027269076911
 51
332.2797273091445
  0
ARC
  8
0
  6
CONTINUOUS
 62
               3
  5
1BA
 10
-260.34968342068191
 20
-337.33248337198228
 30
0.0
 40
4.9999999999999982
 50
64.456602312026334
 51
152.27972730917887
  0
ARC
  8
0
  6
CONTINUOUS
 62
               3
  5
1BB
 10
-280.60544925124782
 20
-317.07671754141649
 30
0.0
 40
4.9999999999999982
 50
297.72027269073504
 51
385.54339768788685
  0
ARC
  8
0
  6
CONTINUOUS
 62
               3
  5
1BC
 10
-209.98850957646221
 20
-266.71554369719701
 30
0.0
 40
9.9999999999999964
 50
297.7202726907351
 51
512.27972730910938
  0
ARC
  8
0
  6
CONTINUOUS
 62
               3
  5
1BD
 10
-223.26694603903201
 20
-259.73821432920073
 30
0.0
 40
4.9999999999999982
 50
244.45660231199182
 51
332.2797273091445
  0
ARC
  8
0
  6
CONTINUOUS
 62
               3
  5
1BE
 10
-203.0111802084661
 20
-279.99398015976664
 30
0.0
 40
4.9999999999999982
 50
117.72027269076951
 51
205.54339768792207
  0
LINE
  8
0
  6
CONTINUOUS
 62
               3
  5
1BF
 10
-283.57228373692487
 20
-331.4104289687703
 30
0.0
 11
-286.55705207138618
 21
-303.2840861921207
 31
0.0
  0
LINE
  8
0
  6
CONTINUOUS
 62
               3
  5
1C0
 10
-237.05957738832774
 20
-253.78661150906231
 30
0.0
 11
-208.93323461167819
 21
-256.7713798435239
 31
0.0
  0
LINE
  8
0
  6
CONTINUOUS
 62
               3
  5
1C1
 10
-274.68339484803573
 20
-340.29931785765922
 30
0.0
 11
-246.5570520713859
 21
-343.2840861921207
 31
0.0
  0
LINE
  8
0
  6
CONTINUOUS
 62
               3
  5
1C2
 10
-197.05957738832802
 20
-293.78661150906231
 30
0.0
 11
-200.04434572278933
 21
-265.6602687324127
 31
0.0
  0
ARC
  8
0
  6
CONTINUOUS
 62
               3
  5
1C3
 10
-241.8083147298571
 20
-298.53534885059167
 30
0.0
 40
45.0
 50
83.942441268965311
 51
186.057558730983
  0
ARC
  8
0
  6
CONTINUOUS
 62
               3
  5
1C4
 10
-241.8083147298571
 20
-298.53534885059167
 30
0.0
 40
38.0
 50
64.45660231202632
 51
205.54339768792207
  0
ARC
  8
0
  6
CONTINUOUS
 62
               3
  5
1C5
 10
-241.8083147298571
 20
-298.53534885059167
 30
0.0
 40
45.0
 50
263.94244126893096
 51
366.0575587309479
  0
ARC
  8
0
  6
CONTINUOUS
 62
               3
  5
1C6
 10
-241.8083147298571
 20
-298.53534885059167
 30
0.0
 40
38.0
 50
244.45660231199182
 51
385.54339768788691
  0
CIRCLE
  8
0
  6
CONTINUOUS
 62
               3
  5
1C7
 10
-209.98850957646221
 20
-266.71554369719701
 30
0.0
 40
6.2999999999999989
  0
CIRCLE
  8
0
  6
CONTINUOUS
 62
               3
  5
1C8
 10
-273.62811988325171
 20
-330.35515400398623
 30
0.0
 40
6.2999999999999989
  0
LINE
  8
0
  6
CONTINUOUS
 62
               3
  5
1C9
 10
-91.328083989501678
 20
-409.05511811023661
 30
0.0
 11
-101.32808398950168
 21
-409.05511811023661
 31
0.0
  0
LINE
  8
0
  6
CONTINUOUS
 62
               3
  5
1CA
 10
-91.328083989501678
 20
-277.05511811023672
 30
0.0
 11
-101.32808398950168
 21
-277.05511811023672
 31
0.0
  0
LINE
  8
0
  6
CONTINUOUS
 62
               3
  5
1CB
 10
-76.328083989501692
 20
-431.07976706354265
 30
0.0
 11
-76.328083989501692
 21
-267.55511811023604
 31
0.0
  0
LINE
  8
0
  6
CONTINUOUS
 62
               3
  5
1CC
 10
-91.328083989501678
 20
-431.07976706354265
 30
0.0
 11
-91.328083989501678
 21
-267.55511811023626
 31
0.0
  0
LINE
  8
0
  6
CONTINUOUS
 62
               3
  5
1CD
 10
-91.328083989501678
 20
-267.55511811023626
 30
0.0
 11
-76.328083989501692
 21
-267.55511811023604
 31
0.0
  0
LINE
  8
0
  6
CONTINUOUS
 62
               3
  5
1CE
 10
-91.328083989501678
 20
-431.07976706354265
 30
0.0
 11
-76.328083989501692
 21
-431.07976706354265
 31
0.0
  0
LINE
  8
0
  6
CONTINUOUS
 62
               3
  5
1CF
 10
-224.32808398950237
 20
-147.05511811023626
 30
0.0
 11
-361.32808398950107
 21
-147.05511811023626
 31
0.0
  0
LINE
  8
0
  6
CONTINUOUS
 62
               3
  5
1D0
 10
-361.32808398950078
 20
-147.05511811023626
 30
0.0
 11
-361.3280839895005
 21
-133.05511811023615
 31
0.0
  0
LINE
  8
0
  6
CONTINUOUS
 62
               3
  5
1D1
 10
-224.32808398950237
 20
-147.05511811023626
 30
0.0
 11
-224.32808398950237
 21
-133.05511811023626
 31
0.0
  0
LINE
  8
0
  6
CONTINUOUS
 62
               3
  5
1D2
 10
-224.32808398950237
 20
-133.05511811023626
 30
0.0
 11
-361.3280839895005
 21
-133.05511811023626
 31
0.0
  0
LINE
  8
0
  6
CONTINUOUS
 62
               3
  5
1D3
 10
-337.32808398950158
 20
-158.05511811023626
 30
0.0
 11
-337.32808398950158
 21
-147.05511811023626
 31
0.0
  0
LINE
  8
0
  6
CONTINUOUS
 62
               3
  5
1D4
 10
-235.32808398950147
 20
-158.05511811023626
 30
0.0
 11
-235.32808398950147
 21
-147.05511811023626
 31
0.0
  0
LINE
  8
0
  6
CONTINUOUS
 62
               3
  5
1D5
 10
-139.32808398950169
 20
-278.57976706354333
 30
0.0
 11
-139.32808398950169
 21
-407.5797670635414
 31
0.0
  0
LINE
  8
0
  6
CONTINUOUS
 62
               3
  5
1D6
 10
-306.8850212796371
 20
-355.05511811023626
 30
0.0
 11
-263.8850212796371
 21
-355.05511811023626
 31
0.0
  0
LINE
  8
0
  6
CONTINUOUS
 62
               3
  5
1D7
 10
-303.32808398950169
 20
-355.05511811023626
 30
0.0
 11
-303.32808398950169
 21
-385.05511811023626
 31
0.0
  0
LINE
  8
0
  6
CONTINUOUS
 62
               3
  5
1D8
 10
-269.32808398950169
 20
-385.05511811023626
 30
0.0
 11
-269.32808398950169
 21
-355.05511811023626
 31
0.0
  0
LINE
  8
0
  6
CONTINUOUS
 62
               3
  5
1D9
 10
-303.32808398950169
 20
-385.05511811023626
 30
0.0
 11
-269.32808398950169
 21
-385.05511811023626
 31
0.0
  0
LINE
  8
0
  6
CONTINUOUS
 62
               3
  5
1DA
 10
-291.32808398950169
 20
-355.05511811023626
 30
0.0
 11
-291.32808398950169
 21
-385.05511811023626
 31
0.0
  0
LINE
  8
0
  6
CONTINUOUS
 62
               3
  5
1DB
 10
-281.32808398950169
 20
-385.05511811023626
 30
0.0
 11
-281.32808398950169
 21
-355.05511811023626
 31
0.0
  0
LINE
  8
0
  6
CONTINUOUS
 62
               3
  5
1DC
 10
-306.8850212796371
 20
-355.05511811023626
 30
0.0
 11
-311.53918727124699
 21
-301.85775740040236
 31
0.0
  0
LINE
  8
0
  6
DASHDOT
 62
               4
  5
1DD
 10
-286.32808398950169
 20
439.47586113330146
 30
0.0
 11
-286.32808398950169
 21
294.4139026462251
 31
0.0
  0
LINE
  8
0
  6
DASHDOT
 62
               4
  5
1DE
 10
-371.32808398950186
 20
366.94488188976379
 30
0.0
 11
-66.328083989501621
 21
366.94488188976379
 31
0.0
  0
LINE
  8
0
  6
DASHDOT
 62
               4
  5
1DF
 10
328.04427396590643
 20
-343.05511811023626
 30
0.0
 11
499.29955805508996
 21
-343.05511811023626
 31
0.0
  0
LINE
  8
0
  6
DASHDOT
 62
               4
  5
1E0
 10
413.67191601049831
 20
-123.05511811023626
 30
0.0
 11
413.67191601049831
 21
-441.05511811023626
 31
0.0
  0
ARC
  8
0
  6
DASHDOT
 62
               4
  5
1E1
 10
-134.32808398950181
 20
-191.05511811023638
 30
0.0
 40
152.0
 50
178.11594976887417
 51
269.99999999994839
  0
LINE
  8
0
  6
DASHDOT
 62
               4
  5
1E2
 10
-286.32808398950169
 20
-353.05511811023626
 30
0.0
 11
-286.32808398950169
 21
-123.05511811023626
 31
0.0
  0
LINE
  8
0
  6
DASHDOT
 62
               4
  5
1E3
 10
-296.32808398950169
 20
-343.05511811023626
 30
0.0
 11
-66.328083989501692
 21
-343.05511811023638
 31
0.0
  0
LINE
  8
0
  6
DASHDOT
 62
               4
  5
1E4
 10
-296.8083147298571
 20
-298.53534885059167
 30
0.0
 11
-186.8083147298571
 21
-298.53534885059167
 31
0.0
  0
LINE
  8
0
  6
DASHDOT
 62
               4
  5
1E5
 10
-241.8083147298571
 20
-353.53534885059167
 30
0.0
 11
-241.8083147298571
 21
-243.53534885059167
 31
0.0
  0
LINE
  8
0
  6
DASHED
 62
               4
  5
1E6
 10
-134.32808398950169
 20
-400.07978200865301
 30
0.0
 11
-134.32808398950169
 21
-286.07978200865324
 31
0.0
  0
LINE
  8
0
  6
DASHED
 62
               4
  5
1E7
 10
-330.82808398950158
 20
-186.05511811023626
 30
0.0
 11
-241.82808398950181
 21
-186.05511811023626
 31
0.0
  0
LINE
  8
0
  6
DASHED
 62
               7
  5
1E8
 10
-134.32808398950169
 20
423.94488188976379
 30
0.0
 11
-134.32808398950169
 21
309.94488188976391
 31
0.0
  0
LINE
  8
0
  6
HIDDENX2
 62
               7
  5
1E9
 10
369.17191601049831
 20
-186.05511811023632
 30
0.0
 11
458.17191601049831
 21
-186.05511811023632
 31
0.0
  0
POINT
  8
0
  6
CONTINUOUS
 62
               5
  5
1EA
 10
-286.32808398950169
 20
-343.05511811023626
 30
0.0
  0
ENDSEC
  0
EOF
