  0
SECTION
  2
HEADER
  9
$ACADVER
  1
AC1009
  9
$INSBASE
 10
0.0
 20
0.0
 30
0.0
  9
$EXTMIN
 10
-498.46874015748023
 20
-453.36133514270381
 30
0.0
  9
$EXTMAX
 10
561.81125984251867
 20
459.75866485729631
 30
0.0
  9
$LIMMIN
 10
-531.60249015748013
 20
-481.89633514270383
  9
$LIMMAX
 10
594.94500984251863
 20
488.29366485729633
  9
$ORTHOMODE
 70
               0
  9
$REGENMODE
 70
               1
  9
$FILLMODE
 70
               1
  9
$QTEXTMODE
 70
               0
  9
$MIRRTEXT
 70
               1
  9
$DRAGMODE
 70
               2
  9
$LTSCALE
 40
1.0
  9
$OSMODE
 70
               0
  9
$ATTMODE
 70
               1
  9
$TEXTSIZE
 40
0.2
  9
$TRACEWID
 40
0.05
  9
$TEXTSTYLE
  7
STANDARD
  9
$CLAYER
  8
0
  9
$CELTYPE
  6
CONTINUOUS
  9
$CECOLOR
 62
             256
  9
$DIMSCALE
 40
1.0
  9
$DIMASZ
 40
0.18
  9
$DIMEXO
 40
0.0625
  9
$DIMDLI
 40
0.38
  9
$DIMRND
 40
0.0
  9
$DIMDLE
 40
0.0
  9
$DIMEXE
 40
0.18
  9
$DIMTP
 40
0.0
  9
$DIMTM
 40
0.0
  9
$DIMTXT
 40
0.18
  9
$DIMCEN
 40
0.09
  9
$DIMTSZ
 40
0.0
  9
$DIMTOL
 70
               0
  9
$DIMLIM
 70
               0
  9
$DIMTIH
 70
               1
  9
$DIMTOH
 70
               1
  9
$DIMSE1
 70
               0
  9
$DIMSE2
 70
               0
  9
$DIMTAD
 70
               0
  9
$DIMZIN
 70
               0
  9
$DIMBLK
  1

  9
$DIMASO
 70
               1
  9
$DIMSHO
 70
               1
  9
$DIMPOST
  1

  9
$DIMAPOST
  1

  9
$DIMALT
 70
               0
  9
$DIMALTD
 70
               2
  9
$DIMALTF
 40
25.399999999999999
  9
$DIMLFAC
 40
1.0
  9
$DIMTOFL
 70
               0
  9
$DIMTVP
 40
0.0
  9
$DIMTIX
 70
               0
  9
$DIMSOXD
 70
               0
  9
$DIMSAH
 70
               0
  9
$DIMBLK1
  1

  9
$DIMBLK2
  1

  9
$DIMSTYLE
  2
STANDARD
  9
$DIMCLRD
 70
               0
  9
$DIMCLRE
 70
               0
  9
$DIMCLRT
 70
               0
  9
$DIMTFAC
 40
1.0
  9
$DIMGAP
 40
0.09
  9
$LUNITS
 70
               2
  9
$LUPREC
 70
               4
  9
$AXISMODE
 70
               0
  9
$AXISUNIT
 10
0.0
 20
0.0
  9
$SKETCHINC
 40
0.1
  9
$FILLETRAD
 40
0.0
  9
$AUNITS
 70
               0
  9
$AUPREC
 70
               0
  9
$MENU
  1
acad
  9
$ELEVATION
 40
0.0
  9
$PELEVATION
 40
0.0
  9
$THICKNESS
 40
0.0
  9
$LIMCHECK
 70
               0
  9
$BLIPMODE
 70
               1
  9
$CHAMFERA
 40
0.0
  9
$CHAMFERB
 40
0.0
  9
$SKPOLY
 70
               0
  9
$TDCREATE
 40
0.000000000
  9
$TDUPDATE
 40
0.000000000
  9
$TDINDWG
 40
0.0000000000
  9
$TDUSRTIMER
 40
0.0000000000
  9
$USRTIMER
 70
               1
  9
$ANGBASE
 50
0.0
  9
$ANGDIR
 70
               0
  9
$PDMODE
 70
               0
  9
$PDSIZE
 40
1.0
  9
$PLINEWID
 40
0.0
  9
$COORDS
 70
               1
  9
$SPLFRAME
 70
               0
  9
$SPLINETYPE
 70
               6
  9
$SPLINESEGS
 70
               8
  9
$ATTDIA
 70
               0
  9
$ATTREQ
 70
               1
  9
$HANDLING
 70
               1
  9
$HANDSEED
  5
1F4
  9
$SURFTAB1
 70
               6
  9
$SURFTAB2
 70
               6
  9
$SURFTYPE
 70
               6
  9
$SURFU
 70
               6
  9
$SURFV
 70
               6
  9
$UCSNAME
  2

  9
$UCSORG
 10
0.0
 20
0.0
 30
0.0
  9
$UCSXDIR
 10
1.0
 20
0.0
 30
0.0
  9
$UCSYDIR
 10
0.0
 20
1.0
 30
0.0
  9
$PUCSNAME
  2

  9
$PUCSORG
 10
0.0
 20
0.0
 30
0.0
  9
$PUCSXDIR
 10
1.0
 20
0.0
 30
0.0
  9
$PUCSYDIR
 10
0.0
 20
1.0
 30
0.0
  9
$USERI1
 70
               0
  9
$USERI2
 70
               0
  9
$USERI3
 70
               0
  9
$USERI4
 70
               0
  9
$USERI5
 70
               0
  9
$USERR1
 40
0.0
  9
$USERR2
 40
0.0
  9
$USERR3
 40
0.0
  9
$USERR4
 40
0.0
  9
$USERR5
 40
0.0
  9
$WORLDVIEW
 70
               1
  9
$SHADEDGE
 70
               3
  9
$SHADEDIF
 70
              70
  9
$TILEMODE
 70
               1
  9
$MAXACTVP
 70
              16
  9
$PINSBASE
 10
0.0
 20
0.0
 30
0.0
  9
$PLIMCHECK
 70
               0
  9
$PEXTMIN
 10
1.0000000000000000E+20
 20
1.0000000000000000E+20
 30
1.0000000000000000E+20
  9
$PEXTMAX
 10
-1.0000000000000000E+20
 20
-1.0000000000000000E+20
 30
-1.0000000000000000E+20
  9
$PLIMMIN
 10
0.0
 20
0.0
  9
$PLIMMAX
 10
12.0
 20
9.0
  9
$UNITMODE
 70
               0
  9
$VISRETAIN
 70
               0
  9
$PLINEGEN
 70
               1
  9
$PSLTSCALE
 70
               0
  9
$TREEDEPTH
 70
            3020
  9
$DWGCODEPAGE
  3
dos932
  0
ENDSEC
  0
SECTION
  2
TABLES
  0
TABLE
  2
VPORT
 70
               1
  0
VPORT
  2
*ACTIVE
 70
               0
 10
0.0
 20
0.0
 11
1.0
 21
1.0
 12
31.671259842519248
 22
3.1986648572962508
 13
0.0
 23
0.0
 14
1.0
 24
1.0
 15
0.0
 25
0.0
 16
0.0
 26
0.0
 36
1.0
 17
0.0
 27
0.0
 37
0.0
 40
970.19000000000017
 41
1.1611617312072877
 42
50.0
 43
0.0
 44
0.0
 50
0.0
 51
0.0
 71
               0
 72
             100
 73
               1
 74
               1
 75
               0
 76
               0
 77
               0
 78
               0
  0
ENDTAB
  0
TABLE
  2
LTYPE
 70
              26
  0
LTYPE
  2
CONTINUOUS
 70
               0
  3
Solid line
 72
              65
 73
               0
 40
0.0
  0
LTYPE
  2
HIDDENX2
 70
               0
  3
CADPAC FUSION LINETYPE
 72
              65
 73
               2
 40
80.0
 49
60.0
 49
-20.0
  0
LTYPE
  2
HIDDEN
 70
               0
  3
CADPAC FUSION LINETYPE
 72
              65
 73
               2
 40
60.0
 49
40.0
 49
-20.0
  0
LTYPE
  2
HIDDEN2
 70
               0
  3
CADPAC FUSION LINETYPE
 72
              65
 73
               2
 40
50.0
 49
30.0
 49
-20.0
  0
LTYPE
  2
DASHED
 70
               0
  3
CADPAC FUSION LINETYPE
 72
              65
 73
               2
 40
60.0
 49
40.0
 49
-20.0
  0
LTYPE
  2
DASHED2
 70
               0
  3
CADPAC FUSION LINETYPE
 72
              65
 73
               2
 40
45.0
 49
30.0
 49
-15.0
  0
LTYPE
  2
DASHEDX2
 70
               0
  3
CADPAC FUSION LINETYPE
 72
              65
 73
               2
 40
90.0
 49
60.0
 49
-30.0
  0
LTYPE
  2
DOTX2
 70
               0
  3
CADPAC FUSION LINETYPE
 72
              65
 73
               2
 40
25.0
 49
0.0
 49
-25.0
  0
LTYPE
  2
DOT
 70
               0
  3
CADPAC FUSION LINETYPE
 72
              65
 73
               2
 40
20.0
 49
0.0
 49
-20.0
  0
LTYPE
  2
DOTS
 70
               0
  3
CADPAC FUSION LINETYPE
 72
              65
 73
               2
 40
20.0
 49
0.0
 49
-20.0
  0
LTYPE
  2
DOT2
 70
               0
  3
CADPAC FUSION LINETYPE
 72
              65
 73
               2
 40
15.0
 49
0.0
 49
-15.0
  0
LTYPE
  2
CENTERX2
 70
               0
  3
CADPAC FUSION LINETYPE
 72
              65
 73
               4
 40
120.0
 49
50.0
 49
-25.0
 49
20.0
 49
-25.0
  0
LTYPE
  2
CENTER
 70
               0
  3
CADPAC FUSION LINETYPE
 72
              65
 73
               4
 40
92.0
 49
40.0
 49
-20.0
 49
12.0
 49
-20.0
  0
LTYPE
  2
CENTER2
 70
               0
  3
CADPAC FUSION LINETYPE
 72
              65
 73
               4
 40
64.0
 49
30.0
 49
-15.0
 49
4.0
 49
-15.0
  0
LTYPE
  2
DASHDOTX2
 70
               0
  3
CADPAC FUSION LINETYPE
 72
              65
 73
               4
 40
100.0
 49
50.0
 49
-25.0
 49
0.0
 49
-25.0
  0
LTYPE
  2
DASHDOT
 70
               0
  3
CADPAC FUSION LINETYPE
 72
              65
 73
               4
 40
80.0
 49
40.0
 49
-20.0
 49
0.0
 49
-20.0
  0
LTYPE
  2
DASHDOT2
 70
               0
  3
CADPAC FUSION LINETYPE
 72
              65
 73
               4
 40
60.0
 49
30.0
 49
-15.0
 49
0.0
 49
-15.0
  0
LTYPE
  2
DIVIDEX2
 70
               0
  3
CADPAC FUSION LINETYPE
 72
              65
 73
               6
 40
125.0
 49
50.0
 49
-25.0
 49
0.0
 49
-25.0
 49
0.0
 49
-25.0
  0
LTYPE
  2
DIVIDE
 70
               0
  3
CADPAC FUSION LINETYPE
 72
              65
 73
               6
 40
100.0
 49
40.0
 49
-20.0
 49
0.0
 49
-20.0
 49
0.0
 49
-20.0
  0
LTYPE
  2
DIVIDE2
 70
               0
  3
CADPAC FUSION LINETYPE
 72
              65
 73
               6
 40
75.0
 49
30.0
 49
-15.0
 49
0.0
 49
-15.0
 49
0.0
 49
-15.0
  0
LTYPE
  2
BORDERX2
 70
               0
  3
CADPAC FUSION LINETYPE
 72
              65
 73
               6
 40
175.0
 49
50.0
 49
-25.0
 49
50.0
 49
-25.0
 49
0.0
 49
-25.0
  0
LTYPE
  2
BORDER
 70
               0
  3
CADPAC FUSION LINETYPE
 72
              65
 73
               6
 40
140.0
 49
40.0
 49
-20.0
 49
40.0
 49
-20.0
 49
0.0
 49
-20.0
  0
LTYPE
  2
BORDER2
 70
               0
  3
CADPAC FUSION LINETYPE
 72
              65
 73
               6
 40
105.0
 49
30.0
 49
-15.0
 49
30.0
 49
-15.0
 49
0.0
 49
-15.0
  0
LTYPE
  2
PHANTOMX2
 70
               0
  3
CADPAC FUSION LINETYPE
 72
              65
 73
               6
 40
150.0
 49
50.0
 49
-20.0
 49
20.0
 49
-20.0
 49
20.0
 49
-20.0
  0
LTYPE
  2
PHANTOM
 70
               0
  3
CADPAC FUSION LINETYPE
 72
              65
 73
               6
 40
124.0
 49
40.0
 49
-20.0
 49
12.0
 49
-20.0
 49
12.0
 49
-20.0
  0
LTYPE
  2
PHANTOM2
 70
               0
  3
CADPAC FUSION LINETYPE
 72
              65
 73
               6
 40
106.0
 49
30.0
 49
-20.0
 49
8.0
 49
-20.0
 49
8.0
 49
-20.0
  0
ENDTAB
  0
TABLE
  2
LAYER
 70
             256
  0
LAYER
  2
0
 70
               0
 62
               7
  6
CONTINUOUS
  0
LAYER
  2
LAYER001
 70
               0
 62
               7
  6
CONTINUOUS
  0
LAYER
  2
LAYER002
 70
               0
 62
               7
  6
CONTINUOUS
  0
LAYER
  2
LAYER003
 70
               0
 62
               7
  6
CONTINUOUS
  0
LAYER
  2
LAYER004
 70
               0
 62
               7
  6
CONTINUOUS
  0
LAYER
  2
LAYER005
 70
               0
 62
               7
  6
CONTINUOUS
  0
LAYER
  2
LAYER006
 70
               0
 62
               7
  6
CONTINUOUS
  0
LAYER
  2
LAYER007
 70
               0
 62
               7
  6
CONTINUOUS
  0
LAYER
  2
LAYER008
 70
               0
 62
               7
  6
CONTINUOUS
  0
LAYER
  2
LAYER009
 70
               0
 62
               7
  6
CONTINUOUS
  0
LAYER
  2
LAYER010
 70
               0
 62
               7
  6
CONTINUOUS
  0
LAYER
  2
LAYER011
 70
               0
 62
               7
  6
CONTINUOUS
  0
LAYER
  2
LAYER012
 70
               0
 62
               7
  6
CONTINUOUS
  0
LAYER
  2
LAYER013
 70
               0
 62
               7
  6
CONTINUOUS
  0
LAYER
  2
LAYER014
 70
               0
 62
               7
  6
CONTINUOUS
  0
LAYER
  2
LAYER015
 70
               0
 62
               7
  6
CONTINUOUS
  0
LAYER
  2
LAYER016
 70
               0
 62
               7
  6
CONTINUOUS
  0
LAYER
  2
LAYER017
 70
               0
 62
               7
  6
CONTINUOUS
  0
LAYER
  2
LAYER018
 70
               0
 62
               7
  6
CONTINUOUS
  0
LAYER
  2
LAYER019
 70
               0
 62
               7
  6
CONTINUOUS
  0
LAYER
  2
LAYER020
 70
               0
 62
               7
  6
CONTINUOUS
  0
LAYER
  2
LAYER021
 70
               0
 62
               7
  6
CONTINUOUS
  0
LAYER
  2
LAYER022
 70
               0
 62
               7
  6
CONTINUOUS
  0
LAYER
  2
LAYER023
 70
               0
 62
               7
  6
CONTINUOUS
  0
LAYER
  2
LAYER024
 70
               0
 62
               7
  6
CONTINUOUS
  0
LAYER
  2
LAYER025
 70
               0
 62
               7
  6
CONTINUOUS
  0
LAYER
  2
LAYER026
 70
               0
 62
               7
  6
CONTINUOUS
  0
LAYER
  2
LAYER027
 70
               0
 62
               7
  6
CONTINUOUS
  0
LAYER
  2
LAYER028
 70
               0
 62
               7
  6
CONTINUOUS
  0
LAYER
  2
LAYER029
 70
               0
 62
               7
  6
CONTINUOUS
  0
LAYER
  2
LAYER030
 70
               0
 62
               7
  6
CONTINUOUS
  0
LAYER
  2
LAYER031
 70
               0
 62
               7
  6
CONTINUOUS
  0
LAYER
  2
LAYER032
 70
               0
 62
               7
  6
CONTINUOUS
  0
LAYER
  2
LAYER033
 70
               0
 62
               7
  6
CONTINUOUS
  0
LAYER
  2
LAYER034
 70
               0
 62
               7
  6
CONTINUOUS
  0
LAYER
  2
LAYER035
 70
               0
 62
               7
  6
CONTINUOUS
  0
LAYER
  2
LAYER036
 70
               0
 62
               7
  6
CONTINUOUS
  0
LAYER
  2
LAYER037
 70
               0
 62
               7
  6
CONTINUOUS
  0
LAYER
  2
LAYER038
 70
               0
 62
               7
  6
CONTINUOUS
  0
LAYER
  2
LAYER039
 70
               0
 62
               7
  6
CONTINUOUS
  0
LAYER
  2
LAYER040
 70
               0
 62
               7
  6
CONTINUOUS
  0
LAYER
  2
LAYER041
 70
               0
 62
               7
  6
CONTINUOUS
  0
LAYER
  2
LAYER042
 70
               0
 62
               7
  6
CONTINUOUS
  0
LAYER
  2
LAYER043
 70
               0
 62
               7
  6
CONTINUOUS
  0
LAYER
  2
LAYER044
 70
               0
 62
               7
  6
CONTINUOUS
  0
LAYER
  2
LAYER045
 70
               0
 62
               7
  6
CONTINUOUS
  0
LAYER
  2
LAYER046
 70
               0
 62
               7
  6
CONTINUOUS
  0
LAYER
  2
LAYER047
 70
               0
 62
               7
  6
CONTINUOUS
  0
LAYER
  2
LAYER048
 70
               0
 62
               7
  6
CONTINUOUS
  0
LAYER
  2
LAYER049
 70
               0
 62
               7
  6
CONTINUOUS
  0
LAYER
  2
LAYER050
 70
               0
 62
               7
  6
CONTINUOUS
  0
LAYER
  2
LAYER051
 70
               0
 62
               7
  6
CONTINUOUS
  0
LAYER
  2
LAYER052
 70
               0
 62
               7
  6
CONTINUOUS
  0
LAYER
  2
LAYER053
 70
               0
 62
               7
  6
CONTINUOUS
  0
LAYER
  2
LAYER054
 70
               0
 62
               7
  6
CONTINUOUS
  0
LAYER
  2
LAYER055
 70
               0
 62
               7
  6
CONTINUOUS
  0
LAYER
  2
LAYER056
 70
               0
 62
               7
  6
CONTINUOUS
  0
LAYER
  2
LAYER057
 70
               0
 62
               7
  6
CONTINUOUS
  0
LAYER
  2
LAYER058
 70
               0
 62
               7
  6
CONTINUOUS
  0
LAYER
  2
LAYER059
 70
               0
 62
               7
  6
CONTINUOUS
  0
LAYER
  2
LAYER060
 70
               0
 62
               7
  6
CONTINUOUS
  0
LAYER
  2
LAYER061
 70
               0
 62
               7
  6
CONTINUOUS
  0
LAYER
  2
LAYER062
 70
               0
 62
               7
  6
CONTINUOUS
  0
LAYER
  2
LAYER063
 70
               0
 62
               7
  6
CONTINUOUS
  0
LAYER
  2
LAYER064
 70
               0
 62
               7
  6
CONTINUOUS
  0
LAYER
  2
LAYER065
 70
               0
 62
               7
  6
CONTINUOUS
  0
LAYER
  2
LAYER066
 70
               0
 62
               7
  6
CONTINUOUS
  0
LAYER
  2
LAYER067
 70
               0
 62
               7
  6
CONTINUOUS
  0
LAYER
  2
LAYER068
 70
               0
 62
               7
  6
CONTINUOUS
  0
LAYER
  2
LAYER069
 70
               0
 62
               7
  6
CONTINUOUS
  0
LAYER
  2
LAYER070
 70
               0
 62
               7
  6
CONTINUOUS
  0
LAYER
  2
LAYER071
 70
               0
 62
               7
  6
CONTINUOUS
  0
LAYER
  2
LAYER072
 70
               0
 62
               7
  6
CONTINUOUS
  0
LAYER
  2
LAYER073
 70
               0
 62
               7
  6
CONTINUOUS
  0
LAYER
  2
LAYER074
 70
               0
 62
               7
  6
CONTINUOUS
  0
LAYER
  2
LAYER075
 70
               0
 62
               7
  6
CONTINUOUS
  0
LAYER
  2
LAYER076
 70
               0
 62
               7
  6
CONTINUOUS
  0
LAYER
  2
LAYER077
 70
               0
 62
               7
  6
CONTINUOUS
  0
LAYER
  2
LAYER078
 70
               0
 62
               7
  6
CONTINUOUS
  0
LAYER
  2
LAYER079
 70
               0
 62
               7
  6
CONTINUOUS
  0
LAYER
  2
LAYER080
 70
               0
 62
               7
  6
CONTINUOUS
  0
LAYER
  2
LAYER081
 70
               0
 62
               7
  6
CONTINUOUS
  0
LAYER
  2
LAYER082
 70
               0
 62
               7
  6
CONTINUOUS
  0
LAYER
  2
LAYER083
 70
               0
 62
               7
  6
CONTINUOUS
  0
LAYER
  2
LAYER084
 70
               0
 62
               7
  6
CONTINUOUS
  0
LAYER
  2
LAYER085
 70
               0
 62
               7
  6
CONTINUOUS
  0
LAYER
  2
LAYER086
 70
               0
 62
               7
  6
CONTINUOUS
  0
LAYER
  2
LAYER087
 70
               0
 62
               7
  6
CONTINUOUS
  0
LAYER
  2
LAYER088
 70
               0
 62
               7
  6
CONTINUOUS
  0
LAYER
  2
LAYER089
 70
               0
 62
               7
  6
CONTINUOUS
  0
LAYER
  2
LAYER090
 70
               0
 62
               7
  6
CONTINUOUS
  0
LAYER
  2
LAYER091
 70
               0
 62
               7
  6
CONTINUOUS
  0
LAYER
  2
LAYER092
 70
               0
 62
               7
  6
CONTINUOUS
  0
LAYER
  2
LAYER093
 70
               0
 62
               7
  6
CONTINUOUS
  0
LAYER
  2
LAYER094
 70
               0
 62
               7
  6
CONTINUOUS
  0
LAYER
  2
LAYER095
 70
               0
 62
               7
  6
CONTINUOUS
  0
LAYER
  2
LAYER096
 70
               0
 62
               7
  6
CONTINUOUS
  0
LAYER
  2
LAYER097
 70
               0
 62
               7
  6
CONTINUOUS
  0
LAYER
  2
LAYER098
 70
               0
 62
               7
  6
CONTINUOUS
  0
LAYER
  2
LAYER099
 70
               0
 62
               7
  6
CONTINUOUS
  0
LAYER
  2
LAYER100
 70
               0
 62
               7
  6
CONTINUOUS
  0
LAYER
  2
LAYER101
 70
               0
 62
               7
  6
CONTINUOUS
  0
LAYER
  2
LAYER102
 70
               0
 62
               7
  6
CONTINUOUS
  0
LAYER
  2
LAYER103
 70
               0
 62
               7
  6
CONTINUOUS
  0
LAYER
  2
LAYER104
 70
               0
 62
               7
  6
CONTINUOUS
  0
LAYER
  2
LAYER105
 70
               0
 62
               7
  6
CONTINUOUS
  0
LAYER
  2
LAYER106
 70
               0
 62
               7
  6
CONTINUOUS
  0
LAYER
  2
LAYER107
 70
               0
 62
               7
  6
CONTINUOUS
  0
LAYER
  2
LAYER108
 70
               0
 62
               7
  6
CONTINUOUS
  0
LAYER
  2
LAYER109
 70
               0
 62
               7
  6
CONTINUOUS
  0
LAYER
  2
LAYER110
 70
               0
 62
               7
  6
CONTINUOUS
  0
LAYER
  2
LAYER111
 70
               0
 62
               7
  6
CONTINUOUS
  0
LAYER
  2
LAYER112
 70
               0
 62
               7
  6
CONTINUOUS
  0
LAYER
  2
LAYER113
 70
               0
 62
               7
  6
CONTINUOUS
  0
LAYER
  2
LAYER114
 70
               0
 62
               7
  6
CONTINUOUS
  0
LAYER
  2
LAYER115
 70
               0
 62
               7
  6
CONTINUOUS
  0
LAYER
  2
LAYER116
 70
               0
 62
               7
  6
CONTINUOUS
  0
LAYER
  2
LAYER117
 70
               0
 62
               7
  6
CONTINUOUS
  0
LAYER
  2
LAYER118
 70
               0
 62
               7
  6
CONTINUOUS
  0
LAYER
  2
LAYER119
 70
               0
 62
               7
  6
CONTINUOUS
  0
LAYER
  2
LAYER120
 70
               0
 62
               7
  6
CONTINUOUS
  0
LAYER
  2
LAYER121
 70
               0
 62
               7
  6
CONTINUOUS
  0
LAYER
  2
LAYER122
 70
               0
 62
               7
  6
CONTINUOUS
  0
LAYER
  2
LAYER123
 70
               0
 62
               7
  6
CONTINUOUS
  0
LAYER
  2
LAYER124
 70
               0
 62
               7
  6
CONTINUOUS
  0
LAYER
  2
LAYER125
 70
               0
 62
               7
  6
CONTINUOUS
  0
LAYER
  2
LAYER126
 70
               0
 62
               7
  6
CONTINUOUS
  0
LAYER
  2
LAYER127
 70
               0
 62
               7
  6
CONTINUOUS
  0
LAYER
  2
LAYER128
 70
               0
 62
               7
  6
CONTINUOUS
  0
LAYER
  2
LAYER129
 70
               0
 62
               7
  6
CONTINUOUS
  0
LAYER
  2
LAYER130
 70
               0
 62
               7
  6
CONTINUOUS
  0
LAYER
  2
LAYER131
 70
               0
 62
               7
  6
CONTINUOUS
  0
LAYER
  2
LAYER132
 70
               0
 62
               7
  6
CONTINUOUS
  0
LAYER
  2
LAYER133
 70
               0
 62
               7
  6
CONTINUOUS
  0
LAYER
  2
LAYER134
 70
               0
 62
               7
  6
CONTINUOUS
  0
LAYER
  2
LAYER135
 70
               0
 62
               7
  6
CONTINUOUS
  0
LAYER
  2
LAYER136
 70
               0
 62
               7
  6
CONTINUOUS
  0
LAYER
  2
LAYER137
 70
               0
 62
               7
  6
CONTINUOUS
  0
LAYER
  2
LAYER138
 70
               0
 62
               7
  6
CONTINUOUS
  0
LAYER
  2
LAYER139
 70
               0
 62
               7
  6
CONTINUOUS
  0
LAYER
  2
LAYER140
 70
               0
 62
               7
  6
CONTINUOUS
  0
LAYER
  2
LAYER141
 70
               0
 62
               7
  6
CONTINUOUS
  0
LAYER
  2
LAYER142
 70
               0
 62
               7
  6
CONTINUOUS
  0
LAYER
  2
LAYER143
 70
               0
 62
               7
  6
CONTINUOUS
  0
LAYER
  2
LAYER144
 70
               0
 62
               7
  6
CONTINUOUS
  0
LAYER
  2
LAYER145
 70
               0
 62
               7
  6
CONTINUOUS
  0
LAYER
  2
LAYER146
 70
               0
 62
               7
  6
CONTINUOUS
  0
LAYER
  2
LAYER147
 70
               0
 62
               7
  6
CONTINUOUS
  0
LAYER
  2
LAYER148
 70
               0
 62
               7
  6
CONTINUOUS
  0
LAYER
  2
LAYER149
 70
               0
 62
               7
  6
CONTINUOUS
  0
LAYER
  2
LAYER150
 70
               0
 62
               7
  6
CONTINUOUS
  0
LAYER
  2
LAYER151
 70
               0
 62
               7
  6
CONTINUOUS
  0
LAYER
  2
LAYER152
 70
               0
 62
               7
  6
CONTINUOUS
  0
LAYER
  2
LAYER153
 70
               0
 62
               7
  6
CONTINUOUS
  0
LAYER
  2
LAYER154
 70
               0
 62
               7
  6
CONTINUOUS
  0
LAYER
  2
LAYER155
 70
               0
 62
               7
  6
CONTINUOUS
  0
LAYER
  2
LAYER156
 70
               0
 62
               7
  6
CONTINUOUS
  0
LAYER
  2
LAYER157
 70
               0
 62
               7
  6
CONTINUOUS
  0
LAYER
  2
LAYER158
 70
               0
 62
               7
  6
CONTINUOUS
  0
LAYER
  2
LAYER159
 70
               0
 62
               7
  6
CONTINUOUS
  0
LAYER
  2
LAYER160
 70
               0
 62
               7
  6
CONTINUOUS
  0
LAYER
  2
LAYER161
 70
               0
 62
               7
  6
CONTINUOUS
  0
LAYER
  2
LAYER162
 70
               0
 62
               7
  6
CONTINUOUS
  0
LAYER
  2
LAYER163
 70
               0
 62
               7
  6
CONTINUOUS
  0
LAYER
  2
LAYER164
 70
               0
 62
               7
  6
CONTINUOUS
  0
LAYER
  2
LAYER165
 70
               0
 62
               7
  6
CONTINUOUS
  0
LAYER
  2
LAYER166
 70
               0
 62
               7
  6
CONTINUOUS
  0
LAYER
  2
LAYER167
 70
               0
 62
               7
  6
CONTINUOUS
  0
LAYER
  2
LAYER168
 70
               0
 62
               7
  6
CONTINUOUS
  0
LAYER
  2
LAYER169
 70
               0
 62
               7
  6
CONTINUOUS
  0
LAYER
  2
LAYER170
 70
               0
 62
               7
  6
CONTINUOUS
  0
LAYER
  2
LAYER171
 70
               0
 62
               7
  6
CONTINUOUS
  0
LAYER
  2
LAYER172
 70
               0
 62
               7
  6
CONTINUOUS
  0
LAYER
  2
LAYER173
 70
               0
 62
               7
  6
CONTINUOUS
  0
LAYER
  2
LAYER174
 70
               0
 62
               7
  6
CONTINUOUS
  0
LAYER
  2
LAYER175
 70
               0
 62
               7
  6
CONTINUOUS
  0
LAYER
  2
LAYER176
 70
               0
 62
               7
  6
CONTINUOUS
  0
LAYER
  2
LAYER177
 70
               0
 62
               7
  6
CONTINUOUS
  0
LAYER
  2
LAYER178
 70
               0
 62
               7
  6
CONTINUOUS
  0
LAYER
  2
LAYER179
 70
               0
 62
               7
  6
CONTINUOUS
  0
LAYER
  2
LAYER180
 70
               0
 62
               7
  6
CONTINUOUS
  0
LAYER
  2
LAYER181
 70
               0
 62
               7
  6
CONTINUOUS
  0
LAYER
  2
LAYER182
 70
               0
 62
               7
  6
CONTINUOUS
  0
LAYER
  2
LAYER183
 70
               0
 62
               7
  6
CONTINUOUS
  0
LAYER
  2
LAYER184
 70
               0
 62
               7
  6
CONTINUOUS
  0
LAYER
  2
LAYER185
 70
               0
 62
               7
  6
CONTINUOUS
  0
LAYER
  2
LAYER186
 70
               0
 62
               7
  6
CONTINUOUS
  0
LAYER
  2
LAYER187
 70
               0
 62
               7
  6
CONTINUOUS
  0
LAYER
  2
LAYER188
 70
               0
 62
               7
  6
CONTINUOUS
  0
LAYER
  2
LAYER189
 70
               0
 62
               7
  6
CONTINUOUS
  0
LAYER
  2
LAYER190
 70
               0
 62
               7
  6
CONTINUOUS
  0
LAYER
  2
LAYER191
 70
               0
 62
               7
  6
CONTINUOUS
  0
LAYER
  2
LAYER192
 70
               0
 62
               7
  6
CONTINUOUS
  0
LAYER
  2
LAYER193
 70
               0
 62
               7
  6
CONTINUOUS
  0
LAYER
  2
LAYER194
 70
               0
 62
               7
  6
CONTINUOUS
  0
LAYER
  2
LAYER195
 70
               0
 62
               7
  6
CONTINUOUS
  0
LAYER
  2
LAYER196
 70
               0
 62
               7
  6
CONTINUOUS
  0
LAYER
  2
LAYER197
 70
               0
 62
               7
  6
CONTINUOUS
  0
LAYER
  2
LAYER198
 70
               0
 62
               7
  6
CONTINUOUS
  0
LAYER
  2
LAYER199
 70
               0
 62
               7
  6
CONTINUOUS
  0
LAYER
  2
LAYER200
 70
               0
 62
               7
  6
CONTINUOUS
  0
LAYER
  2
LAYER201
 70
               0
 62
               7
  6
CONTINUOUS
  0
LAYER
  2
LAYER202
 70
               0
 62
               7
  6
CONTINUOUS
  0
LAYER
  2
LAYER203
 70
               0
 62
               7
  6
CONTINUOUS
  0
LAYER
  2
LAYER204
 70
               0
 62
               7
  6
CONTINUOUS
  0
LAYER
  2
LAYER205
 70
               0
 62
               7
  6
CONTINUOUS
  0
LAYER
  2
LAYER206
 70
               0
 62
               7
  6
CONTINUOUS
  0
LAYER
  2
LAYER207
 70
               0
 62
               7
  6
CONTINUOUS
  0
LAYER
  2
LAYER208
 70
               0
 62
               7
  6
CONTINUOUS
  0
LAYER
  2
LAYER209
 70
               0
 62
               7
  6
CONTINUOUS
  0
LAYER
  2
LAYER210
 70
               0
 62
               7
  6
CONTINUOUS
  0
LAYER
  2
LAYER211
 70
               0
 62
               7
  6
CONTINUOUS
  0
LAYER
  2
LAYER212
 70
               0
 62
               7
  6
CONTINUOUS
  0
LAYER
  2
LAYER213
 70
               0
 62
               7
  6
CONTINUOUS
  0
LAYER
  2
LAYER214
 70
               0
 62
               7
  6
CONTINUOUS
  0
LAYER
  2
LAYER215
 70
               0
 62
               7
  6
CONTINUOUS
  0
LAYER
  2
LAYER216
 70
               0
 62
               7
  6
CONTINUOUS
  0
LAYER
  2
LAYER217
 70
               0
 62
               7
  6
CONTINUOUS
  0
LAYER
  2
LAYER218
 70
               0
 62
               7
  6
CONTINUOUS
  0
LAYER
  2
LAYER219
 70
               0
 62
               7
  6
CONTINUOUS
  0
LAYER
  2
LAYER220
 70
               0
 62
               7
  6
CONTINUOUS
  0
LAYER
  2
LAYER221
 70
               0
 62
               7
  6
CONTINUOUS
  0
LAYER
  2
LAYER222
 70
               0
 62
               7
  6
CONTINUOUS
  0
LAYER
  2
LAYER223
 70
               0
 62
               7
  6
CONTINUOUS
  0
LAYER
  2
LAYER224
 70
               0
 62
               7
  6
CONTINUOUS
  0
LAYER
  2
LAYER225
 70
               0
 62
               7
  6
CONTINUOUS
  0
LAYER
  2
LAYER226
 70
               0
 62
               7
  6
CONTINUOUS
  0
LAYER
  2
LAYER227
 70
               0
 62
               7
  6
CONTINUOUS
  0
LAYER
  2
LAYER228
 70
               0
 62
               7
  6
CONTINUOUS
  0
LAYER
  2
LAYER229
 70
               0
 62
               7
  6
CONTINUOUS
  0
LAYER
  2
LAYER230
 70
               0
 62
               7
  6
CONTINUOUS
  0
LAYER
  2
LAYER231
 70
               0
 62
               7
  6
CONTINUOUS
  0
LAYER
  2
LAYER232
 70
               0
 62
               7
  6
CONTINUOUS
  0
LAYER
  2
LAYER233
 70
               0
 62
               7
  6
CONTINUOUS
  0
LAYER
  2
LAYER234
 70
               0
 62
               7
  6
CONTINUOUS
  0
LAYER
  2
LAYER235
 70
               0
 62
               7
  6
CONTINUOUS
  0
LAYER
  2
LAYER236
 70
               0
 62
               7
  6
CONTINUOUS
  0
LAYER
  2
LAYER237
 70
               0
 62
               7
  6
CONTINUOUS
  0
LAYER
  2
LAYER238
 70
               0
 62
               7
  6
CONTINUOUS
  0
LAYER
  2
LAYER239
 70
               0
 62
               7
  6
CONTINUOUS
  0
LAYER
  2
LAYER240
 70
               0
 62
               7
  6
CONTINUOUS
  0
LAYER
  2
LAYER241
 70
               0
 62
               7
  6
CONTINUOUS
  0
LAYER
  2
LAYER242
 70
               0
 62
               7
  6
CONTINUOUS
  0
LAYER
  2
LAYER243
 70
               0
 62
               7
  6
CONTINUOUS
  0
LAYER
  2
LAYER244
 70
               0
 62
               7
  6
CONTINUOUS
  0
LAYER
  2
LAYER245
 70
               0
 62
               7
  6
CONTINUOUS
  0
LAYER
  2
LAYER246
 70
               0
 62
               7
  6
CONTINUOUS
  0
LAYER
  2
LAYER247
 70
               0
 62
               7
  6
CONTINUOUS
  0
LAYER
  2
LAYER248
 70
               0
 62
               7
  6
CONTINUOUS
  0
LAYER
  2
LAYER249
 70
               0
 62
               7
  6
CONTINUOUS
  0
LAYER
  2
LAYER250
 70
               0
 62
               7
  6
CONTINUOUS
  0
LAYER
  2
LAYER251
 70
               0
 62
               7
  6
CONTINUOUS
  0
LAYER
  2
LAYER252
 70
               0
 62
               7
  6
CONTINUOUS
  0
LAYER
  2
LAYER253
 70
               0
 62
               7
  6
CONTINUOUS
  0
LAYER
  2
LAYER254
 70
               0
 62
               7
  6
CONTINUOUS
  0
LAYER
  2
LAYER255
 70
               0
 62
               7
  6
CONTINUOUS
  0
ENDTAB
  0
TABLE
  2
STYLE
 70
               1
  0
STYLE
  2
STANDARD
 70
               0
 40
0.0
 41
1.0
 50
0.0
 71
               0
 42
0.0
  3
txt
  4

  0
ENDTAB
  0
TABLE
  2
VIEW
 70
               0
  0
VIEW
  2
QQQQ
 70
               0
 40
970.19000000000017
 10
31.671259842519248
 20
3.1986648572962508
 41
1126.5474999999988
 11
0.0
 21
0.0
 31
1.0
 12
100.0
 22
100.0
 32
0.0
 42
50.0
 43
0.0
 44
0.0
 50
0.0
 71
               0
  0
ENDTAB
  0
TABLE
  2
UCS
 70
               0
  0
ENDTAB
  0
TABLE
  2
APPID
 70
               1
  0
APPID
  2
ACAD
 70
               0
  0
ENDTAB
  0
TABLE
  2
DIMSTYLE
 70
               1
  0
DIMSTYLE
  2
STANDARD
 70
               0
  3

  4

  5

  6

  7

 40
1.0
 41
0.18
 42
0.0625
 43
0.38
 44
0.18
 45
0.0
 46
0.0
 47
0.0
 48
0.0
140
0.18
141
0.09
142
0.0
143
25.399999999999999
144
1.0
145
0.0
146
1.0
147
0.09
 71
               0
 72
               0
 73
               1
 74
               1
 75
               0
 76
               0
 77
               0
 78
               0
170
               0
171
               2
172
               0
173
               0
174
               0
175
               0
176
               0
177
               0
178
               0
  0
ENDTAB
  0
ENDSEC
  0
SECTION
  2
BLOCKS
  0
ENDSEC
  0
SECTION
  2
ENTITIES
  0
LINE
  8
0
  6
CONTINUOUS
 62
               3
  5
136
 10
-155.0787401574803
 20
-221.30133514270014
 30
0.0
 11
-155.0787401574801
 21
-415.80133514270437
 31
0.0
  0
LINE
  8
0
  6
CONTINUOUS
 62
               3
  5
137
 10
-196.07080015069459
 20
-233.80133514270273
 30
0.0
 11
-173.07874015748129
 21
-233.80133514270594
 31
0.0
  0
LINE
  8
0
  6
CONTINUOUS
 62
               3
  5
138
 10
-196.07080015069459
 20
-388.80133514270699
 30
0.0
 11
-173.07874015748129
 21
-388.80133514269676
 31
0.0
  0
LINE
  8
0
  6
CONTINUOUS
 62
               3
  5
139
 10
-173.07874015748129
 20
-221.3013351427044
 30
0.0
 11
-155.0787401574803
 21
-221.30133514270014
 31
0.0
  0
LINE
  8
0
  6
CONTINUOUS
 62
               3
  5
13A
 10
-173.0787401574801
 20
-415.80133514270847
 30
0.0
 11
-155.0787401574801
 21
-415.80133514270437
 31
0.0
  0
ARC
  8
0
  6
CONTINUOUS
 62
               3
  5
13B
 10
-201.07874015748018
 20
-142.30133514270392
 30
0.0
 40
100.5
 50
178.81459326879536
 51
269.99999999989683
  0
ARC
  8
0
  6
CONTINUOUS
 62
               3
  5
13C
 10
-314.55969469411059
 20
-140.22216284219212
 30
0.0
 40
13.0
 50
358.95035716797679
 51
399.03879260939374
  0
ARC
  8
0
  6
CONTINUOUS
 62
               3
  5
13D
 10
-201.07874015748018
 20
-142.30133514270392
 30
0.0
 40
239.5
 50
179.99999999993119
 51
269.99999999989683
  0
LINE
  8
0
  6
CONTINUOUS
 62
               3
  5
13E
 10
-458.07874015748013
 20
-96.301335142704602
 30
0.0
 11
-458.07874015748013
 21
-111.33614335155289
 31
0.0
  0
LINE
  8
0
  6
CONTINUOUS
 62
               3
  5
13F
 10
-434.57874015748189
 20
-111.33614335155264
 30
0.0
 11
-434.57874015748018
 21
-128.88492727770483
 31
0.0
  0
ARC
  8
0
  6
CONTINUOUS
 62
               3
  5
140
 10
-439.57874015748018
 20
-128.88492727770483
 30
0.0
 40
4.9999999999999982
 50
311.810314895658
 51
359.99999999986176
  0
ARC
  8
0
  6
CONTINUOUS
 62
               3
  5
141
 10
-427.57874015748058
 20
-142.30133514270392
 30
0.0
 40
13.0
 50
131.81031489572672
 51
179.99999999993119
  0
LINE
  8
0
  6
CONTINUOUS
 62
               3
  5
142
 10
-305.57874015748041
 20
-111.33614335155121
 30
0.0
 11
-305.57874015748041
 21
-128.88492727770512
 31
0.0
  0
ARC
  8
0
  6
CONTINUOUS
 62
               3
  5
143
 10
-300.57874015748041
 20
-128.88492727770512
 30
0.0
 40
4.9999999999999982
 50
179.99999999993119
 51
219.0387926094632
  0
LINE
  8
0
  6
CONTINUOUS
 62
               3
  5
144
 10
-294.60338911078719
 20
-96.301335142703209
 30
0.0
 11
-294.60338911078708
 21
-111.3361433515511
 31
0.0
  0
LINE
  8
0
  6
CONTINUOUS
 62
               3
  5
145
 10
-458.10338911078702
 20
-111.33614335155286
 30
0.0
 11
-294.60338911078702
 21
-111.3361433515511
 31
0.0
  0
LINE
  8
0
  6
CONTINUOUS
 62
               3
  5
146
 10
-458.10338911078719
 20
-96.301335142704602
 30
0.0
 11
-294.60338911078719
 21
-96.301335142703209
 31
0.0
  0
LINE
  8
0
  6
CONTINUOUS
 62
               3
  5
147
 10
-440.60338911078668
 20
-142.30133514270392
 30
0.0
 11
-301.57874015748007
 21
-142.30133514270392
 31
0.0
  0
LINE
  8
0
  6
CONTINUOUS
 62
               3
  5
148
 10
-439.60338911078708
 20
-137.30133514270392
 30
0.0
 11
-301.91671697349364
 21
-137.30133514270392
 31
0.0
  0
LINE
  8
0
  6
CONTINUOUS
 62
               3
  5
149
 10
-173.07874015748129
 20
-221.3013351427044
 30
0.0
 11
-173.0787401574801
 21
-415.80133514270847
 31
0.0
  0
LINE
  8
0
  6
CONTINUOUS
 62
               3
  5
14A
 10
-142.07874015748035
 20
-230.301335142704
 30
0.0
 11
-155.0787401574803
 21
-230.301335142704
 31
0.0
  0
LINE
  8
0
  6
CONTINUOUS
 62
               3
  5
14B
 10
-142.07874015748035
 20
-392.30133514270381
 30
0.0
 11
-155.0787401574803
 21
-392.30133514270381
 31
0.0
  0
LINE
  8
0
  6
CONTINUOUS
 62
               3
  5
14C
 10
-123.0787401574803
 20
-221.30133514270437
 30
0.0
 11
-142.07874015748035
 21
-221.30133514270395
 31
0.0
  0
LINE
  8
0
  6
CONTINUOUS
 62
               3
  5
14D
 10
-123.0787401574803
 20
-415.80133514270426
 30
0.0
 11
-142.07874015748035
 21
-415.80133514270392
 31
0.0
  0
LINE
  8
0
  6
CONTINUOUS
 62
               3
  5
14E
 10
-142.07874015748035
 20
-221.30133514270395
 30
0.0
 11
-142.07874015748035
 21
-415.80133514270392
 31
0.0
  0
LINE
  8
0
  6
CONTINUOUS
 62
               3
  5
14F
 10
-123.0787401574803
 20
-415.80133514270426
 30
0.0
 11
-123.0787401574803
 21
-221.30133514270437
 31
0.0
  0
LINE
  8
0
  6
CONTINUOUS
 62
               3
  5
150
 10
-436.05409120417391
 20
-84.301335142703863
 30
0.0
 11
-436.05409120417391
 21
-96.301335142704431
 31
0.0
  0
LINE
  8
0
  6
CONTINUOUS
 62
               3
  5
151
 10
-304.05409120417403
 20
-84.301335142703863
 30
0.0
 11
-304.05409120417403
 21
-96.301335142703294
 31
0.0
  0
LINE
  8
0
  6
CONTINUOUS
 62
               3
  5
152
 10
-458.0787401574803
 20
-69.301335142703834
 30
0.0
 11
-294.5787401574803
 21
-69.301335142703863
 31
0.0
  0
LINE
  8
0
  6
CONTINUOUS
 62
               3
  5
153
 10
-458.07874015748075
 20
-84.301335142703834
 30
0.0
 11
-294.57874015748075
 21
-84.301335142703863
 31
0.0
  0
LINE
  8
0
  6
CONTINUOUS
 62
               3
  5
154
 10
-294.57874015748075
 20
-84.301335142703863
 30
0.0
 11
-294.5787401574803
 21
-69.301335142703863
 31
0.0
  0
LINE
  8
0
  6
CONTINUOUS
 62
               3
  5
155
 10
-458.07874015748007
 20
-84.301335142703863
 30
0.0
 11
-458.07874015747996
 21
-69.301335142703863
 31
0.0
  0
ARC
  8
0
  6
CONTINUOUS
 62
               3
  5
156
 10
-352.39959133140133
 20
-293.62218631662506
 30
0.0
 40
9.9999999999999964
 50
117.72027269074661
 51
332.27972730908107
  0
ARC
  8
0
  6
CONTINUOUS
 62
               3
  5
157
 10
-339.12115486883181
 20
-300.59951568462122
 30
0.0
 40
4.9999999999999982
 50
64.456602312014056
 51
152.27972730914988
  0
ARC
  8
0
  6
CONTINUOUS
 62
               3
  5
158
 10
-359.37692069939743
 20
-280.34374985405543
 30
0.0
 40
4.9999999999999982
 50
297.72027269067814
 51
385.54339768781313
  0
ARC
  8
0
  6
CONTINUOUS
 62
               3
  5
159
 10
-288.7599810246121
 20
-229.98257600983587
 30
0.0
 40
9.9999999999999964
 50
297.7202726906782
 51
512.27972730901149
  0
ARC
  8
0
  6
CONTINUOUS
 62
               3
  5
15A
 10
-302.03841748718162
 20
-223.00524664183962
 30
0.0
 40
4.9999999999999982
 50
244.45660231194512
 51
332.27972730908107
  0
ARC
  8
0
  6
CONTINUOUS
 62
               3
  5
15B
 10
-281.782651656616
 20
-243.26101247240553
 30
0.0
 40
4.9999999999999982
 50
117.72027269074702
 51
205.54339768788276
  0
LINE
  8
0
  6
CONTINUOUS
 62
               3
  5
15C
 10
-362.34375518507443
 20
-294.67746128140925
 30
0.0
 11
-365.32852351953608
 21
-266.55111850475953
 31
0.0
  0
LINE
  8
0
  6
CONTINUOUS
 62
               3
  5
15D
 10
-315.83104883647763
 20
-217.05364382170129
 30
0.0
 11
-287.7047060598278
 21
-220.03841215616271
 31
0.0
  0
LINE
  8
0
  6
CONTINUOUS
 62
               3
  5
15E
 10
-353.45486629618563
 20
-303.56635017029811
 30
0.0
 11
-325.32852351953579
 21
-306.55111850475953
 31
0.0
  0
LINE
  8
0
  6
CONTINUOUS
 62
               3
  5
15F
 10
-275.83104883647763
 20
-257.05364382170126
 30
0.0
 11
-278.81581717093894
 21
-228.92730104505156
 31
0.0
  0
ARC
  8
0
  6
CONTINUOUS
 62
               3
  5
160
 10
-320.57978617800671
 20
-261.80238116323051
 30
0.0
 40
45.0
 50
83.942441268949281
 51
186.05755873094742
  0
ARC
  8
0
  6
CONTINUOUS
 62
               3
  5
161
 10
-320.57978617800671
 20
-261.80238116323051
 30
0.0
 40
38.0
 50
64.456602312014013
 51
205.54339768788279
  0
ARC
  8
0
  6
CONTINUOUS
 62
               3
  5
162
 10
-320.57978617800671
 20
-261.80238116323051
 30
0.0
 40
45.0
 50
263.94244126888054
 51
366.05755873087799
  0
ARC
  8
0
  6
CONTINUOUS
 62
               3
  5
163
 10
-320.57978617800671
 20
-261.80238116323051
 30
0.0
 40
38.0
 50
244.45660231194512
 51
385.54339768781324
  0
CIRCLE
  8
0
  6
CONTINUOUS
 62
               3
  5
164
 10
-288.7599810246121
 20
-229.98257600983587
 30
0.0
 40
6.2999999999999989
  0
CIRCLE
  8
0
  6
CONTINUOUS
 62
               3
  5
165
 10
-352.39959133140133
 20
-293.62218631662506
 30
0.0
 40
6.2999999999999989
  0
LINE
  8
0
  6
CONTINUOUS
 62
               3
  5
166
 10
-196.07080015069459
 20
-233.80133514270273
 30
0.0
 11
-196.07080015069459
 21
-388.80133514270699
 31
0.0
  0
LINE
  8
0
  6
CONTINUOUS
 62
               3
  5
167
 10
-196.07080015069459
 20
-242.80133514270386
 30
0.0
 11
-201.07874015748018
 21
-242.80133514270386
 31
0.0
  0
LINE
  8
0
  6
CONTINUOUS
 62
               3
  5
168
 10
-201.07874015748018
 20
-381.80133514270392
 30
0.0
 11
-196.07080015069459
 21
-381.80133514270392
 31
0.0
  0
LINE
  8
0
  6
CONTINUOUS
 62
               3
  5
169
 10
-390.63567744761571
 20
-331.30133514270381
 30
0.0
 11
-348.18159533031496
 21
-331.30133514270381
 31
0.0
  0
LINE
  8
0
  6
CONTINUOUS
 62
               3
  5
16A
 10
-387.0787401574803
 20
-331.30133514270381
 30
0.0
 11
-387.0787401574803
 21
-361.30133514270381
 31
0.0
  0
LINE
  8
0
  6
CONTINUOUS
 62
               3
  5
16B
 10
-353.0787401574803
 20
-361.30133514270381
 30
0.0
 11
-353.0787401574803
 21
-331.30133514270381
 31
0.0
  0
LINE
  8
0
  6
CONTINUOUS
 62
               3
  5
16C
 10
-387.0787401574803
 20
-361.30133514270381
 30
0.0
 11
-353.0787401574803
 21
-361.30133514270381
 31
0.0
  0
LINE
  8
0
  6
CONTINUOUS
 62
               3
  5
16D
 10
-375.0787401574803
 20
-331.30133514270381
 30
0.0
 11
-375.0787401574803
 21
-361.30133514270381
 31
0.0
  0
LINE
  8
0
  6
CONTINUOUS
 62
               3
  5
16E
 10
-365.0787401574803
 20
-361.30133514270381
 30
0.0
 11
-365.0787401574803
 21
-331.30133514270381
 31
0.0
  0
LINE
  8
0
  6
CONTINUOUS
 62
               3
  5
16F
 10
-390.63567744761571
 20
-331.30133514270381
 30
0.0
 11
-394.85712157797843
 21
-283.05000793947266
 31
0.0
  0
ARC
  8
0
  6
CONTINUOUS
 62
               3
  5
170
 10
429.9212598425197
 20
-311.30133514270381
 30
0.0
 40
90.0
 50
302.88320949568157
 51
359.99999999986164
  0
ARC
  8
0
  6
CONTINUOUS
 62
               3
  5
171
 10
429.9212598425197
 20
-401.80133514270381
 30
0.0
 40
14.0
 50
237.11679050411198
 51
302.88320949568163
  0
LINE
  8
0
  6
CONTINUOUS
 62
               3
  5
172
 10
422.32026257318626
 20
-413.55824122005185
 30
0.0
 11
381.05770596823265
 21
-386.88144563994126
 31
0.0
  0
LINE
  8
0
  6
CONTINUOUS
 62
               3
  5
173
 10
437.52225711185338
 20
-413.55824122005185
 30
0.0
 11
478.78481371680675
 21
-386.88144563994138
 31
0.0
  0
ARC
  8
0
  6
CONTINUOUS
 62
               3
  5
174
 10
508.29655888501134
 20
-266.05133514270381
 30
0.0
 40
14.0
 50
357.11679050406616
 51
422.88320949563501
  0
LINE
  8
0
  6
CONTINUOUS
 62
               3
  5
175
 10
522.27883685256916
 20
-266.75553883336886
 30
0.0
 11
519.80733249110585
 21
-315.82835886840724
 31
0.0
  0
LINE
  8
0
  6
CONTINUOUS
 62
               3
  5
176
 10
514.67783958323571
 20
-253.59022537469087
 30
0.0
 11
470.9437786168188
 21
-231.19420091976295
 31
0.0
  0
ARC
  8
0
  6
CONTINUOUS
 62
               3
  5
177
 10
351.54596080002807
 20
-266.05133514270381
 30
0.0
 40
14.0
 50
104.56013385555077
 51
182.88320949572741
  0
LINE
  8
0
  6
CONTINUOUS
 62
               3
  5
178
 10
345.1646801018037
 20
-253.59022537469073
 30
0.0
 11
388.89874106822072
 21
-231.19420091976295
 31
0.0
  0
LINE
  8
0
  6
CONTINUOUS
 62
               3
  5
179
 10
337.56368283247014
 20
-266.75553883336875
 30
0.0
 11
340.03518719393355
 21
-315.82835886840712
 31
0.0
  0
ARC
  8
0
  6
CONTINUOUS
 62
               3
  5
17A
 10
429.9212598425197
 20
-311.30133514270381
 30
0.0
 40
90.0
 50
179.99999999993119
 51
237.11679050411189
  0
ARC
  8
0
  6
CONTINUOUS
 62
               3
  5
17B
 10
429.9212598425197
 20
-311.30133514270381
 30
0.0
 40
90.0
 50
62.883209495773364
 51
117.11679050415775
  0
CIRCLE
  8
0
  6
CONTINUOUS
 62
               3
  5
17C
 10
429.9212598425197
 20
-311.30133514270381
 30
0.0
 40
71.5
  0
LINE
  8
0
  6
CONTINUOUS
 62
               3
  5
17D
 10
360.4212598425197
 20
-215.80238116323017
 30
0.0
 11
360.4212598425197
 21
-142.30133514270381
 31
0.0
  0
ARC
  8
0
  6
CONTINUOUS
 62
               3
  5
17E
 10
371.4212598425197
 20
-140.4804917510869
 30
0.0
 40
11.0
 50
133.55420875229669
 51
163.20105095598726
  0
LINE
  8
0
  6
CONTINUOUS
 62
               3
  5
17F
 10
499.4212598425197
 20
-215.80238116323031
 30
0.0
 11
499.4212598425197
 21
-142.30133514270392
 31
0.0
  0
ARC
  8
0
  6
CONTINUOUS
 62
               3
  5
180
 10
488.4212598425197
 20
-140.52716372101099
 30
0.0
 40
11.0
 50
17.053057452006115
 51
46.688891510049054
  0
LINE
  8
0
  6
CONTINUOUS
 62
               3
  5
181
 10
360.4212598425197
 20
-142.30133514270392
 30
0.0
 11
499.4212598425197
 21
-142.30133514270392
 31
0.0
  0
LINE
  8
0
  6
CONTINUOUS
 62
               3
  5
182
 10
365.39661088921332
 20
-111.30133514270383
 30
0.0
 11
365.39661088921332
 21
-128.8849272777048
 31
0.0
  0
ARC
  8
0
  6
CONTINUOUS
 62
               3
  5
183
 10
360.39661088921332
 20
-128.8849272777048
 30
0.0
 40
4.9999999999999991
 50
313.55420875222813
 51
359.99999999986176
  0
LINE
  8
0
  6
CONTINUOUS
 62
               3
  5
184
 10
494.39661088921309
 20
-111.30133514270383
 30
0.0
 11
494.39661088921309
 21
-128.8849272777048
 31
0.0
  0
ARC
  8
0
  6
CONTINUOUS
 62
               3
  5
185
 10
499.39661088921309
 20
-128.8849272777048
 30
0.0
 40
4.9999999999999991
 50
179.99999999993119
 51
226.68889150997995
  0
LINE
  8
0
  6
CONTINUOUS
 62
               3
  5
186
 10
360.39661088921298
 20
-137.30133514270392
 30
0.0
 11
499.4212598425197
 21
-137.30133514270392
 31
0.0
  0
ARC
  8
0
  6
CONTINUOUS
 62
               3
  5
187
 10
499.4212598425197
 20
-139.80133514270392
 30
0.0
 40
2.5
 50
269.99999999989683
 51
449.99999999982737
  0
ARC
  8
0
  6
CONTINUOUS
 62
               3
  5
188
 10
360.4212598425197
 20
-139.80133514270381
 30
0.0
 40
2.5
 50
89.999999999965596
 51
269.99999999989711
  0
LINE
  8
0
  6
CONTINUOUS
 62
               3
  5
189
 10
354.4459087958262
 20
-96.301335142703834
 30
0.0
 11
354.44590879582574
 21
-111.30133514270383
 31
0.0
  0
LINE
  8
0
  6
CONTINUOUS
 62
               3
  5
18A
 10
354.4459087958262
 20
-96.301335142703834
 30
0.0
 11
505.39661088921343
 21
-96.301335142703834
 31
0.0
  0
LINE
  8
0
  6
CONTINUOUS
 62
               3
  5
18B
 10
354.44590879582574
 20
-111.30133514270383
 30
0.0
 11
505.39661088921366
 21
-111.30133514270383
 31
0.0
  0
LINE
  8
0
  6
CONTINUOUS
 62
               3
  5
18C
 10
505.39661088921343
 20
-96.301335142703834
 30
0.0
 11
505.39661088921366
 21
-111.30133514270383
 31
0.0
  0
LINE
  8
0
  6
CONTINUOUS
 62
               3
  5
18D
 10
354.44590879582609
 20
-69.301335142703834
 30
0.0
 11
505.4459087958262
 21
-69.301335142703834
 31
0.0
  0
LINE
  8
0
  6
CONTINUOUS
 62
               3
  5
18E
 10
354.44590879582609
 20
-84.301335142703834
 30
0.0
 11
505.4459087958262
 21
-84.301335142703834
 31
0.0
  0
LINE
  8
0
  6
CONTINUOUS
 62
               3
  5
18F
 10
505.4459087958262
 20
-84.301335142703834
 30
0.0
 11
505.4459087958262
 21
-69.301335142703834
 31
0.0
  0
LINE
  8
0
  6
CONTINUOUS
 62
               3
  5
190
 10
354.44590879582609
 20
-69.301335142703834
 30
0.0
 11
354.44590879582609
 21
-84.301335142703834
 31
0.0
  0
CIRCLE
  8
0
  6
CONTINUOUS
 62
               3
  5
191
 10
351.54596080002807
 20
-266.05133514270381
 30
0.0
 40
9.0
  0
CIRCLE
  8
0
  6
CONTINUOUS
 62
               3
  5
192
 10
508.29655888501134
 20
-266.05133514270381
 30
0.0
 40
9.0
  0
CIRCLE
  8
0
  6
CONTINUOUS
 62
               3
  5
193
 10
429.9212598425197
 20
-401.80133514270381
 30
0.0
 40
9.0
  0
LINE
  8
0
  6
CONTINUOUS
 62
               3
  5
194
 10
483.9212598425197
 20
-215.80238116323031
 30
0.0
 11
521.4212598425197
 21
-215.80238116323031
 31
0.0
  0
LINE
  8
0
  6
CONTINUOUS
 62
               3
  5
195
 10
520.31228100656881
 20
-305.80238116323028
 30
0.0
 11
521.4212598425197
 21
-305.80238116323028
 31
0.0
  0
LINE
  8
0
  6
CONTINUOUS
 62
               3
  5
196
 10
375.92125984251959
 20
-215.80238116323017
 30
0.0
 11
338.42125984251982
 21
-215.80238116323017
 31
0.0
  0
LINE
  8
0
  6
CONTINUOUS
 62
               3
  5
197
 10
339.53023867847094
 20
-305.80238116323028
 30
0.0
 11
338.42125984251982
 21
-305.80238116323028
 31
0.0
  0
LINE
  8
0
  6
CONTINUOUS
 62
               3
  5
198
 10
338.42125984251982
 20
-215.80238116323017
 30
0.0
 11
338.42125984251982
 21
-261.17873575675162
 31
0.0
  0
LINE
  8
0
  6
CONTINUOUS
 62
               3
  5
199
 10
338.42125984251982
 20
-283.78311237786033
 30
0.0
 11
338.42125984251982
 21
-305.80238116323017
 31
0.0
  0
LINE
  8
0
  6
CONTINUOUS
 62
               3
  5
19A
 10
521.4212598425197
 20
-215.80238116323031
 30
0.0
 11
521.4212598425197
 21
-261.17873575675173
 31
0.0
  0
LINE
  8
0
  6
CONTINUOUS
 62
               3
  5
19B
 10
521.4212598425197
 20
-283.78311237785988
 30
0.0
 11
521.4212598425197
 21
-305.80238116323028
 31
0.0
  0
LINE
  8
0
  6
CONTINUOUS
 62
               3
  5
19C
 10
330.42125984252084
 20
-215.80238116323017
 30
0.0
 11
318.42125984252073
 21
-215.80238116323017
 31
0.0
  0
LINE
  8
0
  6
CONTINUOUS
 62
               3
  5
19D
 10
330.42125984252084
 20
-305.80238116323028
 30
0.0
 11
318.42125984252073
 21
-305.80238116323028
 31
0.0
  0
LINE
  8
0
  6
CONTINUOUS
 62
               3
  5
19E
 10
330.42125984252084
 20
-215.80238116323017
 30
0.0
 11
330.42125984252084
 21
-305.80238116322903
 31
0.0
  0
LINE
  8
0
  6
CONTINUOUS
 62
               3
  5
19F
 10
318.42125984252073
 20
-215.80238116323017
 30
0.0
 11
318.42125984252073
 21
-305.80238116323028
 31
0.0
  0
LINE
  8
0
  6
CONTINUOUS
 62
               3
  5
1A0
 10
330.42125984252084
 20
-223.09896340153671
 30
0.0
 11
338.42125984251982
 21
-223.09896340153671
 31
0.0
  0
LINE
  8
0
  6
CONTINUOUS
 62
               3
  5
1A1
 10
330.42125984252084
 20
-299.09896340153665
 30
0.0
 11
338.42125984251982
 21
-299.09896340153665
 31
0.0
  0
LINE
  8
0
  6
CONTINUOUS
 62
               3
  5
1A2
 10
529.42125984251857
 20
-215.80238116323031
 30
0.0
 11
541.42125984251868
 21
-215.80238116323031
 31
0.0
  0
LINE
  8
0
  6
CONTINUOUS
 62
               3
  5
1A3
 10
529.42125984251857
 20
-305.80238116323039
 30
0.0
 11
541.42125984251868
 21
-305.80238116323039
 31
0.0
  0
LINE
  8
0
  6
CONTINUOUS
 62
               3
  5
1A4
 10
529.42125984251857
 20
-215.80238116323031
 30
0.0
 11
529.42125984251857
 21
-305.80238116322914
 31
0.0
  0
LINE
  8
0
  6
CONTINUOUS
 62
               3
  5
1A5
 10
541.42125984251868
 20
-215.80238116323031
 30
0.0
 11
541.42125984251868
 21
-305.80238116323039
 31
0.0
  0
LINE
  8
0
  6
CONTINUOUS
 62
               3
  5
1A6
 10
529.42125984251857
 20
-223.09896340153685
 30
0.0
 11
521.4212598425197
 21
-223.09896340153685
 31
0.0
  0
LINE
  8
0
  6
CONTINUOUS
 62
               3
  5
1A7
 10
529.42125984251857
 20
-299.09896340153682
 30
0.0
 11
521.4212598425197
 21
-299.09896340153682
 31
0.0
  0
LINE
  8
0
  6
CONTINUOUS
 62
               3
  5
1A8
 10
363.9212598425197
 20
-96.301335142703834
 30
0.0
 11
363.9212598425197
 21
-84.301335142703834
 31
0.0
  0
LINE
  8
0
  6
CONTINUOUS
 62
               3
  5
1A9
 10
495.9212598425197
 20
-84.301335142703834
 30
0.0
 11
495.9212598425197
 21
-96.301335142703834
 31
0.0
  0
ARC
  8
0
  6
CONTINUOUS
 62
               3
  5
1AA
 10
483.9212598425197
 20
-225.80238116323008
 30
0.0
 40
9.9999999999999982
 50
89.999999999965638
 51
227.05860015875737
  0
ARC
  8
0
  6
CONTINUOUS
 62
               3
  5
1AB
 10
429.42125984251948
 20
-284.36644864492064
 30
0.0
 40
69.999999999999986
 50
44.053441089487734
 51
47.058600158826749
  0
ARC
  8
0
  6
CONTINUOUS
 62
               3
  5
1AC
 10
375.92125984251948
 20
-225.80238116323017
 30
0.0
 40
9.9999999999999982
 50
312.94139984103629
 51
449.99999999982725
  0
ARC
  8
0
  6
CONTINUOUS
 62
               3
  5
1AD
 10
430.4212598425197
 20
-284.36644864492064
 30
0.0
 40
69.999999999999986
 50
132.94139984110447
 51
135.94655891044385
  0
ARC
  8
0
  6
CONTINUOUS
 62
               3
  5
1AE
 10
-370.0787401574803
 20
330.69866485729619
 30
0.0
 40
75.499999999999986
 50
213.32931837464614
 51
266.6706816251704
  0
ARC
  8
0
  6
CONTINUOUS
 62
               3
  5
1AF
 10
-446.07874015748024
 20
330.69866485729619
 30
0.0
 40
12.0
 50
146.67068162521619
 51
213.32931837464628
  0
LINE
  8
0
  6
CONTINUOUS
 62
               3
  5
1B0
 10
-456.10505594695383
 20
337.29207002380542
 30
0.0
 11
-433.16097699958567
 21
372.18217236325017
 31
0.0
  0
LINE
  8
0
  6
CONTINUOUS
 62
               3
  5
1B1
 10
-456.10505594695383
 20
324.10525969078685
 30
0.0
 11
-433.16097699958567
 21
289.21515735134221
 31
0.0
  0
ARC
  8
0
  6
CONTINUOUS
 62
               3
  5
1B2
 10
-332.07874015748018
 20
264.88073416967893
 30
0.0
 40
12.0
 50
266.6706816251704
 51
333.32931837460046
  0
LINE
  8
0
  6
CONTINUOUS
 62
               3
  5
1B3
 10
-332.77563863438388
 20
252.90098740637487
 30
0.0
 11
-374.46339307466616
 21
255.32609147150933
 31
0.0
  0
LINE
  8
0
  6
CONTINUOUS
 62
               3
  5
1B4
 10
-321.3555258911029
 20
259.49439257288418
 30
0.0
 11
-302.61185039818912
 21
296.80959897746334
 31
0.0
  0
ARC
  8
0
  6
CONTINUOUS
 62
               3
  5
1B5
 10
-332.07874015748018
 20
396.51659554491346
 30
0.0
 40
12.0
 50
26.670681625262063
 51
93.329318374692193
  0
LINE
  8
0
  6
CONTINUOUS
 62
               3
  5
1B6
 10
-321.3555258911029
 20
401.90293714170821
 30
0.0
 11
-302.61185039818912
 21
364.58773073712905
 31
0.0
  0
LINE
  8
0
  6
CONTINUOUS
 62
               3
  5
1B7
 10
-332.77563863438388
 20
408.49634230821744
 30
0.0
 11
-374.46339307466616
 21
406.07123824308303
 31
0.0
  0
ARC
  8
0
  6
CONTINUOUS
 62
               3
  5
1B8
 10
-370.0787401574803
 20
330.69866485729619
 30
0.0
 40
75.499999999999986
 50
93.329318374691937
 51
146.67068162521622
  0
ARC
  8
0
  6
CONTINUOUS
 62
               3
  5
1B9
 10
-370.0787401574803
 20
330.69866485729619
 30
0.0
 40
75.499999999999986
 50
333.32931837460029
 51
386.67068162512379
  0
LINE
  8
0
  6
CONTINUOUS
 62
               3
  5
1BA
 10
-275.5787401574795
 20
400.19866485729608
 30
0.0
 11
-196.09421448078197
 21
400.19866485729608
 31
0.0
  0
LINE
  8
0
  6
CONTINUOUS
 62
               3
  5
1BB
 10
-275.57874015748109
 20
261.19866485729631
 30
0.0
 11
-196.09421448078197
 21
261.19866485729631
 31
0.0
  0
LINE
  8
0
  6
CONTINUOUS
 62
               3
  5
1BC
 10
-155.0787401574803
 20
423.1986648572921
 30
0.0
 11
-155.0787401574803
 21
238.19866485729207
 31
0.0
  0
LINE
  8
0
  6
CONTINUOUS
 62
               3
  5
1BD
 10
-173.06326583417859
 20
238.19866485729656
 30
0.0
 11
-155.0787401574803
 21
238.19866485729207
 31
0.0
  0
LINE
  8
0
  6
CONTINUOUS
 62
               3
  5
1BE
 10
-173.06326583417859
 20
423.19866485729654
 30
0.0
 11
-173.06326583417859
 21
238.19866485729656
 31
0.0
  0
LINE
  8
0
  6
CONTINUOUS
 62
               3
  5
1BF
 10
-196.09421448078197
 20
253.19866485729611
 30
0.0
 11
-173.06326583417859
 21
253.19866485729617
 31
0.0
  0
LINE
  8
0
  6
CONTINUOUS
 62
               3
  5
1C0
 10
-196.09421448078197
 20
408.19866485729619
 30
0.0
 11
-173.06326583417859
 21
408.19866485729619
 31
0.0
  0
CIRCLE
  8
0
  6
CONTINUOUS
 62
               3
  5
1C1
 10
-370.0787401574803
 20
330.69866485729619
 30
0.0
 40
58.5
  0
LINE
  8
0
  6
CONTINUOUS
 62
               3
  5
1C2
 10
-123.0787401574803
 20
423.19866485729619
 30
0.0
 11
-123.0787401574803
 21
238.19866485729617
 31
0.0
  0
LINE
  8
0
  6
CONTINUOUS
 62
               3
  5
1C3
 10
-142.07874015748041
 20
238.19866485729611
 30
0.0
 11
-123.0787401574803
 21
238.19866485729617
 31
0.0
  0
LINE
  8
0
  6
CONTINUOUS
 62
               3
  5
1C4
 10
-173.06326583417859
 20
423.19866485729528
 30
0.0
 11
-155.0787401574803
 21
423.19866485729563
 31
0.0
  0
LINE
  8
0
  6
CONTINUOUS
 62
               3
  5
1C5
 10
-142.07874015748041
 20
423.19866485729585
 30
0.0
 11
-123.0787401574803
 21
423.19866485729619
 31
0.0
  0
LINE
  8
0
  6
CONTINUOUS
 62
               3
  5
1C6
 10
-142.07874015748041
 20
423.19866485729608
 30
0.0
 11
-142.07874015748041
 21
238.19866485729611
 31
0.0
  0
CIRCLE
  8
0
  6
CONTINUOUS
 62
               3
  5
1C7
 10
-332.07874015748018
 20
396.51659554491346
 30
0.0
 40
8.2666666666666657
  0
CIRCLE
  8
0
  6
CONTINUOUS
 62
               3
  5
1C8
 10
-332.07874015748018
 20
264.88073416967893
 30
0.0
 40
8.2666666666666657
  0
CIRCLE
  8
0
  6
CONTINUOUS
 62
               3
  5
1C9
 10
-446.07874015748024
 20
330.69866485729619
 30
0.0
 40
8.2666666666666657
  0
LINE
  8
0
  6
CONTINUOUS
 62
               3
  5
1CA
 10
-365.57874015748069
 20
422.19866485729619
 30
0.0
 11
-275.57874015748013
 21
422.19866485729619
 31
0.0
  0
LINE
  8
0
  6
CONTINUOUS
 62
               3
  5
1CB
 10
-365.57874015748013
 20
422.19866485729619
 30
0.0
 11
-365.57874015748013
 21
406.58808565297761
 31
0.0
  0
LINE
  8
0
  6
CONTINUOUS
 62
               3
  5
1CC
 10
-275.57874015748041
 20
422.19866485729619
 30
0.0
 11
-275.57874015748041
 21
384.69866485729619
 31
0.0
  0
ARC
  8
0
  6
CONTINUOUS
 62
               3
  5
1CD
 10
-285.57874015748041
 20
384.69866485729619
 30
0.0
 40
9.9999999999999982
 50
222.94139984107002
 51
359.99999999986164
  0
ARC
  8
0
  6
CONTINUOUS
 62
               3
  5
1CE
 10
-344.14280763917077
 20
330.19866485729619
 30
0.0
 40
69.999999999999986
 50
42.941399841138988
 51
68.020807192832962
  0
LINE
  8
0
  6
CONTINUOUS
 62
               3
  5
1CF
 10
-365.57874015748069
 20
239.19866485729611
 30
0.0
 11
-275.57874015748013
 21
239.19866485729611
 31
0.0
  0
LINE
  8
0
  6
CONTINUOUS
 62
               3
  5
1D0
 10
-365.57874015748013
 20
239.19866485729611
 30
0.0
 11
-365.57874015748013
 21
254.80924406161486
 31
0.0
  0
LINE
  8
0
  6
CONTINUOUS
 62
               3
  5
1D1
 10
-275.57874015748041
 20
239.19866485729611
 30
0.0
 11
-275.57874015748041
 21
276.69866485729608
 31
0.0
  0
ARC
  8
0
  6
CONTINUOUS
 62
               3
  5
1D2
 10
-285.57874015748041
 20
276.69866485729608
 30
0.0
 40
9.9999999999999982
 50
0.0
 51
137.05860015879227
  0
ARC
  8
0
  6
CONTINUOUS
 62
               3
  5
1D3
 10
-344.14280763917077
 20
331.19866485729608
 30
0.0
 40
69.999999999999986
 50
291.97919280702922
 51
317.05860015872349
  0
LINE
  8
0
  6
CONTINUOUS
 62
               3
  5
1D4
 10
-365.57874015748069
 20
430.19866485729642
 30
0.0
 11
-275.57874015748013
 21
430.19866485729642
 31
0.0
  0
LINE
  8
0
  6
CONTINUOUS
 62
               3
  5
1D5
 10
-365.57874015748069
 20
442.19866485729631
 30
0.0
 11
-275.57874015748013
 21
442.19866485729631
 31
0.0
  0
LINE
  8
0
  6
CONTINUOUS
 62
               3
  5
1D6
 10
-365.57874015748069
 20
430.19866485729608
 30
0.0
 11
-365.57874015748069
 21
442.19866485729631
 31
0.0
  0
LINE
  8
0
  6
CONTINUOUS
 62
               3
  5
1D7
 10
-275.57874015748013
 20
430.19866485729608
 30
0.0
 11
-275.57874015748013
 21
442.19866485729631
 31
0.0
  0
LINE
  8
0
  6
CONTINUOUS
 62
               3
  5
1D8
 10
-358.57978617800654
 20
430.19866485729642
 30
0.0
 11
-358.57978617800654
 21
422.19866485729619
 31
0.0
  0
LINE
  8
0
  6
CONTINUOUS
 62
               3
  5
1D9
 10
-282.57978617800632
 20
430.19866485729642
 30
0.0
 11
-282.57978617800632
 21
422.19866485729619
 31
0.0
  0
LINE
  8
0
  6
CONTINUOUS
 62
               3
  5
1DA
 10
-365.57874015748069
 20
231.19866485729594
 30
0.0
 11
-275.57874015748013
 21
231.19866485729594
 31
0.0
  0
LINE
  8
0
  6
CONTINUOUS
 62
               3
  5
1DB
 10
-365.57874015748069
 20
219.19866485729582
 30
0.0
 11
-275.57874015748013
 21
219.19866485729582
 31
0.0
  0
LINE
  8
0
  6
CONTINUOUS
 62
               3
  5
1DC
 10
-365.57874015748069
 20
231.19866485729622
 30
0.0
 11
-365.57874015748069
 21
219.19866485729617
 31
0.0
  0
LINE
  8
0
  6
CONTINUOUS
 62
               3
  5
1DD
 10
-275.57874015748013
 20
231.19866485729622
 30
0.0
 11
-275.57874015748013
 21
219.19866485729617
 31
0.0
  0
LINE
  8
0
  6
CONTINUOUS
 62
               3
  5
1DE
 10
-358.57978617800654
 20
231.19866485729594
 30
0.0
 11
-358.57978617800654
 21
239.19866485729611
 31
0.0
  0
LINE
  8
0
  6
CONTINUOUS
 62
               3
  5
1DF
 10
-282.57978617800632
 20
231.19866485729594
 30
0.0
 11
-282.57978617800632
 21
239.19866485729611
 31
0.0
  0
LINE
  8
0
  6
CONTINUOUS
 62
               3
  5
1E0
 10
-196.09421448078197
 20
408.19866485729619
 30
0.0
 11
-196.09421448078197
 21
253.19866485729611
 31
0.0
  0
LINE
  8
0
  6
CONTINUOUS
 62
               3
  5
1E1
 10
-155.0787401574803
 20
411.69866485729619
 30
0.0
 11
-142.07874015748041
 21
411.69866485729619
 31
0.0
  0
LINE
  8
0
  6
CONTINUOUS
 62
               3
  5
1E2
 10
-142.07874015748041
 20
249.69866485729617
 30
0.0
 11
-155.0787401574803
 21
249.69866485729617
 31
0.0
  0
LINE
  8
0
  6
DASHDOT
 62
               4
  5
1E3
 10
-390.7821579191741
 20
-311.30133514270386
 30
0.0
 11
-103.12096216759318
 21
-311.30133514270386
 31
0.0
  0
ARC
  8
0
  6
DASHDOT
 62
               4
  5
1E4
 10
-201.07874015748018
 20
-142.30133514270392
 30
0.0
 40
169.0
 50
179.99999999993119
 51
268.71324725135327
  0
LINE
  8
0
  6
DASHDOT
 62
               4
  5
1E5
 10
-370.0787401574803
 20
-51.306907513091915
 30
0.0
 11
-370.0787401574803
 21
-367.44407168144312
 31
0.0
  0
LINE
  8
0
  6
DASHDOT
 62
               4
  5
1E6
 10
-320.57978617800671
 20
-316.80238116323028
 30
0.0
 11
-320.57978617800671
 21
-206.80238116323031
 31
0.0
  0
LINE
  8
0
  6
DASHDOT
 62
               4
  5
1E7
 10
-375.57978617800671
 20
-261.80238116323028
 30
0.0
 11
-265.57978617800671
 21
-261.80238116323028
 31
0.0
  0
LINE
  8
0
  6
DASHDOT
 62
               4
  5
1E8
 10
429.9212598425197
 20
-51.301335142703806
 30
0.0
 11
429.9212598425197
 21
-435.80133514270381
 31
0.0
  0
LINE
  8
0
  6
DASHDOT
 62
               4
  5
1E9
 10
318.42125984252073
 20
-311.30133514270381
 30
0.0
 11
541.42125984251868
 21
-311.30133514270381
 31
0.0
  0
LINE
  8
0
  6
DASHDOT
 62
               4
  5
1EA
 10
-478.07874015748024
 20
330.69866485729619
 30
0.0
 11
-103.09421448078234
 21
330.69866485729619
 31
0.0
  0
LINE
  8
0
  6
DASHDOT
 62
               4
  5
1EB
 10
-370.0787401574803
 20
426.32630690188785
 30
0.0
 11
-370.0787401574803
 21
235.0710228127044
 31
0.0
  0
LINE
  8
0
  6
DASHED
 62
               4
  5
1EC
 10
-427.07874015748018
 20
-124.30133514270382
 30
0.0
 11
-313.07874015748041
 21
-124.30133514270391
 31
0.0
  0
LINE
  8
0
  6
DASHED
 62
               4
  5
1ED
 10
-191.07874015748058
 20
-375.5762166592915
 30
0.0
 11
-191.07874015748058
 21
-245.12597969246696
 31
0.0
  0
LINE
  8
0
  6
DASHED
 62
               4
  5
1EE
 10
372.9212598425197
 20
-124.30133514270383
 30
0.0
 11
486.9212598425197
 21
-124.30133514270383
 31
0.0
  0
LINE
  8
0
  6
DASHED
 62
               4
  5
1EF
 10
-191.0787401574803
 20
400.69866485729619
 30
0.0
 11
-191.0787401574803
 21
260.69866485729619
 31
0.0
  0
POINT
  8
0
  6
CONTINUOUS
 62
               5
  5
1F0
 10
-369.5776941369536
 20
-310.80028912217756
 30
0.0
  0
POINT
  8
0
  6
CONTINUOUS
 62
               5
  5
1F1
 10
-335.56928735064292
 20
-356.47854703237715
 30
0.0
  0
ENDSEC
  0
EOF
