  0
SECTION
  2
HEADER
  9
$ACADVER
  1
AC1009
  9
$INSBASE
 10
0.0
 20
0.0
 30
0.0
  9
$EXTMIN
 10
-558.76458918232754
 20
-324.87113350546542
 30
0.0
  9
$EXTMAX
 10
618.07860448654264
 20
329.28990252692893
 30
0.0
  9
$LIMMIN
 10
-595.54093898447968
 20
-345.31366588147773
  9
$LIMMAX
 10
654.8549542886949
 20
349.73243490294124
  9
$ORTHOMODE
 70
               0
  9
$REGENMODE
 70
               1
  9
$FILLMODE
 70
               1
  9
$QTEXTMODE
 70
               0
  9
$MIRRTEXT
 70
               1
  9
$DRAGMODE
 70
               2
  9
$LTSCALE
 40
1.0
  9
$OSMODE
 70
               0
  9
$ATTMODE
 70
               1
  9
$TEXTSIZE
 40
0.2
  9
$TRACEWID
 40
0.05
  9
$TEXTSTYLE
  7
STANDARD
  9
$CLAYER
  8
0
  9
$CELTYPE
  6
CONTINUOUS
  9
$CECOLOR
 62
             256
  9
$DIMSCALE
 40
1.0
  9
$DIMASZ
 40
0.18
  9
$DIMEXO
 40
0.0625
  9
$DIMDLI
 40
0.38
  9
$DIMRND
 40
0.0
  9
$DIMDLE
 40
0.0
  9
$DIMEXE
 40
0.18
  9
$DIMTP
 40
0.0
  9
$DIMTM
 40
0.0
  9
$DIMTXT
 40
0.18
  9
$DIMCEN
 40
0.09
  9
$DIMTSZ
 40
0.0
  9
$DIMTOL
 70
               0
  9
$DIMLIM
 70
               0
  9
$DIMTIH
 70
               1
  9
$DIMTOH
 70
               1
  9
$DIMSE1
 70
               0
  9
$DIMSE2
 70
               0
  9
$DIMTAD
 70
               0
  9
$DIMZIN
 70
               0
  9
$DIMBLK
  1

  9
$DIMASO
 70
               1
  9
$DIMSHO
 70
               1
  9
$DIMPOST
  1

  9
$DIMAPOST
  1

  9
$DIMALT
 70
               0
  9
$DIMALTD
 70
               2
  9
$DIMALTF
 40
25.399999999999999
  9
$DIMLFAC
 40
1.0
  9
$DIMTOFL
 70
               0
  9
$DIMTVP
 40
0.0
  9
$DIMTIX
 70
               0
  9
$DIMSOXD
 70
               0
  9
$DIMSAH
 70
               0
  9
$DIMBLK1
  1

  9
$DIMBLK2
  1

  9
$DIMSTYLE
  2
STANDARD
  9
$DIMCLRD
 70
               0
  9
$DIMCLRE
 70
               0
  9
$DIMCLRT
 70
               0
  9
$DIMTFAC
 40
1.0
  9
$DIMGAP
 40
0.09
  9
$LUNITS
 70
               2
  9
$LUPREC
 70
               4
  9
$AXISMODE
 70
               0
  9
$AXISUNIT
 10
0.0
 20
0.0
  9
$SKETCHINC
 40
0.1
  9
$FILLETRAD
 40
0.0
  9
$AUNITS
 70
               0
  9
$AUPREC
 70
               0
  9
$MENU
  1
acad
  9
$ELEVATION
 40
0.0
  9
$PELEVATION
 40
0.0
  9
$THICKNESS
 40
0.0
  9
$LIMCHECK
 70
               0
  9
$BLIPMODE
 70
               1
  9
$CHAMFERA
 40
0.0
  9
$CHAMFERB
 40
0.0
  9
$SKPOLY
 70
               0
  9
$TDCREATE
 40
0.000000000
  9
$TDUPDATE
 40
0.000000000
  9
$TDINDWG
 40
0.0000000000
  9
$TDUSRTIMER
 40
0.0000000000
  9
$USRTIMER
 70
               1
  9
$ANGBASE
 50
0.0
  9
$ANGDIR
 70
               0
  9
$PDMODE
 70
               0
  9
$PDSIZE
 40
1.0
  9
$PLINEWID
 40
0.0
  9
$COORDS
 70
               1
  9
$SPLFRAME
 70
               0
  9
$SPLINETYPE
 70
               6
  9
$SPLINESEGS
 70
               8
  9
$ATTDIA
 70
               0
  9
$ATTREQ
 70
               1
  9
$HANDLING
 70
               1
  9
$HANDSEED
  5
33C
  9
$SURFTAB1
 70
               6
  9
$SURFTAB2
 70
               6
  9
$SURFTYPE
 70
               6
  9
$SURFU
 70
               6
  9
$SURFV
 70
               6
  9
$UCSNAME
  2

  9
$UCSORG
 10
0.0
 20
0.0
 30
0.0
  9
$UCSXDIR
 10
1.0
 20
0.0
 30
0.0
  9
$UCSYDIR
 10
0.0
 20
1.0
 30
0.0
  9
$PUCSNAME
  2

  9
$PUCSORG
 10
0.0
 20
0.0
 30
0.0
  9
$PUCSXDIR
 10
1.0
 20
0.0
 30
0.0
  9
$PUCSYDIR
 10
0.0
 20
1.0
 30
0.0
  9
$USERI1
 70
               0
  9
$USERI2
 70
               0
  9
$USERI3
 70
               0
  9
$USERI4
 70
               0
  9
$USERI5
 70
               0
  9
$USERR1
 40
0.0
  9
$USERR2
 40
0.0
  9
$USERR3
 40
0.0
  9
$USERR4
 40
0.0
  9
$USERR5
 40
0.0
  9
$WORLDVIEW
 70
               1
  9
$SHADEDGE
 70
               3
  9
$SHADEDIF
 70
              70
  9
$TILEMODE
 70
               1
  9
$MAXACTVP
 70
              16
  9
$PINSBASE
 10
0.0
 20
0.0
 30
0.0
  9
$PLIMCHECK
 70
               0
  9
$PEXTMIN
 10
1.0000000000000000E+20
 20
1.0000000000000000E+20
 30
1.0000000000000000E+20
  9
$PEXTMAX
 10
-1.0000000000000000E+20
 20
-1.0000000000000000E+20
 30
-1.0000000000000000E+20
  9
$PLIMMIN
 10
0.0
 20
0.0
  9
$PLIMMAX
 10
12.0
 20
9.0
  9
$UNITMODE
 70
               0
  9
$VISRETAIN
 70
               0
  9
$PLINEGEN
 70
               1
  9
$PSLTSCALE
 70
               0
  9
$TREEDEPTH
 70
            3020
  9
$DWGCODEPAGE
  3
dos932
  0
ENDSEC
  0
SECTION
  2
TABLES
  0
TABLE
  2
VPORT
 70
               1
  0
VPORT
  2
*ACTIVE
 70
               0
 10
0.0
 20
0.0
 11
1.0
 21
1.0
 12
29.657007652107609
 22
2.209384510731752
 13
0.0
 23
0.0
 14
1.0
 24
1.0
 15
0.0
 25
0.0
 16
0.0
 26
0.0
 36
1.0
 17
0.0
 27
0.0
 37
0.0
 40
695.04610078441897
 41
1.7990114495455709
 42
50.0
 43
0.0
 44
0.0
 50
0.0
 51
0.0
 71
               0
 72
             100
 73
               1
 74
               1
 75
               0
 76
               0
 77
               0
 78
               0
  0
ENDTAB
  0
TABLE
  2
LTYPE
 70
              26
  0
LTYPE
  2
CONTINUOUS
 70
               0
  3
Solid line
 72
              65
 73
               0
 40
0.0
  0
LTYPE
  2
HIDDENX2
 70
               0
  3
CADPAC FUSION LINETYPE
 72
              65
 73
               2
 40
80.0
 49
60.0
 49
-20.0
  0
LTYPE
  2
HIDDEN
 70
               0
  3
CADPAC FUSION LINETYPE
 72
              65
 73
               2
 40
60.0
 49
40.0
 49
-20.0
  0
LTYPE
  2
HIDDEN2
 70
               0
  3
CADPAC FUSION LINETYPE
 72
              65
 73
               2
 40
50.0
 49
30.0
 49
-20.0
  0
LTYPE
  2
DASHED
 70
               0
  3
CADPAC FUSION LINETYPE
 72
              65
 73
               2
 40
60.0
 49
40.0
 49
-20.0
  0
LTYPE
  2
DASHED2
 70
               0
  3
CADPAC FUSION LINETYPE
 72
              65
 73
               2
 40
45.0
 49
30.0
 49
-15.0
  0
LTYPE
  2
DASHEDX2
 70
               0
  3
CADPAC FUSION LINETYPE
 72
              65
 73
               2
 40
90.0
 49
60.0
 49
-30.0
  0
LTYPE
  2
DOTX2
 70
               0
  3
CADPAC FUSION LINETYPE
 72
              65
 73
               2
 40
25.0
 49
0.0
 49
-25.0
  0
LTYPE
  2
DOT
 70
               0
  3
CADPAC FUSION LINETYPE
 72
              65
 73
               2
 40
20.0
 49
0.0
 49
-20.0
  0
LTYPE
  2
DOTS
 70
               0
  3
CADPAC FUSION LINETYPE
 72
              65
 73
               2
 40
20.0
 49
0.0
 49
-20.0
  0
LTYPE
  2
DOT2
 70
               0
  3
CADPAC FUSION LINETYPE
 72
              65
 73
               2
 40
15.0
 49
0.0
 49
-15.0
  0
LTYPE
  2
CENTERX2
 70
               0
  3
CADPAC FUSION LINETYPE
 72
              65
 73
               4
 40
120.0
 49
50.0
 49
-25.0
 49
20.0
 49
-25.0
  0
LTYPE
  2
CENTER
 70
               0
  3
CADPAC FUSION LINETYPE
 72
              65
 73
               4
 40
92.0
 49
40.0
 49
-20.0
 49
12.0
 49
-20.0
  0
LTYPE
  2
CENTER2
 70
               0
  3
CADPAC FUSION LINETYPE
 72
              65
 73
               4
 40
64.0
 49
30.0
 49
-15.0
 49
4.0
 49
-15.0
  0
LTYPE
  2
DASHDOTX2
 70
               0
  3
CADPAC FUSION LINETYPE
 72
              65
 73
               4
 40
100.0
 49
50.0
 49
-25.0
 49
0.0
 49
-25.0
  0
LTYPE
  2
DASHDOT
 70
               0
  3
CADPAC FUSION LINETYPE
 72
              65
 73
               4
 40
80.0
 49
40.0
 49
-20.0
 49
0.0
 49
-20.0
  0
LTYPE
  2
DASHDOT2
 70
               0
  3
CADPAC FUSION LINETYPE
 72
              65
 73
               4
 40
60.0
 49
30.0
 49
-15.0
 49
0.0
 49
-15.0
  0
LTYPE
  2
DIVIDEX2
 70
               0
  3
CADPAC FUSION LINETYPE
 72
              65
 73
               6
 40
125.0
 49
50.0
 49
-25.0
 49
0.0
 49
-25.0
 49
0.0
 49
-25.0
  0
LTYPE
  2
DIVIDE
 70
               0
  3
CADPAC FUSION LINETYPE
 72
              65
 73
               6
 40
100.0
 49
40.0
 49
-20.0
 49
0.0
 49
-20.0
 49
0.0
 49
-20.0
  0
LTYPE
  2
DIVIDE2
 70
               0
  3
CADPAC FUSION LINETYPE
 72
              65
 73
               6
 40
75.0
 49
30.0
 49
-15.0
 49
0.0
 49
-15.0
 49
0.0
 49
-15.0
  0
LTYPE
  2
BORDERX2
 70
               0
  3
CADPAC FUSION LINETYPE
 72
              65
 73
               6
 40
175.0
 49
50.0
 49
-25.0
 49
50.0
 49
-25.0
 49
0.0
 49
-25.0
  0
LTYPE
  2
BORDER
 70
               0
  3
CADPAC FUSION LINETYPE
 72
              65
 73
               6
 40
140.0
 49
40.0
 49
-20.0
 49
40.0
 49
-20.0
 49
0.0
 49
-20.0
  0
LTYPE
  2
BORDER2
 70
               0
  3
CADPAC FUSION LINETYPE
 72
              65
 73
               6
 40
105.0
 49
30.0
 49
-15.0
 49
30.0
 49
-15.0
 49
0.0
 49
-15.0
  0
LTYPE
  2
PHANTOMX2
 70
               0
  3
CADPAC FUSION LINETYPE
 72
              65
 73
               6
 40
150.0
 49
50.0
 49
-20.0
 49
20.0
 49
-20.0
 49
20.0
 49
-20.0
  0
LTYPE
  2
PHANTOM
 70
               0
  3
CADPAC FUSION LINETYPE
 72
              65
 73
               6
 40
124.0
 49
40.0
 49
-20.0
 49
12.0
 49
-20.0
 49
12.0
 49
-20.0
  0
LTYPE
  2
PHANTOM2
 70
               0
  3
CADPAC FUSION LINETYPE
 72
              65
 73
               6
 40
106.0
 49
30.0
 49
-20.0
 49
8.0
 49
-20.0
 49
8.0
 49
-20.0
  0
ENDTAB
  0
TABLE
  2
LAYER
 70
             256
  0
LAYER
  2
0
 70
               0
 62
               7
  6
CONTINUOUS
  0
LAYER
  2
LAYER001
 70
               0
 62
               7
  6
CONTINUOUS
  0
LAYER
  2
LAYER002
 70
               0
 62
               7
  6
CONTINUOUS
  0
LAYER
  2
LAYER003
 70
               0
 62
               7
  6
CONTINUOUS
  0
LAYER
  2
LAYER004
 70
               0
 62
               7
  6
CONTINUOUS
  0
LAYER
  2
LAYER005
 70
               0
 62
               7
  6
CONTINUOUS
  0
LAYER
  2
LAYER006
 70
               0
 62
               7
  6
CONTINUOUS
  0
LAYER
  2
LAYER007
 70
               0
 62
               7
  6
CONTINUOUS
  0
LAYER
  2
LAYER008
 70
               0
 62
               7
  6
CONTINUOUS
  0
LAYER
  2
LAYER009
 70
               0
 62
               7
  6
CONTINUOUS
  0
LAYER
  2
LAYER010
 70
               0
 62
               7
  6
CONTINUOUS
  0
LAYER
  2
LAYER011
 70
               0
 62
               7
  6
CONTINUOUS
  0
LAYER
  2
LAYER012
 70
               0
 62
               7
  6
CONTINUOUS
  0
LAYER
  2
LAYER013
 70
               0
 62
               7
  6
CONTINUOUS
  0
LAYER
  2
LAYER014
 70
               0
 62
               7
  6
CONTINUOUS
  0
LAYER
  2
LAYER015
 70
               0
 62
               7
  6
CONTINUOUS
  0
LAYER
  2
LAYER016
 70
               0
 62
               7
  6
CONTINUOUS
  0
LAYER
  2
LAYER017
 70
               0
 62
               7
  6
CONTINUOUS
  0
LAYER
  2
LAYER018
 70
               0
 62
               7
  6
CONTINUOUS
  0
LAYER
  2
LAYER019
 70
               0
 62
               7
  6
CONTINUOUS
  0
LAYER
  2
LAYER020
 70
               0
 62
               7
  6
CONTINUOUS
  0
LAYER
  2
LAYER021
 70
               0
 62
               7
  6
CONTINUOUS
  0
LAYER
  2
LAYER022
 70
               0
 62
               7
  6
CONTINUOUS
  0
LAYER
  2
LAYER023
 70
               0
 62
               7
  6
CONTINUOUS
  0
LAYER
  2
LAYER024
 70
               0
 62
               7
  6
CONTINUOUS
  0
LAYER
  2
LAYER025
 70
               0
 62
               7
  6
CONTINUOUS
  0
LAYER
  2
LAYER026
 70
               0
 62
               7
  6
CONTINUOUS
  0
LAYER
  2
LAYER027
 70
               0
 62
               7
  6
CONTINUOUS
  0
LAYER
  2
LAYER028
 70
               0
 62
               7
  6
CONTINUOUS
  0
LAYER
  2
LAYER029
 70
               0
 62
               7
  6
CONTINUOUS
  0
LAYER
  2
LAYER030
 70
               0
 62
               7
  6
CONTINUOUS
  0
LAYER
  2
LAYER031
 70
               0
 62
               7
  6
CONTINUOUS
  0
LAYER
  2
LAYER032
 70
               0
 62
               7
  6
CONTINUOUS
  0
LAYER
  2
LAYER033
 70
               0
 62
               7
  6
CONTINUOUS
  0
LAYER
  2
LAYER034
 70
               0
 62
               7
  6
CONTINUOUS
  0
LAYER
  2
LAYER035
 70
               0
 62
               7
  6
CONTINUOUS
  0
LAYER
  2
LAYER036
 70
               0
 62
               7
  6
CONTINUOUS
  0
LAYER
  2
LAYER037
 70
               0
 62
               7
  6
CONTINUOUS
  0
LAYER
  2
LAYER038
 70
               0
 62
               7
  6
CONTINUOUS
  0
LAYER
  2
LAYER039
 70
               0
 62
               7
  6
CONTINUOUS
  0
LAYER
  2
LAYER040
 70
               0
 62
               7
  6
CONTINUOUS
  0
LAYER
  2
LAYER041
 70
               0
 62
               7
  6
CONTINUOUS
  0
LAYER
  2
LAYER042
 70
               0
 62
               7
  6
CONTINUOUS
  0
LAYER
  2
LAYER043
 70
               0
 62
               7
  6
CONTINUOUS
  0
LAYER
  2
LAYER044
 70
               0
 62
               7
  6
CONTINUOUS
  0
LAYER
  2
LAYER045
 70
               0
 62
               7
  6
CONTINUOUS
  0
LAYER
  2
LAYER046
 70
               0
 62
               7
  6
CONTINUOUS
  0
LAYER
  2
LAYER047
 70
               0
 62
               7
  6
CONTINUOUS
  0
LAYER
  2
LAYER048
 70
               0
 62
               7
  6
CONTINUOUS
  0
LAYER
  2
LAYER049
 70
               0
 62
               7
  6
CONTINUOUS
  0
LAYER
  2
LAYER050
 70
               0
 62
               7
  6
CONTINUOUS
  0
LAYER
  2
LAYER051
 70
               0
 62
               7
  6
CONTINUOUS
  0
LAYER
  2
LAYER052
 70
               0
 62
               7
  6
CONTINUOUS
  0
LAYER
  2
LAYER053
 70
               0
 62
               7
  6
CONTINUOUS
  0
LAYER
  2
LAYER054
 70
               0
 62
               7
  6
CONTINUOUS
  0
LAYER
  2
LAYER055
 70
               0
 62
               7
  6
CONTINUOUS
  0
LAYER
  2
LAYER056
 70
               0
 62
               7
  6
CONTINUOUS
  0
LAYER
  2
LAYER057
 70
               0
 62
               7
  6
CONTINUOUS
  0
LAYER
  2
LAYER058
 70
               0
 62
               7
  6
CONTINUOUS
  0
LAYER
  2
LAYER059
 70
               0
 62
               7
  6
CONTINUOUS
  0
LAYER
  2
LAYER060
 70
               0
 62
               7
  6
CONTINUOUS
  0
LAYER
  2
LAYER061
 70
               0
 62
               7
  6
CONTINUOUS
  0
LAYER
  2
LAYER062
 70
               0
 62
               7
  6
CONTINUOUS
  0
LAYER
  2
LAYER063
 70
               0
 62
               7
  6
CONTINUOUS
  0
LAYER
  2
LAYER064
 70
               0
 62
               7
  6
CONTINUOUS
  0
LAYER
  2
LAYER065
 70
               0
 62
               7
  6
CONTINUOUS
  0
LAYER
  2
LAYER066
 70
               0
 62
               7
  6
CONTINUOUS
  0
LAYER
  2
LAYER067
 70
               0
 62
               7
  6
CONTINUOUS
  0
LAYER
  2
LAYER068
 70
               0
 62
               7
  6
CONTINUOUS
  0
LAYER
  2
LAYER069
 70
               0
 62
               7
  6
CONTINUOUS
  0
LAYER
  2
LAYER070
 70
               0
 62
               7
  6
CONTINUOUS
  0
LAYER
  2
LAYER071
 70
               0
 62
               7
  6
CONTINUOUS
  0
LAYER
  2
LAYER072
 70
               0
 62
               7
  6
CONTINUOUS
  0
LAYER
  2
LAYER073
 70
               0
 62
               7
  6
CONTINUOUS
  0
LAYER
  2
LAYER074
 70
               0
 62
               7
  6
CONTINUOUS
  0
LAYER
  2
LAYER075
 70
               0
 62
               7
  6
CONTINUOUS
  0
LAYER
  2
LAYER076
 70
               0
 62
               7
  6
CONTINUOUS
  0
LAYER
  2
LAYER077
 70
               0
 62
               7
  6
CONTINUOUS
  0
LAYER
  2
LAYER078
 70
               0
 62
               7
  6
CONTINUOUS
  0
LAYER
  2
LAYER079
 70
               0
 62
               7
  6
CONTINUOUS
  0
LAYER
  2
LAYER080
 70
               0
 62
               7
  6
CONTINUOUS
  0
LAYER
  2
LAYER081
 70
               0
 62
               7
  6
CONTINUOUS
  0
LAYER
  2
LAYER082
 70
               0
 62
               7
  6
CONTINUOUS
  0
LAYER
  2
LAYER083
 70
               0
 62
               7
  6
CONTINUOUS
  0
LAYER
  2
LAYER084
 70
               0
 62
               7
  6
CONTINUOUS
  0
LAYER
  2
LAYER085
 70
               0
 62
               7
  6
CONTINUOUS
  0
LAYER
  2
LAYER086
 70
               0
 62
               7
  6
CONTINUOUS
  0
LAYER
  2
LAYER087
 70
               0
 62
               7
  6
CONTINUOUS
  0
LAYER
  2
LAYER088
 70
               0
 62
               7
  6
CONTINUOUS
  0
LAYER
  2
LAYER089
 70
               0
 62
               7
  6
CONTINUOUS
  0
LAYER
  2
LAYER090
 70
               0
 62
               7
  6
CONTINUOUS
  0
LAYER
  2
LAYER091
 70
               0
 62
               7
  6
CONTINUOUS
  0
LAYER
  2
LAYER092
 70
               0
 62
               7
  6
CONTINUOUS
  0
LAYER
  2
LAYER093
 70
               0
 62
               7
  6
CONTINUOUS
  0
LAYER
  2
LAYER094
 70
               0
 62
               7
  6
CONTINUOUS
  0
LAYER
  2
LAYER095
 70
               0
 62
               7
  6
CONTINUOUS
  0
LAYER
  2
LAYER096
 70
               0
 62
               7
  6
CONTINUOUS
  0
LAYER
  2
LAYER097
 70
               0
 62
               7
  6
CONTINUOUS
  0
LAYER
  2
LAYER098
 70
               0
 62
               7
  6
CONTINUOUS
  0
LAYER
  2
LAYER099
 70
               0
 62
               7
  6
CONTINUOUS
  0
LAYER
  2
LAYER100
 70
               0
 62
               7
  6
CONTINUOUS
  0
LAYER
  2
LAYER101
 70
               0
 62
               7
  6
CONTINUOUS
  0
LAYER
  2
LAYER102
 70
               0
 62
               7
  6
CONTINUOUS
  0
LAYER
  2
LAYER103
 70
               0
 62
               7
  6
CONTINUOUS
  0
LAYER
  2
LAYER104
 70
               0
 62
               7
  6
CONTINUOUS
  0
LAYER
  2
LAYER105
 70
               0
 62
               7
  6
CONTINUOUS
  0
LAYER
  2
LAYER106
 70
               0
 62
               7
  6
CONTINUOUS
  0
LAYER
  2
LAYER107
 70
               0
 62
               7
  6
CONTINUOUS
  0
LAYER
  2
LAYER108
 70
               0
 62
               7
  6
CONTINUOUS
  0
LAYER
  2
LAYER109
 70
               0
 62
               7
  6
CONTINUOUS
  0
LAYER
  2
LAYER110
 70
               0
 62
               7
  6
CONTINUOUS
  0
LAYER
  2
LAYER111
 70
               0
 62
               7
  6
CONTINUOUS
  0
LAYER
  2
LAYER112
 70
               0
 62
               7
  6
CONTINUOUS
  0
LAYER
  2
LAYER113
 70
               0
 62
               7
  6
CONTINUOUS
  0
LAYER
  2
LAYER114
 70
               0
 62
               7
  6
CONTINUOUS
  0
LAYER
  2
LAYER115
 70
               0
 62
               7
  6
CONTINUOUS
  0
LAYER
  2
LAYER116
 70
               0
 62
               7
  6
CONTINUOUS
  0
LAYER
  2
LAYER117
 70
               0
 62
               7
  6
CONTINUOUS
  0
LAYER
  2
LAYER118
 70
               0
 62
               7
  6
CONTINUOUS
  0
LAYER
  2
LAYER119
 70
               0
 62
               7
  6
CONTINUOUS
  0
LAYER
  2
LAYER120
 70
               0
 62
               7
  6
CONTINUOUS
  0
LAYER
  2
LAYER121
 70
               0
 62
               7
  6
CONTINUOUS
  0
LAYER
  2
LAYER122
 70
               0
 62
               7
  6
CONTINUOUS
  0
LAYER
  2
LAYER123
 70
               0
 62
               7
  6
CONTINUOUS
  0
LAYER
  2
LAYER124
 70
               0
 62
               7
  6
CONTINUOUS
  0
LAYER
  2
LAYER125
 70
               0
 62
               7
  6
CONTINUOUS
  0
LAYER
  2
LAYER126
 70
               0
 62
               7
  6
CONTINUOUS
  0
LAYER
  2
LAYER127
 70
               0
 62
               7
  6
CONTINUOUS
  0
LAYER
  2
LAYER128
 70
               0
 62
               7
  6
CONTINUOUS
  0
LAYER
  2
LAYER129
 70
               0
 62
               7
  6
CONTINUOUS
  0
LAYER
  2
LAYER130
 70
               0
 62
               7
  6
CONTINUOUS
  0
LAYER
  2
LAYER131
 70
               0
 62
               7
  6
CONTINUOUS
  0
LAYER
  2
LAYER132
 70
               0
 62
               7
  6
CONTINUOUS
  0
LAYER
  2
LAYER133
 70
               0
 62
               7
  6
CONTINUOUS
  0
LAYER
  2
LAYER134
 70
               0
 62
               7
  6
CONTINUOUS
  0
LAYER
  2
LAYER135
 70
               0
 62
               7
  6
CONTINUOUS
  0
LAYER
  2
LAYER136
 70
               0
 62
               7
  6
CONTINUOUS
  0
LAYER
  2
LAYER137
 70
               0
 62
               7
  6
CONTINUOUS
  0
LAYER
  2
LAYER138
 70
               0
 62
               7
  6
CONTINUOUS
  0
LAYER
  2
LAYER139
 70
               0
 62
               7
  6
CONTINUOUS
  0
LAYER
  2
LAYER140
 70
               0
 62
               7
  6
CONTINUOUS
  0
LAYER
  2
LAYER141
 70
               0
 62
               7
  6
CONTINUOUS
  0
LAYER
  2
LAYER142
 70
               0
 62
               7
  6
CONTINUOUS
  0
LAYER
  2
LAYER143
 70
               0
 62
               7
  6
CONTINUOUS
  0
LAYER
  2
LAYER144
 70
               0
 62
               7
  6
CONTINUOUS
  0
LAYER
  2
LAYER145
 70
               0
 62
               7
  6
CONTINUOUS
  0
LAYER
  2
LAYER146
 70
               0
 62
               7
  6
CONTINUOUS
  0
LAYER
  2
LAYER147
 70
               0
 62
               7
  6
CONTINUOUS
  0
LAYER
  2
LAYER148
 70
               0
 62
               7
  6
CONTINUOUS
  0
LAYER
  2
LAYER149
 70
               0
 62
               7
  6
CONTINUOUS
  0
LAYER
  2
LAYER150
 70
               0
 62
               7
  6
CONTINUOUS
  0
LAYER
  2
LAYER151
 70
               0
 62
               7
  6
CONTINUOUS
  0
LAYER
  2
LAYER152
 70
               0
 62
               7
  6
CONTINUOUS
  0
LAYER
  2
LAYER153
 70
               0
 62
               7
  6
CONTINUOUS
  0
LAYER
  2
LAYER154
 70
               0
 62
               7
  6
CONTINUOUS
  0
LAYER
  2
LAYER155
 70
               0
 62
               7
  6
CONTINUOUS
  0
LAYER
  2
LAYER156
 70
               0
 62
               7
  6
CONTINUOUS
  0
LAYER
  2
LAYER157
 70
               0
 62
               7
  6
CONTINUOUS
  0
LAYER
  2
LAYER158
 70
               0
 62
               7
  6
CONTINUOUS
  0
LAYER
  2
LAYER159
 70
               0
 62
               7
  6
CONTINUOUS
  0
LAYER
  2
LAYER160
 70
               0
 62
               7
  6
CONTINUOUS
  0
LAYER
  2
LAYER161
 70
               0
 62
               7
  6
CONTINUOUS
  0
LAYER
  2
LAYER162
 70
               0
 62
               7
  6
CONTINUOUS
  0
LAYER
  2
LAYER163
 70
               0
 62
               7
  6
CONTINUOUS
  0
LAYER
  2
LAYER164
 70
               0
 62
               7
  6
CONTINUOUS
  0
LAYER
  2
LAYER165
 70
               0
 62
               7
  6
CONTINUOUS
  0
LAYER
  2
LAYER166
 70
               0
 62
               7
  6
CONTINUOUS
  0
LAYER
  2
LAYER167
 70
               0
 62
               7
  6
CONTINUOUS
  0
LAYER
  2
LAYER168
 70
               0
 62
               7
  6
CONTINUOUS
  0
LAYER
  2
LAYER169
 70
               0
 62
               7
  6
CONTINUOUS
  0
LAYER
  2
LAYER170
 70
               0
 62
               7
  6
CONTINUOUS
  0
LAYER
  2
LAYER171
 70
               0
 62
               7
  6
CONTINUOUS
  0
LAYER
  2
LAYER172
 70
               0
 62
               7
  6
CONTINUOUS
  0
LAYER
  2
LAYER173
 70
               0
 62
               7
  6
CONTINUOUS
  0
LAYER
  2
LAYER174
 70
               0
 62
               7
  6
CONTINUOUS
  0
LAYER
  2
LAYER175
 70
               0
 62
               7
  6
CONTINUOUS
  0
LAYER
  2
LAYER176
 70
               0
 62
               7
  6
CONTINUOUS
  0
LAYER
  2
LAYER177
 70
               0
 62
               7
  6
CONTINUOUS
  0
LAYER
  2
LAYER178
 70
               0
 62
               7
  6
CONTINUOUS
  0
LAYER
  2
LAYER179
 70
               0
 62
               7
  6
CONTINUOUS
  0
LAYER
  2
LAYER180
 70
               0
 62
               7
  6
CONTINUOUS
  0
LAYER
  2
LAYER181
 70
               0
 62
               7
  6
CONTINUOUS
  0
LAYER
  2
LAYER182
 70
               0
 62
               7
  6
CONTINUOUS
  0
LAYER
  2
LAYER183
 70
               0
 62
               7
  6
CONTINUOUS
  0
LAYER
  2
LAYER184
 70
               0
 62
               7
  6
CONTINUOUS
  0
LAYER
  2
LAYER185
 70
               0
 62
               7
  6
CONTINUOUS
  0
LAYER
  2
LAYER186
 70
               0
 62
               7
  6
CONTINUOUS
  0
LAYER
  2
LAYER187
 70
               0
 62
               7
  6
CONTINUOUS
  0
LAYER
  2
LAYER188
 70
               0
 62
               7
  6
CONTINUOUS
  0
LAYER
  2
LAYER189
 70
               0
 62
               7
  6
CONTINUOUS
  0
LAYER
  2
LAYER190
 70
               0
 62
               7
  6
CONTINUOUS
  0
LAYER
  2
LAYER191
 70
               0
 62
               7
  6
CONTINUOUS
  0
LAYER
  2
LAYER192
 70
               0
 62
               7
  6
CONTINUOUS
  0
LAYER
  2
LAYER193
 70
               0
 62
               7
  6
CONTINUOUS
  0
LAYER
  2
LAYER194
 70
               0
 62
               7
  6
CONTINUOUS
  0
LAYER
  2
LAYER195
 70
               0
 62
               7
  6
CONTINUOUS
  0
LAYER
  2
LAYER196
 70
               0
 62
               7
  6
CONTINUOUS
  0
LAYER
  2
LAYER197
 70
               0
 62
               7
  6
CONTINUOUS
  0
LAYER
  2
LAYER198
 70
               0
 62
               7
  6
CONTINUOUS
  0
LAYER
  2
LAYER199
 70
               0
 62
               7
  6
CONTINUOUS
  0
LAYER
  2
LAYER200
 70
               0
 62
               7
  6
CONTINUOUS
  0
LAYER
  2
LAYER201
 70
               0
 62
               7
  6
CONTINUOUS
  0
LAYER
  2
LAYER202
 70
               0
 62
               7
  6
CONTINUOUS
  0
LAYER
  2
LAYER203
 70
               0
 62
               7
  6
CONTINUOUS
  0
LAYER
  2
LAYER204
 70
               0
 62
               7
  6
CONTINUOUS
  0
LAYER
  2
LAYER205
 70
               0
 62
               7
  6
CONTINUOUS
  0
LAYER
  2
LAYER206
 70
               0
 62
               7
  6
CONTINUOUS
  0
LAYER
  2
LAYER207
 70
               0
 62
               7
  6
CONTINUOUS
  0
LAYER
  2
LAYER208
 70
               0
 62
               7
  6
CONTINUOUS
  0
LAYER
  2
LAYER209
 70
               0
 62
               7
  6
CONTINUOUS
  0
LAYER
  2
LAYER210
 70
               0
 62
               7
  6
CONTINUOUS
  0
LAYER
  2
LAYER211
 70
               0
 62
               7
  6
CONTINUOUS
  0
LAYER
  2
LAYER212
 70
               0
 62
               7
  6
CONTINUOUS
  0
LAYER
  2
LAYER213
 70
               0
 62
               7
  6
CONTINUOUS
  0
LAYER
  2
LAYER214
 70
               0
 62
               7
  6
CONTINUOUS
  0
LAYER
  2
LAYER215
 70
               0
 62
               7
  6
CONTINUOUS
  0
LAYER
  2
LAYER216
 70
               0
 62
               7
  6
CONTINUOUS
  0
LAYER
  2
LAYER217
 70
               0
 62
               7
  6
CONTINUOUS
  0
LAYER
  2
LAYER218
 70
               0
 62
               7
  6
CONTINUOUS
  0
LAYER
  2
LAYER219
 70
               0
 62
               7
  6
CONTINUOUS
  0
LAYER
  2
LAYER220
 70
               0
 62
               7
  6
CONTINUOUS
  0
LAYER
  2
LAYER221
 70
               0
 62
               7
  6
CONTINUOUS
  0
LAYER
  2
LAYER222
 70
               0
 62
               7
  6
CONTINUOUS
  0
LAYER
  2
LAYER223
 70
               0
 62
               7
  6
CONTINUOUS
  0
LAYER
  2
LAYER224
 70
               0
 62
               7
  6
CONTINUOUS
  0
LAYER
  2
LAYER225
 70
               0
 62
               7
  6
CONTINUOUS
  0
LAYER
  2
LAYER226
 70
               0
 62
               7
  6
CONTINUOUS
  0
LAYER
  2
LAYER227
 70
               0
 62
               7
  6
CONTINUOUS
  0
LAYER
  2
LAYER228
 70
               0
 62
               7
  6
CONTINUOUS
  0
LAYER
  2
LAYER229
 70
               0
 62
               7
  6
CONTINUOUS
  0
LAYER
  2
LAYER230
 70
               0
 62
               7
  6
CONTINUOUS
  0
LAYER
  2
LAYER231
 70
               0
 62
               7
  6
CONTINUOUS
  0
LAYER
  2
LAYER232
 70
               0
 62
               7
  6
CONTINUOUS
  0
LAYER
  2
LAYER233
 70
               0
 62
               7
  6
CONTINUOUS
  0
LAYER
  2
LAYER234
 70
               0
 62
               7
  6
CONTINUOUS
  0
LAYER
  2
LAYER235
 70
               0
 62
               7
  6
CONTINUOUS
  0
LAYER
  2
LAYER236
 70
               0
 62
               7
  6
CONTINUOUS
  0
LAYER
  2
LAYER237
 70
               0
 62
               7
  6
CONTINUOUS
  0
LAYER
  2
LAYER238
 70
               0
 62
               7
  6
CONTINUOUS
  0
LAYER
  2
LAYER239
 70
               0
 62
               7
  6
CONTINUOUS
  0
LAYER
  2
LAYER240
 70
               0
 62
               7
  6
CONTINUOUS
  0
LAYER
  2
LAYER241
 70
               0
 62
               7
  6
CONTINUOUS
  0
LAYER
  2
LAYER242
 70
               0
 62
               7
  6
CONTINUOUS
  0
LAYER
  2
LAYER243
 70
               0
 62
               7
  6
CONTINUOUS
  0
LAYER
  2
LAYER244
 70
               0
 62
               7
  6
CONTINUOUS
  0
LAYER
  2
LAYER245
 70
               0
 62
               7
  6
CONTINUOUS
  0
LAYER
  2
LAYER246
 70
               0
 62
               7
  6
CONTINUOUS
  0
LAYER
  2
LAYER247
 70
               0
 62
               7
  6
CONTINUOUS
  0
LAYER
  2
LAYER248
 70
               0
 62
               7
  6
CONTINUOUS
  0
LAYER
  2
LAYER249
 70
               0
 62
               7
  6
CONTINUOUS
  0
LAYER
  2
LAYER250
 70
               0
 62
               7
  6
CONTINUOUS
  0
LAYER
  2
LAYER251
 70
               0
 62
               7
  6
CONTINUOUS
  0
LAYER
  2
LAYER252
 70
               0
 62
               7
  6
CONTINUOUS
  0
LAYER
  2
LAYER253
 70
               0
 62
               7
  6
CONTINUOUS
  0
LAYER
  2
LAYER254
 70
               0
 62
               7
  6
CONTINUOUS
  0
LAYER
  2
LAYER255
 70
               0
 62
               7
  6
CONTINUOUS
  0
ENDTAB
  0
TABLE
  2
STYLE
 70
               1
  0
STYLE
  2
STANDARD
 70
               0
 40
0.0
 41
1.0
 50
0.0
 71
               0
 42
0.0
  3
txt
  4

  0
ENDTAB
  0
TABLE
  2
VIEW
 70
               0
  0
VIEW
  2
QQQQ
 70
               0
 40
695.04610078441897
 10
29.657007652107609
 20
2.209384510731752
 41
1250.3958932731746
 11
0.0
 21
0.0
 31
1.0
 12
100.0
 22
100.0
 32
0.0
 42
50.0
 43
0.0
 44
0.0
 50
0.0
 71
               0
  0
ENDTAB
  0
TABLE
  2
UCS
 70
               0
  0
ENDTAB
  0
TABLE
  2
APPID
 70
               1
  0
APPID
  2
ACAD
 70
               0
  0
ENDTAB
  0
TABLE
  2
DIMSTYLE
 70
               1
  0
DIMSTYLE
  2
STANDARD
 70
               0
  3

  4

  5

  6

  7

 40
1.0
 41
0.18
 42
0.0625
 43
0.38
 44
0.18
 45
0.0
 46
0.0
 47
0.0
 48
0.0
140
0.18
141
0.09
142
0.0
143
25.399999999999999
144
1.0
145
0.0
146
1.0
147
0.09
 71
               0
 72
               0
 73
               1
 74
               1
 75
               0
 76
               0
 77
               0
 78
               0
170
               0
171
               2
172
               0
173
               0
174
               0
175
               0
176
               0
177
               0
178
               0
  0
ENDTAB
  0
ENDSEC
  0
SECTION
  2
BLOCKS
  0
BLOCK
  8
0
  5
137
  2
GROUP_1
 70
               0
 10
0.0
 20
0.0
 30
0.0
  3
GROUP_1
  0
LINE
  8
0
  6
CONTINUOUS
 62
               3
  5
138
 10
88.940914733944282
 20
-107.7347895484055
 30
0.0
 11
88.535859758178503
 21
-108.39554314990471
 31
0.0
  0
LINE
  8
0
  6
CONTINUOUS
 62
               3
  5
139
 10
88.535859758178503
 20
-108.39554314990471
 30
0.0
 11
88.081379215454945
 21
-109.15728581325163
 31
0.0
  0
LINE
  8
0
  6
CONTINUOUS
 62
               3
  5
13A
 10
88.081379215454945
 20
-109.15728581325163
 30
0.0
 11
87.528047538815372
 21
-110.12100660029478
 31
0.0
  0
LINE
  8
0
  6
CONTINUOUS
 62
               3
  5
13B
 10
87.528047538815372
 20
-110.12100660029478
 30
0.0
 11
86.82643916130246
 21
-111.38769457288197
 31
0.0
  0
LINE
  8
0
  6
CONTINUOUS
 62
               3
  5
13C
 10
86.82643916130246
 20
-111.38769457288197
 30
0.0
 11
85.92712851595752
 21
-113.05833879286138
 31
0.0
  0
LINE
  8
0
  6
CONTINUOUS
 62
               3
  5
13D
 10
85.92712851595752
 20
-113.05833879286138
 30
0.0
 11
84.802228407017083
 21
-115.20670452237675
 31
0.0
  0
LINE
  8
0
  6
CONTINUOUS
 62
               3
  5
13E
 10
84.802228407017083
 20
-115.20670452237675
 30
0.0
 11
83.510005123494011
 21
-117.79766182475589
 31
0.0
  0
LINE
  8
0
  6
CONTINUOUS
 62
               3
  5
13F
 10
83.510005123494011
 20
-117.79766182475589
 30
0.0
 11
82.130263325596388
 21
-120.76885696362217
 31
0.0
  0
LINE
  8
0
  6
CONTINUOUS
 62
               3
  5
140
 10
82.130263325596388
 20
-120.76885696362217
 30
0.0
 11
80.742807673530478
 21
-124.05793620259874
 31
0.0
  0
LINE
  8
0
  6
CONTINUOUS
 62
               3
  5
141
 10
80.742807673530478
 20
-124.05793620259874
 30
0.0
 11
79.42744282750391
 21
-127.60254580530921
 31
0.0
  0
LINE
  8
0
  6
CONTINUOUS
 62
               3
  5
142
 10
79.42744282750391
 20
-127.60254580530921
 30
0.0
 11
78.257249753123688
 21
-131.34428510386124
 31
0.0
  0
LINE
  8
0
  6
CONTINUOUS
 62
               3
  5
143
 10
78.257249753123688
 20
-131.34428510386124
 30
0.0
 11
77.278414637592959
 21
-135.240565704299
 31
0.0
  0
LINE
  8
0
  6
CONTINUOUS
 62
               3
  5
144
 10
77.278414637592959
 20
-135.240565704299
 30
0.0
 11
76.530399973513795
 21
-139.25275228115129
 31
0.0
  0
LINE
  8
0
  6
CONTINUOUS
 62
               3
  5
145
 10
76.530399973513795
 20
-139.25275228115129
 30
0.0
 11
76.052668253489173
 21
-143.34220950894644
 31
0.0
  0
LINE
  8
0
  6
CONTINUOUS
 62
               3
  5
146
 10
76.052668253489173
 20
-143.34220950894644
 30
0.0
 11
75.884681970122074
 21
-147.47030206221291
 31
0.0
  0
LINE
  8
0
  6
CONTINUOUS
 62
               3
  5
147
 10
75.884681970122074
 20
-147.47030206221291
 30
0.0
 11
76.052746203880815
 21
-151.59839461547961
 31
0.0
  0
LINE
  8
0
  6
CONTINUOUS
 62
               3
  5
148
 10
76.052746203880815
 20
-151.59839461547961
 30
0.0
 11
76.530536386699168
 21
-155.68785184327464
 31
0.0
  0
LINE
  8
0
  6
CONTINUOUS
 62
               3
  5
149
 10
76.530536386699168
 20
-155.68785184327464
 30
0.0
 11
77.278570538376243
 21
-159.70003842012682
 31
0.0
  0
LINE
  8
0
  6
CONTINUOUS
 62
               3
  5
14A
 10
77.278570538376243
 20
-159.70003842012682
 30
0.0
 11
78.257366678711151
 21
-163.59631902056469
 31
0.0
  0
LINE
  8
0
  6
CONTINUOUS
 62
               3
  5
14B
 10
78.257366678711151
 20
-163.59631902056469
 30
0.0
 11
79.42744282750391
 21
-167.33805831911661
 31
0.0
  0
LINE
  8
0
  6
CONTINUOUS
 62
               3
  5
14C
 10
79.42744282750391
 20
-167.33805831911661
 30
0.0
 11
80.742612797551374
 21
-170.88266792182719
 31
0.0
  0
LINE
  8
0
  6
CONTINUOUS
 62
               3
  5
14D
 10
80.742612797551374
 20
-170.88266792182719
 30
0.0
 11
82.129873573637724
 21
-174.17174716080387
 31
0.0
  0
LINE
  8
0
  6
CONTINUOUS
 62
               3
  5
14E
 10
82.129873573637724
 20
-174.17174716080387
 30
0.0
 11
83.509517933545794
 21
-177.14294229967004
 31
0.0
  0
LINE
  8
0
  6
CONTINUOUS
 62
               3
  5
14F
 10
83.509517933545794
 20
-177.14294229967004
 30
0.0
 11
84.801838655058418
 21
-179.73389960204906
 31
0.0
  0
LINE
  8
0
  6
CONTINUOUS
 62
               3
  5
150
 10
84.801838655058418
 20
-179.73389960204906
 30
0.0
 11
85.92712851595752
 21
-181.88226533156467
 31
0.0
  0
LINE
  8
0
  6
CONTINUOUS
 62
               3
  5
151
 10
85.92712851595752
 20
-181.88226533156467
 30
0.0
 11
86.827189433822241
 21
-183.55290955154408
 31
0.0
  0
LINE
  8
0
  6
CONTINUOUS
 62
               3
  5
152
 10
86.827189433822241
 20
-183.55290955154408
 30
0.0
 11
87.529859885422411
 21
-184.81959752413138
 31
0.0
  0
LINE
  8
0
  6
CONTINUOUS
 62
               3
  5
153
 10
87.529859885422411
 20
-184.81959752413138
 30
0.0
 11
88.084487487324168
 21
-185.78331831117441
 31
0.0
  0
LINE
  8
0
  6
CONTINUOUS
 62
               3
  5
154
 10
88.084487487324168
 20
-185.78331831117441
 30
0.0
 11
88.540419856093195
 21
-186.54506097452156
 31
0.0
  0
LINE
  8
0
  6
CONTINUOUS
 62
               3
  5
155
 10
88.540419856093195
 20
-186.54506097452156
 30
0.0
 11
88.947004608296083
 21
-187.20581457602043
 31
0.0
  0
ENDBLK
  8
0
  5
156
  0
ENDSEC
  0
SECTION
  2
ENTITIES
  0
LINE
  8
0
  6
DASHDOT
 62
               4
  5
157
 10
34.447004608294719
 20
-2.6093597183829544
 30
0.0
 11
34.447004608294719
 21
-311.29111358176539
 31
0.0
  0
LINE
  8
0
  6
DASHDOT
 62
               4
  5
158
 10
42.869949683078175
 20
-188.47030206221268
 30
0.0
 11
-102.05299539170528
 21
-188.4703020622128
 31
0.0
  0
LINE
  8
0
  6
DASHDOT
 62
               4
  5
159
 10
534.44700460829472
 20
-2.093484889618928
 30
0.0
 11
534.44700460829472
 21
-312.2911135817655
 31
0.0
  0
LINE
  8
0
  6
DASHDOT
 62
               4
  5
15A
 10
-465.55299539170528
 20
-2.093484889618928
 30
0.0
 11
-465.55299539170528
 21
-312.2911135817655
 31
0.0
  0
LINE
  8
0
  6
DASHDOT
 62
               4
  5
15B
 10
-536.13298930408007
 20
-188.47030206221257
 30
0.0
 11
-393.62991182561336
 21
-188.47030206221257
 31
0.0
  0
LINE
  8
0
  6
DASHDOT
 62
               4
  5
15C
 10
115.44700460829472
 20
235.70988260322906
 30
0.0
 11
-102.05299539170483
 21
235.70988260322906
 31
0.0
  0
LINE
  8
0
  6
DASHDOT
 62
               4
  5
15D
 10
34.447004608294719
 20
154.70988260322895
 30
0.0
 11
34.447004608294719
 21
316.70988260322906
 31
0.0
  0
LINE
  8
0
  6
DASHDOT
 62
               4
  5
15E
 10
482.0914553451662
 20
-147.47030206221291
 30
0.0
 11
586.86027109997212
 21
-147.47030206221291
 31
0.0
  0
LINE
  8
0
  6
DASHDOT
 62
               4
  5
15F
 10
116.94700460829472
 20
-147.47030206221291
 30
0.0
 11
76.947004608294719
 21
-147.47030206221291
 31
0.0
  0
LINE
  8
0
  6
DASHED2
 62
               4
  5
160
 10
-10.052995391705281
 20
-72.470302062212681
 30
0.0
 11
78.947004608294719
 21
-72.470302062212681
 31
0.0
  0
LINE
  8
0
  6
DASHED2
 62
               4
  5
161
 10
-5.0529953917052808
 20
-297.47030206221262
 30
0.0
 11
-5.0529953917052808
 21
-257.47030206221262
 31
0.0
  0
LINE
  8
0
  6
DASHED2
 62
               4
  5
162
 10
73.947004608294719
 20
-257.47030206221262
 30
0.0
 11
73.947004608294719
 21
-297.47030206221262
 31
0.0
  0
LINE
  8
0
  6
DASHED2
 62
               4
  5
163
 10
-510.05299539170528
 20
-72.470302062212681
 30
0.0
 11
-421.05299539170528
 21
-72.470302062212681
 31
0.0
  0
LINE
  8
0
  6
DASHED2
 62
               4
  5
164
 10
489.94700460829472
 20
-72.470302062212909
 30
0.0
 11
578.94700460829472
 21
-72.470302062212909
 31
0.0
  0
LINE
  8
0
  6
CONTINUOUS
 62
               3
  5
165
 10
95.447004608294719
 20
-12.470302062212674
 30
0.0
 11
95.447004608294719
 21
-27.784588987638124
 31
0.0
  0
LINE
  8
0
  6
CONTINUOUS
 62
               3
  5
166
 10
-26.552995391705281
 20
-12.470302062212674
 30
0.0
 11
-26.552995391705281
 21
-27.784588987638124
 31
0.0
  0
LINE
  8
0
  6
CONTINUOUS
 62
               3
  5
167
 10
-24.552995391705281
 20
-31.784588987638237
 30
0.0
 11
-24.552995391705281
 21
-95.368714158874468
 31
0.0
  0
ARC
  8
0
  6
CONTINUOUS
 62
               3
  5
168
 10
-29.552995391705281
 20
-31.784588987638237
 30
0.0
 40
5.0
 50
0.0
 51
53.130102354155852
  0
LINE
  8
0
  6
CONTINUOUS
 62
               3
  5
169
 10
93.447004608294719
 20
-31.784588987638237
 30
0.0
 11
93.447004608294719
 21
-95.368714158874354
 31
0.0
  0
ARC
  8
0
  6
CONTINUOUS
 62
               3
  5
16A
 10
98.447004608294719
 20
-31.784588987638237
 30
0.0
 40
5.0
 50
126.86989764584376
 51
179.9999999999996
  0
LINE
  8
0
  6
CONTINUOUS
 62
               3
  5
16B
 10
-26.552995391705281
 20
-12.470302062212674
 30
0.0
 11
95.447004608294719
 21
-12.470302062212674
 31
0.0
  0
LINE
  8
0
  6
CONTINUOUS
 62
               3
  5
16C
 10
-26.552995391705281
 20
-27.784588987638124
 30
0.0
 11
95.447004608294719
 21
-27.784588987638124
 31
0.0
  0
LINE
  8
0
  6
CONTINUOUS
 62
               3
  5
16D
 10
-8.0542137376505707
 20
-297.47030206221262
 30
0.0
 11
76.948222954240009
 21
-297.47030206221262
 31
0.0
  0
LINE
  8
0
  6
CONTINUOUS
 62
               3
  5
16E
 10
-10.052995391705281
 20
-237.47030206221265
 30
0.0
 11
78.947004608294719
 21
-237.47030206221265
 31
0.0
  0
LINE
  8
0
  6
CONTINUOUS
 62
               3
  5
16F
 10
-10.052995391705281
 20
-237.47030206221265
 30
0.0
 11
-11.052995391705281
 21
-236.47030206221265
 31
0.0
  0
LINE
  8
0
  6
CONTINUOUS
 62
               3
  5
170
 10
-11.052995391705281
 20
-235.7848942723177
 30
0.0
 11
-11.052995391705281
 21
-236.47030206221265
 31
0.0
  0
LINE
  8
0
  6
CONTINUOUS
 62
               3
  5
171
 10
-10.052995391705281
 20
-237.47030206221265
 30
0.0
 11
-10.052995391705281
 21
-295.54010105561821
 31
0.0
  0
LINE
  8
0
  6
CONTINUOUS
 62
               3
  5
172
 10
-8.0542137376505707
 20
-297.47030206221262
 30
0.0
 11
-10.052995391705281
 21
-295.54010105561821
 31
0.0
  0
LINE
  8
0
  6
CONTINUOUS
 62
               3
  5
173
 10
76.948222954240009
 20
-297.47030206221262
 30
0.0
 11
78.947004608294719
 21
-295.54010105561821
 31
0.0
  0
LINE
  8
0
  6
CONTINUOUS
 62
               3
  5
174
 10
78.947004608294719
 20
-237.47030206221265
 30
0.0
 11
78.947004608294719
 21
-295.54010105561821
 31
0.0
  0
LINE
  8
0
  6
CONTINUOUS
 62
               3
  5
175
 10
-11.052995391705281
 20
-236.47030206221265
 30
0.0
 11
79.947004608294719
 21
-236.47030206221265
 31
0.0
  0
LINE
  8
0
  6
CONTINUOUS
 62
               3
  5
176
 10
-11.052995391705281
 20
-233.24365361488876
 30
0.0
 11
79.947004608294719
 21
-233.24365361488876
 31
0.0
  0
LINE
  8
0
  6
CONTINUOUS
 62
               3
  5
177
 10
78.947004608294719
 20
-237.47030206221265
 30
0.0
 11
79.947004608294719
 21
-236.47030206221265
 31
0.0
  0
LINE
  8
0
  6
CONTINUOUS
 62
               3
  5
178
 10
79.947004608294719
 20
-233.24365361488967
 30
0.0
 11
79.947004608294719
 21
-236.47030206221265
 31
0.0
  0
LINE
  8
0
  6
CONTINUOUS
 62
               3
  5
179
 10
-10.052995391705281
 20
-295.54010105561821
 30
0.0
 11
78.947004608294719
 21
-295.54010105561821
 31
0.0
  0
LINE
  8
0
  6
CONTINUOUS
 62
               3
  5
17A
 10
-20.052995391702552
 20
-111.0635409579761
 30
0.0
 11
-20.052995391702552
 21
-105.56124456425152
 31
0.0
  0
ARC
  8
0
  6
CONTINUOUS
 62
               3
  5
17B
 10
-10.052995391705281
 20
-110.50489587892696
 30
0.0
 40
10.0
 50
179.9999999999996
 51
220.05916053520181
  0
ARC
  8
0
  6
CONTINUOUS
 62
               3
  5
17C
 10
-21.430623242870297
 20
-138.73585031040136
 30
0.0
 40
3.9490378257560579
 50
30.532402808686388
 51
69.582914919473723
  0
ARC
  8
0
  6
CONTINUOUS
 62
               3
  5
17D
 10
-60.560837086961328
 20
-123.35130499474872
 30
0.0
 40
42.15912244855646
 50
343.9109600768773
 51
376.0890399231219
  0
LINE
  8
0
  6
CONTINUOUS
 62
               3
  5
17E
 10
-20.052995391705281
 20
-105.20487194532757
 30
0.0
 11
-20.052995391705281
 21
-110.50489587892685
 31
0.0
  0
LINE
  8
0
  6
CONTINUOUS
 62
               3
  5
17F
 10
-20.052995391705281
 20
-135.03489891205186
 30
0.0
 11
-20.052995391705281
 21
-140.50430800272602
 31
0.0
  0
LINE
  8
0
  6
CONTINUOUS
 62
               3
  5
180
 10
-80.052995391705281
 20
-147.72030206221268
 30
0.0
 11
-79.381439265740937
 21
-147.72030206221268
 31
0.0
  0
LINE
  8
0
  6
CONTINUOUS
 62
               3
  5
181
 10
-77.052995391705281
 20
-231.5487459362482
 30
0.0
 11
-77.052995391705281
 21
-145.39185818817748
 31
0.0
  0
LINE
  8
0
  6
CONTINUOUS
 62
               3
  5
182
 10
-80.052995391705281
 20
-229.22030206221265
 30
0.0
 11
-79.381439265740937
 21
-229.22030206221265
 31
0.0
  0
LINE
  8
0
  6
CONTINUOUS
 62
               3
  5
183
 10
-77.052995391705281
 20
-145.39185818817748
 30
0.0
 11
-79.381439265740937
 21
-147.72030206221268
 31
0.0
  0
LINE
  8
0
  6
CONTINUOUS
 62
               3
  5
184
 10
-77.052995391705281
 20
-231.5487459362482
 30
0.0
 11
-79.381439265740937
 21
-229.22030206221265
 31
0.0
  0
LINE
  8
0
  6
CONTINUOUS
 62
               3
  5
185
 10
-79.381439265740937
 20
-147.72030206221268
 30
0.0
 11
-79.381439265740937
 21
-229.22030206221265
 31
0.0
  0
LINE
  8
0
  6
CONTINUOUS
 62
               3
  5
186
 10
-85.052995391705281
 20
-147.89185818817737
 30
0.0
 11
-85.052995391705281
 21
-229.0487459362482
 31
0.0
  0
LINE
  8
0
  6
CONTINUOUS
 62
               3
  5
187
 10
-80.052995391705281
 20
-231.5487459362482
 30
0.0
 11
-80.052995391705281
 21
-145.39185818817737
 31
0.0
  0
LINE
  8
0
  6
CONTINUOUS
 62
               3
  5
188
 10
-80.052995391705281
 20
-145.39185818817737
 30
0.0
 11
-82.552995391705281
 21
-145.39185818817737
 31
0.0
  0
LINE
  8
0
  6
CONTINUOUS
 62
               3
  5
189
 10
-80.052995391705281
 20
-231.5487459362482
 30
0.0
 11
-82.552995391705281
 21
-231.5487459362482
 31
0.0
  0
ARC
  8
0
  6
CONTINUOUS
 62
               3
  5
18A
 10
-82.552995391705281
 20
-229.0487459362482
 30
0.0
 40
2.5
 50
179.9999999999996
 51
269.99999999999937
  0
ARC
  8
0
  6
CONTINUOUS
 62
               3
  5
18B
 10
-82.552995391705281
 20
-147.89185818817737
 30
0.0
 40
2.5
 50
89.999999999999801
 51
179.9999999999996
  0
LINE
  8
0
  6
CONTINUOUS
 62
               3
  5
18C
 10
-22.948296901597587
 20
-143.5024804837833
 30
0.0
 11
-77.052995391705281
 21
-145.39185818817748
 31
0.0
  0
LINE
  8
0
  6
CONTINUOUS
 62
               3
  5
18D
 10
-12.983196398300151
 20
-233.78611261827936
 30
0.0
 11
-77.052995391705281
 21
-231.5487459362482
 31
0.0
  0
ARC
  8
0
  6
CONTINUOUS
 62
               3
  5
18E
 10
-25.052995391705281
 20
-105.20487194532745
 30
0.0
 40
5.0
 50
359.9999999999979
 51
409.16778297252995
  0
ARC
  8
0
  6
CONTINUOUS
 62
               3
  5
18F
 10
-16.552995391705281
 20
-95.368714158874468
 30
0.0
 40
8.0
 50
179.9999999999996
 51
229.16778297253049
  0
POLYLINE
  8
0
  6
CONTINUOUS
 62
               3
  5
190
 66
               1
 10
0.0
 20
0.0
 30
0.0
 70
             128
  0
VERTEX
  8
0
  6
CONTINUOUS
 62
               3
  5
20B
 10
-8.9263586577507859
 20
-133.56099135273888
 30
0.0
  0
VERTEX
  8
0
  6
CONTINUOUS
 62
               3
  5
20C
 10
-8.941275175161465
 20
-133.45720639764016
 30
0.0
  0
VERTEX
  8
0
  6
CONTINUOUS
 62
               3
  5
20D
 10
-8.9566045741652651
 20
-133.35348402096156
 30
0.0
  0
VERTEX
  8
0
  6
CONTINUOUS
 62
               3
  5
20E
 10
-8.9723466023366711
 20
-133.24982593067443
 30
0.0
  0
VERTEX
  8
0
  6
CONTINUOUS
 62
               3
  5
20F
 10
-8.9885010004555035
 20
-133.14623383369155
 30
0.0
  0
VERTEX
  8
0
  6
CONTINUOUS
 62
               3
  5
210
 10
-9.0050675025111779
 20
-133.04270943583899
 30
0.0
  0
VERTEX
  8
0
  6
CONTINUOUS
 62
               3
  5
211
 10
-9.0220458357071074
 20
-132.93925444182807
 30
0.0
  0
VERTEX
  8
0
  6
CONTINUOUS
 62
               3
  5
212
 10
-9.0394357204651676
 20
-132.83587055522722
 30
0.0
  0
VERTEX
  8
0
  6
CONTINUOUS
 62
               3
  5
213
 10
-9.0572368704303194
 20
-132.73255947843396
 30
0.0
  0
VERTEX
  8
0
  6
CONTINUOUS
 62
               3
  5
214
 10
-9.075448992475323
 20
-132.62932291264687
 30
0.0
  0
VERTEX
  8
0
  6
CONTINUOUS
 62
               3
  5
215
 10
-9.0940717867055518
 20
-132.52616255783764
 30
0.0
  0
VERTEX
  8
0
  6
CONTINUOUS
 62
               3
  5
216
 10
-9.1131049464639453
 20
-132.42308011272289
 30
0.0
  0
VERTEX
  8
0
  6
CONTINUOUS
 62
               3
  5
217
 10
-9.1325481583360499
 20
-132.32007727473643
 30
0.0
  0
VERTEX
  8
0
  6
CONTINUOUS
 62
               3
  5
218
 10
-9.152401102155185
 20
-132.21715574000117
 30
0.0
  0
VERTEX
  8
0
  6
CONTINUOUS
 62
               3
  5
219
 10
-9.1726634510077147
 20
-132.11431720330117
 30
0.0
  0
VERTEX
  8
0
  6
CONTINUOUS
 62
               3
  5
21A
 10
-9.1933348712384202
 20
-132.01156335805382
 30
0.0
  0
VERTEX
  8
0
  6
CONTINUOUS
 62
               3
  5
21B
 10
-9.2144150224560164
 20
-131.90889589628193
 30
0.0
  0
VERTEX
  8
0
  6
CONTINUOUS
 62
               3
  5
21C
 10
-9.2359035575387303
 20
-131.80631650858581
 30
0.0
  0
VERTEX
  8
0
  6
CONTINUOUS
 62
               3
  5
21D
 10
-9.2578001226400382
 20
-131.70382688411553
 30
0.0
  0
VERTEX
  8
0
  6
CONTINUOUS
 62
               3
  5
21E
 10
-9.2801043571944817
 20
-131.60142871054302
 30
0.0
  0
VERTEX
  8
0
  6
CONTINUOUS
 62
               3
  5
21F
 10
-9.3028158939236114
 20
-131.49912367403431
 30
0.0
  0
VERTEX
  8
0
  6
CONTINUOUS
 62
               3
  5
220
 10
-9.3259343588420229
 20
-131.39691345922176
 30
0.0
  0
VERTEX
  8
0
  6
CONTINUOUS
 62
               3
  5
221
 10
-9.349459371263535
 20
-131.29479974917632
 30
0.0
  0
VERTEX
  8
0
  6
CONTINUOUS
 62
               3
  5
222
 10
-9.3733905438074352
 20
-131.19278422537988
 30
0.0
  0
VERTEX
  8
0
  6
CONTINUOUS
 62
               3
  5
223
 10
-9.397727482404882
 20
-131.09086856769741
 30
0.0
  0
VERTEX
  8
0
  6
CONTINUOUS
 62
               3
  5
224
 10
-9.4224697863053706
 20
-130.98905445434951
 30
0.0
  0
VERTEX
  8
0
  6
CONTINUOUS
 62
               3
  5
225
 10
-9.4476170480833517
 20
-130.88734356188462
 30
0.0
  0
VERTEX
  8
0
  6
CONTINUOUS
 62
               3
  5
226
 10
-9.4731688536449283
 20
-130.78573756515146
 30
0.0
  0
VERTEX
  8
0
  6
CONTINUOUS
 62
               3
  5
227
 10
-9.4991247822346772
 20
-130.68423813727154
 30
0.0
  0
VERTEX
  8
0
  6
CONTINUOUS
 62
               3
  5
228
 10
-9.5254844064425832
 20
-130.58284694961142
 30
0.0
  0
VERTEX
  8
0
  6
CONTINUOUS
 62
               3
  5
229
 10
-9.5522472922110708
 20
-130.48156567175533
 30
0.0
  0
VERTEX
  8
0
  6
CONTINUOUS
 62
               3
  5
22A
 10
-9.5794129988421552
 20
-130.38039597147767
 30
0.0
  0
VERTEX
  8
0
  6
CONTINUOUS
 62
               3
  5
22B
 10
-9.6069810790046901
 20
-130.2793395147155
 30
0.0
  0
VERTEX
  8
0
  6
CONTINUOUS
 62
               3
  5
22C
 10
-9.6349510787417536
 20
-130.17839796554111
 30
0.0
  0
VERTEX
  8
0
  6
CONTINUOUS
 62
               3
  5
22D
 10
-9.6633225374780984
 20
-130.07757298613467
 30
0.0
  0
VERTEX
  8
0
  6
CONTINUOUS
 62
               3
  5
22E
 10
-9.6920949880277583
 20
-129.97686623675679
 30
0.0
  0
VERTEX
  8
0
  6
CONTINUOUS
 62
               3
  5
22F
 10
-9.721267956601725
 20
-129.87627937572125
 30
0.0
  0
VERTEX
  8
0
  6
CONTINUOUS
 62
               3
  5
230
 10
-9.7508409628157651
 20
-129.7758140593676
 30
0.0
  0
VERTEX
  8
0
  6
CONTINUOUS
 62
               3
  5
231
 10
-9.7808135196983095
 20
-129.67547194203402
 30
0.0
  0
VERTEX
  8
0
  6
CONTINUOUS
 62
               3
  5
232
 10
-9.8111851336984977
 20
-129.57525467602991
 30
0.0
  0
VERTEX
  8
0
  6
CONTINUOUS
 62
               3
  5
233
 10
-9.8419553046942809
 20
-129.47516391160889
 30
0.0
  0
VERTEX
  8
0
  6
CONTINUOUS
 62
               3
  5
234
 10
-9.873123526000672
 20
-129.37520129694138
 30
0.0
  0
VERTEX
  8
0
  6
CONTINUOUS
 62
               3
  5
235
 10
-9.9046892843780867
 20
-129.2753684780877
 30
0.0
  0
VERTEX
  8
0
  6
CONTINUOUS
 62
               3
  5
236
 10
-9.9366520600407995
 20
-129.17566709897079
 30
0.0
  0
VERTEX
  8
0
  6
CONTINUOUS
 62
               3
  5
237
 10
-9.9690113266654841
 20
-129.07609880134919
 30
0.0
  0
VERTEX
  8
0
  6
CONTINUOUS
 62
               3
  5
238
 10
-10.0017665513999
 20
-128.97666522479008
 30
0.0
  0
VERTEX
  8
0
  6
CONTINUOUS
 62
               3
  5
239
 10
-10.03491719487166
 20
-128.8773680066422
 30
0.0
  0
VERTEX
  8
0
  6
CONTINUOUS
 62
               3
  5
23A
 10
-10.068462711197117
 20
-128.77820878200887
 30
0.0
  0
VERTEX
  8
0
  6
CONTINUOUS
 62
               3
  5
23B
 10
-10.102402547990337
 20
-128.67918918372112
 30
0.0
  0
VERTEX
  8
0
  6
CONTINUOUS
 62
               3
  5
23C
 10
-10.136736146372211
 20
-128.58031084231087
 30
0.0
  0
VERTEX
  8
0
  6
CONTINUOUS
 62
               3
  5
23D
 10
-10.171462940979655
 20
-128.48157538598383
 30
0.0
  0
VERTEX
  8
0
  6
CONTINUOUS
 62
               3
  5
23E
 10
-10.206582359974917
 20
-128.38298444059302
 30
0.0
  0
VERTEX
  8
0
  6
CONTINUOUS
 62
               3
  5
23F
 10
-10.242093825054994
 20
-128.28453962961171
 30
0.0
  0
VERTEX
  8
0
  6
CONTINUOUS
 62
               3
  5
240
 10
-10.277996751461146
 20
-128.18624257410693
 30
0.0
  0
VERTEX
  8
0
  6
CONTINUOUS
 62
               3
  5
241
 10
-10.314290547988548
 20
-128.08809489271255
 30
0.0
  0
VERTEX
  8
0
  6
CONTINUOUS
 62
               3
  5
242
 10
-10.350974616996002
 20
-127.99009820160278
 30
0.0
  0
VERTEX
  8
0
  6
CONTINUOUS
 62
               3
  5
243
 10
-10.38804835441579
 20
-127.89225411446549
 30
0.0
  0
VERTEX
  8
0
  6
CONTINUOUS
 62
               3
  5
244
 10
-10.425511149763615
 20
-127.7945642424757
 30
0.0
  0
VERTEX
  8
0
  6
CONTINUOUS
 62
               3
  5
245
 10
-10.46336238614866
 20
-127.69703019426895
 30
0.0
  0
VERTEX
  8
0
  6
CONTINUOUS
 62
               3
  5
246
 10
-10.501601440283746
 20
-127.5996535759149
 30
0.0
  0
VERTEX
  8
0
  6
CONTINUOUS
 62
               3
  5
247
 10
-10.540227682495583
 20
-127.50243599089086
 30
0.0
  0
VERTEX
  8
0
  6
CONTINUOUS
 62
               3
  5
248
 10
-10.579240476735162
 20
-127.40537904005534
 30
0.0
  0
VERTEX
  8
0
  6
CONTINUOUS
 62
               3
  5
249
 10
-10.6186391805882
 20
-127.30848432162175
 30
0.0
  0
VERTEX
  8
0
  6
CONTINUOUS
 62
               3
  5
24A
 10
-10.658423145285745
 20
-127.21175343113205
 30
0.0
  0
VERTEX
  8
0
  6
CONTINUOUS
 62
               3
  5
24B
 10
-10.698591715714844
 20
-127.11518796143052
 30
0.0
  0
VERTEX
  8
0
  6
CONTINUOUS
 62
               3
  5
24C
 10
-10.739144230429332
 20
-127.01878950263743
 30
0.0
  0
VERTEX
  8
0
  6
CONTINUOUS
 62
               3
  5
24D
 10
-10.780080021660726
 20
-126.92255964212298
 30
0.0
  0
VERTEX
  8
0
  6
CONTINUOUS
 62
               3
  5
24E
 10
-10.821398415329224
 20
-126.82649996448106
 30
0.0
  0
VERTEX
  8
0
  6
CONTINUOUS
 62
               3
  5
24F
 10
-10.863098731054802
 20
-126.73061205150321
 30
0.0
  0
VERTEX
  8
0
  6
CONTINUOUS
 62
               3
  5
250
 10
-10.905180282168413
 20
-126.63489748215261
 30
0.0
  0
VERTEX
  8
0
  6
CONTINUOUS
 62
               3
  5
251
 10
-10.947642375723301
 20
-126.53935783253797
 30
0.0
  0
VERTEX
  8
0
  6
CONTINUOUS
 62
               3
  5
252
 10
-10.990484312506418
 20
-126.44399467588767
 30
0.0
  0
VERTEX
  8
0
  6
CONTINUOUS
 62
               3
  5
253
 10
-11.033705387049913
 20
-126.3488095825238
 30
0.0
  0
VERTEX
  8
0
  6
CONTINUOUS
 62
               3
  5
254
 10
-11.077304887642775
 20
-126.25380411983636
 30
0.0
  0
VERTEX
  8
0
  6
CONTINUOUS
 62
               3
  5
255
 10
-11.121282096342544
 20
-126.15897985225739
 30
0.0
  0
VERTEX
  8
0
  6
CONTINUOUS
 62
               3
  5
256
 10
-11.165636288987127
 20
-126.06433834123523
 30
0.0
  0
VERTEX
  8
0
  6
CONTINUOUS
 62
               3
  5
257
 10
-11.21036673520673
 20
-125.96988114520883
 30
0.0
  0
VERTEX
  8
0
  6
CONTINUOUS
 62
               3
  5
258
 10
-11.255472698435877
 20
-125.87560981958207
 30
0.0
  0
VERTEX
  8
0
  6
CONTINUOUS
 62
               3
  5
259
 10
-11.30095343592555
 20
-125.78152591669811
 30
0.0
  0
VERTEX
  8
0
  6
CONTINUOUS
 62
               3
  5
25A
 10
-11.346808198755415
 20
-125.68763098581391
 30
0.0
  0
VERTEX
  8
0
  6
CONTINUOUS
 62
               3
  5
25B
 10
-11.393036231846143
 20
-125.59392657307467
 30
0.0
  0
VERTEX
  8
0
  6
CONTINUOUS
 62
               3
  5
25C
 10
-11.439636773971863
 20
-125.50041422148834
 30
0.0
  0
VERTEX
  8
0
  6
CONTINUOUS
 62
               3
  5
25D
 10
-11.486609057772686
 20
-125.40709547090026
 30
0.0
  0
VERTEX
  8
0
  6
CONTINUOUS
 62
               3
  5
25E
 10
-11.53395230976734
 20
-125.31397185796781
 30
0.0
  0
VERTEX
  8
0
  6
CONTINUOUS
 62
               3
  5
25F
 10
-11.581665750365907
 20
-125.22104491613507
 30
0.0
  0
VERTEX
  8
0
  6
CONTINUOUS
 62
               3
  5
260
 10
-11.62974859388267
 20
-125.12831617560758
 30
0.0
  0
VERTEX
  8
0
  6
CONTINUOUS
 62
               3
  5
261
 10
-11.678200048549037
 20
-125.03578716332714
 30
0.0
  0
VERTEX
  8
0
  6
CONTINUOUS
 62
               3
  5
262
 10
-11.72701931652659
 20
-124.94345940294669
 30
0.0
  0
VERTEX
  8
0
  6
CONTINUOUS
 62
               3
  5
263
 10
-11.77620559392021
 20
-124.85133441480521
 30
0.0
  0
VERTEX
  8
0
  6
CONTINUOUS
 62
               3
  5
264
 10
-11.825758070791331
 20
-124.75941371590264
 30
0.0
  0
VERTEX
  8
0
  6
CONTINUOUS
 62
               3
  5
265
 10
-11.875675931171262
 20
-124.66769881987499
 30
0.0
  0
VERTEX
  8
0
  6
CONTINUOUS
 62
               3
  5
266
 10
-11.925958353074634
 20
-124.57619123696932
 30
0.0
  0
VERTEX
  8
0
  6
CONTINUOUS
 62
               3
  5
267
 10
-11.976604508512935
 20
-124.48489247401895
 30
0.0
  0
VERTEX
  8
0
  6
CONTINUOUS
 62
               3
  5
268
 10
-12.027613563508126
 20
-124.39380403441858
 30
0.0
  0
VERTEX
  8
0
  6
CONTINUOUS
 62
               3
  5
269
 10
-12.078984678106405
 20
-124.30292741809959
 30
0.0
  0
VERTEX
  8
0
  6
CONTINUOUS
 62
               3
  5
26A
 10
-12.130717006392015
 20
-124.2122641215053
 30
0.0
  0
VERTEX
  8
0
  6
CONTINUOUS
 62
               3
  5
26B
 10
-12.182809696501174
 20
-124.12181563756636
 30
0.0
  0
VERTEX
  8
0
  6
CONTINUOUS
 62
               3
  5
26C
 10
-12.235261890636121
 20
-124.03158345567613
 30
0.0
  0
VERTEX
  8
0
  6
CONTINUOUS
 62
               3
  5
26D
 10
-12.288072725079221
 20
-123.94156906166621
 30
0.0
  0
VERTEX
  8
0
  6
CONTINUOUS
 62
               3
  5
26E
 10
-12.3412413302072
 20
-123.85177393778193
 30
0.0
  0
VERTEX
  8
0
  6
CONTINUOUS
 62
               3
  5
26F
 10
-12.394766830505453
 20
-123.76219956265791
 30
0.0
  0
VERTEX
  8
0
  6
CONTINUOUS
 62
               3
  5
270
 10
-12.448648344582477
 20
-123.67284741129382
 30
0.0
  0
VERTEX
  8
0
  6
CONTINUOUS
 62
               3
  5
271
 10
-12.50288498518437
 20
-123.58371895502997
 30
0.0
  0
VERTEX
  8
0
  6
CONTINUOUS
 62
               3
  5
272
 10
-12.55747585920945
 20
-123.49481566152315
 30
0.0
  0
VERTEX
  8
0
  6
CONTINUOUS
 62
               3
  5
273
 10
-12.612420067722958
 20
-123.40613899472248
 30
0.0
  0
VERTEX
  8
0
  6
CONTINUOUS
 62
               3
  5
274
 10
-12.667716705971863
 20
-123.31769041484525
 30
0.0
  0
VERTEX
  8
0
  6
CONTINUOUS
 62
               3
  5
275
 10
-12.723364863399748
 20
-123.22947137835287
 30
0.0
  0
VERTEX
  8
0
  6
CONTINUOUS
 62
               3
  5
276
 10
-12.779363623661833
 20
-123.14148333792697
 30
0.0
  0
VERTEX
  8
0
  6
CONTINUOUS
 62
               3
  5
277
 10
-12.835712064640035
 20
-123.05372774244537
 30
0.0
  0
VERTEX
  8
0
  6
CONTINUOUS
 62
               3
  5
278
 10
-12.892409258458155
 20
-122.96620603695834
 30
0.0
  0
VERTEX
  8
0
  6
CONTINUOUS
 62
               3
  5
279
 10
-12.949454271497181
 20
-122.87891966266466
 30
0.0
  0
VERTEX
  8
0
  6
CONTINUOUS
 62
               3
  5
27A
 10
-13.006846164410639
 20
-122.79187005688803
 30
0.0
  0
VERTEX
  8
0
  6
CONTINUOUS
 62
               3
  5
27B
 10
-13.064583992140061
 20
-122.7050586530533
 30
0.0
  0
VERTEX
  8
0
  6
CONTINUOUS
 62
               3
  5
27C
 10
-13.122666803930567
 20
-122.61848688066296
 30
0.0
  0
VERTEX
  8
0
  6
CONTINUOUS
 62
               3
  5
27D
 10
-13.181093643346497
 20
-122.53215616527346
 30
0.0
  0
VERTEX
  8
0
  6
CONTINUOUS
 62
               3
  5
27E
 10
-13.239863548287172
 20
-122.44606792847192
 30
0.0
  0
VERTEX
  8
0
  6
CONTINUOUS
 62
               3
  5
27F
 10
-13.298975551002744
 20
-122.36022358785254
 30
0.0
  0
VERTEX
  8
0
  6
CONTINUOUS
 62
               3
  5
280
 10
-13.358428678110116
 20
-122.27462455699342
 30
0.0
  0
VERTEX
  8
0
  6
CONTINUOUS
 62
               3
  5
281
 10
-13.418221950608981
 20
-122.18927224543312
 30
0.0
  0
VERTEX
  8
0
  6
CONTINUOUS
 62
               3
  5
282
 10
-13.478354383897933
 20
-122.10416805864759
 30
0.0
  0
VERTEX
  8
0
  6
CONTINUOUS
 62
               3
  5
283
 10
-13.538824987790701
 20
-122.01931339802695
 30
0.0
  0
VERTEX
  8
0
  6
CONTINUOUS
 62
               3
  5
284
 10
-13.599632766532423
 20
-121.93470966085243
 30
0.0
  0
VERTEX
  8
0
  6
CONTINUOUS
 62
               3
  5
285
 10
-13.660776718816074
 20
-121.85035824027339
 30
0.0
  0
VERTEX
  8
0
  6
CONTINUOUS
 62
               3
  5
286
 10
-13.722255837798937
 20
-121.76626052528432
 30
0.0
  0
VERTEX
  8
0
  6
CONTINUOUS
 62
               3
  5
287
 10
-13.78406911111918
 20
-121.68241790070202
 30
0.0
  0
VERTEX
  8
0
  6
CONTINUOUS
 62
               3
  5
288
 10
-13.846215520912541
 20
-121.59883174714277
 30
0.0
  0
VERTEX
  8
0
  6
CONTINUOUS
 62
               3
  5
289
 10
-13.908694043829069
 20
-121.51550344099959
 30
0.0
  0
VERTEX
  8
0
  6
CONTINUOUS
 62
               3
  5
28A
 10
-13.971503651049996
 20
-121.43243435441963
 30
0.0
  0
VERTEX
  8
0
  6
CONTINUOUS
 62
               3
  5
28B
 10
-14.034643308304663
 20
-121.34962585528149
 30
0.0
  0
VERTEX
  8
0
  6
CONTINUOUS
 62
               3
  5
28C
 10
-14.098111975887562
 20
-121.26707930717276
 30
0.0
  0
VERTEX
  8
0
  6
CONTINUOUS
 62
               3
  5
28D
 10
-14.161908608675446
 20
-121.18479606936755
 30
0.0
  0
VERTEX
  8
0
  6
CONTINUOUS
 62
               3
  5
28E
 10
-14.226032156144548
 20
-121.10277749680409
 30
0.0
  0
VERTEX
  8
0
  6
CONTINUOUS
 62
               3
  5
28F
 10
-14.290481562387871
 20
-121.02102494006245
 30
0.0
  0
VERTEX
  8
0
  6
CONTINUOUS
 62
               3
  5
290
 10
-14.355255766132586
 20
-120.93953974534224
 30
0.0
  0
VERTEX
  8
0
  6
CONTINUOUS
 62
               3
  5
291
 10
-14.420353700757495
 20
-120.85832325444056
 30
0.0
  0
VERTEX
  8
0
  6
CONTINUOUS
 62
               3
  5
292
 10
-14.485774294310609
 20
-120.77737680472974
 30
0.0
  0
VERTEX
  8
0
  6
CONTINUOUS
 62
               3
  5
293
 10
-14.551516469526788
 20
-120.69670172913547
 30
0.0
  0
VERTEX
  8
0
  6
CONTINUOUS
 62
               3
  5
294
 10
-14.617579143845482
 20
-120.61629935611475
 30
0.0
  0
VERTEX
  8
0
  6
CONTINUOUS
 62
               3
  5
295
 10
-14.683961229428565
 20
-120.53617100963409
 30
0.0
  0
VERTEX
  8
0
  6
CONTINUOUS
 62
               3
  5
296
 10
-14.750661633178243
 20
-120.45631800914764
 30
0.0
  0
VERTEX
  8
0
  6
CONTINUOUS
 62
               3
  5
297
 10
-14.817679256755046
 20
-120.37674166957549
 30
0.0
  0
VERTEX
  8
0
  6
CONTINUOUS
 62
               3
  5
298
 10
-14.885012996595929
 20
-120.29744330128206
 30
0.0
  0
VERTEX
  8
0
  6
CONTINUOUS
 62
               3
  5
299
 10
-14.952661743932431
 20
-120.21842421005445
 30
0.0
  0
VERTEX
  8
0
  6
CONTINUOUS
 62
               3
  5
29A
 10
-15.020624384808947
 20
-120.13968569708098
 30
0.0
  0
VERTEX
  8
0
  6
CONTINUOUS
 62
               3
  5
29B
 10
-15.088899800101053
 20
-120.06122905892975
 30
0.0
  0
VERTEX
  8
0
  6
CONTINUOUS
 62
               3
  5
29C
 10
-15.157486865533954
 20
-119.98305558752733
 30
0.0
  0
VERTEX
  8
0
  6
CONTINUOUS
 62
               3
  5
29D
 10
-15.226384451700973
 20
-119.90516657013738
 30
0.0
  0
VERTEX
  8
0
  6
CONTINUOUS
 62
               3
  5
29E
 10
-15.295591424082179
 20
-119.82756328933961
 30
0.0
  0
VERTEX
  8
0
  6
CONTINUOUS
 62
               3
  5
29F
 10
-15.365106643063044
 20
-119.75024702300851
 30
0.0
  0
VERTEX
  8
0
  6
CONTINUOUS
 62
               3
  5
2A0
 10
-15.434928963953215
 20
-119.6732190442924
 30
0.0
  0
VERTEX
  8
0
  6
CONTINUOUS
 62
               3
  5
2A1
 10
-15.505057237005378
 20
-119.59648062159242
 30
0.0
  0
SEQEND
  8
0
  6
CONTINUOUS
 62
               3
  5
2A2
  0
POLYLINE
  8
0
  6
CONTINUOUS
 62
               3
  5
191
 66
               1
 10
0.0
 20
0.0
 30
0.0
 70
             128
  0
VERTEX
  8
0
  6
CONTINUOUS
 62
               3
  5
2A3
 10
-18.071343742002799
 20
-136.753243959576
 30
0.0
  0
VERTEX
  8
0
  6
CONTINUOUS
 62
               3
  5
2A4
 10
-18.029305502656424
 20
-136.84254915717469
 30
0.0
  0
VERTEX
  8
0
  6
CONTINUOUS
 62
               3
  5
2A5
 10
-17.985754722257113
 20
-136.93096836657966
 30
0.0
  0
VERTEX
  8
0
  6
CONTINUOUS
 62
               3
  5
2A6
 10
-17.94070674653841
 20
-137.01847043203171
 30
0.0
  0
VERTEX
  8
0
  6
CONTINUOUS
 62
               3
  5
2A7
 10
-17.894177448791829
 20
-137.10502452094025
 30
0.0
  0
VERTEX
  8
0
  6
CONTINUOUS
 62
               3
  5
2A8
 10
-17.846183224273638
 20
-137.19060013474763
 30
0.0
  0
VERTEX
  8
0
  6
CONTINUOUS
 62
               3
  5
2A9
 10
-17.796740984427785
 20
-137.27516711967573
 30
0.0
  0
VERTEX
  8
0
  6
CONTINUOUS
 62
               3
  5
2AA
 10
-17.745868150926896
 20
-137.35869567735116
 30
0.0
  0
VERTEX
  8
0
  6
CONTINUOUS
 62
               3
  5
2AB
 10
-17.693582649533518
 20
-137.44115637530496
 30
0.0
  0
VERTEX
  8
0
  6
CONTINUOUS
 62
               3
  5
2AC
 10
-17.63990290378371
 20
-137.52252015734373
 30
0.0
  0
VERTEX
  8
0
  6
CONTINUOUS
 62
               3
  5
2AD
 10
-17.584847828495249
 20
-137.60275835378789
 30
0.0
  0
VERTEX
  8
0
  6
CONTINUOUS
 62
               3
  5
2AE
 10
-17.528436823102734
 20
-137.68184269157382
 30
0.0
  0
VERTEX
  8
0
  6
CONTINUOUS
 62
               3
  5
2AF
 10
-17.47068976482192
 20
-137.75974530421635
 30
0.0
  0
VERTEX
  8
0
  6
CONTINUOUS
 62
               3
  5
2B0
 10
-17.411627001645694
 20
-137.83643874162794
 30
0.0
  0
VERTEX
  8
0
  6
CONTINUOUS
 62
               3
  5
2B1
 10
-17.351269345174174
 20
-137.91189597979096
 30
0.0
  0
VERTEX
  8
0
  6
CONTINUOUS
 62
               3
  5
2B2
 10
-17.289638063281451
 20
-137.98609043028011
 30
0.0
  0
VERTEX
  8
0
  6
CONTINUOUS
 62
               3
  5
2B3
 10
-17.226754872621548
 20
-138.0589959496312
 30
0.0
  0
VERTEX
  8
0
  6
CONTINUOUS
 62
               3
  5
2B4
 10
-17.16264193097626
 20
-138.13058684855315
 30
0.0
  0
VERTEX
  8
0
  6
CONTINUOUS
 62
               3
  5
2B5
 10
-17.097321829447523
 20
-138.20083790097996
 30
0.0
  0
VERTEX
  8
0
  6
CONTINUOUS
 62
               3
  5
2B6
 10
-17.03081758449715
 20
-138.26972435295954
 30
0.0
  0
VERTEX
  8
0
  6
CONTINUOUS
 62
               3
  5
2B7
 10
-16.963152629836625
 20
-138.33722193137606
 30
0.0
  0
VERTEX
  8
0
  6
CONTINUOUS
 62
               3
  5
2B8
 10
-16.894350808169932
 20
-138.40330685250294
 30
0.0
  0
VERTEX
  8
0
  6
CONTINUOUS
 62
               3
  5
2B9
 10
-16.82443636279222
 20
-138.46795583038332
 30
0.0
  0
VERTEX
  8
0
  6
CONTINUOUS
 62
               3
  5
2BA
 10
-16.753433929047343
 20
-138.53114608503535
 30
0.0
  0
VERTEX
  8
0
  6
CONTINUOUS
 62
               3
  5
2BB
 10
-16.681368525647244
 20
-138.59285535047889
 30
0.0
  0
VERTEX
  8
0
  6
CONTINUOUS
 62
               3
  5
2BC
 10
-16.60826554585627
 20
-138.65306188258128
 30
0.0
  0
VERTEX
  8
0
  6
CONTINUOUS
 62
               3
  5
2BD
 10
-16.534150748543471
 20
-138.71174446671927
 30
0.0
  0
VERTEX
  8
0
  6
CONTINUOUS
 62
               3
  5
2BE
 10
-16.459050249106134
 20
-138.76888242525419
 30
0.0
  0
VERTEX
  8
0
  6
CONTINUOUS
 62
               3
  5
2BF
 10
-16.382990510267618
 20
-138.82445562481809
 30
0.0
  0
VERTEX
  8
0
  6
CONTINUOUS
 62
               3
  5
2C0
 10
-16.305998332752864
 20
-138.87844448340792
 30
0.0
  0
VERTEX
  8
0
  6
CONTINUOUS
 62
               3
  5
2C1
 10
-16.228100845844768
 20
-138.93082997728564
 30
0.0
  0
VERTEX
  8
0
  6
CONTINUOUS
 62
               3
  5
2C2
 10
-16.14932549782479
 20
-138.98159364768139
 30
0.0
  0
VERTEX
  8
0
  6
CONTINUOUS
 62
               3
  5
2C3
 10
-16.069700046301186
 20
-139.03071760729785
 30
0.0
  0
VERTEX
  8
0
  6
CONTINUOUS
 62
               3
  5
2C4
 10
-15.989252548428194
 20
-139.07818454661287
 30
0.0
  0
VERTEX
  8
0
  6
CONTINUOUS
 62
               3
  5
2C5
 10
-15.908011351019722
 20
-139.12397773997895
 30
0.0
  0
VERTEX
  8
0
  6
CONTINUOUS
 62
               3
  5
2C6
 10
-15.826005080560929
 20
-139.16808105151659
 30
0.0
  0
VERTEX
  8
0
  6
CONTINUOUS
 62
               3
  5
2C7
 10
-15.743262633121292
 20
-139.21047894080007
 30
0.0
  0
VERTEX
  8
0
  6
CONTINUOUS
 62
               3
  5
2C8
 10
-15.659813164172656
 20
-139.25115646833333
 30
0.0
  0
VERTEX
  8
0
  6
CONTINUOUS
 62
               3
  5
2C9
 10
-15.575686078315902
 20
-139.29009930081412
 30
0.0
  0
VERTEX
  8
0
  6
CONTINUOUS
 62
               3
  5
2CA
 10
-15.490911018919812
 20
-139.32729371618453
 30
0.0
  0
VERTEX
  8
0
  6
CONTINUOUS
 62
               3
  5
2CB
 10
-15.405517857675811
 20
-139.36272660846612
 30
0.0
  0
VERTEX
  8
0
  6
CONTINUOUS
 62
               3
  5
2CC
 10
-15.319536684072251
 20
-139.39638549237804
 30
0.0
  0
VERTEX
  8
0
  6
CONTINUOUS
 62
               3
  5
2CD
 10
-15.232997794791961
 20
-139.42825850773647
 30
0.0
  0
VERTEX
  8
0
  6
CONTINUOUS
 62
               3
  5
2CE
 10
-15.145931683036778
 20
-139.45833442363349
 30
0.0
  0
VERTEX
  8
0
  6
CONTINUOUS
 62
               3
  5
2CF
 10
-15.058369027782833
 20
-139.4866026423947
 30
0.0
  0
VERTEX
  8
0
  6
CONTINUOUS
 62
               3
  5
2D0
 10
-14.970340682970388
 20
-139.51305320331335
 30
0.0
  0
VERTEX
  8
0
  6
CONTINUOUS
 62
               3
  5
2D1
 10
-14.881877666632002
 20
-139.53767678616009
 30
0.0
  0
VERTEX
  8
0
  6
CONTINUOUS
 62
               3
  5
2D2
 10
-14.793011149962904
 20
-139.5604647144672
 30
0.0
  0
VERTEX
  8
0
  6
CONTINUOUS
 62
               3
  5
2D3
 10
-14.703772446337362
 20
-139.58140895858577
 30
0.0
  0
VERTEX
  8
0
  6
CONTINUOUS
 62
               3
  5
2D4
 10
-14.614193000274993
 20
-139.60050213851511
 30
0.0
  0
VERTEX
  8
0
  6
CONTINUOUS
 62
               3
  5
2D5
 10
-14.524304376360826
 20
-139.61773752650316
 30
0.0
  0
VERTEX
  8
0
  6
CONTINUOUS
 62
               3
  5
2D6
 10
-14.43413824812308
 20
-139.63310904941716
 30
0.0
  0
VERTEX
  8
0
  6
CONTINUOUS
 62
               3
  5
2D7
 10
-14.34372638687255
 20
-139.64661129088353
 30
0.0
  0
VERTEX
  8
0
  6
CONTINUOUS
 62
               3
  5
2D8
 10
-14.253100650507534
 20
-139.65823949319653
 30
0.0
  0
VERTEX
  8
0
  6
CONTINUOUS
 62
               3
  5
2D9
 10
-14.162292972288252
 20
-139.66798955899458
 30
0.0
  0
VERTEX
  8
0
  6
CONTINUOUS
 62
               3
  5
2DA
 10
-14.071335349584709
 20
-139.67585805270403
 30
0.0
  0
VERTEX
  8
0
  6
CONTINUOUS
 62
               3
  5
2DB
 10
-13.980259832601972
 20
-139.68184220174982
 30
0.0
  0
VERTEX
  8
0
  6
CONTINUOUS
 62
               3
  5
2DC
 10
-13.889098513086822
 20
-139.68593989753242
 30
0.0
  0
VERTEX
  8
0
  6
CONTINUOUS
 62
               3
  5
2DD
 10
-13.79788351301978
 20
-139.68814969617071
 30
0.0
  0
VERTEX
  8
0
  6
CONTINUOUS
 62
               3
  5
2DE
 10
-13.706646973296467
 20
-139.68847081901089
 30
0.0
  0
VERTEX
  8
0
  6
CONTINUOUS
 62
               3
  5
2DF
 10
-13.615421042402303
 20
-139.68690315290081
 30
0.0
  0
VERTEX
  8
0
  6
CONTINUOUS
 62
               3
  5
2E0
 10
-13.524237865084546
 20
-139.68344725022976
 30
0.0
  0
VERTEX
  8
0
  6
CONTINUOUS
 62
               3
  5
2E1
 10
-13.433129571025617
 20
-139.67810432873395
 30
0.0
  0
VERTEX
  8
0
  6
CONTINUOUS
 62
               3
  5
2E2
 10
-13.342128263521767
 20
-139.67087627106739
 30
0.0
  0
VERTEX
  8
0
  6
CONTINUOUS
 62
               3
  5
2E3
 10
-13.251266008171019
 20
-139.66176562413838
 30
0.0
  0
VERTEX
  8
0
  6
CONTINUOUS
 62
               3
  5
2E4
 10
-13.160574821574404
 20
-139.65077559821231
 30
0.0
  0
VERTEX
  8
0
  6
CONTINUOUS
 62
               3
  5
2E5
 10
-13.070086660054454
 20
-139.63791006578023
 30
0.0
  0
VERTEX
  8
0
  6
CONTINUOUS
 62
               3
  5
2E6
 10
-12.979833408394949
 20
-139.62317356019454
 30
0.0
  0
VERTEX
  8
0
  6
CONTINUOUS
 62
               3
  5
2E7
 10
-12.889846868605851
 20
-139.60657127407143
 30
0.0
  0
VERTEX
  8
0
  6
CONTINUOUS
 62
               3
  5
2E8
 10
-12.800158748717426
 20
-139.58810905746122
 30
0.0
  0
VERTEX
  8
0
  6
CONTINUOUS
 62
               3
  5
2E9
 10
-12.710800651607462
 20
-139.56779341578721
 30
0.0
  0
VERTEX
  8
0
  6
CONTINUOUS
 62
               3
  5
2EA
 10
-12.621804063865557
 20
-139.54563150755303
 30
0.0
  0
VERTEX
  8
0
  6
CONTINUOUS
 62
               3
  5
2EB
 10
-12.533200344698367
 20
-139.52163114182062
 30
0.0
  0
VERTEX
  8
0
  6
CONTINUOUS
 62
               3
  5
2EC
 10
-12.445020714879746
 20
-139.49580077545835
 30
0.0
  0
VERTEX
  8
0
  6
CONTINUOUS
 62
               3
  5
2ED
 10
-12.357296245749669
 20
-139.46814951016117
 30
0.0
  0
VERTEX
  8
0
  6
CONTINUOUS
 62
               3
  5
2EE
 10
-12.270057848265807
 20
-139.43868708924361
 30
0.0
  0
VERTEX
  8
0
  6
CONTINUOUS
 62
               3
  5
2EF
 10
-12.183336262111602
 20
-139.40742389420646
 30
0.0
  0
VERTEX
  8
0
  6
CONTINUOUS
 62
               3
  5
2F0
 10
-12.097162044864723
 20
-139.37437094107872
 30
0.0
  0
VERTEX
  8
0
  6
CONTINUOUS
 62
               3
  5
2F1
 10
-12.011565561229652
 20
-139.33953987653604
 30
0.0
  0
VERTEX
  8
0
  6
CONTINUOUS
 62
               3
  5
2F2
 10
-11.926576972338266
 20
-139.30294297379669
 30
0.0
  0
VERTEX
  8
0
  6
CONTINUOUS
 62
               3
  5
2F3
 10
-11.842226225122127
 20
-139.26459312829709
 30
0.0
  0
VERTEX
  8
0
  6
CONTINUOUS
 62
               3
  5
2F4
 10
-11.758543041760264
 20
-139.22450385314781
 30
0.0
  0
VERTEX
  8
0
  6
CONTINUOUS
 62
               3
  5
2F5
 10
-11.675556909206131
 20
-139.18268927437205
 30
0.0
  0
VERTEX
  8
0
  6
CONTINUOUS
 62
               3
  5
2F6
 10
-11.593297068797476
 20
-139.13916412592815
 30
0.0
  0
VERTEX
  8
0
  6
CONTINUOUS
 62
               3
  5
2F7
 10
-11.51179250595273
 20
-139.0939437445179
 30
0.0
  0
VERTEX
  8
0
  6
CONTINUOUS
 62
               3
  5
2F8
 10
-11.431071939957597
 20
-139.04704406418236
 30
0.0
  0
VERTEX
  8
0
  6
CONTINUOUS
 62
               3
  5
2F9
 10
-11.351163813845391
 20
-138.99848161068738
 30
0.0
  0
VERTEX
  8
0
  6
CONTINUOUS
 62
               3
  5
2FA
 10
-11.272096284374749
 20
-138.94827349570042
 30
0.0
  0
VERTEX
  8
0
  6
CONTINUOUS
 62
               3
  5
2FB
 10
-11.193897212108185
 20
-138.89643741076102
 30
0.0
  0
VERTEX
  8
0
  6
CONTINUOUS
 62
               3
  5
2FC
 10
-11.116594151595034
 20
-138.84299162104705
 30
0.0
  0
VERTEX
  8
0
  6
CONTINUOUS
 62
               3
  5
2FD
 10
-11.040214341662214
 20
-138.78795495893851
 30
0.0
  0
VERTEX
  8
0
  6
CONTINUOUS
 62
               3
  5
2FE
 10
-10.964784695816238
 20
-138.73134681738188
 30
0.0
  0
VERTEX
  8
0
  6
CONTINUOUS
 62
               3
  5
2FF
 10
-10.890331792759868
 20
-138.67318714305662
 30
0.0
  0
VERTEX
  8
0
  6
CONTINUOUS
 62
               3
  5
300
 10
-10.816881867026719
 20
-138.61349642934675
 30
0.0
  0
VERTEX
  8
0
  6
CONTINUOUS
 62
               3
  5
301
 10
-10.744460799737166
 20
-138.55229570911962
 30
0.0
  0
VERTEX
  8
0
  6
CONTINUOUS
 62
               3
  5
302
 10
-10.673094109478747
 20
-138.48960654731476
 30
0.0
  0
VERTEX
  8
0
  6
CONTINUOUS
 62
               3
  5
303
 10
-10.602806943314349
 20
-138.42545103334515
 30
0.0
  0
VERTEX
  8
0
  6
CONTINUOUS
 62
               3
  5
304
 10
-10.533624067921263
 20
-138.35985177331369
 30
0.0
  0
VERTEX
  8
0
  6
CONTINUOUS
 62
               3
  5
305
 10
-10.465569860864314
 20
-138.29283188204764
 30
0.0
  0
VERTEX
  8
0
  6
CONTINUOUS
 62
               3
  5
306
 10
-10.398668302006064
 20
-138.22441497495376
 30
0.0
  0
VERTEX
  8
0
  6
CONTINUOUS
 62
               3
  5
307
 10
-10.332942965057184
 20
-138.1546251596971
 30
0.0
  0
VERTEX
  8
0
  6
CONTINUOUS
 62
               3
  5
308
 10
-10.268417009269911
 20
-138.08348702770633
 30
0.0
  0
VERTEX
  8
0
  6
CONTINUOUS
 62
               3
  5
309
 10
-10.205113171277565
 20
-138.01102564550862
 30
0.0
  0
VERTEX
  8
0
  6
CONTINUOUS
 62
               3
  5
30A
 10
-10.143053757082974
 20
-137.93726654589702
 30
0.0
  0
VERTEX
  8
0
  6
CONTINUOUS
 62
               3
  5
30B
 10
-10.082260634198635
 20
-137.86223571893368
 30
0.0
  0
VERTEX
  8
0
  6
CONTINUOUS
 62
               3
  5
30C
 10
-10.022755223941388
 20
-137.78595960279188
 30
0.0
  0
VERTEX
  8
0
  6
CONTINUOUS
 62
               3
  5
30D
 10
-9.964558493884315
 20
-137.70846507444017
 30
0.0
  0
VERTEX
  8
0
  6
CONTINUOUS
 62
               3
  5
30E
 10
-9.9076909504685133
 20
-137.62977944017192
 30
0.0
  0
VERTEX
  8
0
  6
CONTINUOUS
 62
               3
  5
30F
 10
-9.8521726317773695
 20
-137.54993042598338
 30
0.0
  0
VERTEX
  8
0
  6
CONTINUOUS
 62
               3
  5
310
 10
-9.7980231004758451
 20
-137.46894616780432
 30
0.0
  0
VERTEX
  8
0
  6
CONTINUOUS
 62
               3
  5
311
 10
-9.745261436917307
 20
-137.3868552015837
 30
0.0
  0
VERTEX
  8
0
  6
CONTINUOUS
 62
               3
  5
312
 10
-9.6939062324202876
 20
-137.30368645323477
 30
0.0
  0
VERTEX
  8
0
  6
CONTINUOUS
 62
               3
  5
313
 10
-9.643975582717573
 20
-137.21946922844251
 30
0.0
  0
VERTEX
  8
0
  6
CONTINUOUS
 62
               3
  5
314
 10
-9.5954870815799183
 20
-137.13423320233744
 30
0.0
  0
VERTEX
  8
0
  6
CONTINUOUS
 62
               3
  5
315
 10
-9.5484578146166239
 20
-137.04800840903914
 30
0.0
  0
VERTEX
  8
0
  6
CONTINUOUS
 62
               3
  5
316
 10
-9.5029043532551931
 20
-136.96082523107327
 30
0.0
  0
VERTEX
  8
0
  6
CONTINUOUS
 62
               3
  5
317
 10
-9.458842748902148
 20
-136.87271438866591
 30
0.0
  0
VERTEX
  8
0
  6
CONTINUOUS
 62
               3
  5
318
 10
-9.4162885272870831
 20
-136.7837069289188
 30
0.0
  0
VERTEX
  8
0
  6
CONTINUOUS
 62
               3
  5
319
 10
-9.375256682991969
 20
-136.6938342148695
 30
0.0
  0
VERTEX
  8
0
  6
CONTINUOUS
 62
               3
  5
31A
 10
-9.3357616741675873
 20
-136.60312791444019
 30
0.0
  0
VERTEX
  8
0
  6
CONTINUOUS
 62
               3
  5
31B
 10
-9.2978174174390027
 20
-136.51161998927896
 30
0.0
  0
VERTEX
  8
0
  6
CONTINUOUS
 62
               3
  5
31C
 10
-9.2614372830018397
 20
-136.41934268349772
 30
0.0
  0
VERTEX
  8
0
  6
CONTINUOUS
 62
               3
  5
31D
 10
-9.2266340899111103
 20
-136.32632851231054
 30
0.0
  0
VERTEX
  8
0
  6
CONTINUOUS
 62
               3
  5
31E
 10
-9.1934201015642323
 20
-136.23261025057644
 30
0.0
  0
VERTEX
  8
0
  6
CONTINUOUS
 62
               3
  5
31F
 10
-9.1618070213798539
 20
-136.13822092125073
 30
0.0
  0
VERTEX
  8
0
  6
CONTINUOUS
 62
               3
  5
320
 10
-9.1318059886739817
 20
-136.04319378374882
 30
0.0
  0
VERTEX
  8
0
  6
CONTINUOUS
 62
               3
  5
321
 10
-9.1034275747348907
 20
-135.94756232222687
 30
0.0
  0
VERTEX
  8
0
  6
CONTINUOUS
 62
               3
  5
322
 10
-9.0766817790981822
 20
-135.85136023378323
 30
0.0
  0
VERTEX
  8
0
  6
CONTINUOUS
 62
               3
  5
323
 10
-9.0515780260232983
 20
-135.7546214165846
 30
0.0
  0
VERTEX
  8
0
  6
CONTINUOUS
 62
               3
  5
324
 10
-9.0281251611727598
 20
-135.65737995792171
 30
0.0
  0
VERTEX
  8
0
  6
CONTINUOUS
 62
               3
  5
325
 10
-9.0063314484952635
 20
-135.55967012219816
 30
0.0
  0
VERTEX
  8
0
  6
CONTINUOUS
 62
               3
  5
326
 10
-8.98620456731377
 20
-135.46152633885674
 30
0.0
  0
VERTEX
  8
0
  6
CONTINUOUS
 62
               3
  5
327
 10
-8.9677516096195866
 20
-135.36298319024792
 30
0.0
  0
VERTEX
  8
0
  6
CONTINUOUS
 62
               3
  5
328
 10
-8.9509790775733933
 20
-135.26407539944412
 30
0.0
  0
VERTEX
  8
0
  6
CONTINUOUS
 62
               3
  5
329
 10
-8.9358928812141247
 20
-135.16483781800457
 30
0.0
  0
VERTEX
  8
0
  6
CONTINUOUS
 62
               3
  5
32A
 10
-8.9224983363764814
 20
-135.06530541369494
 30
0.0
  0
VERTEX
  8
0
  6
CONTINUOUS
 62
               3
  5
32B
 10
-8.9108001628178179
 20
-134.96551325816591
 30
0.0
  0
VERTEX
  8
0
  6
CONTINUOUS
 62
               3
  5
32C
 10
-8.9008024825550756
 20
-134.86549651459515
 30
0.0
  0
VERTEX
  8
0
  6
CONTINUOUS
 62
               3
  5
32D
 10
-8.8925088184123204
 20
-134.76529042529714
 30
0.0
  0
VERTEX
  8
0
  6
CONTINUOUS
 62
               3
  5
32E
 10
-8.8859220927794418
 20
-134.66493029930493
 30
0.0
  0
VERTEX
  8
0
  6
CONTINUOUS
 62
               3
  5
32F
 10
-8.881044626582387
 20
-134.56445149992868
 30
0.0
  0
VERTEX
  8
0
  6
CONTINUOUS
 62
               3
  5
330
 10
-8.8778781384653751
 20
-134.46388943229471
 30
0.0
  0
VERTEX
  8
0
  6
CONTINUOUS
 62
               3
  5
331
 10
-8.8764237441852849
 20
-134.36327953087013
 30
0.0
  0
VERTEX
  8
0
  6
CONTINUOUS
 62
               3
  5
332
 10
-8.8766819562185137
 20
-134.26265724697697
 30
0.0
  0
VERTEX
  8
0
  6
CONTINUOUS
 62
               3
  5
333
 10
-8.8786526835804018
 20
-134.16205803630041
 30
0.0
  0
VERTEX
  8
0
  6
CONTINUOUS
 62
               3
  5
334
 10
-8.882335231857283
 20
-134.06151734639536
 30
0.0
  0
VERTEX
  8
0
  6
CONTINUOUS
 62
               3
  5
335
 10
-8.8877283034511763
 20
-133.96107060419624
 30
0.0
  0
VERTEX
  8
0
  6
CONTINUOUS
 62
               3
  5
336
 10
-8.894829998037018
 20
-133.86075320353356
 30
0.0
  0
VERTEX
  8
0
  6
CONTINUOUS
 62
               3
  5
337
 10
-8.9036378132322582
 20
-133.7606004926626
 30
0.0
  0
VERTEX
  8
0
  6
CONTINUOUS
 62
               3
  5
338
 10
-8.9141486454786119
 20
-133.66064776180781
 30
0.0
  0
VERTEX
  8
0
  6
CONTINUOUS
 62
               3
  5
339
 10
-8.9263587911356517
 20
-133.56093023072782
 30
0.0
  0
SEQEND
  8
0
  6
CONTINUOUS
 62
               3
  5
33A
  0
LINE
  8
0
  6
CONTINUOUS
 62
               3
  5
192
 10
-17.706798990441712
 20
-116.94067791936084
 30
0.0
 11
-14.771338174329685
 21
-120.43169705096045
 31
0.0
  0
LINE
  8
0
  6
CONTINUOUS
 62
               3
  5
193
 10
88.947004608294719
 20
-188.99759818575546
 30
0.0
 11
4.965783750807077
 21
-188.99759818575546
 31
0.0
  0
LINE
  8
0
  6
CONTINUOUS
 62
               3
  5
194
 10
473.44700460829517
 20
-12.470302062212788
 30
0.0
 11
473.44700460829517
 21
-27.784588987638351
 31
0.0
  0
LINE
  8
0
  6
CONTINUOUS
 62
               3
  5
195
 10
595.44700460829472
 20
-12.470302062212788
 30
0.0
 11
595.44700460829472
 21
-27.784588987638351
 31
0.0
  0
LINE
  8
0
  6
CONTINUOUS
 62
               3
  5
196
 10
593.44700460829472
 20
-31.784588987638237
 30
0.0
 11
593.44700460829472
 21
-95.368714158874582
 31
0.0
  0
ARC
  8
0
  6
CONTINUOUS
 62
               3
  5
197
 10
598.44700460829472
 20
-31.784588987638237
 30
0.0
 40
5.0
 50
126.86989764584376
 51
179.9999999999996
  0
LINE
  8
0
  6
CONTINUOUS
 62
               3
  5
198
 10
588.94700460829517
 20
-105.20487194532745
 30
0.0
 11
588.94700460829517
 21
-188.99759818575546
 31
0.0
  0
ARC
  8
0
  6
CONTINUOUS
 62
               3
  5
199
 10
593.94700460829517
 20
-105.20487194532745
 30
0.0
 40
5.0
 50
130.83221702746897
 51
179.9999999999996
  0
LINE
  8
0
  6
CONTINUOUS
 62
               3
  5
19A
 10
588.94700460829517
 20
-188.99759818575546
 30
0.0
 11
579.94700460829472
 21
-234.24365361488887
 31
0.0
  0
ARC
  8
0
  6
CONTINUOUS
 62
               3
  5
19B
 10
585.44700460829472
 20
-95.368714158874582
 30
0.0
 40
8.0
 50
310.83221702746829
 51
359.9999999999992
  0
LINE
  8
0
  6
CONTINUOUS
 62
               3
  5
19C
 10
475.44700460829472
 20
-31.784588987638237
 30
0.0
 11
475.44700460829472
 21
-95.368714158874468
 31
0.0
  0
ARC
  8
0
  6
CONTINUOUS
 62
               3
  5
19D
 10
470.44700460829472
 20
-31.784588987638237
 30
0.0
 40
5.0
 50
359.9999999999992
 51
413.13010235415504
  0
ARC
  8
0
  6
CONTINUOUS
 62
               3
  5
19E
 10
474.94700460829472
 20
-105.20487194532745
 30
0.0
 40
5.0
 50
359.9999999999992
 51
409.16778297252984
  0
ARC
  8
0
  6
CONTINUOUS
 62
               3
  5
19F
 10
483.44700460829472
 20
-95.368714158874468
 30
0.0
 40
8.0
 50
179.9999999999996
 51
229.16778297253049
  0
LINE
  8
0
  6
CONTINUOUS
 62
               3
  5
1A0
 10
479.94700460829472
 20
-105.20487194532745
 30
0.0
 11
479.94700460829472
 21
-188.99759818575546
 31
0.0
  0
LINE
  8
0
  6
CONTINUOUS
 62
               3
  5
1A1
 10
479.94700460829472
 20
-188.99759818575546
 30
0.0
 11
488.94700460829517
 21
-234.24365361488933
 31
0.0
  0
LINE
  8
0
  6
CONTINUOUS
 62
               3
  5
1A2
 10
595.44700460829517
 20
-12.470302062212788
 30
0.0
 11
473.44700460829517
 21
-12.470302062212788
 31
0.0
  0
LINE
  8
0
  6
CONTINUOUS
 62
               3
  5
1A3
 10
595.44700460829472
 20
-27.784588987638351
 30
0.0
 11
473.44700460829517
 21
-27.784588987638351
 31
0.0
  0
LINE
  8
0
  6
CONTINUOUS
 62
               3
  5
1A4
 10
576.94822295424001
 20
-298.47030206221285
 30
0.0
 11
491.94578626234988
 21
-298.47030206221274
 31
0.0
  0
LINE
  8
0
  6
CONTINUOUS
 62
               3
  5
1A5
 10
578.94700460829472
 20
-238.47030206221277
 30
0.0
 11
489.94700460829472
 21
-238.47030206221277
 31
0.0
  0
LINE
  8
0
  6
CONTINUOUS
 62
               3
  5
1A6
 10
578.94700460829472
 20
-238.47030206221288
 30
0.0
 11
579.94700460829472
 21
-237.47030206221265
 31
0.0
  0
LINE
  8
0
  6
CONTINUOUS
 62
               3
  5
1A7
 10
579.94700460829472
 20
-234.31345260829366
 30
0.0
 11
579.94700460829472
 21
-237.47030206221265
 31
0.0
  0
LINE
  8
0
  6
CONTINUOUS
 62
               3
  5
1A8
 10
578.94700460829472
 20
-238.47030206221288
 30
0.0
 11
578.94700460829472
 21
-296.54010105561821
 31
0.0
  0
LINE
  8
0
  6
CONTINUOUS
 62
               3
  5
1A9
 10
576.94822295424001
 20
-298.47030206221285
 30
0.0
 11
578.94700460829472
 21
-296.54010105561821
 31
0.0
  0
LINE
  8
0
  6
CONTINUOUS
 62
               3
  5
1AA
 10
491.94578626234988
 20
-298.47030206221274
 30
0.0
 11
489.94700460829472
 21
-296.54010105561821
 31
0.0
  0
LINE
  8
0
  6
CONTINUOUS
 62
               3
  5
1AB
 10
489.94700460829472
 20
-238.47030206221288
 30
0.0
 11
489.94700460829472
 21
-296.54010105561821
 31
0.0
  0
LINE
  8
0
  6
CONTINUOUS
 62
               3
  5
1AC
 10
579.94700460829472
 20
-237.47030206221265
 30
0.0
 11
488.94700460829517
 21
-237.47030206221265
 31
0.0
  0
LINE
  8
0
  6
CONTINUOUS
 62
               3
  5
1AD
 10
579.94700460829472
 20
-234.24365361488887
 30
0.0
 11
488.94700460829517
 21
-234.24365361488887
 31
0.0
  0
LINE
  8
0
  6
CONTINUOUS
 62
               3
  5
1AE
 10
489.94700460829517
 20
-238.47030206221288
 30
0.0
 11
488.94700460829517
 21
-237.47030206221265
 31
0.0
  0
LINE
  8
0
  6
CONTINUOUS
 62
               3
  5
1AF
 10
488.94700460829517
 20
-234.24365361488978
 30
0.0
 11
488.94700460829517
 21
-237.47030206221265
 31
0.0
  0
LINE
  8
0
  6
CONTINUOUS
 62
               3
  5
1B0
 10
578.94700460829472
 20
-296.54010105561821
 30
0.0
 11
489.94700460829472
 21
-296.54010105561821
 31
0.0
  0
LINE
  8
0
  6
CONTINUOUS
 62
               3
  5
1B1
 10
-404.55299539170528
 20
-12.470302062212788
 30
0.0
 11
-404.55299539170528
 21
-27.784588987638124
 31
0.0
  0
LINE
  8
0
  6
CONTINUOUS
 62
               3
  5
1B2
 10
-526.55299539170517
 20
-12.470302062212788
 30
0.0
 11
-526.55299539170517
 21
-27.784588987638124
 31
0.0
  0
LINE
  8
0
  6
CONTINUOUS
 62
               3
  5
1B3
 10
-524.55299539170517
 20
-31.784588987638237
 30
0.0
 11
-524.55299539170517
 21
-95.368714158874582
 31
0.0
  0
ARC
  8
0
  6
CONTINUOUS
 62
               3
  5
1B4
 10
-529.55299539170517
 20
-31.784588987638237
 30
0.0
 40
5.0
 50
0.0
 51
53.130102354155852
  0
LINE
  8
0
  6
CONTINUOUS
 62
               3
  5
1B5
 10
-520.05299539170517
 20
-105.20487194532745
 30
0.0
 11
-520.05299539170517
 21
-188.99759818575546
 31
0.0
  0
ARC
  8
0
  6
CONTINUOUS
 62
               3
  5
1B6
 10
-525.05299539170517
 20
-105.20487194532745
 30
0.0
 40
5.0
 50
0.0
 51
49.167782972530624
  0
LINE
  8
0
  6
CONTINUOUS
 62
               3
  5
1B7
 10
-520.05299539170517
 20
-188.99759818575546
 30
0.0
 11
-511.05299539170494
 21
-234.24365361488887
 31
0.0
  0
ARC
  8
0
  6
CONTINUOUS
 62
               3
  5
1B8
 10
-516.55299539170517
 20
-95.368714158874582
 30
0.0
 40
8.0
 50
179.9999999999996
 51
229.16778297253052
  0
LINE
  8
0
  6
CONTINUOUS
 62
               3
  5
1B9
 10
-406.55299539170528
 20
-31.784588987638237
 30
0.0
 11
-406.55299539170528
 21
-95.368714158874468
 31
0.0
  0
ARC
  8
0
  6
CONTINUOUS
 62
               3
  5
1BA
 10
-401.55299539170528
 20
-31.784588987638237
 30
0.0
 40
5.0
 50
126.86989764584376
 51
179.9999999999996
  0
ARC
  8
0
  6
CONTINUOUS
 62
               3
  5
1BB
 10
-406.05299539170528
 20
-105.20487194532745
 30
0.0
 40
5.0
 50
130.83221702746897
 51
179.9999999999996
  0
ARC
  8
0
  6
CONTINUOUS
 62
               3
  5
1BC
 10
-414.55299539170528
 20
-95.368714158874468
 30
0.0
 40
8.0
 50
310.83221702746829
 51
359.9999999999992
  0
LINE
  8
0
  6
CONTINUOUS
 62
               3
  5
1BD
 10
-411.05299539170528
 20
-105.20487194532745
 30
0.0
 11
-411.05299539170528
 21
-188.99759818575546
 31
0.0
  0
LINE
  8
0
  6
CONTINUOUS
 62
               3
  5
1BE
 10
-411.05299539170528
 20
-188.99759818575546
 30
0.0
 11
-420.05299539170528
 21
-234.24365361488933
 31
0.0
  0
LINE
  8
0
  6
CONTINUOUS
 62
               3
  5
1BF
 10
-526.55299539170517
 20
-12.470302062212788
 30
0.0
 11
-404.55299539170528
 21
-12.470302062212788
 31
0.0
  0
LINE
  8
0
  6
CONTINUOUS
 62
               3
  5
1C0
 10
-526.55299539170517
 20
-27.784588987638124
 30
0.0
 11
-404.55299539170528
 21
-27.784588987638124
 31
0.0
  0
LINE
  8
0
  6
CONTINUOUS
 62
               3
  5
1C1
 10
-508.05421373765046
 20
-298.47030206221285
 30
0.0
 11
-423.05177704575999
 21
-298.47030206221274
 31
0.0
  0
LINE
  8
0
  6
CONTINUOUS
 62
               3
  5
1C2
 10
-510.05299539170517
 20
-238.47030206221277
 30
0.0
 11
-421.05299539170528
 21
-238.47030206221277
 31
0.0
  0
POINT
  8
0
  6
CONTINUOUS
 62
               3
  5
1C3
 10
-465.55299539170528
 20
-127.65959641730615
 30
0.0
  0
ARC
  8
0
  6
CONTINUOUS
 62
               3
  5
1C4
 10
-579.97826630637553
 20
-240.53798037162673
 30
0.0
 40
171.22836028630022
 50
38.037080543382451
 51
44.518937330845311
  0
ARC
  8
0
  6
CONTINUOUS
 62
               3
  5
1C5
 10
-467.23126659163336
 20
-167.52060956591606
 30
0.0
 40
32.449781147054203
 50
57.718303819275484
 51
87.035395216284186
  0
ARC
  8
0
  6
CONTINUOUS
 62
               3
  5
1C6
 10
-465.55299539170528
 20
-127.65959641730615
 30
0.0
 40
10.5
 50
43.12350611602475
 51
142.53481174119005
  0
LINE
  8
0
  6
CONTINUOUS
 62
               3
  5
1C7
 10
-465.55299539170528
 20
-129.081879476072
 30
0.0
 11
-449.88088999112279
 21
-140.0556058171768
 31
0.0
  0
LINE
  8
0
  6
CONTINUOUS
 62
               3
  5
1C8
 10
-465.55299539170528
 20
-118.54917050375843
 30
0.0
 11
-465.55299539170528
 21
-129.0818794265798
 31
0.0
  0
ARC
  8
0
  6
CONTINUOUS
 62
               3
  5
1C9
 10
-447.87337246389416
 20
-137.18857366216537
 30
0.0
 40
3.5000000000000004
 50
235.00000000000003
 51
398.03708054338199
  0
LINE
  8
0
  6
CONTINUOUS
 62
               3
  5
1CA
 10
-510.05299539170517
 20
-238.47030206221288
 30
0.0
 11
-511.05299539170494
 21
-237.47030206221265
 31
0.0
  0
LINE
  8
0
  6
CONTINUOUS
 62
               3
  5
1CB
 10
-511.05299539170494
 20
-234.31345260829366
 30
0.0
 11
-511.05299539170494
 21
-237.47030206221265
 31
0.0
  0
LINE
  8
0
  6
CONTINUOUS
 62
               3
  5
1CC
 10
-510.05299539170517
 20
-238.47030206221288
 30
0.0
 11
-510.05299539170517
 21
-296.54010105561821
 31
0.0
  0
LINE
  8
0
  6
CONTINUOUS
 62
               3
  5
1CD
 10
-508.05421373765046
 20
-298.47030206221285
 30
0.0
 11
-510.05299539170517
 21
-296.54010105561821
 31
0.0
  0
LINE
  8
0
  6
CONTINUOUS
 62
               3
  5
1CE
 10
-423.05177704575999
 20
-298.47030206221274
 30
0.0
 11
-421.05299539170528
 21
-296.54010105561821
 31
0.0
  0
LINE
  8
0
  6
CONTINUOUS
 62
               3
  5
1CF
 10
-421.05299539170528
 20
-238.47030206221288
 30
0.0
 11
-421.05299539170528
 21
-296.54010105561821
 31
0.0
  0
LINE
  8
0
  6
CONTINUOUS
 62
               3
  5
1D0
 10
-511.05299539170494
 20
-237.47030206221265
 30
0.0
 11
-420.05299539170528
 21
-237.47030206221265
 31
0.0
  0
LINE
  8
0
  6
CONTINUOUS
 62
               3
  5
1D1
 10
-511.05299539170494
 20
-234.24365361488887
 30
0.0
 11
-420.05299539170528
 21
-234.24365361488887
 31
0.0
  0
LINE
  8
0
  6
CONTINUOUS
 62
               3
  5
1D2
 10
-421.05299539170528
 20
-238.47030206221288
 30
0.0
 11
-420.05299539170528
 21
-237.47030206221265
 31
0.0
  0
LINE
  8
0
  6
CONTINUOUS
 62
               3
  5
1D3
 10
-420.05299539170528
 20
-234.24365361488978
 30
0.0
 11
-420.05299539170528
 21
-237.47030206221265
 31
0.0
  0
LINE
  8
0
  6
CONTINUOUS
 62
               3
  5
1D4
 10
-510.05299539170517
 20
-296.54010105561821
 30
0.0
 11
-421.05299539170528
 21
-296.54010105561821
 31
0.0
  0
CIRCLE
  8
0
  6
CONTINUOUS
 62
               3
  5
1D5
 10
-465.55299539170528
 20
-188.4703020622128
 30
0.0
 40
43.078500000000012
  0
LINE
  8
0
  6
CONTINUOUS
 62
               3
  5
1D6
 10
-482.17376553029987
 20
-170.47030206221268
 30
0.0
 11
-448.93222525311057
 21
-170.47030206221268
 31
0.0
  0
CIRCLE
  8
0
  6
CONTINUOUS
 62
               3
  5
1D7
 10
-465.55299539170528
 20
-188.4703020622128
 30
0.0
 40
34.100000000000001
  0
CIRCLE
  8
0
  6
CONTINUOUS
 62
               3
  5
1D8
 10
-465.55299539170528
 20
-188.4703020622128
 30
0.0
 40
28.650000000000002
  0
CIRCLE
  8
0
  6
CONTINUOUS
 62
               3
  5
1D9
 10
-465.55299539170528
 20
-188.4703020622128
 30
0.0
 40
33.0
  0
CIRCLE
  8
0
  6
CONTINUOUS
 62
               3
  5
1DA
 10
-465.55299539170528
 20
-188.4703020622128
 30
0.0
 40
24.5
  0
LINE
  8
0
  6
CONTINUOUS
 62
               3
  5
1DB
 10
-487.11975221789487
 20
-210.03705888840227
 30
0.0
 11
-488.88751917086086
 21
-211.80482584136928
 31
0.0
  0
LINE
  8
0
  6
CONTINUOUS
 62
               3
  5
1DC
 10
-443.98623856551558
 20
-210.03705888840227
 30
0.0
 11
-442.21847161254937
 21
-211.80482584136894
 31
0.0
  0
ARC
  8
0
  6
CONTINUOUS
 62
               3
  5
1DD
 10
-465.55299539170528
 20
-188.47030206221257
 30
0.0
 40
30.500000000000004
 50
224.99999999999949
 51
314.99999999999937
  0
LINE
  8
0
  6
CONTINUOUS
 62
               3
  5
1DE
 10
-80.052995391705281
 20
276.4598826032294
 30
0.0
 11
-79.381439265740937
 21
276.4598826032294
 31
0.0
  0
LINE
  8
0
  6
CONTINUOUS
 62
               3
  5
1DF
 10
-77.052995391704826
 20
192.63143872919352
 30
0.0
 11
-77.052995391704826
 21
278.78832647726438
 31
0.0
  0
LINE
  8
0
  6
CONTINUOUS
 62
               3
  5
1E0
 10
-80.052995391705281
 20
194.95988260322918
 30
0.0
 11
-79.381439265740937
 21
194.95988260322918
 31
0.0
  0
LINE
  8
0
  6
CONTINUOUS
 62
               3
  5
1E1
 10
-77.052995391704826
 20
278.78832647726438
 30
0.0
 11
-79.381439265740937
 21
276.4598826032294
 31
0.0
  0
LINE
  8
0
  6
CONTINUOUS
 62
               3
  5
1E2
 10
-77.052995391704826
 20
192.63143872919352
 30
0.0
 11
-79.381439265740937
 21
194.95988260322918
 31
0.0
  0
LINE
  8
0
  6
CONTINUOUS
 62
               3
  5
1E3
 10
-79.381439265740937
 20
276.4598826032294
 30
0.0
 11
-79.381439265740937
 21
194.95988260322918
 31
0.0
  0
LINE
  8
0
  6
CONTINUOUS
 62
               3
  5
1E4
 10
-85.052995391705281
 20
276.28832647726472
 30
0.0
 11
-85.052995391705281
 21
195.13143872919352
 31
0.0
  0
LINE
  8
0
  6
CONTINUOUS
 62
               3
  5
1E5
 10
-80.052995391705281
 20
192.63143872919352
 30
0.0
 11
-80.052995391705281
 21
278.78832647726472
 31
0.0
  0
LINE
  8
0
  6
CONTINUOUS
 62
               3
  5
1E6
 10
-80.052995391705281
 20
278.78832647726472
 30
0.0
 11
-82.552995391705281
 21
278.78832647726472
 31
0.0
  0
LINE
  8
0
  6
CONTINUOUS
 62
               3
  5
1E7
 10
-80.052995391705281
 20
192.63143872919352
 30
0.0
 11
-82.552995391705281
 21
192.63143872919352
 31
0.0
  0
ARC
  8
0
  6
CONTINUOUS
 62
               3
  5
1E8
 10
-82.552995391705281
 20
195.13143872919352
 30
0.0
 40
2.5
 50
179.9999999999996
 51
269.99999999999937
  0
ARC
  8
0
  6
CONTINUOUS
 62
               3
  5
1E9
 10
-82.552995391705281
 20
276.28832647726472
 30
0.0
 40
2.5
 50
89.999999999999801
 51
179.9999999999996
  0
LINE
  8
0
  6
CONTINUOUS
 62
               3
  5
1EA
 10
-6.1202116874997046
 20
190.15441134005118
 30
0.0
 11
-77.052995391704826
 21
192.63143872919352
 31
0.0
  0
LINE
  8
0
  6
CONTINUOUS
 62
               3
  5
1EB
 10
-6.1202116874987951
 20
281.26535386640774
 30
0.0
 11
-77.052995391704826
 21
278.78832647726438
 31
0.0
  0
LINE
  8
0
  6
CONTINUOUS
 62
               3
  5
1EC
 10
14.447004608294721
 20
203.98843875210525
 30
0.0
 11
14.447004608294721
 21
267.43132645435287
 31
0.0
  0
CIRCLE
  8
0
  6
CONTINUOUS
 62
               3
  5
1ED
 10
34.447004608294719
 20
235.70988260322906
 30
0.0
 40
61.000000000000007
  0
ARC
  8
0
  6
CONTINUOUS
 62
               3
  5
1EE
 10
-23.052995391705281
 20
-140.50430800272602
 30
0.0
 40
3.0
 50
272.00000000000006
 51
359.9999999999992
  0
ARC
  8
0
  6
CONTINUOUS
 62
               3
  5
1EF
 10
-13.052995391705281
 20
-235.7848942723177
 30
0.0
 40
2.0
 50
0.0
 51
87.999999999999957
  0
CIRCLE
  8
0
  6
CONTINUOUS
 62
               3
  5
1F0
 10
534.44700460829472
 20
-147.47030206221291
 30
0.0
 40
39.0
  0
CIRCLE
  8
0
  6
CONTINUOUS
 62
               3
  5
1F1
 10
534.44700460829472
 20
-147.47030206221291
 30
0.0
 40
25.500000000000004
  0
ARC
  8
0
  6
CONTINUOUS
 62
               3
  5
1F2
 10
93.947004608294719
 20
-105.44135934536837
 30
0.0
 40
5.0
 50
130.83221702746897
 51
168.16798981129037
  0
LINE
  8
0
  6
CONTINUOUS
 62
               3
  5
1F3
 10
95.981904104997284
 20
-108.43660001000092
 30
0.0
 11
93.76641725043055
 21
-108.35923350424048
 31
0.0
  0
LINE
  8
0
  6
CONTINUOUS
 62
               3
  5
1F4
 10
95.987993979347721
 20
-186.67839529878518
 30
0.0
 11
93.366657085026418
 21
-186.76993440023205
 31
0.0
  0
LINE
  8
0
  6
CONTINUOUS
 62
               3
  5
1F5
 10
96.947004608294719
 20
-109.43599083701997
 30
0.0
 11
96.947004608294719
 21
-154.43488698898352
 31
0.0
  0
LINE
  8
0
  6
CONTINUOUS
 62
               3
  5
1F6
 10
96.947004608294719
 20
-147.47030206221291
 30
0.0
 11
96.947004608294719
 21
-185.50461328740585
 31
0.0
  0
ARC
  8
0
  6
CONTINUOUS
 62
               3
  5
1F7
 10
95.947004608294719
 20
-109.43599083701997
 30
0.0
 40
1.0
 50
0.0
 51
88.000000000000213
  0
ARC
  8
0
  6
CONTINUOUS
 62
               3
  5
1F8
 10
95.947004608294719
 20
-185.50461328740585
 30
0.0
 40
1.0
 50
271.99999999999898
 51
359.9999999999992
  0
ARC
  8
0
  6
CONTINUOUS
 62
               3
  5
1F9
 10
93.940914733942918
 20
-103.36227936914509
 30
0.0
 40
5.0
 50
192.1676616347514
 51
267.99999999999932
  0
ARC
  8
0
  6
CONTINUOUS
 62
               3
  5
1FA
 10
93.541154568538786
 20
-191.76688853532755
 30
0.0
 40
5.0
 50
91.999999999999545
 51
168.75000000000017
  0
LINE
  8
0
  6
CONTINUOUS
 62
               3
  5
1FB
 10
88.637228166522618
 20
-190.79143692524701
 30
0.0
 11
79.947004608294719
 21
-234.48014101492899
 31
0.0
  0
ARC
  8
0
  6
CONTINUOUS
 62
               3
  5
1FC
 10
85.447004608294719
 20
-95.605201558915383
 30
0.0
 40
8.0
 50
310.83221702746829
 51
359.9999999999992
  0
LINE
  8
0
  6
CONTINUOUS
 62
               3
  5
1FD
 10
95.981904104997284
 20
274.74358465544117
 30
0.0
 11
80.878873587708767
 21
275.27099410276253
 31
0.0
  0
LINE
  8
0
  6
CONTINUOUS
 62
               3
  5
1FE
 10
95.987993979347721
 20
196.50178936665679
 30
0.0
 11
80.724922132098072
 21
195.96879115294257
 31
0.0
  0
LINE
  8
0
  6
CONTINUOUS
 62
               3
  5
1FF
 10
96.947004608294719
 20
273.744193828422
 30
0.0
 11
96.947004608294719
 21
228.74529767645856
 31
0.0
  0
LINE
  8
0
  6
CONTINUOUS
 62
               3
  5
200
 10
96.947004608294719
 20
235.70988260322906
 30
0.0
 11
96.947004608294719
 21
197.67557137803624
 31
0.0
  0
ARC
  8
0
  6
CONTINUOUS
 62
               3
  5
201
 10
95.947004608294719
 20
273.744193828422
 30
0.0
 40
1.0
 50
0.0
 51
88.000000000000213
  0
ARC
  8
0
  6
CONTINUOUS
 62
               3
  5
202
 10
95.947004608294719
 20
197.67557137803624
 30
0.0
 40
1.0
 50
271.99999999999898
 51
359.9999999999992
  0
LINE
  8
0
  6
CONTINUOUS
 62
               3
  5
203
 10
-465.55299539170528
 20
-129.081879476072
 30
0.0
 11
-481.22510079228778
 21
-140.0556058171768
 31
0.0
  0
ARC
  8
0
  6
CONTINUOUS
 62
               3
  5
204
 10
-351.12772447703503
 20
-240.53798037162673
 30
0.0
 40
171.22836028630022
 50
135.48106266915431
 51
141.96291945661716
  0
ARC
  8
0
  6
CONTINUOUS
 62
               3
  5
205
 10
-483.2326183195164
 20
-137.18857366216537
 30
0.0
 40
3.5000000000000004
 50
141.96291945661679
 51
304.99999999999869
  0
ARC
  8
0
  6
CONTINUOUS
 62
               3
  5
206
 10
-463.8747241917772
 20
-167.52060956591606
 30
0.0
 40
32.449781147054203
 50
92.96460478371543
 51
122.28169618072413
  0
CIRCLE
  8
0
  6
CONTINUOUS
 62
               3
  5
207
 10
34.447004608294719
 20
235.70988260322906
 30
0.0
 40
47.0
  0
CIRCLE
  8
0
  6
CONTINUOUS
 62
               3
  5
208
 10
34.447004608294719
 20
235.70988260322906
 30
0.0
 40
37.5
  0
INSERT
  8
0
  6
CONTINUOUS
  5
209
  2
GROUP_1
 10
0.0
 20
0.0
 30
0.0
  0
ENDSEC
  0
EOF
