  0
SECTION
  2
HEADER
  9
$ACADVER
  1
AC1009
  9
$INSBASE
 10
0.0
 20
0.0
 30
0.0
  9
$EXTMIN
 10
-702.85573046432864
 20
-1352.2733588953934
 30
0.0
  9
$EXTMAX
 10
745.64225368063171
 20
460.67486107859582
 30
0.0
  9
$LIMMIN
 10
-748.12129246885866
 20
-1408.9279907695804
  9
$LIMMAX
 10
790.90781568516172
 20
517.32949295278297
  9
$ORTHOMODE
 70
               0
  9
$REGENMODE
 70
               1
  9
$FILLMODE
 70
               1
  9
$QTEXTMODE
 70
               0
  9
$MIRRTEXT
 70
               1
  9
$DRAGMODE
 70
               2
  9
$LTSCALE
 40
1.0
  9
$OSMODE
 70
               0
  9
$ATTMODE
 70
               1
  9
$TEXTSIZE
 40
0.2
  9
$TRACEWID
 40
0.05
  9
$TEXTSTYLE
  7
STANDARD
  9
$CLAYER
  8
0
  9
$CELTYPE
  6
CONTINUOUS
  9
$CECOLOR
 62
             256
  9
$DIMSCALE
 40
1.0
  9
$DIMASZ
 40
0.18
  9
$DIMEXO
 40
0.0625
  9
$DIMDLI
 40
0.38
  9
$DIMRND
 40
0.0
  9
$DIMDLE
 40
0.0
  9
$DIMEXE
 40
0.18
  9
$DIMTP
 40
0.0
  9
$DIMTM
 40
0.0
  9
$DIMTXT
 40
0.18
  9
$DIMCEN
 40
0.09
  9
$DIMTSZ
 40
0.0
  9
$DIMTOL
 70
               0
  9
$DIMLIM
 70
               0
  9
$DIMTIH
 70
               1
  9
$DIMTOH
 70
               1
  9
$DIMSE1
 70
               0
  9
$DIMSE2
 70
               0
  9
$DIMTAD
 70
               0
  9
$DIMZIN
 70
               0
  9
$DIMBLK
  1

  9
$DIMASO
 70
               1
  9
$DIMSHO
 70
               1
  9
$DIMPOST
  1

  9
$DIMAPOST
  1

  9
$DIMALT
 70
               0
  9
$DIMALTD
 70
               2
  9
$DIMALTF
 40
25.399999999999999
  9
$DIMLFAC
 40
1.0
  9
$DIMTOFL
 70
               0
  9
$DIMTVP
 40
0.0
  9
$DIMTIX
 70
               0
  9
$DIMSOXD
 70
               0
  9
$DIMSAH
 70
               0
  9
$DIMBLK1
  1

  9
$DIMBLK2
  1

  9
$DIMSTYLE
  2
STANDARD
  9
$DIMCLRD
 70
               0
  9
$DIMCLRE
 70
               0
  9
$DIMCLRT
 70
               0
  9
$DIMTFAC
 40
1.0
  9
$DIMGAP
 40
0.09
  9
$LUNITS
 70
               2
  9
$LUPREC
 70
               4
  9
$AXISMODE
 70
               0
  9
$AXISUNIT
 10
0.0
 20
0.0
  9
$SKETCHINC
 40
0.1
  9
$FILLETRAD
 40
0.0
  9
$AUNITS
 70
               0
  9
$AUPREC
 70
               0
  9
$MENU
  1
acad
  9
$ELEVATION
 40
0.0
  9
$PELEVATION
 40
0.0
  9
$THICKNESS
 40
0.0
  9
$LIMCHECK
 70
               0
  9
$BLIPMODE
 70
               1
  9
$CHAMFERA
 40
0.0
  9
$CHAMFERB
 40
0.0
  9
$SKPOLY
 70
               0
  9
$TDCREATE
 40
0.000000000
  9
$TDUPDATE
 40
0.000000000
  9
$TDINDWG
 40
0.0000000000
  9
$TDUSRTIMER
 40
0.0000000000
  9
$USRTIMER
 70
               1
  9
$ANGBASE
 50
0.0
  9
$ANGDIR
 70
               0
  9
$PDMODE
 70
               0
  9
$PDSIZE
 40
1.0
  9
$PLINEWID
 40
0.0
  9
$COORDS
 70
               1
  9
$SPLFRAME
 70
               0
  9
$SPLINETYPE
 70
               6
  9
$SPLINESEGS
 70
               8
  9
$ATTDIA
 70
               0
  9
$ATTREQ
 70
               1
  9
$HANDLING
 70
               1
  9
$HANDSEED
  5
2F0
  9
$SURFTAB1
 70
               6
  9
$SURFTAB2
 70
               6
  9
$SURFTYPE
 70
               6
  9
$SURFU
 70
               6
  9
$SURFV
 70
               6
  9
$UCSNAME
  2

  9
$UCSORG
 10
0.0
 20
0.0
 30
0.0
  9
$UCSXDIR
 10
1.0
 20
0.0
 30
0.0
  9
$UCSYDIR
 10
0.0
 20
1.0
 30
0.0
  9
$PUCSNAME
  2

  9
$PUCSORG
 10
0.0
 20
0.0
 30
0.0
  9
$PUCSXDIR
 10
1.0
 20
0.0
 30
0.0
  9
$PUCSYDIR
 10
0.0
 20
1.0
 30
0.0
  9
$USERI1
 70
               0
  9
$USERI2
 70
               0
  9
$USERI3
 70
               0
  9
$USERI4
 70
               0
  9
$USERI5
 70
               0
  9
$USERR1
 40
0.0
  9
$USERR2
 40
0.0
  9
$USERR3
 40
0.0
  9
$USERR4
 40
0.0
  9
$USERR5
 40
0.0
  9
$WORLDVIEW
 70
               1
  9
$SHADEDGE
 70
               3
  9
$SHADEDIF
 70
              70
  9
$TILEMODE
 70
               1
  9
$MAXACTVP
 70
              16
  9
$PINSBASE
 10
0.0
 20
0.0
 30
0.0
  9
$PLIMCHECK
 70
               0
  9
$PEXTMIN
 10
1.0000000000000000E+20
 20
1.0000000000000000E+20
 30
1.0000000000000000E+20
  9
$PEXTMAX
 10
-1.0000000000000000E+20
 20
-1.0000000000000000E+20
 30
-1.0000000000000000E+20
  9
$PLIMMIN
 10
0.0
 20
0.0
  9
$PLIMMAX
 10
12.0
 20
9.0
  9
$UNITMODE
 70
               0
  9
$VISRETAIN
 70
               0
  9
$PLINEGEN
 70
               1
  9
$PSLTSCALE
 70
               0
  9
$TREEDEPTH
 70
            3020
  9
$DWGCODEPAGE
  3
dos932
  0
ENDSEC
  0
SECTION
  2
TABLES
  0
TABLE
  2
VPORT
 70
               1
  0
VPORT
  2
*ACTIVE
 70
               0
 10
0.0
 20
0.0
 11
1.0
 21
1.0
 12
21.393261608151533
 22
-445.79924890839874
 13
0.0
 23
0.0
 14
1.0
 24
1.0
 15
0.0
 25
0.0
 16
0.0
 26
0.0
 36
1.0
 17
0.0
 27
0.0
 37
0.0
 40
1926.2574837223633
 41
0.798973720366786
 42
50.0
 43
0.0
 44
0.0
 50
0.0
 51
0.0
 71
               0
 72
             100
 73
               1
 74
               1
 75
               0
 76
               0
 77
               0
 78
               0
  0
ENDTAB
  0
TABLE
  2
LTYPE
 70
              26
  0
LTYPE
  2
CONTINUOUS
 70
               0
  3
Solid line
 72
              65
 73
               0
 40
0.0
  0
LTYPE
  2
HIDDENX2
 70
               0
  3
CADPAC FUSION LINETYPE
 72
              65
 73
               2
 40
47.560000000000002
 49
35.670000000000002
 49
-11.890000000000001
  0
LTYPE
  2
HIDDEN
 70
               0
  3
CADPAC FUSION LINETYPE
 72
              65
 73
               2
 40
35.670000000000002
 49
23.780000000000001
 49
-11.890000000000001
  0
LTYPE
  2
HIDDEN2
 70
               0
  3
CADPAC FUSION LINETYPE
 72
              65
 73
               2
 40
29.725000000000001
 49
17.835000000000001
 49
-11.890000000000001
  0
LTYPE
  2
DASHED
 70
               0
  3
CADPAC FUSION LINETYPE
 72
              65
 73
               2
 40
35.670000000000002
 49
23.780000000000001
 49
-11.890000000000001
  0
LTYPE
  2
DASHED2
 70
               0
  3
CADPAC FUSION LINETYPE
 72
              65
 73
               2
 40
26.752500000000001
 49
17.835000000000001
 49
-8.9175000000000004
  0
LTYPE
  2
DASHEDX2
 70
               0
  3
CADPAC FUSION LINETYPE
 72
              65
 73
               2
 40
53.505000000000003
 49
35.670000000000002
 49
-17.835000000000001
  0
LTYPE
  2
DOTX2
 70
               0
  3
CADPAC FUSION LINETYPE
 72
              65
 73
               2
 40
14.862500000000001
 49
0.0
 49
-14.862500000000001
  0
LTYPE
  2
DOT
 70
               0
  3
CADPAC FUSION LINETYPE
 72
              65
 73
               2
 40
11.890000000000001
 49
0.0
 49
-11.890000000000001
  0
LTYPE
  2
DOTS
 70
               0
  3
CADPAC FUSION LINETYPE
 72
              65
 73
               2
 40
11.890000000000001
 49
0.0
 49
-11.890000000000001
  0
LTYPE
  2
DOT2
 70
               0
  3
CADPAC FUSION LINETYPE
 72
              65
 73
               2
 40
8.9175000000000004
 49
0.0
 49
-8.9175000000000004
  0
LTYPE
  2
CENTERX2
 70
               0
  3
CADPAC FUSION LINETYPE
 72
              65
 73
               4
 40
71.340000000000003
 49
29.725000000000001
 49
-14.862500000000001
 49
11.890000000000001
 49
-14.862500000000001
  0
LTYPE
  2
CENTER
 70
               0
  3
CADPAC FUSION LINETYPE
 72
              65
 73
               4
 40
54.694000000000003
 49
23.780000000000001
 49
-11.890000000000001
 49
7.1340000000000003
 49
-11.890000000000001
  0
LTYPE
  2
CENTER2
 70
               0
  3
CADPAC FUSION LINETYPE
 72
              65
 73
               4
 40
38.048000000000002
 49
17.835000000000001
 49
-8.9175000000000004
 49
2.3780000000000001
 49
-8.9175000000000004
  0
LTYPE
  2
DASHDOTX2
 70
               0
  3
CADPAC FUSION LINETYPE
 72
              65
 73
               4
 40
59.450000000000003
 49
29.725000000000001
 49
-14.862500000000001
 49
0.0
 49
-14.862500000000001
  0
LTYPE
  2
DASHDOT
 70
               0
  3
CADPAC FUSION LINETYPE
 72
              65
 73
               4
 40
47.560000000000002
 49
23.780000000000001
 49
-11.890000000000001
 49
0.0
 49
-11.890000000000001
  0
LTYPE
  2
DASHDOT2
 70
               0
  3
CADPAC FUSION LINETYPE
 72
              65
 73
               4
 40
35.670000000000002
 49
17.835000000000001
 49
-8.9175000000000004
 49
0.0
 49
-8.9175000000000004
  0
LTYPE
  2
DIVIDEX2
 70
               0
  3
CADPAC FUSION LINETYPE
 72
              65
 73
               6
 40
74.3125
 49
29.725000000000001
 49
-14.862500000000001
 49
0.0
 49
-14.862500000000001
 49
0.0
 49
-14.862500000000001
  0
LTYPE
  2
DIVIDE
 70
               0
  3
CADPAC FUSION LINETYPE
 72
              65
 73
               6
 40
59.450000000000003
 49
23.780000000000001
 49
-11.890000000000001
 49
0.0
 49
-11.890000000000001
 49
0.0
 49
-11.890000000000001
  0
LTYPE
  2
DIVIDE2
 70
               0
  3
CADPAC FUSION LINETYPE
 72
              65
 73
               6
 40
44.587500000000006
 49
17.835000000000001
 49
-8.9175000000000004
 49
0.0
 49
-8.9175000000000004
 49
0.0
 49
-8.9175000000000004
  0
LTYPE
  2
BORDERX2
 70
               0
  3
CADPAC FUSION LINETYPE
 72
              65
 73
               6
 40
104.03750000000001
 49
29.725000000000001
 49
-14.862500000000001
 49
29.725000000000001
 49
-14.862500000000001
 49
0.0
 49
-14.862500000000001
  0
LTYPE
  2
BORDER
 70
               0
  3
CADPAC FUSION LINETYPE
 72
              65
 73
               6
 40
83.230000000000004
 49
23.780000000000001
 49
-11.890000000000001
 49
23.780000000000001
 49
-11.890000000000001
 49
0.0
 49
-11.890000000000001
  0
LTYPE
  2
BORDER2
 70
               0
  3
CADPAC FUSION LINETYPE
 72
              65
 73
               6
 40
62.422499999999999
 49
17.835000000000001
 49
-8.9175000000000004
 49
17.835000000000001
 49
-8.9175000000000004
 49
0.0
 49
-8.9175000000000004
  0
LTYPE
  2
PHANTOMX2
 70
               0
  3
CADPAC FUSION LINETYPE
 72
              65
 73
               6
 40
89.175000000000011
 49
29.725000000000001
 49
-11.890000000000001
 49
11.890000000000001
 49
-11.890000000000001
 49
11.890000000000001
 49
-11.890000000000001
  0
LTYPE
  2
PHANTOM
 70
               0
  3
CADPAC FUSION LINETYPE
 72
              65
 73
               6
 40
73.718000000000004
 49
23.780000000000001
 49
-11.890000000000001
 49
7.1340000000000003
 49
-11.890000000000001
 49
7.1340000000000003
 49
-11.890000000000001
  0
LTYPE
  2
PHANTOM2
 70
               0
  3
CADPAC FUSION LINETYPE
 72
              65
 73
               6
 40
63.017000000000003
 49
17.835000000000001
 49
-11.890000000000001
 49
4.7560000000000002
 49
-11.890000000000001
 49
4.7560000000000002
 49
-11.890000000000001
  0
ENDTAB
  0
TABLE
  2
LAYER
 70
             256
  0
LAYER
  2
0
 70
               0
 62
               7
  6
CONTINUOUS
  0
LAYER
  2
LAYER001
 70
               0
 62
               7
  6
CONTINUOUS
  0
LAYER
  2
LAYER002
 70
               0
 62
               7
  6
CONTINUOUS
  0
LAYER
  2
LAYER003
 70
               0
 62
               7
  6
CONTINUOUS
  0
LAYER
  2
LAYER004
 70
               0
 62
               7
  6
CONTINUOUS
  0
LAYER
  2
LAYER005
 70
               0
 62
               7
  6
CONTINUOUS
  0
LAYER
  2
LAYER006
 70
               0
 62
               7
  6
CONTINUOUS
  0
LAYER
  2
LAYER007
 70
               0
 62
               7
  6
CONTINUOUS
  0
LAYER
  2
LAYER008
 70
               0
 62
               7
  6
CONTINUOUS
  0
LAYER
  2
LAYER009
 70
               0
 62
               7
  6
CONTINUOUS
  0
LAYER
  2
LAYER010
 70
               0
 62
               7
  6
CONTINUOUS
  0
LAYER
  2
LAYER011
 70
               0
 62
               7
  6
CONTINUOUS
  0
LAYER
  2
LAYER012
 70
               0
 62
               7
  6
CONTINUOUS
  0
LAYER
  2
LAYER013
 70
               0
 62
               7
  6
CONTINUOUS
  0
LAYER
  2
LAYER014
 70
               0
 62
               7
  6
CONTINUOUS
  0
LAYER
  2
LAYER015
 70
               0
 62
               7
  6
CONTINUOUS
  0
LAYER
  2
LAYER016
 70
               0
 62
               7
  6
CONTINUOUS
  0
LAYER
  2
LAYER017
 70
               0
 62
               7
  6
CONTINUOUS
  0
LAYER
  2
LAYER018
 70
               0
 62
               7
  6
CONTINUOUS
  0
LAYER
  2
LAYER019
 70
               0
 62
               7
  6
CONTINUOUS
  0
LAYER
  2
LAYER020
 70
               0
 62
               7
  6
CONTINUOUS
  0
LAYER
  2
LAYER021
 70
               0
 62
               7
  6
CONTINUOUS
  0
LAYER
  2
LAYER022
 70
               0
 62
               7
  6
CONTINUOUS
  0
LAYER
  2
LAYER023
 70
               0
 62
               7
  6
CONTINUOUS
  0
LAYER
  2
LAYER024
 70
               0
 62
               7
  6
CONTINUOUS
  0
LAYER
  2
LAYER025
 70
               0
 62
               7
  6
CONTINUOUS
  0
LAYER
  2
LAYER026
 70
               0
 62
               7
  6
CONTINUOUS
  0
LAYER
  2
LAYER027
 70
               0
 62
               7
  6
CONTINUOUS
  0
LAYER
  2
LAYER028
 70
               0
 62
               7
  6
CONTINUOUS
  0
LAYER
  2
LAYER029
 70
               0
 62
               7
  6
CONTINUOUS
  0
LAYER
  2
LAYER030
 70
               0
 62
               7
  6
CONTINUOUS
  0
LAYER
  2
LAYER031
 70
               0
 62
               7
  6
CONTINUOUS
  0
LAYER
  2
LAYER032
 70
               0
 62
               7
  6
CONTINUOUS
  0
LAYER
  2
LAYER033
 70
               0
 62
               7
  6
CONTINUOUS
  0
LAYER
  2
LAYER034
 70
               0
 62
               7
  6
CONTINUOUS
  0
LAYER
  2
LAYER035
 70
               0
 62
               7
  6
CONTINUOUS
  0
LAYER
  2
LAYER036
 70
               0
 62
               7
  6
CONTINUOUS
  0
LAYER
  2
LAYER037
 70
               0
 62
               7
  6
CONTINUOUS
  0
LAYER
  2
LAYER038
 70
               0
 62
               7
  6
CONTINUOUS
  0
LAYER
  2
LAYER039
 70
               0
 62
               7
  6
CONTINUOUS
  0
LAYER
  2
LAYER040
 70
               0
 62
               7
  6
CONTINUOUS
  0
LAYER
  2
LAYER041
 70
               0
 62
               7
  6
CONTINUOUS
  0
LAYER
  2
LAYER042
 70
               0
 62
               7
  6
CONTINUOUS
  0
LAYER
  2
LAYER043
 70
               0
 62
               7
  6
CONTINUOUS
  0
LAYER
  2
LAYER044
 70
               0
 62
               7
  6
CONTINUOUS
  0
LAYER
  2
LAYER045
 70
               0
 62
               7
  6
CONTINUOUS
  0
LAYER
  2
LAYER046
 70
               0
 62
               7
  6
CONTINUOUS
  0
LAYER
  2
LAYER047
 70
               0
 62
               7
  6
CONTINUOUS
  0
LAYER
  2
LAYER048
 70
               0
 62
               7
  6
CONTINUOUS
  0
LAYER
  2
LAYER049
 70
               0
 62
               7
  6
CONTINUOUS
  0
LAYER
  2
LAYER050
 70
               0
 62
               7
  6
CONTINUOUS
  0
LAYER
  2
LAYER051
 70
               0
 62
               7
  6
CONTINUOUS
  0
LAYER
  2
LAYER052
 70
               0
 62
               7
  6
CONTINUOUS
  0
LAYER
  2
LAYER053
 70
               0
 62
               7
  6
CONTINUOUS
  0
LAYER
  2
LAYER054
 70
               0
 62
               7
  6
CONTINUOUS
  0
LAYER
  2
LAYER055
 70
               0
 62
               7
  6
CONTINUOUS
  0
LAYER
  2
LAYER056
 70
               0
 62
               7
  6
CONTINUOUS
  0
LAYER
  2
LAYER057
 70
               0
 62
               7
  6
CONTINUOUS
  0
LAYER
  2
LAYER058
 70
               0
 62
               7
  6
CONTINUOUS
  0
LAYER
  2
LAYER059
 70
               0
 62
               7
  6
CONTINUOUS
  0
LAYER
  2
LAYER060
 70
               0
 62
               7
  6
CONTINUOUS
  0
LAYER
  2
LAYER061
 70
               0
 62
               7
  6
CONTINUOUS
  0
LAYER
  2
LAYER062
 70
               0
 62
               7
  6
CONTINUOUS
  0
LAYER
  2
LAYER063
 70
               0
 62
               7
  6
CONTINUOUS
  0
LAYER
  2
LAYER064
 70
               0
 62
               7
  6
CONTINUOUS
  0
LAYER
  2
LAYER065
 70
               0
 62
               7
  6
CONTINUOUS
  0
LAYER
  2
LAYER066
 70
               0
 62
               7
  6
CONTINUOUS
  0
LAYER
  2
LAYER067
 70
               0
 62
               7
  6
CONTINUOUS
  0
LAYER
  2
LAYER068
 70
               0
 62
               7
  6
CONTINUOUS
  0
LAYER
  2
LAYER069
 70
               0
 62
               7
  6
CONTINUOUS
  0
LAYER
  2
LAYER070
 70
               0
 62
               7
  6
CONTINUOUS
  0
LAYER
  2
LAYER071
 70
               0
 62
               7
  6
CONTINUOUS
  0
LAYER
  2
LAYER072
 70
               0
 62
               7
  6
CONTINUOUS
  0
LAYER
  2
LAYER073
 70
               0
 62
               7
  6
CONTINUOUS
  0
LAYER
  2
LAYER074
 70
               0
 62
               7
  6
CONTINUOUS
  0
LAYER
  2
LAYER075
 70
               0
 62
               7
  6
CONTINUOUS
  0
LAYER
  2
LAYER076
 70
               0
 62
               7
  6
CONTINUOUS
  0
LAYER
  2
LAYER077
 70
               0
 62
               7
  6
CONTINUOUS
  0
LAYER
  2
LAYER078
 70
               0
 62
               7
  6
CONTINUOUS
  0
LAYER
  2
LAYER079
 70
               0
 62
               7
  6
CONTINUOUS
  0
LAYER
  2
LAYER080
 70
               0
 62
               7
  6
CONTINUOUS
  0
LAYER
  2
LAYER081
 70
               0
 62
               7
  6
CONTINUOUS
  0
LAYER
  2
LAYER082
 70
               0
 62
               7
  6
CONTINUOUS
  0
LAYER
  2
LAYER083
 70
               0
 62
               7
  6
CONTINUOUS
  0
LAYER
  2
LAYER084
 70
               0
 62
               7
  6
CONTINUOUS
  0
LAYER
  2
LAYER085
 70
               0
 62
               7
  6
CONTINUOUS
  0
LAYER
  2
LAYER086
 70
               0
 62
               7
  6
CONTINUOUS
  0
LAYER
  2
LAYER087
 70
               0
 62
               7
  6
CONTINUOUS
  0
LAYER
  2
LAYER088
 70
               0
 62
               7
  6
CONTINUOUS
  0
LAYER
  2
LAYER089
 70
               0
 62
               7
  6
CONTINUOUS
  0
LAYER
  2
LAYER090
 70
               0
 62
               7
  6
CONTINUOUS
  0
LAYER
  2
LAYER091
 70
               0
 62
               7
  6
CONTINUOUS
  0
LAYER
  2
LAYER092
 70
               0
 62
               7
  6
CONTINUOUS
  0
LAYER
  2
LAYER093
 70
               0
 62
               7
  6
CONTINUOUS
  0
LAYER
  2
LAYER094
 70
               0
 62
               7
  6
CONTINUOUS
  0
LAYER
  2
LAYER095
 70
               0
 62
               7
  6
CONTINUOUS
  0
LAYER
  2
LAYER096
 70
               0
 62
               7
  6
CONTINUOUS
  0
LAYER
  2
LAYER097
 70
               0
 62
               7
  6
CONTINUOUS
  0
LAYER
  2
LAYER098
 70
               0
 62
               7
  6
CONTINUOUS
  0
LAYER
  2
LAYER099
 70
               0
 62
               7
  6
CONTINUOUS
  0
LAYER
  2
LAYER100
 70
               0
 62
               7
  6
CONTINUOUS
  0
LAYER
  2
LAYER101
 70
               0
 62
               7
  6
CONTINUOUS
  0
LAYER
  2
LAYER102
 70
               0
 62
               7
  6
CONTINUOUS
  0
LAYER
  2
LAYER103
 70
               0
 62
               7
  6
CONTINUOUS
  0
LAYER
  2
LAYER104
 70
               0
 62
               7
  6
CONTINUOUS
  0
LAYER
  2
LAYER105
 70
               0
 62
               7
  6
CONTINUOUS
  0
LAYER
  2
LAYER106
 70
               0
 62
               7
  6
CONTINUOUS
  0
LAYER
  2
LAYER107
 70
               0
 62
               7
  6
CONTINUOUS
  0
LAYER
  2
LAYER108
 70
               0
 62
               7
  6
CONTINUOUS
  0
LAYER
  2
LAYER109
 70
               0
 62
               7
  6
CONTINUOUS
  0
LAYER
  2
LAYER110
 70
               0
 62
               7
  6
CONTINUOUS
  0
LAYER
  2
LAYER111
 70
               0
 62
               7
  6
CONTINUOUS
  0
LAYER
  2
LAYER112
 70
               0
 62
               7
  6
CONTINUOUS
  0
LAYER
  2
LAYER113
 70
               0
 62
               7
  6
CONTINUOUS
  0
LAYER
  2
LAYER114
 70
               0
 62
               7
  6
CONTINUOUS
  0
LAYER
  2
LAYER115
 70
               0
 62
               7
  6
CONTINUOUS
  0
LAYER
  2
LAYER116
 70
               0
 62
               7
  6
CONTINUOUS
  0
LAYER
  2
LAYER117
 70
               0
 62
               7
  6
CONTINUOUS
  0
LAYER
  2
LAYER118
 70
               0
 62
               7
  6
CONTINUOUS
  0
LAYER
  2
LAYER119
 70
               0
 62
               7
  6
CONTINUOUS
  0
LAYER
  2
LAYER120
 70
               0
 62
               7
  6
CONTINUOUS
  0
LAYER
  2
LAYER121
 70
               0
 62
               7
  6
CONTINUOUS
  0
LAYER
  2
LAYER122
 70
               0
 62
               7
  6
CONTINUOUS
  0
LAYER
  2
LAYER123
 70
               0
 62
               7
  6
CONTINUOUS
  0
LAYER
  2
LAYER124
 70
               0
 62
               7
  6
CONTINUOUS
  0
LAYER
  2
LAYER125
 70
               0
 62
               7
  6
CONTINUOUS
  0
LAYER
  2
LAYER126
 70
               0
 62
               7
  6
CONTINUOUS
  0
LAYER
  2
LAYER127
 70
               0
 62
               7
  6
CONTINUOUS
  0
LAYER
  2
LAYER128
 70
               0
 62
               7
  6
CONTINUOUS
  0
LAYER
  2
LAYER129
 70
               0
 62
               7
  6
CONTINUOUS
  0
LAYER
  2
LAYER130
 70
               0
 62
               7
  6
CONTINUOUS
  0
LAYER
  2
LAYER131
 70
               0
 62
               7
  6
CONTINUOUS
  0
LAYER
  2
LAYER132
 70
               0
 62
               7
  6
CONTINUOUS
  0
LAYER
  2
LAYER133
 70
               0
 62
               7
  6
CONTINUOUS
  0
LAYER
  2
LAYER134
 70
               0
 62
               7
  6
CONTINUOUS
  0
LAYER
  2
LAYER135
 70
               0
 62
               7
  6
CONTINUOUS
  0
LAYER
  2
LAYER136
 70
               0
 62
               7
  6
CONTINUOUS
  0
LAYER
  2
LAYER137
 70
               0
 62
               7
  6
CONTINUOUS
  0
LAYER
  2
LAYER138
 70
               0
 62
               7
  6
CONTINUOUS
  0
LAYER
  2
LAYER139
 70
               0
 62
               7
  6
CONTINUOUS
  0
LAYER
  2
LAYER140
 70
               0
 62
               7
  6
CONTINUOUS
  0
LAYER
  2
LAYER141
 70
               0
 62
               7
  6
CONTINUOUS
  0
LAYER
  2
LAYER142
 70
               0
 62
               7
  6
CONTINUOUS
  0
LAYER
  2
LAYER143
 70
               0
 62
               7
  6
CONTINUOUS
  0
LAYER
  2
LAYER144
 70
               0
 62
               7
  6
CONTINUOUS
  0
LAYER
  2
LAYER145
 70
               0
 62
               7
  6
CONTINUOUS
  0
LAYER
  2
LAYER146
 70
               0
 62
               7
  6
CONTINUOUS
  0
LAYER
  2
LAYER147
 70
               0
 62
               7
  6
CONTINUOUS
  0
LAYER
  2
LAYER148
 70
               0
 62
               7
  6
CONTINUOUS
  0
LAYER
  2
LAYER149
 70
               0
 62
               7
  6
CONTINUOUS
  0
LAYER
  2
LAYER150
 70
               0
 62
               7
  6
CONTINUOUS
  0
LAYER
  2
LAYER151
 70
               0
 62
               7
  6
CONTINUOUS
  0
LAYER
  2
LAYER152
 70
               0
 62
               7
  6
CONTINUOUS
  0
LAYER
  2
LAYER153
 70
               0
 62
               7
  6
CONTINUOUS
  0
LAYER
  2
LAYER154
 70
               0
 62
               7
  6
CONTINUOUS
  0
LAYER
  2
LAYER155
 70
               0
 62
               7
  6
CONTINUOUS
  0
LAYER
  2
LAYER156
 70
               0
 62
               7
  6
CONTINUOUS
  0
LAYER
  2
LAYER157
 70
               0
 62
               7
  6
CONTINUOUS
  0
LAYER
  2
LAYER158
 70
               0
 62
               7
  6
CONTINUOUS
  0
LAYER
  2
LAYER159
 70
               0
 62
               7
  6
CONTINUOUS
  0
LAYER
  2
LAYER160
 70
               0
 62
               7
  6
CONTINUOUS
  0
LAYER
  2
LAYER161
 70
               0
 62
               7
  6
CONTINUOUS
  0
LAYER
  2
LAYER162
 70
               0
 62
               7
  6
CONTINUOUS
  0
LAYER
  2
LAYER163
 70
               0
 62
               7
  6
CONTINUOUS
  0
LAYER
  2
LAYER164
 70
               0
 62
               7
  6
CONTINUOUS
  0
LAYER
  2
LAYER165
 70
               0
 62
               7
  6
CONTINUOUS
  0
LAYER
  2
LAYER166
 70
               0
 62
               7
  6
CONTINUOUS
  0
LAYER
  2
LAYER167
 70
               0
 62
               7
  6
CONTINUOUS
  0
LAYER
  2
LAYER168
 70
               0
 62
               7
  6
CONTINUOUS
  0
LAYER
  2
LAYER169
 70
               0
 62
               7
  6
CONTINUOUS
  0
LAYER
  2
LAYER170
 70
               0
 62
               7
  6
CONTINUOUS
  0
LAYER
  2
LAYER171
 70
               0
 62
               7
  6
CONTINUOUS
  0
LAYER
  2
LAYER172
 70
               0
 62
               7
  6
CONTINUOUS
  0
LAYER
  2
LAYER173
 70
               0
 62
               7
  6
CONTINUOUS
  0
LAYER
  2
LAYER174
 70
               0
 62
               7
  6
CONTINUOUS
  0
LAYER
  2
LAYER175
 70
               0
 62
               7
  6
CONTINUOUS
  0
LAYER
  2
LAYER176
 70
               0
 62
               7
  6
CONTINUOUS
  0
LAYER
  2
LAYER177
 70
               0
 62
               7
  6
CONTINUOUS
  0
LAYER
  2
LAYER178
 70
               0
 62
               7
  6
CONTINUOUS
  0
LAYER
  2
LAYER179
 70
               0
 62
               7
  6
CONTINUOUS
  0
LAYER
  2
LAYER180
 70
               0
 62
               7
  6
CONTINUOUS
  0
LAYER
  2
LAYER181
 70
               0
 62
               7
  6
CONTINUOUS
  0
LAYER
  2
LAYER182
 70
               0
 62
               7
  6
CONTINUOUS
  0
LAYER
  2
LAYER183
 70
               0
 62
               7
  6
CONTINUOUS
  0
LAYER
  2
LAYER184
 70
               0
 62
               7
  6
CONTINUOUS
  0
LAYER
  2
LAYER185
 70
               0
 62
               7
  6
CONTINUOUS
  0
LAYER
  2
LAYER186
 70
               0
 62
               7
  6
CONTINUOUS
  0
LAYER
  2
LAYER187
 70
               0
 62
               7
  6
CONTINUOUS
  0
LAYER
  2
LAYER188
 70
               0
 62
               7
  6
CONTINUOUS
  0
LAYER
  2
LAYER189
 70
               0
 62
               7
  6
CONTINUOUS
  0
LAYER
  2
LAYER190
 70
               0
 62
               7
  6
CONTINUOUS
  0
LAYER
  2
LAYER191
 70
               0
 62
               7
  6
CONTINUOUS
  0
LAYER
  2
LAYER192
 70
               0
 62
               7
  6
CONTINUOUS
  0
LAYER
  2
LAYER193
 70
               0
 62
               7
  6
CONTINUOUS
  0
LAYER
  2
LAYER194
 70
               0
 62
               7
  6
CONTINUOUS
  0
LAYER
  2
LAYER195
 70
               0
 62
               7
  6
CONTINUOUS
  0
LAYER
  2
LAYER196
 70
               0
 62
               7
  6
CONTINUOUS
  0
LAYER
  2
LAYER197
 70
               0
 62
               7
  6
CONTINUOUS
  0
LAYER
  2
LAYER198
 70
               0
 62
               7
  6
CONTINUOUS
  0
LAYER
  2
LAYER199
 70
               0
 62
               7
  6
CONTINUOUS
  0
LAYER
  2
LAYER200
 70
               0
 62
               7
  6
CONTINUOUS
  0
LAYER
  2
LAYER201
 70
               0
 62
               7
  6
CONTINUOUS
  0
LAYER
  2
LAYER202
 70
               0
 62
               7
  6
CONTINUOUS
  0
LAYER
  2
LAYER203
 70
               0
 62
               7
  6
CONTINUOUS
  0
LAYER
  2
LAYER204
 70
               0
 62
               7
  6
CONTINUOUS
  0
LAYER
  2
LAYER205
 70
               0
 62
               7
  6
CONTINUOUS
  0
LAYER
  2
LAYER206
 70
               0
 62
               7
  6
CONTINUOUS
  0
LAYER
  2
LAYER207
 70
               0
 62
               7
  6
CONTINUOUS
  0
LAYER
  2
LAYER208
 70
               0
 62
               7
  6
CONTINUOUS
  0
LAYER
  2
LAYER209
 70
               0
 62
               7
  6
CONTINUOUS
  0
LAYER
  2
LAYER210
 70
               0
 62
               7
  6
CONTINUOUS
  0
LAYER
  2
LAYER211
 70
               0
 62
               7
  6
CONTINUOUS
  0
LAYER
  2
LAYER212
 70
               0
 62
               7
  6
CONTINUOUS
  0
LAYER
  2
LAYER213
 70
               0
 62
               7
  6
CONTINUOUS
  0
LAYER
  2
LAYER214
 70
               0
 62
               7
  6
CONTINUOUS
  0
LAYER
  2
LAYER215
 70
               0
 62
               7
  6
CONTINUOUS
  0
LAYER
  2
LAYER216
 70
               0
 62
               7
  6
CONTINUOUS
  0
LAYER
  2
LAYER217
 70
               0
 62
               7
  6
CONTINUOUS
  0
LAYER
  2
LAYER218
 70
               0
 62
               7
  6
CONTINUOUS
  0
LAYER
  2
LAYER219
 70
               0
 62
               7
  6
CONTINUOUS
  0
LAYER
  2
LAYER220
 70
               0
 62
               7
  6
CONTINUOUS
  0
LAYER
  2
LAYER221
 70
               0
 62
               7
  6
CONTINUOUS
  0
LAYER
  2
LAYER222
 70
               0
 62
               7
  6
CONTINUOUS
  0
LAYER
  2
LAYER223
 70
               0
 62
               7
  6
CONTINUOUS
  0
LAYER
  2
LAYER224
 70
               0
 62
               7
  6
CONTINUOUS
  0
LAYER
  2
LAYER225
 70
               0
 62
               7
  6
CONTINUOUS
  0
LAYER
  2
LAYER226
 70
               0
 62
               7
  6
CONTINUOUS
  0
LAYER
  2
LAYER227
 70
               0
 62
               7
  6
CONTINUOUS
  0
LAYER
  2
LAYER228
 70
               0
 62
               7
  6
CONTINUOUS
  0
LAYER
  2
LAYER229
 70
               0
 62
               7
  6
CONTINUOUS
  0
LAYER
  2
LAYER230
 70
               0
 62
               7
  6
CONTINUOUS
  0
LAYER
  2
LAYER231
 70
               0
 62
               7
  6
CONTINUOUS
  0
LAYER
  2
LAYER232
 70
               0
 62
               7
  6
CONTINUOUS
  0
LAYER
  2
LAYER233
 70
               0
 62
               7
  6
CONTINUOUS
  0
LAYER
  2
LAYER234
 70
               0
 62
               7
  6
CONTINUOUS
  0
LAYER
  2
LAYER235
 70
               0
 62
               7
  6
CONTINUOUS
  0
LAYER
  2
LAYER236
 70
               0
 62
               7
  6
CONTINUOUS
  0
LAYER
  2
LAYER237
 70
               0
 62
               7
  6
CONTINUOUS
  0
LAYER
  2
LAYER238
 70
               0
 62
               7
  6
CONTINUOUS
  0
LAYER
  2
LAYER239
 70
               0
 62
               7
  6
CONTINUOUS
  0
LAYER
  2
LAYER240
 70
               0
 62
               7
  6
CONTINUOUS
  0
LAYER
  2
LAYER241
 70
               0
 62
               7
  6
CONTINUOUS
  0
LAYER
  2
LAYER242
 70
               0
 62
               7
  6
CONTINUOUS
  0
LAYER
  2
LAYER243
 70
               0
 62
               7
  6
CONTINUOUS
  0
LAYER
  2
LAYER244
 70
               0
 62
               7
  6
CONTINUOUS
  0
LAYER
  2
LAYER245
 70
               0
 62
               7
  6
CONTINUOUS
  0
LAYER
  2
LAYER246
 70
               0
 62
               7
  6
CONTINUOUS
  0
LAYER
  2
LAYER247
 70
               0
 62
               7
  6
CONTINUOUS
  0
LAYER
  2
LAYER248
 70
               0
 62
               7
  6
CONTINUOUS
  0
LAYER
  2
LAYER249
 70
               0
 62
               7
  6
CONTINUOUS
  0
LAYER
  2
LAYER250
 70
               0
 62
               7
  6
CONTINUOUS
  0
LAYER
  2
LAYER251
 70
               0
 62
               7
  6
CONTINUOUS
  0
LAYER
  2
LAYER252
 70
               0
 62
               7
  6
CONTINUOUS
  0
LAYER
  2
LAYER253
 70
               0
 62
               7
  6
CONTINUOUS
  0
LAYER
  2
LAYER254
 70
               0
 62
               7
  6
CONTINUOUS
  0
LAYER
  2
LAYER255
 70
               0
 62
               7
  6
CONTINUOUS
  0
ENDTAB
  0
TABLE
  2
STYLE
 70
               1
  0
STYLE
  2
STANDARD
 70
               0
 40
0.0
 41
0.8
 50
0.0
 71
               0
 42
40.0
  3
MS PGothic.ttf
  4

  0
ENDTAB
  0
TABLE
  2
VIEW
 70
               0
  0
VIEW
  2
QQQQ
 70
               0
 40
1926.2574837223633
 10
21.393261608151533
 20
-445.79924890839874
 41
1539.0291081540204
 11
0.0
 21
0.0
 31
1.0
 12
100.0
 22
100.0
 32
0.0
 42
50.0
 43
0.0
 44
0.0
 50
0.0
 71
               0
  0
ENDTAB
  0
TABLE
  2
UCS
 70
               0
  0
ENDTAB
  0
TABLE
  2
APPID
 70
               1
  0
APPID
  2
ACAD
 70
               0
  0
ENDTAB
  0
TABLE
  2
DIMSTYLE
 70
               1
  0
DIMSTYLE
  2
STANDARD
 70
               0
  3

  4

  5

  6

  7

 40
1.0
 41
0.18
 42
0.0625
 43
0.38
 44
0.18
 45
0.0
 46
0.0
 47
0.0
 48
0.0
140
0.18
141
0.09
142
0.0
143
25.399999999999999
144
1.0
145
0.0
146
1.0
147
0.09
 71
               0
 72
               0
 73
               1
 74
               1
 75
               0
 76
               0
 77
               0
 78
               0
170
               0
171
               2
172
               0
173
               0
174
               0
175
               0
176
               0
177
               0
178
               0
  0
ENDTAB
  0
ENDSEC
  0
SECTION
  2
BLOCKS
  0
ENDSEC
  0
SECTION
  2
ENTITIES
  0
POINT
  8
0
  6
CONTINUOUS
 62
               5
  5
136
 10
-0.0000000000025722
 20
-72.810472232942175
 30
0.0
  0
POINT
  8
0
  6
CONTINUOUS
 62
               5
  5
137
 10
-0.0000000000025722
 20
332.18952776705783
 30
0.0
  0
POINT
  8
0
  6
CONTINUOUS
 62
               5
  5
138
 10
608.98648648648418
 20
-88.87803980050964
 30
0.0
  0
POINT
  8
0
  6
CONTINUOUS
 62
               5
  5
139
 10
-392.13776905047132
 20
-821.7867485407271
 30
0.0
  0
POINT
  8
0
  6
CONTINUOUS
 62
               5
  5
13A
 10
-218.90769754051101
 20
-823.07754261561604
 30
0.0
  0
POINT
  8
0
  6
CONTINUOUS
 62
               5
  5
13B
 10
-565.36784056043143
 20
-823.07754261561581
 30
0.0
  0
POINT
  8
0
  6
CONTINUOUS
 62
               5
  5
13C
 10
-395.3745205211269
 20
-641.08879296173177
 30
0.0
  0
POINT
  8
0
  6
CONTINUOUS
 62
               5
  5
13D
 10
493.01659472626557
 20
-1239.8925407924094
 30
0.0
  0
POINT
  8
0
  6
CONTINUOUS
 62
               5
  5
13E
 10
493.01659472626568
 20
-762.81151889404691
 30
0.0
  0
LINE
  8
0
  6
DASHDOT
 62
               4
  5
13F
 10
-0.0000000000025722
 20
-47.810472232942175
 30
0.0
 11
-0.0000000000025864
 21
-425.81047223294217
 31
0.0
  0
LINE
  8
0
  6
DASHDOT
 62
               4
  5
140
 10
-165.0000000000023
 20
-265.81047223294217
 30
0.0
 11
34.999999999997698
 21
-265.81047223294217
 31
0.0
  0
LINE
  8
0
  6
DASHDOT
 62
               4
  5
141
 10
87.44361259100225
 20
332.18952776705783
 30
0.0
 11
-152.00000000000318
 21
332.18952776705783
 31
0.0
  0
LINE
  8
0
  6
DASHDOT
 62
               4
  5
142
 10
-0.0000000000031548
 20
233.24475977309498
 30
0.0
 11
-0.0000000000027569
 21
425.81047223294217
 31
0.0
  0
LINE
  8
0
  6
DASHDOT
 62
               4
  5
143
 10
599.9999999999975
 20
-24.630287567500318
 30
0.0
 11
599.9999999999975
 21
-425.81047223294217
 31
0.0
  0
LINE
  8
0
  6
DASHDOT
 62
               4
  5
144
 10
-531.47477522477789
 20
-265.81047223294217
 30
0.0
 11
-668.175574425577
 21
-265.81047223294217
 31
0.0
  0
LINE
  8
0
  6
DASHDOT
 62
               4
  5
145
 10
-600.0000000000025
 20
-24.630287567500318
 30
0.0
 11
-600.0000000000025
 21
-425.81047223294217
 31
0.0
  0
LINE
  8
0
  6
DASHDOT
 62
               4
  5
146
 10
-392.13776905047132
 20
-886.2867485407271
 30
0.0
 11
-392.13776905047121
 21
-757.2867485407271
 31
0.0
  0
LINE
  8
0
  6
DASHDOT
 62
               4
  5
147
 10
-450.13776905047132
 20
-828.2867485407271
 30
0.0
 11
-334.13776905047132
 21
-828.2867485407271
 31
0.0
  0
LINE
  8
0
  6
DASHDOT
 62
               4
  5
148
 10
-461.94094753457875
 20
-821.7867485407271
 30
0.0
 11
-327.63776905047132
 21
-821.7867485407271
 31
0.0
  0
LINE
  8
0
  6
DASHDOT
 62
               4
  5
149
 10
-268.23776905047123
 20
-821.7867485407271
 30
0.0
 11
-169.63776905047135
 21
-821.7867485407271
 31
0.0
  0
LINE
  8
0
  6
DASHDOT
 62
               4
  5
14A
 10
-302.63776905047132
 20
-828.2867485407271
 30
0.0
 11
-228.23776905047137
 21
-828.2867485407271
 31
0.0
  0
LINE
  8
0
  6
DASHDOT
 62
               4
  5
14B
 10
-516.03776905047107
 20
-821.78674854072688
 30
0.0
 11
-614.63776905047121
 21
-821.78674854072665
 31
0.0
  0
LINE
  8
0
  6
DASHDOT
 62
               4
  5
14C
 10
-481.63776905047132
 20
-828.28674854072688
 30
0.0
 11
-556.03776905047107
 21
-828.28674854072688
 31
0.0
  0
LINE
  8
0
  6
DASHDOT
 62
               4
  5
14D
 10
-394.08372644623785
 20
-724.818864471692
 30
0.0
 11
-394.08372644623785
 21
-591.818864471692
 31
0.0
  0
LINE
  8
0
  6
DASHDOT
 62
               4
  5
14E
 10
221.63392368587833
 20
-821.7867485407271
 30
0.0
 11
320.23392368587849
 21
-821.7867485407271
 31
0.0
  0
LINE
  8
0
  6
DASHDOT
 62
               4
  5
14F
 10
196.63392368587833
 20
-836.2867485407271
 30
0.0
 11
261.63392368587836
 21
-836.2867485407271
 31
0.0
  0
LINE
  8
0
  6
DASHDOT
 62
               4
  5
150
 10
70.877907460635356
 20
-836.2867485407271
 30
0.0
 11
170.87790746063556
 21
-836.2867485407271
 31
0.0
  0
LINE
  8
0
  6
DASHDOT
 62
               4
  5
151
 10
120.87790746063536
 20
-886.2867485407271
 30
0.0
 11
120.87790746063558
 21
-757.2867485407271
 31
0.0
  0
LINE
  8
0
  6
DASHDOT
 62
               4
  5
152
 10
56.377907460635356
 20
-821.7867485407271
 30
0.0
 11
190.92191724058657
 21
-821.7867485407271
 31
0.0
  0
LINE
  8
0
  6
DASHDOT
 62
               4
  5
153
 10
20.121891235392582
 20
-821.7867485407271
 30
0.0
 11
-78.478108764607441
 21
-821.7867485407271
 31
0.0
  0
LINE
  8
0
  6
DASHDOT
 62
               4
  5
154
 10
45.121891235392582
 20
-836.2867485407271
 30
0.0
 11
-19.878108764607418
 21
-836.2867485407271
 31
0.0
  0
LINE
  8
0
  6
DASHDOT
 62
               4
  5
155
 10
120.87790746063558
 20
-735.53073231548433
 30
0.0
 11
120.87790746063558
 21
-611.93073231548419
 31
0.0
  0
LINE
  8
0
  6
DASHDOT
 62
               4
  5
156
 10
609.28652321630534
 20
-655.60231296893608
 30
0.0
 11
609.28652321630534
 21
-926.14909976876243
 31
0.0
  0
LINE
  8
0
  6
DASHDOT
 62
               4
  5
157
 10
447.28652321630534
 20
-764.10231296893608
 30
0.0
 11
717.78652321630557
 21
-764.10231296893608
 31
0.0
  0
LINE
  8
0
  6
DASHDOT
 62
               4
  5
158
 10
677.81174799153018
 20
-1238.6017467175204
 30
0.0
 11
447.557909922877
 21
-1238.6017467175204
 31
0.0
  0
LINE
  8
0
  6
DASHDOT
 62
               4
  5
159
 10
609.28652321630534
 20
-1052.6017467175204
 30
0.0
 11
609.28652321630534
 21
-1303.6017467175207
 31
0.0
  0
LINE
  8
0
  6
DASHDOT
 62
               4
  5
15A
 10
559.28652321630523
 20
-1253.1017467175207
 30
0.0
 11
659.28652321630557
 21
-1253.1017467175207
 31
0.0
  0
LINE
  8
0
  6
DASHDOT
 62
               4
  5
15B
 10
609.28652321630534
 20
-954.70231296893621
 30
0.0
 11
609.28652321630534
 21
-831.10231296893585
 31
0.0
  0
LINE
  8
0
  6
DASHDOT
 62
               4
  5
15C
 10
409.28652321630523
 20
-1245.1017467175204
 30
0.0
 11
483.6865232163052
 21
-1245.1017467175204
 31
0.0
  0
LINE
  8
0
  6
DASHDOT
 62
               4
  5
15D
 10
409.28652321630545
 20
-764.10231296893585
 30
0.0
 11
542.28652321630545
 21
-764.10231296893585
 31
0.0
  0
LINE
  8
0
  6
DASHED2
 62
               4
  5
15E
 10
-57.000000000002572
 20
-137.81047223294217
 30
0.0
 11
56.999999999997442
 21
-137.81047223294217
 31
0.0
  0
LINE
  8
0
  6
DASHED2
 62
               4
  5
15F
 10
51.499999999997442
 20
-402.81047223294217
 30
0.0
 11
51.499999999997442
 21
-342.72190904635448
 31
0.0
  0
LINE
  8
0
  6
DASHED2
 62
               4
  5
160
 10
-51.500000000002572
 20
-402.81047223294217
 30
0.0
 11
-51.500000000002572
 21
-342.72190904635448
 31
0.0
  0
LINE
  8
0
  6
DASHED2
 62
               4
  5
161
 10
548.4999999999975
 20
-402.81047223294217
 30
0.0
 11
548.4999999999975
 21
-342.72190904635448
 31
0.0
  0
LINE
  8
0
  6
DASHED2
 62
               4
  5
162
 10
651.4999999999975
 20
-402.81047223294217
 30
0.0
 11
651.4999999999975
 21
-342.72190904635448
 31
0.0
  0
LINE
  8
0
  6
DASHED2
 62
               4
  5
163
 10
542.9999999999975
 20
-137.81047223294217
 30
0.0
 11
656.9999999999975
 21
-137.81047223294217
 31
0.0
  0
LINE
  8
0
  6
DASHED2
 62
               4
  5
164
 10
-651.5000000000025
 20
-402.81047223294217
 30
0.0
 11
-651.5000000000025
 21
-342.72190904635448
 31
0.0
  0
LINE
  8
0
  6
DASHED2
 62
               4
  5
165
 10
-548.50000000000261
 20
-402.81047223294217
 30
0.0
 11
-548.50000000000261
 21
-342.72190904635448
 31
0.0
  0
LINE
  8
0
  6
DASHED2
 62
               4
  5
166
 10
-657.0000000000025
 20
-137.81047223294217
 30
0.0
 11
-543.00000000000261
 21
-137.81047223294217
 31
0.0
  0
LINE
  8
0
  6
DASHED2
 62
               4
  5
167
 10
552.28652321630534
 20
-1137.6017467175204
 30
0.0
 11
666.28652321630534
 21
-1137.6017467175204
 31
0.0
  0
POINT
  8
0
  6
CONTINUOUS
 62
               4
  5
168
 10
-247.03776905047133
 20
-777.2867485407271
 30
0.0
  0
POINT
  8
0
  6
CONTINUOUS
 62
               4
  5
169
 10
-537.23776905047112
 20
-777.28674854072688
 30
0.0
  0
POINT
  8
0
  6
CONTINUOUS
 62
               4
  5
16A
 10
-349.58372644623785
 20
-669.21886447169209
 30
0.0
  0
POINT
  8
0
  6
CONTINUOUS
 62
               4
  5
16B
 10
242.83392368587837
 20
-777.2867485407271
 30
0.0
  0
POINT
  8
0
  6
CONTINUOUS
 62
               4
  5
16C
 10
-1.0781087646074639
 20
-777.2867485407271
 30
0.0
  0
POINT
  8
0
  6
CONTINUOUS
 62
               4
  5
16D
 10
165.37790746063556
 20
-689.33073231548428
 30
0.0
  0
LINE
  8
0
  6
CONTINUOUS
 62
               4
  5
16E
 10
686.28652321630534
 20
-1169.0660929646676
 30
0.0
 11
681.28652321630534
 21
-1164.0660929646676
 31
0.0
  0
ARC
  8
0
  6
CONTINUOUS
 62
               4
  5
16F
 10
663.78652321630534
 20
-1179.6017467175204
 30
0.0
 40
19.999999999999996
 50
0.0
 51
31.788330617027277
  0
LINE
  8
0
  6
CONTINUOUS
 62
               4
  5
170
 10
680.7865232163058
 20
-1169.0660929646676
 30
0.0
 11
680.7865232163058
 21
-1164.0660929646672
 31
0.0
  0
LINE
  8
0
  6
CONTINUOUS
 62
               4
  5
171
 10
681.28652321630534
 20
-1164.0660929646676
 30
0.0
 11
680.7865232163058
 21
-1164.0660929646676
 31
0.0
  0
LINE
  8
0
  6
CONTINUOUS
 62
               4
  5
172
 10
686.03652321630557
 20
-1169.3160929646676
 30
0.0
 11
680.7865232163058
 21
-1164.0660929646676
 31
0.0
  0
LINE
  8
0
  6
CONTINUOUS
 62
               4
  5
173
 10
686.03652321630557
 20
-1169.3160929646676
 30
0.0
 11
686.28652321630534
 21
-1169.0660929646676
 31
0.0
  0
LINE
  8
0
  6
CONTINUOUS
 62
               4
  5
174
 10
686.28652321630534
 20
-1169.0660929646676
 30
0.0
 11
686.28652321630534
 21
-1299.7547703146379
 31
0.0
  0
LINE
  8
0
  6
CONTINUOUS
 62
               4
  5
175
 10
686.03652321630557
 20
-1169.3160929646676
 30
0.0
 11
686.03652321630557
 21
-1299.4694132075024
 31
0.0
  0
LINE
  8
0
  6
CONTINUOUS
 62
               4
  5
176
 10
683.78652321630534
 20
-1179.4487231204032
 30
0.0
 11
683.78652321630534
 21
-1298.6017467175207
 31
0.0
  0
POINT
  8
0
  6
CONTINUOUS
 62
               4
  5
177
 10
653.78652321630534
 20
-908.50231296893617
 30
0.0
  0
POINT
  8
0
  6
CONTINUOUS
 62
               4
  5
178
 10
464.88652321630525
 20
-1194.1017467175204
 30
0.0
  0
POINT
  8
0
  6
CONTINUOUS
 62
               4
  5
179
 10
464.88652321630536
 20
-808.60231296893585
 30
0.0
  0
LINE
  8
0
  6
CONTINUOUS
 62
               3
  5
17A
 10
74.999999999997414
 20
-72.810472232942175
 30
0.0
 11
-75.000000000002586
 21
-72.810472232942175
 31
0.0
  0
LINE
  8
0
  6
CONTINUOUS
 62
               3
  5
17B
 10
-75.000000000002586
 20
-89.810472232942288
 30
0.0
 11
-75.000000000002586
 21
-72.810472232942175
 31
0.0
  0
LINE
  8
0
  6
CONTINUOUS
 62
               3
  5
17C
 10
-75.000000000002586
 20
-89.810472232942288
 30
0.0
 11
74.999999999997414
 21
-89.810472232942288
 31
0.0
  0
LINE
  8
0
  6
CONTINUOUS
 62
               3
  5
17D
 10
74.999999999997414
 20
-89.810472232942288
 30
0.0
 11
74.999999999997414
 21
-72.810472232942175
 31
0.0
  0
LINE
  8
0
  6
CONTINUOUS
 62
               3
  5
17E
 10
-72.000000000002615
 20
-94.39304792789801
 30
0.0
 11
-72.000000000002117
 21
-153.84417428515405
 31
0.0
  0
LINE
  8
0
  6
CONTINUOUS
 62
               3
  5
17F
 10
71.99999999999693
 20
-153.84417428515405
 30
0.0
 11
71.999999999997442
 21
-94.39304792789801
 31
0.0
  0
ARC
  8
0
  6
CONTINUOUS
 62
               3
  5
180
 10
-77.000000000002615
 20
-94.39304792789801
 30
0.0
 40
5.0
 50
0.0
 51
66.421821521758545
  0
ARC
  8
0
  6
CONTINUOUS
 62
               3
  5
181
 10
76.999999999997442
 20
-94.39304792789801
 30
0.0
 40
5.0
 50
113.57817847813779
 51
179.9999999998962
  0
LINE
  8
0
  6
CONTINUOUS
 62
               3
  5
182
 10
-27.364609066745665
 20
-276.31047223294223
 30
0.0
 11
66.999999999997357
 21
-276.31047223294223
 31
0.0
  0
LINE
  8
0
  6
CONTINUOUS
 62
               3
  5
183
 10
66.999999999996021
 20
-167.44564479389078
 30
0.0
 11
66.999999999997357
 21
-276.31047223294223
 31
0.0
  0
ARC
  8
0
  6
CONTINUOUS
 62
               3
  5
184
 10
-61.000000000002103
 20
-153.84417428515405
 30
0.0
 40
11.0
 50
179.99999999989635
 51
220.36759354406288
  0
ARC
  8
0
  6
CONTINUOUS
 62
               3
  5
185
 10
-77.000000000001194
 20
-167.44564479389078
 30
0.0
 40
10.0
 50
359.99999999979269
 51
400.36759354395895
  0
ARC
  8
0
  6
CONTINUOUS
 62
               3
  5
186
 10
60.99999999999693
 20
-153.84417428515405
 30
0.0
 40
11.0
 50
319.63240645562615
 51
359.99999999979275
  0
ARC
  8
0
  6
CONTINUOUS
 62
               3
  5
187
 10
76.999999999996021
 20
-167.44564479389078
 30
0.0
 40
10.0
 50
139.63240645573015
 51
179.99999999989652
  0
LINE
  8
0
  6
CONTINUOUS
 62
               3
  5
188
 10
66.999999999997385
 20
-276.80292924972855
 30
0.0
 11
57.999999999997385
 21
-322.04898467886107
 31
0.0
  0
LINE
  8
0
  6
CONTINUOUS
 62
               3
  5
189
 10
57.999999999997385
 20
-322.04898467886107
 30
0.0
 11
57.999999999997385
 21
-331.3104722329424
 31
0.0
  0
LINE
  8
0
  6
CONTINUOUS
 62
               3
  5
18A
 10
-58.000000000002586
 20
-331.3104722329424
 30
0.0
 11
-58.000000000002586
 21
-330.43769602150383
 31
0.0
  0
LINE
  8
0
  6
CONTINUOUS
 62
               3
  5
18B
 10
54.499999999997357
 20
-402.81047223294217
 30
0.0
 11
-54.500000000002572
 21
-402.81047223294217
 31
0.0
  0
LINE
  8
0
  6
CONTINUOUS
 62
               3
  5
18C
 10
-56.500000000002572
 20
-400.81047223294217
 30
0.0
 11
-56.500000000002572
 21
-332.81047223294217
 31
0.0
  0
LINE
  8
0
  6
CONTINUOUS
 62
               3
  5
18D
 10
56.499999999997414
 20
-332.81047223294217
 30
0.0
 11
56.499999999997414
 21
-400.81047223294217
 31
0.0
  0
LINE
  8
0
  6
CONTINUOUS
 62
               3
  5
18E
 10
-56.500000000002572
 20
-332.81047223294217
 30
0.0
 11
56.499999999997414
 21
-332.81047223294217
 31
0.0
  0
LINE
  8
0
  6
CONTINUOUS
 62
               3
  5
18F
 10
-56.500000000002572
 20
-400.81047223294217
 30
0.0
 11
-54.500000000002572
 21
-402.81047223294217
 31
0.0
  0
LINE
  8
0
  6
CONTINUOUS
 62
               3
  5
190
 10
56.499999999997414
 20
-400.81047223294217
 30
0.0
 11
54.499999999997414
 21
-402.81047223294217
 31
0.0
  0
LINE
  8
0
  6
CONTINUOUS
 62
               3
  5
191
 10
56.499999999997414
 20
-332.81047223294217
 30
0.0
 11
57.999999999997357
 21
-331.3104722329424
 31
0.0
  0
LINE
  8
0
  6
CONTINUOUS
 62
               3
  5
192
 10
-58.000000000002572
 20
-331.3104722329424
 30
0.0
 11
57.999999999997357
 21
-331.3104722329424
 31
0.0
  0
LINE
  8
0
  6
CONTINUOUS
 62
               3
  5
193
 10
-56.500000000002572
 20
-332.81047223294217
 30
0.0
 11
-58.000000000002572
 21
-331.3104722329424
 31
0.0
  0
LINE
  8
0
  6
CONTINUOUS
 62
               3
  5
194
 10
-67.000000000001251
 20
-168.03210796048654
 30
0.0
 11
-67.000000000001194
 21
-167.44564479389078
 31
0.0
  0
ARC
  8
0
  6
CONTINUOUS
 62
               3
  5
195
 10
-57.005774624152068
 20
-167.6923151754952
 30
0.0
 40
10.0
 50
179.99999999989652
 51
239.99999999986215
  0
ARC
  8
0
  6
CONTINUOUS
 62
               3
  5
196
 10
-164.20577462415213
 20
-192.35321540237231
 30
0.0
 40
100.0
 50
354.5263415738907
 51
372.95525195292447
  0
ARC
  8
0
  6
CONTINUOUS
 62
               3
  5
197
 10
-69.638959615614894
 20
-201.41508602278304
 30
0.0
 40
5.0
 50
271.99999999984311
 51
354.52634157389059
  0
ARC
  8
0
  6
CONTINUOUS
 62
               3
  5
198
 10
-80.46769496687169
 20
-194.44491332772077
 30
0.0
 40
25.849089312664582
 50
335.43172396379026
 51
404.42073963304495
  0
ARC
  8
0
  6
CONTINUOUS
 62
               3
  5
199
 10
-61.506147532439272
 20
-203.11349129987138
 30
0.0
 40
5.0
 50
242.21780931695997
 51
335.43172396379032
  0
ARC
  8
0
  6
CONTINUOUS
 62
               3
  5
19A
 10
-68.497822468880926
 20
-216.38437980000589
 30
0.0
 40
10.0
 50
62.217809317063441
 51
91.999999999948088
  0
LINE
  8
0
  6
CONTINUOUS
 62
               3
  5
19B
 10
-127.00000000000259
 20
-320.81047223294217
 30
0.0
 11
-126.32844387403819
 21
-320.81047223294217
 31
0.0
  0
LINE
  8
0
  6
CONTINUOUS
 62
               3
  5
19C
 10
-123.82844387403813
 20
-323.31047223294144
 30
0.0
 11
-126.32844387403819
 21
-320.81047223294217
 31
0.0
  0
LINE
  8
0
  6
CONTINUOUS
 62
               3
  5
19D
 10
-127.00000000000259
 20
-210.81047223294229
 30
0.0
 11
-126.32844387403819
 21
-210.81047223294229
 31
0.0
  0
LINE
  8
0
  6
CONTINUOUS
 62
               3
  5
19E
 10
-123.82844387403813
 20
-208.31047223294209
 30
0.0
 11
-126.32844387403819
 21
-210.81047223294229
 31
0.0
  0
LINE
  8
0
  6
CONTINUOUS
 62
               3
  5
19F
 10
-126.32844387403819
 20
-210.81047223294229
 30
0.0
 11
-126.32844387403819
 21
-320.81047223294217
 31
0.0
  0
LINE
  8
0
  6
CONTINUOUS
 62
               3
  5
1A0
 10
-127.00000000000259
 20
-323.4104722329422
 30
0.0
 11
-127.00000000000259
 21
-208.21047223294218
 31
0.0
  0
LINE
  8
0
  6
CONTINUOUS
 62
               3
  5
1A1
 10
-127.00000000000259
 20
-208.21047223294218
 30
0.0
 11
-129.50000000000259
 21
-208.21047223294218
 31
0.0
  0
ARC
  8
0
  6
CONTINUOUS
 62
               3
  5
1A2
 10
-129.50000000000259
 20
-210.71047223294218
 30
0.0
 40
2.5
 50
89.999999999948344
 51
179.99999999989669
  0
LINE
  8
0
  6
CONTINUOUS
 62
               3
  5
1A3
 10
-132.00000000000259
 20
-210.71047223294218
 30
0.0
 11
-132.00000000000259
 21
-320.9104722329422
 31
0.0
  0
LINE
  8
0
  6
CONTINUOUS
 62
               3
  5
1A4
 10
-127.00000000000259
 20
-323.4104722329422
 30
0.0
 11
-129.50000000000259
 21
-323.4104722329422
 31
0.0
  0
ARC
  8
0
  6
CONTINUOUS
 62
               3
  5
1A5
 10
-129.50000000000259
 20
-320.9104722329422
 30
0.0
 40
2.5
 50
179.99999999989669
 51
269.99999999984499
  0
LINE
  8
0
  6
CONTINUOUS
 62
               3
  5
1A6
 10
-123.82844387403813
 20
-208.31047223294209
 30
0.0
 11
-123.82844387403739
 21
-323.31047223294217
 31
0.0
  0
LINE
  8
0
  6
CONTINUOUS
 62
               3
  5
1A7
 10
-123.82844387403739
 20
-323.31047223294217
 30
0.0
 11
-62.825502516490026
 21
-325.44074188640832
 31
0.0
  0
LINE
  8
0
  6
CONTINUOUS
 62
               3
  5
1A8
 10
-123.82844387403819
 20
-208.31047223294212
 30
0.0
 11
-69.464462132102412
 21
-206.41204015787852
 31
0.0
  0
ARC
  8
0
  6
CONTINUOUS
 62
               3
  5
1A9
 10
-63.000000000002586
 20
-330.43769602150383
 30
0.0
 40
5.0
 50
0.0
 51
87.999999999948741
  0
ARC
  8
0
  6
CONTINUOUS
 62
               3
  5
1AA
 10
-0.0000000000026432
 20
332.18952776705783
 30
0.0
 40
51.5
 50
247.14815970698513
 51
510.93845082036478
  0
LINE
  8
0
  6
CONTINUOUS
 62
               3
  5
1AB
 10
-20.000000000006121
 20
332.18952776705783
 30
0.0
 11
-52.500000000003155
 21
332.18952776705783
 31
0.0
  0
LINE
  8
0
  6
CONTINUOUS
 62
               3
  5
1AC
 10
-20.000000000002657
 20
283.64830816968868
 30
0.0
 11
-20.00000000000264
 21
328.04739214332744
 31
0.0
  0
ARC
  8
0
  6
CONTINUOUS
 62
               3
  5
1AD
 10
-30.00000000000264
 20
328.04739214332744
 30
0.0
 40
10.0
 50
359.99999999979269
 51
404.99999999976694
  0
LINE
  8
0
  6
CONTINUOUS
 62
               3
  5
1AE
 10
-22.928932188137143
 20
335.11845995519298
 30
0.0
 11
-45.750874115192005
 21
357.94040188224369
 31
0.0
  0
CIRCLE
  8
0
  6
CONTINUOUS
 62
               3
  5
1AF
 10
-0.0000000000031548
 20
332.18952776705783
 30
0.0
 40
52.5
  0
CIRCLE
  8
0
  6
CONTINUOUS
 62
               3
  5
1B0
 10
-0.0000000000031548
 20
332.18952776705783
 30
0.0
 40
74.999999999999488
  0
LINE
  8
0
  6
CONTINUOUS
 62
               3
  5
1B1
 10
-127.00000000000315
 20
277.18952776705783
 30
0.0
 11
-126.32844387403875
 21
277.18952776705783
 31
0.0
  0
LINE
  8
0
  6
CONTINUOUS
 62
               3
  5
1B2
 10
-123.8284438740387
 20
274.68952776705862
 30
0.0
 11
-126.32844387403875
 21
277.18952776705783
 31
0.0
  0
LINE
  8
0
  6
CONTINUOUS
 62
               3
  5
1B3
 10
-127.00000000000315
 20
387.18952776705771
 30
0.0
 11
-126.32844387403875
 21
387.18952776705771
 31
0.0
  0
LINE
  8
0
  6
CONTINUOUS
 62
               3
  5
1B4
 10
-123.8284438740387
 20
389.68952776705794
 30
0.0
 11
-126.32844387403875
 21
387.18952776705771
 31
0.0
  0
LINE
  8
0
  6
CONTINUOUS
 62
               3
  5
1B5
 10
-126.32844387403875
 20
387.18952776705771
 30
0.0
 11
-126.32844387403875
 21
277.18952776705783
 31
0.0
  0
LINE
  8
0
  6
CONTINUOUS
 62
               3
  5
1B6
 10
-127.00000000000315
 20
274.58952776705786
 30
0.0
 11
-127.00000000000315
 21
389.78952776705785
 31
0.0
  0
LINE
  8
0
  6
CONTINUOUS
 62
               3
  5
1B7
 10
-127.00000000000315
 20
389.78952776705785
 30
0.0
 11
-129.50000000000315
 21
389.78952776705785
 31
0.0
  0
ARC
  8
0
  6
CONTINUOUS
 62
               3
  5
1B8
 10
-129.50000000000315
 20
387.28952776705785
 30
0.0
 40
2.5
 50
89.999999999948344
 51
179.99999999989669
  0
LINE
  8
0
  6
CONTINUOUS
 62
               3
  5
1B9
 10
-132.00000000000315
 20
387.28952776705785
 30
0.0
 11
-132.00000000000315
 21
277.08952776705786
 31
0.0
  0
LINE
  8
0
  6
CONTINUOUS
 62
               3
  5
1BA
 10
-127.00000000000315
 20
274.58952776705786
 30
0.0
 11
-129.50000000000315
 21
274.58952776705786
 31
0.0
  0
ARC
  8
0
  6
CONTINUOUS
 62
               3
  5
1BB
 10
-129.50000000000315
 20
277.08952776705786
 30
0.0
 40
2.5
 50
179.99999999989669
 51
269.99999999984499
  0
LINE
  8
0
  6
CONTINUOUS
 62
               3
  5
1BC
 10
-123.8284438740387
 20
389.68952776705794
 30
0.0
 11
-123.82844387403796
 21
274.68952776705783
 31
0.0
  0
LINE
  8
0
  6
CONTINUOUS
 62
               3
  5
1BD
 10
-123.82844387403796
 20
274.68952776705783
 30
0.0
 11
-44.644248441781663
 21
271.92435473097765
 31
0.0
  0
LINE
  8
0
  6
CONTINUOUS
 62
               3
  5
1BE
 10
-123.82844387403875
 20
389.68952776705794
 30
0.0
 11
-44.644248441782949
 21
392.45470080313703
 31
0.0
  0
LINE
  8
0
  6
CONTINUOUS
 62
               3
  5
1BF
 10
674.9999999999975
 20
-72.810472232942175
 30
0.0
 11
524.9999999999975
 21
-72.810472232942175
 31
0.0
  0
LINE
  8
0
  6
CONTINUOUS
 62
               3
  5
1C0
 10
524.9999999999975
 20
-89.810472232942288
 30
0.0
 11
524.9999999999975
 21
-72.810472232942175
 31
0.0
  0
LINE
  8
0
  6
CONTINUOUS
 62
               3
  5
1C1
 10
524.9999999999975
 20
-89.810472232942288
 30
0.0
 11
674.9999999999975
 21
-89.810472232942288
 31
0.0
  0
LINE
  8
0
  6
CONTINUOUS
 62
               3
  5
1C2
 10
674.9999999999975
 20
-89.810472232942288
 30
0.0
 11
674.9999999999975
 21
-72.810472232942175
 31
0.0
  0
LINE
  8
0
  6
CONTINUOUS
 62
               3
  5
1C3
 10
527.9999999999975
 20
-94.39304792789801
 30
0.0
 11
527.99999999999795
 21
-153.84417428515405
 31
0.0
  0
LINE
  8
0
  6
CONTINUOUS
 62
               3
  5
1C4
 10
671.99999999999704
 20
-153.84417428515405
 30
0.0
 11
671.9999999999975
 21
-94.39304792789801
 31
0.0
  0
ARC
  8
0
  6
CONTINUOUS
 62
               3
  5
1C5
 10
522.9999999999975
 20
-94.39304792789801
 30
0.0
 40
5.0
 50
0.0
 51
66.421821521758318
  0
ARC
  8
0
  6
CONTINUOUS
 62
               3
  5
1C6
 10
676.9999999999975
 20
-94.39304792789801
 30
0.0
 40
5.0
 50
113.57817847813764
 51
179.9999999998962
  0
LINE
  8
0
  6
CONTINUOUS
 62
               3
  5
1C7
 10
532.9999999999975
 20
-276.31047223294223
 30
0.0
 11
532.99999999999886
 21
-167.44564479389078
 31
0.0
  0
LINE
  8
0
  6
CONTINUOUS
 62
               3
  5
1C8
 10
666.99999999999613
 20
-167.44564479389078
 30
0.0
 11
666.9999999999975
 21
-276.31047223294223
 31
0.0
  0
ARC
  8
0
  6
CONTINUOUS
 62
               3
  5
1C9
 10
538.99999999999795
 20
-153.84417428515405
 30
0.0
 40
11.0
 50
179.99999999989635
 51
220.36759354406303
  0
ARC
  8
0
  6
CONTINUOUS
 62
               3
  5
1CA
 10
522.99999999999886
 20
-167.44564479389078
 30
0.0
 40
10.0
 50
359.99999999979269
 51
400.36759354395878
  0
ARC
  8
0
  6
CONTINUOUS
 62
               3
  5
1CB
 10
660.99999999999704
 20
-153.84417428515405
 30
0.0
 40
11.0
 50
319.63240645562632
 51
359.99999999979275
  0
ARC
  8
0
  6
CONTINUOUS
 62
               3
  5
1CC
 10
676.99999999999613
 20
-167.44564479389078
 30
0.0
 40
10.0
 50
139.63240645573026
 51
179.99999999989652
  0
LINE
  8
0
  6
CONTINUOUS
 62
               3
  5
1CD
 10
532.99999999999773
 20
-276.31047223294252
 30
0.0
 11
666.99999999999773
 21
-276.31047223294252
 31
0.0
  0
LINE
  8
0
  6
CONTINUOUS
 62
               3
  5
1CE
 10
666.9999999999975
 20
-276.80292924972889
 30
0.0
 11
657.9999999999975
 21
-322.04898467886136
 31
0.0
  0
LINE
  8
0
  6
CONTINUOUS
 62
               3
  5
1CF
 10
657.9999999999975
 20
-322.04898467886136
 30
0.0
 11
657.9999999999975
 21
-331.3104722329424
 31
0.0
  0
LINE
  8
0
  6
CONTINUOUS
 62
               3
  5
1D0
 10
532.9999999999975
 20
-276.80292924972889
 30
0.0
 11
541.9999999999975
 21
-322.04898467886136
 31
0.0
  0
LINE
  8
0
  6
CONTINUOUS
 62
               3
  5
1D1
 10
541.9999999999975
 20
-322.04898467886136
 30
0.0
 11
541.9999999999975
 21
-331.31047223294235
 31
0.0
  0
LINE
  8
0
  6
CONTINUOUS
 62
               3
  5
1D2
 10
543.4999999999975
 20
-400.81047223294217
 30
0.0
 11
543.4999999999975
 21
-332.81047223294217
 31
0.0
  0
LINE
  8
0
  6
CONTINUOUS
 62
               3
  5
1D3
 10
543.4999999999975
 20
-400.81047223294217
 30
0.0
 11
545.4999999999975
 21
-402.81047223294217
 31
0.0
  0
LINE
  8
0
  6
CONTINUOUS
 62
               3
  5
1D4
 10
654.4999999999975
 20
-402.81047223294217
 30
0.0
 11
545.4999999999975
 21
-402.81047223294217
 31
0.0
  0
LINE
  8
0
  6
CONTINUOUS
 62
               3
  5
1D5
 10
656.4999999999975
 20
-400.81047223294217
 30
0.0
 11
654.4999999999975
 21
-402.81047223294217
 31
0.0
  0
LINE
  8
0
  6
CONTINUOUS
 62
               3
  5
1D6
 10
656.4999999999975
 20
-332.81047223294217
 30
0.0
 11
656.4999999999975
 21
-400.81047223294217
 31
0.0
  0
LINE
  8
0
  6
CONTINUOUS
 62
               3
  5
1D7
 10
656.4999999999975
 20
-332.81047223294217
 30
0.0
 11
657.9999999999975
 21
-331.3104722329424
 31
0.0
  0
LINE
  8
0
  6
CONTINUOUS
 62
               3
  5
1D8
 10
543.4999999999975
 20
-332.81047223294217
 30
0.0
 11
541.9999999999975
 21
-331.31047223294235
 31
0.0
  0
LINE
  8
0
  6
CONTINUOUS
 62
               3
  5
1D9
 10
541.9999999999975
 20
-331.31047223294235
 30
0.0
 11
657.9999999999975
 21
-331.3104722329424
 31
0.0
  0
LINE
  8
0
  6
CONTINUOUS
 62
               3
  5
1DA
 10
543.4999999999975
 20
-332.81047223294217
 30
0.0
 11
656.4999999999975
 21
-332.81047223294217
 31
0.0
  0
LINE
  8
0
  6
CONTINUOUS
 62
               3
  5
1DB
 10
-675.0000000000025
 20
-72.810472232942175
 30
0.0
 11
-525.00000000000261
 21
-72.810472232942175
 31
0.0
  0
LINE
  8
0
  6
CONTINUOUS
 62
               3
  5
1DC
 10
-525.00000000000261
 20
-89.810472232942288
 30
0.0
 11
-525.00000000000261
 21
-72.810472232942175
 31
0.0
  0
LINE
  8
0
  6
CONTINUOUS
 62
               3
  5
1DD
 10
-525.00000000000261
 20
-89.810472232942288
 30
0.0
 11
-675.0000000000025
 21
-89.810472232942288
 31
0.0
  0
LINE
  8
0
  6
CONTINUOUS
 62
               3
  5
1DE
 10
-675.0000000000025
 20
-89.810472232942288
 30
0.0
 11
-675.0000000000025
 21
-72.810472232942175
 31
0.0
  0
LINE
  8
0
  6
CONTINUOUS
 62
               3
  5
1DF
 10
-528.00000000000273
 20
-94.39304792789801
 30
0.0
 11
-528.00000000000307
 21
-153.84417428515405
 31
0.0
  0
LINE
  8
0
  6
CONTINUOUS
 62
               3
  5
1E0
 10
-672.00000000000205
 20
-153.84417428515405
 30
0.0
 11
-672.0000000000025
 21
-94.39304792789801
 31
0.0
  0
ARC
  8
0
  6
CONTINUOUS
 62
               3
  5
1E1
 10
-523.00000000000273
 20
-94.39304792789801
 30
0.0
 40
5.0
 50
113.57817847813764
 51
179.9999999998962
  0
ARC
  8
0
  6
CONTINUOUS
 62
               3
  5
1E2
 10
-677.0000000000025
 20
-94.39304792789801
 30
0.0
 40
5.0
 50
0.0
 51
66.421821521758318
  0
LINE
  8
0
  6
CONTINUOUS
 62
               3
  5
1E3
 10
-533.00000000000273
 20
-276.31047223294223
 30
0.0
 11
-533.00000000000398
 21
-167.44564479389078
 31
0.0
  0
LINE
  8
0
  6
CONTINUOUS
 62
               3
  5
1E4
 10
-667.00000000000114
 20
-167.44564479389078
 30
0.0
 11
-667.0000000000025
 21
-276.31047223294223
 31
0.0
  0
ARC
  8
0
  6
CONTINUOUS
 62
               3
  5
1E5
 10
-539.00000000000307
 20
-153.84417428515405
 30
0.0
 40
11.0
 50
319.6324064556261
 51
359.99999999979275
  0
ARC
  8
0
  6
CONTINUOUS
 62
               3
  5
1E6
 10
-523.00000000000398
 20
-167.44564479389078
 30
0.0
 40
10.0
 50
139.63240645573026
 51
179.99999999989652
  0
ARC
  8
0
  6
CONTINUOUS
 62
               3
  5
1E7
 10
-661.00000000000227
 20
-153.84417428515405
 30
0.0
 40
11.0
 50
179.99999999989635
 51
220.36759354406303
  0
ARC
  8
0
  6
CONTINUOUS
 62
               3
  5
1E8
 10
-677.00000000000114
 20
-167.44564479389078
 30
0.0
 40
10.0
 50
359.99999999979269
 51
400.36759354395878
  0
ARC
  8
0
  6
CONTINUOUS
 62
               3
  5
1E9
 10
-602.73886467040666
 20
-276.74237202303266
 30
0.0
 40
75.238995147991176
 50
66.25170940117296
 51
99.116170731671687
  0
ARC
  8
0
  6
CONTINUOUS
 62
               3
  5
1EA
 10
-615.29323283998815
 20
-198.50423431560785
 30
0.0
 40
4.0
 50
151.46651938393435
 51
279.11617073156862
  0
ARC
  8
0
  6
CONTINUOUS
 62
               3
  5
1EB
 10
-570.82778554144465
 20
-204.21305808109264
 30
0.0
 40
4.0
 50
246.25170940106756
 51
395.78778983828664
  0
ARC
  8
0
  6
CONTINUOUS
 62
               3
  5
1EC
 10
-597.47715094279624
 20
-191.44548204715443
 30
0.0
 40
15.395931900744419
 50
47.914158101608002
 51
144.58600371299664
  0
ARC
  8
0
  6
CONTINUOUS
 62
               3
  5
1ED
 10
-497.39489900960456
 20
-262.60703837944544
 30
0.0
 40
138.19831075251042
 50
144.58600371299676
 51
151.46651938393501
  0
ARC
  8
0
  6
CONTINUOUS
 62
               3
  5
1EE
 10
-680.24450729220052
 20
-283.09144566105448
 30
0.0
 40
138.88446547285218
 50
35.787789838494355
 51
47.914158101608159
  0
LINE
  8
0
  6
CONTINUOUS
 62
               3
  5
1EF
 10
-600.0000000000025
 20
-191.11314601384021
 30
0.0
 11
-575.17262784409922
 21
-205.9059864923405
 31
0.0
  0
LINE
  8
0
  6
CONTINUOUS
 62
               3
  5
1F0
 10
-600.0000000000025
 20
-191.11314608454336
 30
0.0
 11
-616.23122525713006
 21
-200.48424835602327
 31
0.0
  0
LINE
  8
0
  6
CONTINUOUS
 62
               3
  5
1F1
 10
-600.06237579684671
 20
-191.11314601384021
 30
0.0
 11
-600.06237579684671
 21
-177.62431406398673
 31
0.0
  0
LINE
  8
0
  6
CONTINUOUS
 62
               3
  5
1F2
 10
-533.00000000000273
 20
-276.802929249729
 30
0.0
 11
-542.00000000000261
 21
-322.04898467886153
 31
0.0
  0
LINE
  8
0
  6
CONTINUOUS
 62
               3
  5
1F3
 10
-542.00000000000261
 20
-322.04898467886153
 30
0.0
 11
-542.00000000000261
 21
-331.3104722329424
 31
0.0
  0
LINE
  8
0
  6
CONTINUOUS
 62
               3
  5
1F4
 10
-667.0000000000025
 20
-276.802929249729
 30
0.0
 11
-658.0000000000025
 21
-322.04898467886153
 31
0.0
  0
LINE
  8
0
  6
CONTINUOUS
 62
               3
  5
1F5
 10
-658.0000000000025
 20
-322.04898467886153
 30
0.0
 11
-658.0000000000025
 21
-331.31047223294235
 31
0.0
  0
LINE
  8
0
  6
CONTINUOUS
 62
               3
  5
1F6
 10
-656.5000000000025
 20
-400.81047223294217
 30
0.0
 11
-656.5000000000025
 21
-332.81047223294217
 31
0.0
  0
LINE
  8
0
  6
CONTINUOUS
 62
               3
  5
1F7
 10
-656.5000000000025
 20
-400.81047223294217
 30
0.0
 11
-654.5000000000025
 21
-402.81047223294217
 31
0.0
  0
LINE
  8
0
  6
CONTINUOUS
 62
               3
  5
1F8
 10
-545.50000000000273
 20
-402.81047223294217
 30
0.0
 11
-654.5000000000025
 21
-402.81047223294217
 31
0.0
  0
LINE
  8
0
  6
CONTINUOUS
 62
               3
  5
1F9
 10
-543.50000000000261
 20
-400.81047223294217
 30
0.0
 11
-545.50000000000261
 21
-402.81047223294217
 31
0.0
  0
LINE
  8
0
  6
CONTINUOUS
 62
               3
  5
1FA
 10
-543.50000000000261
 20
-332.81047223294217
 30
0.0
 11
-543.50000000000261
 21
-400.81047223294217
 31
0.0
  0
LINE
  8
0
  6
CONTINUOUS
 62
               3
  5
1FB
 10
-543.50000000000261
 20
-332.81047223294217
 30
0.0
 11
-542.00000000000273
 21
-331.3104722329424
 31
0.0
  0
LINE
  8
0
  6
CONTINUOUS
 62
               3
  5
1FC
 10
-656.5000000000025
 20
-332.81047223294217
 30
0.0
 11
-658.0000000000025
 21
-331.31047223294235
 31
0.0
  0
LINE
  8
0
  6
CONTINUOUS
 62
               3
  5
1FD
 10
-658.0000000000025
 20
-331.31047223294235
 30
0.0
 11
-542.00000000000273
 21
-331.3104722329424
 31
0.0
  0
LINE
  8
0
  6
CONTINUOUS
 62
               3
  5
1FE
 10
-656.5000000000025
 20
-332.81047223294217
 30
0.0
 11
-543.50000000000261
 21
-332.81047223294217
 31
0.0
  0
LINE
  8
0
  6
CONTINUOUS
 62
               3
  5
1FF
 10
-573.2126429075231
 20
-237.81047223294229
 30
0.0
 11
-626.78735709248213
 21
-237.81047223294229
 31
0.0
  0
CIRCLE
  8
0
  6
CONTINUOUS
 62
               3
  5
200
 10
-600.0000000000025
 20
-265.81047223294217
 30
0.0
 40
38.75
  0
LINE
  8
0
  6
CONTINUOUS
 62
               3
  5
201
 10
-631.81980515339728
 20
-297.63027738633673
 30
0.0
 11
-633.44615075012621
 21
-299.25662298306588
 31
0.0
  0
LINE
  8
0
  6
CONTINUOUS
 62
               3
  5
202
 10
-568.18019484660795
 20
-297.63027738633673
 30
0.0
 11
-566.55384924987879
 21
-299.25662298306577
 31
0.0
  0
CIRCLE
  8
0
  6
CONTINUOUS
 62
               3
  5
203
 10
-600.0000000000025
 20
-265.81047223294217
 30
0.0
 40
48.5
  0
CIRCLE
  8
0
  6
CONTINUOUS
 62
               3
  5
204
 10
-600.0000000000025
 20
-265.81047223294217
 30
0.0
 40
47.299999999999997
  0
ARC
  8
0
  6
CONTINUOUS
 62
               3
  5
205
 10
-600.0000000000025
 20
-265.81047223294217
 30
0.0
 40
45.0
 50
224.99999999987045
 51
314.99999999981878
  0
CIRCLE
  8
0
  6
CONTINUOUS
 62
               3
  5
206
 10
-600.0000000000025
 20
-265.81047223294217
 30
0.0
 40
43.0
  0
CIRCLE
  8
0
  6
CONTINUOUS
 62
               3
  5
207
 10
-600.0000000000025
 20
-265.81047223294217
 30
0.0
 40
57.600000000000001
  0
CIRCLE
  8
0
  6
CONTINUOUS
 62
               3
  5
208
 10
-0.0000000000026432
 20
332.18952776705783
 30
0.0
 40
59.0
  0
CIRCLE
  8
0
  6
CONTINUOUS
 62
               3
  5
209
 10
609.28652321630534
 20
-764.10231296893608
 30
0.0
 40
75.0
  0
CIRCLE
  8
0
  6
CONTINUOUS
 62
               3
  5
20A
 10
609.28652321630534
 20
-764.10231296893608
 30
0.0
 40
52.5
  0
LINE
  8
0
  6
CONTINUOUS
 62
               3
  5
20B
 10
523.07602501567999
 20
-744.10231296893608
 30
0.0
 11
537.00236174229985
 21
-744.10231296893608
 31
0.0
  0
LINE
  8
0
  6
CONTINUOUS
 62
               3
  5
20C
 10
537.00236174229985
 20
-784.10231296893608
 30
0.0
 11
523.07602501567999
 21
-784.10231296893608
 31
0.0
  0
ARC
  8
0
  6
CONTINUOUS
 62
               3
  5
20D
 10
609.28652321630534
 20
-764.10231296893608
 30
0.0
 40
88.5
 50
166.93897588507147
 51
193.06102411465253
  0
LINE
  8
0
  6
CONTINUOUS
 62
               3
  5
20E
 10
589.28652321630523
 20
-850.31281116956097
 30
0.0
 11
589.28652321630523
 21
-836.38647444294111
 31
0.0
  0
LINE
  8
0
  6
CONTINUOUS
 62
               3
  5
20F
 10
629.28652321630534
 20
-836.38647444294111
 30
0.0
 11
629.28652321630534
 21
-850.31281116956097
 31
0.0
  0
ARC
  8
0
  6
CONTINUOUS
 62
               3
  5
210
 10
609.28652321630534
 20
-764.10231296893608
 30
0.0
 40
88.5
 50
256.93897588500261
 51
283.06102411458357
  0
LINE
  8
0
  6
CONTINUOUS
 62
               3
  5
211
 10
695.49702141693001
 20
-784.10231296893608
 30
0.0
 11
681.57068469030969
 21
-784.10231296893608
 31
0.0
  0
LINE
  8
0
  6
CONTINUOUS
 62
               3
  5
212
 10
681.57068469030969
 20
-744.10231296893608
 30
0.0
 11
695.49702141693001
 21
-744.10231296893608
 31
0.0
  0
ARC
  8
0
  6
CONTINUOUS
 62
               3
  5
213
 10
609.28652321630534
 20
-764.10231296893608
 30
0.0
 40
88.5
 50
346.93897588493354
 51
373.06102411451457
  0
LINE
  8
0
  6
CONTINUOUS
 62
               3
  5
214
 10
629.28652321630534
 20
-677.8918147683105
 30
0.0
 11
629.28652321630534
 21
-691.81815149493104
 31
0.0
  0
LINE
  8
0
  6
CONTINUOUS
 62
               3
  5
215
 10
589.28652321630523
 20
-691.81815149493104
 30
0.0
 11
589.28652321630523
 21
-677.8918147683105
 31
0.0
  0
ARC
  8
0
  6
CONTINUOUS
 62
               3
  5
216
 10
609.28652321630534
 20
-764.10231296893608
 30
0.0
 40
88.5
 50
76.938975885140493
 51
103.06102411472153
  0
LINE
  8
0
  6
CONTINUOUS
 62
               3
  5
217
 10
561.61839969544428
 20
-786.10231296893653
 30
0.0
 11
656.95464673716538
 21
-786.10231296893653
 31
0.0
  0
ARC
  8
0
  6
CONTINUOUS
 62
               3
  5
218
 10
621.79013486568647
 20
-755.39591534131705
 30
0.0
 40
54.763804151667173
 50
141.3859176367296
 51
145.15009542084252
  0
ARC
  8
0
  6
CONTINUOUS
 62
               3
  5
219
 10
609.28652321630534
 20
-764.10231296893608
 30
0.0
 40
51.5
 50
334.7109884732011
 51
410.95932736332554
  0
ARC
  8
0
  6
CONTINUOUS
 62
               3
  5
21A
 10
609.28652321630534
 20
-764.10231296893608
 30
0.0
 40
51.5
 50
129.04067263626098
 51
205.289011526385
  0
ARC
  8
0
  6
CONTINUOUS
 62
               3
  5
21B
 10
609.28652321630534
 20
-764.10231296893608
 30
0.0
 40
77.5
 50
104.95524831656299
 51
128.57288309093474
  0
ARC
  8
0
  6
CONTINUOUS
 62
               3
  5
21C
 10
609.28652321630534
 20
-764.10231296893608
 30
0.0
 40
77.5
 50
14.95524831663182
 51
75.044751683299182
  0
ARC
  8
0
  6
CONTINUOUS
 62
               3
  5
21D
 10
609.28652321630534
 20
-764.10231296893608
 30
0.0
 40
77.5
 50
321.42711690871977
 51
345.04475168309216
  0
LINE
  8
0
  6
CONTINUOUS
 62
               3
  5
21E
 10
469.28652321630523
 20
-819.10231296893608
 30
0.0
 11
469.95807934226946
 21
-819.10231296893608
 31
0.0
  0
LINE
  8
0
  6
CONTINUOUS
 62
               3
  5
21F
 10
472.45807934226991
 20
-821.60231296893608
 30
0.0
 11
469.95807934226946
 21
-819.10231296893608
 31
0.0
  0
LINE
  8
0
  6
CONTINUOUS
 62
               3
  5
220
 10
469.28652321630523
 20
-709.10231296893608
 30
0.0
 11
469.95807934226946
 21
-709.10231296893608
 31
0.0
  0
LINE
  8
0
  6
CONTINUOUS
 62
               3
  5
221
 10
472.45807934226946
 20
-706.60231296893608
 30
0.0
 11
469.95807934226946
 21
-709.10231296893608
 31
0.0
  0
LINE
  8
0
  6
CONTINUOUS
 62
               3
  5
222
 10
469.95807934226946
 20
-709.10231296893608
 30
0.0
 11
469.95807934226946
 21
-819.10231296893608
 31
0.0
  0
LINE
  8
0
  6
CONTINUOUS
 62
               3
  5
223
 10
563.79618742992727
 20
-703.41271595059447
 30
0.0
 11
472.45807934226946
 21
-706.60231296893608
 31
0.0
  0
LINE
  8
0
  6
CONTINUOUS
 62
               3
  5
224
 10
544.45005149975418
 20
-824.11632803390376
 30
0.0
 11
472.45807934227003
 21
-821.60231296893608
 31
0.0
  0
LINE
  8
0
  6
CONTINUOUS
 62
               3
  5
225
 10
464.28652321630523
 20
-709.27386909490019
 30
0.0
 11
464.28652321630523
 21
-819.20231296893621
 31
0.0
  0
LINE
  8
0
  6
CONTINUOUS
 62
               3
  5
226
 10
469.28652321630523
 20
-821.70231296893621
 30
0.0
 11
469.28652321630523
 21
-706.50231296893617
 31
0.0
  0
LINE
  8
0
  6
CONTINUOUS
 62
               3
  5
227
 10
469.28652321630523
 20
-706.50231296893617
 30
0.0
 11
466.78652321630523
 21
-706.50231296893617
 31
0.0
  0
LINE
  8
0
  6
CONTINUOUS
 62
               3
  5
228
 10
469.28652321630523
 20
-821.70231296893621
 30
0.0
 11
466.78652321630523
 21
-821.70231296893621
 31
0.0
  0
ARC
  8
0
  6
CONTINUOUS
 62
               3
  5
229
 10
466.78652321630523
 20
-819.20231296893621
 30
0.0
 40
2.5
 50
179.99999999985891
 51
269.99999999979229
  0
ARC
  8
0
  6
CONTINUOUS
 62
               3
  5
22A
 10
466.78652321630523
 20
-709.00231296893617
 30
0.0
 40
2.5
 50
89.999999999932058
 51
179.9999999998615
  0
LINE
  8
0
  6
CONTINUOUS
 62
               3
  5
22B
 10
576.84812004968774
 20
-724.1023129689363
 30
0.0
 11
609.28652321630534
 21
-724.1023129689363
 31
0.0
  0
LINE
  8
0
  6
CONTINUOUS
 62
               3
  5
22C
 10
609.28652321630534
 20
-724.1023129689363
 30
0.0
 11
643.29019948814403
 21
-724.1023129689363
 31
0.0
  0
LINE
  8
0
  6
CONTINUOUS
 62
               3
  5
22D
 10
472.45807934226991
 20
-821.60231296893608
 30
0.0
 11
472.45807934226946
 21
-706.60231296893608
 31
0.0
  0
ARC
  8
0
  6
CONTINUOUS
 62
               3
  5
22E
 10
563.6216899464149
 20
-698.41576181549908
 30
0.0
 40
5.0
 50
271.9999999997919
 51
304.80675787019305
  0
LINE
  8
0
  6
CONTINUOUS
 62
               3
  5
22F
 10
664.28652321630534
 20
-904.10231296893608
 30
0.0
 11
664.28652321630534
 21
-903.43075684297173
 31
0.0
  0
LINE
  8
0
  6
CONTINUOUS
 62
               3
  5
230
 10
666.78652321630534
 20
-900.93075684297128
 30
0.0
 11
664.28652321630534
 21
-903.43075684297173
 31
0.0
  0
LINE
  8
0
  6
CONTINUOUS
 62
               3
  5
231
 10
554.28652321630511
 20
-904.10231296893608
 30
0.0
 11
554.28652321630511
 21
-903.43075684297173
 31
0.0
  0
LINE
  8
0
  6
CONTINUOUS
 62
               3
  5
232
 10
551.78652321630511
 20
-900.93075684297173
 30
0.0
 11
554.28652321630511
 21
-903.43075684297173
 31
0.0
  0
LINE
  8
0
  6
CONTINUOUS
 62
               3
  5
233
 10
554.28652321630511
 20
-903.43075684297173
 30
0.0
 11
664.28652321630534
 21
-903.43075684297173
 31
0.0
  0
LINE
  8
0
  6
CONTINUOUS
 62
               3
  5
234
 10
554.45807934226923
 20
-909.10231296893608
 30
0.0
 11
664.38652321630525
 21
-909.10231296893608
 31
0.0
  0
LINE
  8
0
  6
CONTINUOUS
 62
               3
  5
235
 10
666.88652321630525
 20
-904.10231296893608
 30
0.0
 11
551.68652321630509
 21
-904.10231296893608
 31
0.0
  0
LINE
  8
0
  6
CONTINUOUS
 62
               3
  5
236
 10
551.68652321630509
 20
-904.10231296893608
 30
0.0
 11
551.68652321630509
 21
-906.60231296893608
 31
0.0
  0
LINE
  8
0
  6
CONTINUOUS
 62
               3
  5
237
 10
666.88652321630525
 20
-904.10231296893608
 30
0.0
 11
666.88652321630525
 21
-906.60231296893608
 31
0.0
  0
ARC
  8
0
  6
CONTINUOUS
 62
               3
  5
238
 10
664.38652321630525
 20
-906.60231296893608
 30
0.0
 40
2.5
 50
269.99999999979354
 51
359.999999999723
  0
ARC
  8
0
  6
CONTINUOUS
 62
               3
  5
239
 10
554.18652321630509
 20
-906.60231296893608
 30
0.0
 40
2.5
 50
179.99999999985891
 51
269.99999999979354
  0
LINE
  8
0
  6
CONTINUOUS
 62
               3
  5
23A
 10
666.78652321630534
 20
-900.93075684297128
 30
0.0
 11
551.78652321630511
 21
-900.93075684297173
 31
0.0
  0
LINE
  8
0
  6
CONTINUOUS
 62
               3
  5
23B
 10
669.97612023464649
 20
-809.59264875531471
 30
0.0
 11
666.78652321630534
 21
-900.93075684297128
 31
0.0
  0
ARC
  8
0
  6
CONTINUOUS
 62
               3
  5
23C
 10
674.97307436974188
 20
-809.76714623882708
 30
0.0
 40
5.0
 50
145.19324212946151
 51
177.99999999986429
  0
LINE
  8
0
  6
CONTINUOUS
 62
               3
  5
23D
 10
549.27250815133709
 20
-828.93878468548701
 30
0.0
 11
551.78652321630511
 21
-900.93075684297173
 31
0.0
  0
ARC
  8
0
  6
CONTINUOUS
 62
               3
  5
23E
 10
544.2755540162417
 20
-829.11328216899915
 30
0.0
 40
5.0
 50
1.9999999999958187
 51
87.999999999932243
  0
LINE
  8
0
  6
CONTINUOUS
 62
               3
  5
23F
 10
534.28652321630523
 20
-1072.6017467175204
 30
0.0
 11
684.28652321630534
 21
-1072.6017467175204
 31
0.0
  0
LINE
  8
0
  6
CONTINUOUS
 62
               3
  5
240
 10
520.786523216305
 20
-1082.6017467175204
 30
0.0
 11
520.786523216305
 21
-1089.60174671752
 31
0.0
  0
LINE
  8
0
  6
CONTINUOUS
 62
               3
  5
241
 10
520.786523216305
 20
-1082.6017467175204
 30
0.0
 11
534.28652321630523
 21
-1072.6017467175204
 31
0.0
  0
ARC
  8
0
  6
CONTINUOUS
 62
               3
  5
242
 10
532.28652321630534
 20
-1094.1843224124757
 30
0.0
 40
4.9999999999999991
 50
0.0
 51
66.421821521747205
  0
LINE
  8
0
  6
CONTINUOUS
 62
               3
  5
243
 10
520.786523216305
 20
-1089.60174671752
 30
0.0
 11
697.78652321630511
 21
-1089.60174671752
 31
0.0
  0
ARC
  8
0
  6
CONTINUOUS
 62
               3
  5
244
 10
554.28652321630523
 20
-1179.6017467175204
 30
0.0
 40
19.999999999999996
 50
148.2116693828344
 51
167.26981986155914
  0
LINE
  8
0
  6
CONTINUOUS
 62
               3
  5
245
 10
537.28652321630534
 20
-1094.1843224124757
 30
0.0
 11
537.28652321630534
 21
-1169.0660929646676
 31
0.0
  0
LINE
  8
0
  6
CONTINUOUS
 62
               3
  5
246
 10
681.28652321630534
 20
-1164.0660929646672
 30
0.0
 11
681.28652321630534
 21
-1094.1843224124757
 31
0.0
  0
LINE
  8
0
  6
CONTINUOUS
 62
               3
  5
247
 10
537.28652321630534
 20
-1169.0660929646676
 30
0.0
 11
680.7865232163058
 21
-1169.0660929646676
 31
0.0
  0
LINE
  8
0
  6
CONTINUOUS
 62
               3
  5
248
 10
589.28652321630523
 20
-1089.60174671752
 30
0.0
 11
589.28652321630523
 21
-1072.6017467175204
 31
0.0
  0
LINE
  8
0
  6
CONTINUOUS
 62
               3
  5
249
 10
629.28652321630534
 20
-1072.6017467175204
 30
0.0
 11
629.28652321630534
 21
-1089.60174671752
 31
0.0
  0
LINE
  8
0
  6
CONTINUOUS
 62
               3
  5
24A
 10
589.28652321630523
 20
-1082.6017467175204
 30
0.0
 11
629.28652321630534
 21
-1082.6017467175204
 31
0.0
  0
LINE
  8
0
  6
CONTINUOUS
 62
               3
  5
24B
 10
537.00236174229985
 20
-1072.6017467175204
 30
0.0
 11
537.00236174229985
 21
-1089.60174671752
 31
0.0
  0
LINE
  8
0
  6
CONTINUOUS
 62
               3
  5
24C
 10
523.07602501567999
 20
-1082.6017467175204
 30
0.0
 11
523.07602501567999
 21
-1089.60174671752
 31
0.0
  0
LINE
  8
0
  6
CONTINUOUS
 62
               3
  5
24D
 10
520.786523216305
 20
-1082.6017467175204
 30
0.0
 11
523.07602501567999
 21
-1082.6017467175204
 31
0.0
  0
LINE
  8
0
  6
CONTINUOUS
 62
               3
  5
24E
 10
523.07602501567999
 20
-1082.6017467175204
 30
0.0
 11
537.00236174229985
 21
-1072.6017467175204
 31
0.0
  0
LINE
  8
0
  6
CONTINUOUS
 62
               3
  5
24F
 10
697.78652321630511
 20
-1082.6017467175204
 30
0.0
 11
697.78652321630511
 21
-1089.60174671752
 31
0.0
  0
LINE
  8
0
  6
CONTINUOUS
 62
               3
  5
250
 10
697.78652321630511
 20
-1082.6017467175204
 30
0.0
 11
684.28652321630534
 21
-1072.6017467175204
 31
0.0
  0
ARC
  8
0
  6
CONTINUOUS
 62
               3
  5
251
 10
686.28652321630534
 20
-1094.1843224124757
 30
0.0
 40
4.9999999999999991
 50
113.5781784781135
 51
179.9999999998615
  0
LINE
  8
0
  6
CONTINUOUS
 62
               3
  5
252
 10
681.57068469030969
 20
-1072.6017467175204
 30
0.0
 11
681.57068469030969
 21
-1089.60174671752
 31
0.0
  0
LINE
  8
0
  6
CONTINUOUS
 62
               3
  5
253
 10
695.49702141693069
 20
-1082.6017467175204
 30
0.0
 11
695.49702141693069
 21
-1089.60174671752
 31
0.0
  0
LINE
  8
0
  6
CONTINUOUS
 62
               3
  5
254
 10
697.78652321630511
 20
-1082.6017467175204
 30
0.0
 11
695.49702141693069
 21
-1082.6017467175204
 31
0.0
  0
LINE
  8
0
  6
CONTINUOUS
 62
               3
  5
255
 10
695.49702141693069
 20
-1082.6017467175204
 30
0.0
 11
681.57068469030969
 21
-1072.6017467175204
 31
0.0
  0
ARC
  8
0
  6
CONTINUOUS
 62
               3
  5
256
 10
544.28652321630523
 20
-1301.1017467175207
 30
0.0
 40
2.4999999999999996
 50
89.999999999929457
 51
269.99999999979354
  0
ARC
  8
0
  6
CONTINUOUS
 62
               3
  5
257
 10
684.28652321630534
 20
-1301.1017467175207
 30
0.0
 40
2.4999999999999996
 50
269.99999999979354
 51
449.99999999965507
  0
LINE
  8
0
  6
CONTINUOUS
 62
               3
  5
258
 10
469.28652321630523
 20
-1293.6017467175207
 30
0.0
 11
469.95807934226957
 21
-1293.6017467175207
 31
0.0
  0
LINE
  8
0
  6
CONTINUOUS
 62
               3
  5
259
 10
472.45807934226968
 20
-1296.1017467175202
 30
0.0
 11
469.95807934226957
 21
-1293.6017467175207
 31
0.0
  0
LINE
  8
0
  6
CONTINUOUS
 62
               3
  5
25A
 10
472.45807934227048
 20
-1296.1017467175207
 30
0.0
 11
514.62318959854781
 21
-1297.5741848133748
 31
0.0
  0
LINE
  8
0
  6
CONTINUOUS
 62
               3
  5
25B
 10
532.82205712223777
 20
-1313.8734361438069
 30
0.0
 11
517.98422602096798
 21
-1299.0356050425376
 31
0.0
  0
ARC
  8
0
  6
CONTINUOUS
 62
               3
  5
25C
 10
529.28652321630523
 20
-1317.4089700497398
 30
0.0
 40
4.9999999999999991
 50
0.0
 51
44.999999999964892
  0
LINE
  8
0
  6
CONTINUOUS
 62
               3
  5
25D
 10
469.28652321630523
 20
-1183.6017467175204
 30
0.0
 11
469.95807934226957
 21
-1183.6017467175204
 31
0.0
  0
LINE
  8
0
  6
CONTINUOUS
 62
               3
  5
25E
 10
472.45807934226968
 20
-1181.1017467175204
 30
0.0
 11
469.95807934226957
 21
-1183.6017467175204
 31
0.0
  0
LINE
  8
0
  6
CONTINUOUS
 62
               3
  5
25F
 10
472.45807934226957
 20
-1181.1017467175204
 30
0.0
 11
530.07555554444389
 21
-1179.0897001123681
 31
0.0
  0
LINE
  8
0
  6
CONTINUOUS
 62
               3
  5
260
 10
469.95807934226957
 20
-1183.6017467175204
 30
0.0
 11
469.95807934226957
 21
-1293.6017467175207
 31
0.0
  0
LINE
  8
0
  6
CONTINUOUS
 62
               3
  5
261
 10
469.28652321630523
 20
-1296.2017467175206
 30
0.0
 11
469.28652321630523
 21
-1181.0017467175205
 31
0.0
  0
LINE
  8
0
  6
CONTINUOUS
 62
               3
  5
262
 10
469.28652321630523
 20
-1181.0017467175205
 30
0.0
 11
466.78652321630523
 21
-1181.0017467175205
 31
0.0
  0
ARC
  8
0
  6
CONTINUOUS
 62
               3
  5
263
 10
466.78652321630523
 20
-1183.5017467175205
 30
0.0
 40
2.5
 50
89.999999999932058
 51
179.99999999985891
  0
LINE
  8
0
  6
CONTINUOUS
 62
               3
  5
264
 10
464.28652321630523
 20
-1183.5017467175205
 30
0.0
 11
464.28652321630523
 21
-1293.7017467175206
 31
0.0
  0
LINE
  8
0
  6
CONTINUOUS
 62
               3
  5
265
 10
469.28652321630523
 20
-1296.2017467175206
 30
0.0
 11
466.78652321630523
 21
-1296.2017467175206
 31
0.0
  0
ARC
  8
0
  6
CONTINUOUS
 62
               3
  5
266
 10
466.78652321630523
 20
-1293.7017467175206
 30
0.0
 40
2.5
 50
179.99999999985891
 51
269.99999999979229
  0
LINE
  8
0
  6
CONTINUOUS
 62
               3
  5
267
 10
472.45807934226968
 20
-1181.1017467175204
 30
0.0
 11
472.45807934227048
 21
-1296.1017467175207
 31
0.0
  0
ARC
  8
0
  6
CONTINUOUS
 62
               3
  5
268
 10
514.44869211503533
 20
-1302.5711389484704
 30
0.0
 40
5.0
 50
44.999999999968587
 51
87.999999999932243
  0
ARC
  8
0
  6
CONTINUOUS
 62
               3
  5
269
 10
529.9010580609314
 20
-1174.0927459772727
 30
0.0
 40
5.0
 50
271.9999999997919
 51
347.26981986141988
  0
CIRCLE
  8
0
  6
CONTINUOUS
 62
               3
  5
26A
 10
609.28652321630534
 20
-1238.6017467175204
 30
0.0
 40
48.5
  0
CIRCLE
  8
0
  6
CONTINUOUS
 62
               3
  5
26B
 10
609.28652321630534
 20
-1238.6017467175204
 30
0.0
 40
47.299999999999997
  0
LINE
  8
0
  6
CONTINUOUS
 62
               3
  5
26C
 10
577.46671806291067
 20
-1270.4215518709152
 30
0.0
 11
575.84037246618152
 21
-1272.0478974676444
 31
0.0
  0
LINE
  8
0
  6
CONTINUOUS
 62
               3
  5
26D
 10
641.10632836970012
 20
-1270.4215518709152
 30
0.0
 11
642.73267396642905
 21
-1272.0478974676444
 31
0.0
  0
ARC
  8
0
  6
CONTINUOUS
 62
               3
  5
26E
 10
609.28652321630534
 20
-1238.6017467175204
 30
0.0
 40
45.0
 50
224.99999999982745
 51
314.99999999975864
  0
CIRCLE
  8
0
  6
CONTINUOUS
 62
               3
  5
26F
 10
609.28652321630534
 20
-1238.6017467175204
 30
0.0
 40
57.600000000000001
  0
ARC
  8
0
  6
CONTINUOUS
 62
               3
  5
270
 10
586.78652321630591
 20
-1301.1017467175207
 30
0.0
 40
2.4999999999999996
 50
269.99999999979354
 51
449.99999999965507
  0
ARC
  8
0
  6
CONTINUOUS
 62
               3
  5
271
 10
631.78652321630602
 20
-1301.1017467175207
 30
0.0
 40
2.4999999999999996
 50
89.999999999929457
 51
269.99999999979354
  0
LINE
  8
0
  6
CONTINUOUS
 62
               3
  5
272
 10
544.28652321630523
 20
-1303.6017467175207
 30
0.0
 11
586.78652321630591
 21
-1303.6017467175207
 31
0.0
  0
LINE
  8
0
  6
CONTINUOUS
 62
               3
  5
273
 10
544.28652321630523
 20
-1298.6017467175207
 30
0.0
 11
586.78652321630591
 21
-1298.6017467175207
 31
0.0
  0
LINE
  8
0
  6
CONTINUOUS
 62
               3
  5
274
 10
631.78652321630602
 20
-1298.6017467175207
 30
0.0
 11
684.28652321630534
 21
-1298.6017467175207
 31
0.0
  0
LINE
  8
0
  6
CONTINUOUS
 62
               3
  5
275
 10
631.78652321630602
 20
-1303.6017467175207
 30
0.0
 11
684.28652321630534
 21
-1303.6017467175207
 31
0.0
  0
CIRCLE
  8
0
  6
CONTINUOUS
 62
               3
  5
276
 10
609.28652321630534
 20
-764.10231296893608
 30
0.0
 40
59.0
  0
CIRCLE
  8
0
  6
CONTINUOUS
 62
               7
  5
277
 10
-392.13776905047132
 20
-828.2867485407271
 30
0.0
 40
38.0
  0
CIRCLE
  8
0
  6
CONTINUOUS
 62
               7
  5
278
 10
-392.13776905047132
 20
-828.2867485407271
 30
0.0
 40
33.5
  0
LINE
  8
0
  6
CONTINUOUS
 62
               7
  5
279
 10
-247.63776905047135
 20
-777.2867485407271
 30
0.0
 11
-247.63776905047135
 21
-866.28151242005265
 31
0.0
  0
LINE
  8
0
  6
CONTINUOUS
 62
               7
  5
27A
 10
-247.03776905047133
 20
-777.2867485407271
 30
0.0
 11
-247.63776905047135
 21
-777.2867485407271
 31
0.0
  0
LINE
  8
0
  6
CONTINUOUS
 62
               7
  5
27B
 10
-282.63776905047132
 20
-865.2867485407271
 30
0.0
 11
-282.63776905047132
 21
-791.2867485407271
 31
0.0
  0
LINE
  8
0
  6
CONTINUOUS
 62
               7
  5
27C
 10
-189.63776905047135
 20
-865.2867485407271
 30
0.0
 11
-189.63776905047135
 21
-778.2867485407271
 31
0.0
  0
LINE
  8
0
  6
CONTINUOUS
 62
               7
  5
27D
 10
-247.63776905047135
 20
-777.2867485407271
 30
0.0
 11
-190.63776905047135
 21
-777.2867485407271
 31
0.0
  0
LINE
  8
0
  6
CONTINUOUS
 62
               7
  5
27E
 10
-281.63776905047132
 20
-866.2867485407271
 30
0.0
 11
-190.63776905047135
 21
-866.2867485407271
 31
0.0
  0
LINE
  8
0
  6
CONTINUOUS
 62
               7
  5
27F
 10
-190.63776905047135
 20
-777.2867485407271
 30
0.0
 11
-189.63776905047135
 21
-778.2867485407271
 31
0.0
  0
LINE
  8
0
  6
CONTINUOUS
 62
               7
  5
280
 10
-189.63776905047135
 20
-865.2867485407271
 30
0.0
 11
-190.63776905047135
 21
-866.2867485407271
 31
0.0
  0
LINE
  8
0
  6
CONTINUOUS
 62
               7
  5
281
 10
-281.63776905047132
 20
-790.2867485407271
 30
0.0
 11
-247.63776905047135
 21
-790.2867485407271
 31
0.0
  0
CIRCLE
  8
0
  6
CONTINUOUS
 62
               7
  5
282
 10
-392.13776905047132
 20
-821.7867485407271
 30
0.0
 40
44.5
  0
LINE
  8
0
  6
CONTINUOUS
 62
               7
  5
283
 10
-281.63776905047132
 20
-790.2867485407271
 30
0.0
 11
-282.63776905047132
 21
-791.2867485407271
 31
0.0
  0
LINE
  8
0
  6
CONTINUOUS
 62
               7
  5
284
 10
-282.63776905047132
 20
-865.2867485407271
 30
0.0
 11
-281.63776905047132
 21
-866.2867485407271
 31
0.0
  0
LINE
  8
0
  6
CONTINUOUS
 62
               7
  5
285
 10
-536.63776905047098
 20
-777.28674854072688
 30
0.0
 11
-536.63776905047121
 21
-866.28151242005242
 31
0.0
  0
LINE
  8
0
  6
CONTINUOUS
 62
               7
  5
286
 10
-537.23776905047112
 20
-777.28674854072688
 30
0.0
 11
-536.63776905047098
 21
-777.28674854072688
 31
0.0
  0
LINE
  8
0
  6
CONTINUOUS
 62
               7
  5
287
 10
-501.63776905047132
 20
-865.28674854072688
 30
0.0
 11
-501.63776905047121
 21
-791.28674854072688
 31
0.0
  0
LINE
  8
0
  6
CONTINUOUS
 62
               7
  5
288
 10
-594.63776905047121
 20
-865.28674854072688
 30
0.0
 11
-594.63776905047098
 21
-778.28674854072688
 31
0.0
  0
LINE
  8
0
  6
CONTINUOUS
 62
               7
  5
289
 10
-536.63776905047098
 20
-777.28674854072688
 30
0.0
 11
-593.63776905047098
 21
-777.28674854072688
 31
0.0
  0
LINE
  8
0
  6
CONTINUOUS
 62
               7
  5
28A
 10
-502.63776905047132
 20
-866.28674854072688
 30
0.0
 11
-593.63776905047121
 21
-866.28674854072688
 31
0.0
  0
LINE
  8
0
  6
CONTINUOUS
 62
               7
  5
28B
 10
-593.63776905047098
 20
-777.28674854072688
 30
0.0
 11
-594.63776905047098
 21
-778.28674854072688
 31
0.0
  0
LINE
  8
0
  6
CONTINUOUS
 62
               7
  5
28C
 10
-594.63776905047121
 20
-865.28674854072688
 30
0.0
 11
-593.63776905047121
 21
-866.28674854072688
 31
0.0
  0
LINE
  8
0
  6
CONTINUOUS
 62
               7
  5
28D
 10
-502.63776905047121
 20
-790.28674854072688
 30
0.0
 11
-536.63776905047098
 21
-790.28674854072688
 31
0.0
  0
LINE
  8
0
  6
CONTINUOUS
 62
               7
  5
28E
 10
-502.63776905047121
 20
-790.28674854072688
 30
0.0
 11
-501.63776905047121
 21
-791.28674854072688
 31
0.0
  0
LINE
  8
0
  6
CONTINUOUS
 62
               7
  5
28F
 10
-501.63776905047132
 20
-865.28674854072688
 30
0.0
 11
-502.63776905047132
 21
-866.28674854072688
 31
0.0
  0
LINE
  8
0
  6
CONTINUOUS
 62
               7
  5
290
 10
-349.58372644623785
 20
-669.81886447169222
 30
0.0
 11
-438.57849032556339
 21
-669.818864471692
 31
0.0
  0
LINE
  8
0
  6
CONTINUOUS
 62
               7
  5
291
 10
-349.58372644623785
 20
-669.21886447169209
 30
0.0
 11
-349.58372644623785
 21
-669.81886447169222
 31
0.0
  0
LINE
  8
0
  6
CONTINUOUS
 62
               7
  5
292
 10
-431.08372644623785
 20
-704.818864471692
 30
0.0
 11
-357.08372644623785
 21
-704.81886447169222
 31
0.0
  0
LINE
  8
0
  6
CONTINUOUS
 62
               7
  5
293
 10
-437.58372644623773
 20
-611.818864471692
 30
0.0
 11
-350.58372644623785
 21
-611.81886447169222
 31
0.0
  0
LINE
  8
0
  6
CONTINUOUS
 62
               7
  5
294
 10
-349.58372644623785
 20
-669.81886447169222
 30
0.0
 11
-349.58372644623785
 21
-612.81886447169222
 31
0.0
  0
LINE
  8
0
  6
CONTINUOUS
 62
               7
  5
295
 10
-432.08372644623785
 20
-703.818864471692
 30
0.0
 11
-432.08372644623785
 21
-669.818864471692
 31
0.0
  0
LINE
  8
0
  6
CONTINUOUS
 62
               7
  5
296
 10
-349.58372644623785
 20
-612.81886447169222
 30
0.0
 11
-350.58372644623785
 21
-611.81886447169222
 31
0.0
  0
LINE
  8
0
  6
CONTINUOUS
 62
               7
  5
297
 10
-437.58372644623773
 20
-611.818864471692
 30
0.0
 11
-438.58372644623773
 21
-612.818864471692
 31
0.0
  0
LINE
  8
0
  6
CONTINUOUS
 62
               7
  5
298
 10
-356.08372644623785
 20
-703.81886447169222
 30
0.0
 11
-356.08372644623785
 21
-669.818864471692
 31
0.0
  0
LINE
  8
0
  6
CONTINUOUS
 62
               7
  5
299
 10
-356.08372644623785
 20
-703.81886447169222
 30
0.0
 11
-357.08372644623785
 21
-704.81886447169222
 31
0.0
  0
LINE
  8
0
  6
CONTINUOUS
 62
               7
  5
29A
 10
-431.08372644623785
 20
-704.818864471692
 30
0.0
 11
-432.08372644623785
 21
-703.818864471692
 31
0.0
  0
LINE
  8
0
  6
CONTINUOUS
 62
               7
  5
29B
 10
-438.58372644623785
 20
-669.818864471692
 30
0.0
 11
-438.58372644623785
 21
-612.818864471692
 31
0.0
  0
LINE
  8
0
  6
CONTINUOUS
 62
               7
  5
29C
 10
216.63392368587833
 20
-865.2867485407271
 30
0.0
 11
216.63392368587833
 21
-807.2867485407271
 31
0.0
  0
LINE
  8
0
  6
CONTINUOUS
 62
               7
  5
29D
 10
242.23392368587824
 20
-777.2867485407271
 30
0.0
 11
242.23392368587824
 21
-866.2867485407271
 31
0.0
  0
LINE
  8
0
  6
CONTINUOUS
 62
               7
  5
29E
 10
242.83392368587837
 20
-777.2867485407271
 30
0.0
 11
242.23392368587824
 21
-777.2867485407271
 31
0.0
  0
LINE
  8
0
  6
CONTINUOUS
 62
               7
  5
29F
 10
300.23392368587849
 20
-865.2867485407271
 30
0.0
 11
300.23392368587849
 21
-778.2867485407271
 31
0.0
  0
CIRCLE
  8
0
  6
CONTINUOUS
 62
               7
  5
2A0
 10
120.87790746063536
 20
-836.2867485407271
 30
0.0
 40
30.0
  0
CIRCLE
  8
0
  6
CONTINUOUS
 62
               7
  5
2A1
 10
120.87790746063536
 20
-836.2867485407271
 30
0.0
 40
25.5
  0
CIRCLE
  8
0
  6
CONTINUOUS
 62
               7
  5
2A2
 10
120.87790746063536
 20
-821.7867485407271
 30
0.0
 40
44.5
  0
LINE
  8
0
  6
CONTINUOUS
 62
               7
  5
2A3
 10
242.36837543135866
 20
-777.2867485407271
 30
0.0
 11
299.23392368587849
 21
-777.2867485407271
 31
0.0
  0
LINE
  8
0
  6
CONTINUOUS
 62
               7
  5
2A4
 10
217.63392368587833
 20
-866.2867485407271
 30
0.0
 11
299.23392368587849
 21
-866.2867485407271
 31
0.0
  0
LINE
  8
0
  6
CONTINUOUS
 62
               7
  5
2A5
 10
217.63392368587833
 20
-806.2867485407271
 30
0.0
 11
242.23392368587824
 21
-806.2867485407271
 31
0.0
  0
LINE
  8
0
  6
CONTINUOUS
 62
               7
  5
2A6
 10
217.63392368587833
 20
-806.2867485407271
 30
0.0
 11
216.63392368587833
 21
-807.2867485407271
 31
0.0
  0
LINE
  8
0
  6
CONTINUOUS
 62
               7
  5
2A7
 10
299.23392368587849
 20
-777.2867485407271
 30
0.0
 11
300.23392368587849
 21
-778.2867485407271
 31
0.0
  0
LINE
  8
0
  6
CONTINUOUS
 62
               7
  5
2A8
 10
216.63392368587833
 20
-865.2867485407271
 30
0.0
 11
217.63392368587833
 21
-866.2867485407271
 31
0.0
  0
LINE
  8
0
  6
CONTINUOUS
 62
               7
  5
2A9
 10
300.23392368587849
 20
-865.2867485407271
 30
0.0
 11
299.23392368587849
 21
-866.2867485407271
 31
0.0
  0
LINE
  8
0
  6
CONTINUOUS
 62
               7
  5
2AA
 10
25.121891235392582
 20
-865.2867485407271
 30
0.0
 11
25.121891235392582
 21
-807.2867485407271
 31
0.0
  0
LINE
  8
0
  6
CONTINUOUS
 62
               7
  5
2AB
 10
-0.4781087646074411
 20
-777.2867485407271
 30
0.0
 11
-0.4781087646074411
 21
-866.2867485407271
 31
0.0
  0
LINE
  8
0
  6
CONTINUOUS
 62
               7
  5
2AC
 10
-1.0781087646074639
 20
-777.2867485407271
 30
0.0
 11
-0.4781087646074411
 21
-777.2867485407271
 31
0.0
  0
LINE
  8
0
  6
CONTINUOUS
 62
               7
  5
2AD
 10
-58.478108764607441
 20
-865.2867485407271
 30
0.0
 11
-58.478108764607441
 21
-778.2867485407271
 31
0.0
  0
LINE
  8
0
  6
CONTINUOUS
 62
               7
  5
2AE
 10
-0.6125605100877465
 20
-777.2867485407271
 30
0.0
 11
-57.478108764607441
 21
-777.2867485407271
 31
0.0
  0
LINE
  8
0
  6
CONTINUOUS
 62
               7
  5
2AF
 10
24.121891235392582
 20
-866.2867485407271
 30
0.0
 11
-57.478108764607441
 21
-866.2867485407271
 31
0.0
  0
LINE
  8
0
  6
CONTINUOUS
 62
               7
  5
2B0
 10
24.121891235392582
 20
-806.2867485407271
 30
0.0
 11
-0.4781087646074411
 21
-806.2867485407271
 31
0.0
  0
LINE
  8
0
  6
CONTINUOUS
 62
               7
  5
2B1
 10
24.121891235392582
 20
-806.2867485407271
 30
0.0
 11
25.121891235392582
 21
-807.2867485407271
 31
0.0
  0
LINE
  8
0
  6
CONTINUOUS
 62
               7
  5
2B2
 10
-57.478108764607441
 20
-777.2867485407271
 30
0.0
 11
-58.478108764607441
 21
-778.2867485407271
 31
0.0
  0
LINE
  8
0
  6
CONTINUOUS
 62
               7
  5
2B3
 10
25.121891235392582
 20
-865.2867485407271
 30
0.0
 11
24.121891235392582
 21
-866.2867485407271
 31
0.0
  0
LINE
  8
0
  6
CONTINUOUS
 62
               7
  5
2B4
 10
-58.478108764607441
 20
-865.2867485407271
 30
0.0
 11
-57.478108764607441
 21
-866.2867485407271
 31
0.0
  0
LINE
  8
0
  6
CONTINUOUS
 62
               7
  5
2B5
 10
91.877907460635583
 20
-715.53073231548433
 30
0.0
 11
149.87790746063556
 21
-715.53073231548433
 31
0.0
  0
LINE
  8
0
  6
CONTINUOUS
 62
               7
  5
2B6
 10
165.37790746063556
 20
-689.93073231548419
 30
0.0
 11
76.377907460635583
 21
-689.93073231548419
 31
0.0
  0
LINE
  8
0
  6
CONTINUOUS
 62
               7
  5
2B7
 10
165.37790746063556
 20
-689.33073231548428
 30
0.0
 11
165.37790746063556
 21
-689.93073231548419
 31
0.0
  0
LINE
  8
0
  6
CONTINUOUS
 62
               7
  5
2B8
 10
77.377907460635583
 20
-631.93073231548419
 30
0.0
 11
164.37790746063556
 21
-631.93073231548419
 31
0.0
  0
LINE
  8
0
  6
CONTINUOUS
 62
               7
  5
2B9
 10
165.37790746063556
 20
-689.796280570004
 30
0.0
 11
165.37790746063556
 21
-632.93073231548419
 31
0.0
  0
LINE
  8
0
  6
CONTINUOUS
 62
               7
  5
2BA
 10
90.877907460635583
 20
-714.53073231548433
 30
0.0
 11
90.877907460635583
 21
-689.93073231548419
 31
0.0
  0
LINE
  8
0
  6
CONTINUOUS
 62
               7
  5
2BB
 10
150.87790746063556
 20
-714.53073231548433
 30
0.0
 11
150.87790746063556
 21
-689.93073231548419
 31
0.0
  0
LINE
  8
0
  6
CONTINUOUS
 62
               7
  5
2BC
 10
150.87790746063556
 20
-714.53073231548433
 30
0.0
 11
149.87790746063556
 21
-715.53073231548433
 31
0.0
  0
LINE
  8
0
  6
CONTINUOUS
 62
               7
  5
2BD
 10
165.37790746063556
 20
-632.93073231548419
 30
0.0
 11
164.37790746063556
 21
-631.93073231548419
 31
0.0
  0
LINE
  8
0
  6
CONTINUOUS
 62
               7
  5
2BE
 10
91.877907460635583
 20
-715.53073231548433
 30
0.0
 11
90.877907460635583
 21
-714.53073231548433
 31
0.0
  0
LINE
  8
0
  6
CONTINUOUS
 62
               7
  5
2BF
 10
77.377907460635583
 20
-631.93073231548419
 30
0.0
 11
76.377907460635583
 21
-632.93073231548419
 31
0.0
  0
LINE
  8
0
  6
CONTINUOUS
 62
               7
  5
2C0
 10
76.377907460635583
 20
-689.79628057000377
 30
0.0
 11
76.377907460635583
 21
-632.93073231548419
 31
0.0
  0
CIRCLE
  8
0
  6
CONTINUOUS
 62
               7
  5
2C1
 10
609.28652321630534
 20
-1253.1017467175207
 30
0.0
 40
25.5
  0
CIRCLE
  8
0
  6
CONTINUOUS
 62
               7
  5
2C2
 10
609.28652321630534
 20
-1238.6017467175204
 30
0.0
 40
44.5
  0
CIRCLE
  8
0
  6
CONTINUOUS
 62
               7
  5
2C3
 10
609.28652321630534
 20
-1253.1017467175207
 30
0.0
 40
30.0
  0
LINE
  8
0
  6
CONTINUOUS
 62
               7
  5
2C4
 10
580.28652321630523
 20
-934.70231296893598
 30
0.0
 11
638.28652321630534
 21
-934.70231296893598
 31
0.0
  0
LINE
  8
0
  6
CONTINUOUS
 62
               7
  5
2C5
 10
653.78652321630534
 20
-909.10231296893608
 30
0.0
 11
564.78652321630523
 21
-909.10231296893608
 31
0.0
  0
LINE
  8
0
  6
CONTINUOUS
 62
               7
  5
2C6
 10
653.78652321630534
 20
-908.50231296893617
 30
0.0
 11
653.78652321630534
 21
-909.10231296893608
 31
0.0
  0
LINE
  8
0
  6
CONTINUOUS
 62
               7
  5
2C7
 10
565.78652321630523
 20
-851.10231296893585
 30
0.0
 11
652.78652321630534
 21
-851.10231296893585
 31
0.0
  0
LINE
  8
0
  6
CONTINUOUS
 62
               7
  5
2C8
 10
653.78652321630534
 20
-908.96786122345566
 30
0.0
 11
653.78652321630534
 21
-852.10231296893585
 31
0.0
  0
LINE
  8
0
  6
CONTINUOUS
 62
               7
  5
2C9
 10
579.28652321630523
 20
-933.70231296893598
 30
0.0
 11
579.28652321630523
 21
-909.10231296893608
 31
0.0
  0
LINE
  8
0
  6
CONTINUOUS
 62
               7
  5
2CA
 10
639.28652321630534
 20
-933.70231296893598
 30
0.0
 11
639.28652321630534
 21
-909.10231296893608
 31
0.0
  0
LINE
  8
0
  6
CONTINUOUS
 62
               7
  5
2CB
 10
639.28652321630534
 20
-933.70231296893598
 30
0.0
 11
638.28652321630534
 21
-934.70231296893598
 31
0.0
  0
LINE
  8
0
  6
CONTINUOUS
 62
               7
  5
2CC
 10
653.78652321630534
 20
-852.10231296893585
 30
0.0
 11
652.78652321630534
 21
-851.10231296893585
 31
0.0
  0
LINE
  8
0
  6
CONTINUOUS
 62
               7
  5
2CD
 10
580.28652321630523
 20
-934.70231296893598
 30
0.0
 11
579.28652321630523
 21
-933.70231296893598
 31
0.0
  0
LINE
  8
0
  6
CONTINUOUS
 62
               7
  5
2CE
 10
565.78652321630523
 20
-851.10231296893585
 30
0.0
 11
564.78652321630523
 21
-852.10231296893585
 31
0.0
  0
LINE
  8
0
  6
CONTINUOUS
 62
               7
  5
2CF
 10
564.78652321630523
 20
-908.96786122345566
 30
0.0
 11
564.78652321630523
 21
-852.10231296893585
 31
0.0
  0
LINE
  8
0
  6
CONTINUOUS
 62
               7
  5
2D0
 10
464.28652321630523
 20
-1194.1017467175204
 30
0.0
 11
464.28652321630523
 21
-1283.0965105968462
 31
0.0
  0
LINE
  8
0
  6
CONTINUOUS
 62
               7
  5
2D1
 10
464.88652321630525
 20
-1194.1017467175204
 30
0.0
 11
464.28652321630523
 21
-1194.1017467175204
 31
0.0
  0
LINE
  8
0
  6
CONTINUOUS
 62
               7
  5
2D2
 10
429.28652321630523
 20
-1282.1017467175207
 30
0.0
 11
429.28652321630523
 21
-1208.1017467175204
 31
0.0
  0
LINE
  8
0
  6
CONTINUOUS
 62
               7
  5
2D3
 10
522.28652321630523
 20
-1282.1017467175207
 30
0.0
 11
522.28652321630523
 21
-1195.1017467175204
 31
0.0
  0
LINE
  8
0
  6
CONTINUOUS
 62
               7
  5
2D4
 10
464.28652321630523
 20
-1194.1017467175204
 30
0.0
 11
521.28652321630523
 21
-1194.1017467175204
 31
0.0
  0
LINE
  8
0
  6
CONTINUOUS
 62
               7
  5
2D5
 10
430.28652321630523
 20
-1283.1017467175207
 30
0.0
 11
521.28652321630523
 21
-1283.1017467175207
 31
0.0
  0
LINE
  8
0
  6
CONTINUOUS
 62
               7
  5
2D6
 10
521.28652321630523
 20
-1194.1017467175204
 30
0.0
 11
522.28652321630523
 21
-1195.1017467175204
 31
0.0
  0
LINE
  8
0
  6
CONTINUOUS
 62
               7
  5
2D7
 10
522.28652321630523
 20
-1282.1017467175207
 30
0.0
 11
521.28652321630523
 21
-1283.1017467175207
 31
0.0
  0
LINE
  8
0
  6
CONTINUOUS
 62
               7
  5
2D8
 10
430.28652321630523
 20
-1207.1017467175204
 30
0.0
 11
464.28652321630523
 21
-1207.1017467175204
 31
0.0
  0
LINE
  8
0
  6
CONTINUOUS
 62
               7
  5
2D9
 10
430.28652321630523
 20
-1207.1017467175204
 30
0.0
 11
429.28652321630523
 21
-1208.1017467175204
 31
0.0
  0
LINE
  8
0
  6
CONTINUOUS
 62
               7
  5
2DA
 10
429.28652321630523
 20
-1282.1017467175207
 30
0.0
 11
430.28652321630523
 21
-1283.1017467175207
 31
0.0
  0
LINE
  8
0
  6
CONTINUOUS
 62
               7
  5
2DB
 10
464.28652321630523
 20
-808.60231296893585
 30
0.0
 11
464.28652321630545
 21
-719.6075490896103
 31
0.0
  0
LINE
  8
0
  6
CONTINUOUS
 62
               7
  5
2DC
 10
464.88652321630536
 20
-808.60231296893585
 30
0.0
 11
464.28652321630523
 21
-808.60231296893585
 31
0.0
  0
LINE
  8
0
  6
CONTINUOUS
 62
               7
  5
2DD
 10
429.28652321630545
 20
-727.10231296893585
 30
0.0
 11
429.28652321630523
 21
-801.10231296893585
 31
0.0
  0
LINE
  8
0
  6
CONTINUOUS
 62
               7
  5
2DE
 10
522.28652321630545
 20
-720.60231296893608
 30
0.0
 11
522.28652321630523
 21
-807.60231296893585
 31
0.0
  0
LINE
  8
0
  6
CONTINUOUS
 62
               7
  5
2DF
 10
464.28652321630523
 20
-808.60231296893585
 30
0.0
 11
521.28652321630523
 21
-808.60231296893585
 31
0.0
  0
LINE
  8
0
  6
CONTINUOUS
 62
               7
  5
2E0
 10
430.28652321630545
 20
-726.10231296893585
 30
0.0
 11
464.28652321630545
 21
-726.10231296893585
 31
0.0
  0
LINE
  8
0
  6
CONTINUOUS
 62
               7
  5
2E1
 10
521.28652321630523
 20
-808.60231296893585
 30
0.0
 11
522.28652321630523
 21
-807.60231296893585
 31
0.0
  0
LINE
  8
0
  6
CONTINUOUS
 62
               7
  5
2E2
 10
522.28652321630545
 20
-720.60231296893608
 30
0.0
 11
521.28652321630545
 21
-719.60231296893608
 31
0.0
  0
LINE
  8
0
  6
CONTINUOUS
 62
               7
  5
2E3
 10
430.28652321630523
 20
-802.10231296893585
 30
0.0
 11
464.28652321630545
 21
-802.10231296893585
 31
0.0
  0
LINE
  8
0
  6
CONTINUOUS
 62
               7
  5
2E4
 10
430.28652321630523
 20
-802.10231296893585
 30
0.0
 11
429.28652321630523
 21
-801.10231296893585
 31
0.0
  0
LINE
  8
0
  6
CONTINUOUS
 62
               7
  5
2E5
 10
429.28652321630545
 20
-727.10231296893585
 30
0.0
 11
430.28652321630545
 21
-726.10231296893585
 31
0.0
  0
LINE
  8
0
  6
CONTINUOUS
 62
               7
  5
2E6
 10
464.28652321630545
 20
-719.60231296893585
 30
0.0
 11
521.28652321630545
 21
-719.60231296893585
 31
0.0
  0
CIRCLE
  8
0
  6
DASHED
 62
               7
  5
2E7
 10
-392.13776905047132
 20
-821.7867485407271
 30
0.0
 40
40.0
  0
CIRCLE
  8
0
  6
DASHED
 62
               7
  5
2E8
 10
120.87790746063536
 20
-821.7867485407271
 30
0.0
 40
40.0
  0
CIRCLE
  8
0
  6
DASHED
 62
               7
  5
2E9
 10
609.28652321630534
 20
-1238.6017467175204
 30
0.0
 40
40.0
  0
TEXT
  8
0
 62
               3
  5
2EA
 10
-392.13776905047132
 20
-906.28674854072688
 30
0.0
 40
40.0
  1
EMB_80×65
 41
0.8
 72
               1
 11
-392.13776905047132
 21
-906.28674854072688
 31
0.0
 73
               3
  0
TEXT
  8
0
 62
               3
  5
2EB
 10
120.87790746063536
 20
-906.2867485407271
 30
0.0
 40
40.0
  1
EMB_80×50
 41
0.8
 72
               1
 11
120.87790746063536
 21
-906.2867485407271
 31
0.0
 73
               3
  0
TEXT
  8
0
 62
               3
  5
2EC
 10
605.58911923866503
 20
-584.65594446371688
 30
0.0
 40
40.0
  1
EMB使用例
 41
0.8
 72
               1
 11
605.58911923866503
 21
-584.65594446371688
 31
0.0
 73
               3
  0
TEXT
  8
0
 62
               3
  5
2ED
 10
-123.74270409089351
 20
-530.29580856337725
 30
0.0
 40
35.0
  1
横枝管に呼び６５、５０の管を接続するときは、EMBをご使用ください。
 41
0.8
 72
               1
 11
-123.74270409089351
 21
-530.29580856337725
 31
0.0
 73
               3
  0
ENDSEC
  0
EOF
