  0
SECTION
  2
HEADER
  9
$ACADVER
  1
AC1009
  9
$INSBASE
 10
0.0
 20
0.0
 30
0.0
  9
$EXTMIN
 10
-1230.5864996950952
 20
-1276.6917762851128
 30
0.0
  9
$EXTMAX
 10
9.9114844498650605
 20
499.57335447134244
 30
0.0
  9
$LIMMIN
 10
-1269.3520616996252
 20
-1332.200061621252
  9
$LIMMAX
 10
48.677046454395068
 20
555.08163980748168
  9
$ORTHOMODE
 70
               0
  9
$REGENMODE
 70
               1
  9
$FILLMODE
 70
               1
  9
$QTEXTMODE
 70
               0
  9
$MIRRTEXT
 70
               1
  9
$DRAGMODE
 70
               2
  9
$LTSCALE
 40
1.0
  9
$OSMODE
 70
               0
  9
$ATTMODE
 70
               1
  9
$TEXTSIZE
 40
0.2
  9
$TRACEWID
 40
0.05
  9
$TEXTSTYLE
  7
STANDARD
  9
$CLAYER
  8
0
  9
$CELTYPE
  6
CONTINUOUS
  9
$CECOLOR
 62
             256
  9
$DIMSCALE
 40
1.0
  9
$DIMASZ
 40
0.18
  9
$DIMEXO
 40
0.0625
  9
$DIMDLI
 40
0.38
  9
$DIMRND
 40
0.0
  9
$DIMDLE
 40
0.0
  9
$DIMEXE
 40
0.18
  9
$DIMTP
 40
0.0
  9
$DIMTM
 40
0.0
  9
$DIMTXT
 40
0.18
  9
$DIMCEN
 40
0.09
  9
$DIMTSZ
 40
0.0
  9
$DIMTOL
 70
               0
  9
$DIMLIM
 70
               0
  9
$DIMTIH
 70
               1
  9
$DIMTOH
 70
               1
  9
$DIMSE1
 70
               0
  9
$DIMSE2
 70
               0
  9
$DIMTAD
 70
               0
  9
$DIMZIN
 70
               0
  9
$DIMBLK
  1

  9
$DIMASO
 70
               1
  9
$DIMSHO
 70
               1
  9
$DIMPOST
  1

  9
$DIMAPOST
  1

  9
$DIMALT
 70
               0
  9
$DIMALTD
 70
               2
  9
$DIMALTF
 40
25.399999999999999
  9
$DIMLFAC
 40
1.0
  9
$DIMTOFL
 70
               0
  9
$DIMTVP
 40
0.0
  9
$DIMTIX
 70
               0
  9
$DIMSOXD
 70
               0
  9
$DIMSAH
 70
               0
  9
$DIMBLK1
  1

  9
$DIMBLK2
  1

  9
$DIMSTYLE
  2
STANDARD
  9
$DIMCLRD
 70
               0
  9
$DIMCLRE
 70
               0
  9
$DIMCLRT
 70
               0
  9
$DIMTFAC
 40
1.0
  9
$DIMGAP
 40
0.09
  9
$LUNITS
 70
               2
  9
$LUPREC
 70
               4
  9
$AXISMODE
 70
               0
  9
$AXISUNIT
 10
0.0
 20
0.0
  9
$SKETCHINC
 40
0.1
  9
$FILLETRAD
 40
0.0
  9
$AUNITS
 70
               0
  9
$AUPREC
 70
               0
  9
$MENU
  1
acad
  9
$ELEVATION
 40
0.0
  9
$PELEVATION
 40
0.0
  9
$THICKNESS
 40
0.0
  9
$LIMCHECK
 70
               0
  9
$BLIPMODE
 70
               1
  9
$CHAMFERA
 40
0.0
  9
$CHAMFERB
 40
0.0
  9
$SKPOLY
 70
               0
  9
$TDCREATE
 40
0.000000000
  9
$TDUPDATE
 40
0.000000000
  9
$TDINDWG
 40
0.0000000000
  9
$TDUSRTIMER
 40
0.0000000000
  9
$USRTIMER
 70
               1
  9
$ANGBASE
 50
0.0
  9
$ANGDIR
 70
               0
  9
$PDMODE
 70
               0
  9
$PDSIZE
 40
1.0
  9
$PLINEWID
 40
0.0
  9
$COORDS
 70
               1
  9
$SPLFRAME
 70
               0
  9
$SPLINETYPE
 70
               6
  9
$SPLINESEGS
 70
               8
  9
$ATTDIA
 70
               0
  9
$ATTREQ
 70
               1
  9
$HANDLING
 70
               1
  9
$HANDSEED
  5
2FE
  9
$SURFTAB1
 70
               6
  9
$SURFTAB2
 70
               6
  9
$SURFTYPE
 70
               6
  9
$SURFU
 70
               6
  9
$SURFV
 70
               6
  9
$UCSNAME
  2

  9
$UCSORG
 10
0.0
 20
0.0
 30
0.0
  9
$UCSXDIR
 10
1.0
 20
0.0
 30
0.0
  9
$UCSYDIR
 10
0.0
 20
1.0
 30
0.0
  9
$PUCSNAME
  2

  9
$PUCSORG
 10
0.0
 20
0.0
 30
0.0
  9
$PUCSXDIR
 10
1.0
 20
0.0
 30
0.0
  9
$PUCSYDIR
 10
0.0
 20
1.0
 30
0.0
  9
$USERI1
 70
               0
  9
$USERI2
 70
               0
  9
$USERI3
 70
               0
  9
$USERI4
 70
               0
  9
$USERI5
 70
               0
  9
$USERR1
 40
0.0
  9
$USERR2
 40
0.0
  9
$USERR3
 40
0.0
  9
$USERR4
 40
0.0
  9
$USERR5
 40
0.0
  9
$WORLDVIEW
 70
               1
  9
$SHADEDGE
 70
               3
  9
$SHADEDIF
 70
              70
  9
$TILEMODE
 70
               1
  9
$MAXACTVP
 70
              16
  9
$PINSBASE
 10
0.0
 20
0.0
 30
0.0
  9
$PLIMCHECK
 70
               0
  9
$PEXTMIN
 10
1.0000000000000000E+20
 20
1.0000000000000000E+20
 30
1.0000000000000000E+20
  9
$PEXTMAX
 10
-1.0000000000000000E+20
 20
-1.0000000000000000E+20
 30
-1.0000000000000000E+20
  9
$PLIMMIN
 10
0.0
 20
0.0
  9
$PLIMMAX
 10
12.0
 20
9.0
  9
$UNITMODE
 70
               0
  9
$VISRETAIN
 70
               0
  9
$PLINEGEN
 70
               1
  9
$PSLTSCALE
 70
               0
  9
$TREEDEPTH
 70
            3020
  9
$DWGCODEPAGE
  3
dos932
  0
ENDSEC
  0
SECTION
  2
TABLES
  0
TABLE
  2
VPORT
 70
               1
  0
VPORT
  2
*ACTIVE
 70
               0
 10
0.0
 20
0.0
 11
1.0
 21
1.0
 12
-610.33750762261502
 22
-388.55921090688514
 13
0.0
 23
0.0
 14
1.0
 24
1.0
 15
0.0
 25
0.0
 16
0.0
 26
0.0
 36
1.0
 17
0.0
 27
0.0
 37
0.0
 40
1887.2817014287336
 41
0.6983743376286802
 42
50.0
 43
0.0
 44
0.0
 50
0.0
 51
0.0
 71
               0
 72
             100
 73
               1
 74
               1
 75
               0
 76
               0
 77
               0
 78
               0
  0
ENDTAB
  0
TABLE
  2
LTYPE
 70
              26
  0
LTYPE
  2
CONTINUOUS
 70
               0
  3
Solid line
 72
              65
 73
               0
 40
0.0
  0
LTYPE
  2
HIDDENX2
 70
               0
  3
CADPAC FUSION LINETYPE
 72
              65
 73
               2
 40
47.560000000000002
 49
35.670000000000002
 49
-11.890000000000001
  0
LTYPE
  2
HIDDEN
 70
               0
  3
CADPAC FUSION LINETYPE
 72
              65
 73
               2
 40
35.670000000000002
 49
23.780000000000001
 49
-11.890000000000001
  0
LTYPE
  2
HIDDEN2
 70
               0
  3
CADPAC FUSION LINETYPE
 72
              65
 73
               2
 40
29.725000000000001
 49
17.835000000000001
 49
-11.890000000000001
  0
LTYPE
  2
DASHED
 70
               0
  3
CADPAC FUSION LINETYPE
 72
              65
 73
               2
 40
35.670000000000002
 49
23.780000000000001
 49
-11.890000000000001
  0
LTYPE
  2
DASHED2
 70
               0
  3
CADPAC FUSION LINETYPE
 72
              65
 73
               2
 40
26.752500000000001
 49
17.835000000000001
 49
-8.9175000000000004
  0
LTYPE
  2
DASHEDX2
 70
               0
  3
CADPAC FUSION LINETYPE
 72
              65
 73
               2
 40
53.505000000000003
 49
35.670000000000002
 49
-17.835000000000001
  0
LTYPE
  2
DOTX2
 70
               0
  3
CADPAC FUSION LINETYPE
 72
              65
 73
               2
 40
14.862500000000001
 49
0.0
 49
-14.862500000000001
  0
LTYPE
  2
DOT
 70
               0
  3
CADPAC FUSION LINETYPE
 72
              65
 73
               2
 40
11.890000000000001
 49
0.0
 49
-11.890000000000001
  0
LTYPE
  2
DOTS
 70
               0
  3
CADPAC FUSION LINETYPE
 72
              65
 73
               2
 40
11.890000000000001
 49
0.0
 49
-11.890000000000001
  0
LTYPE
  2
DOT2
 70
               0
  3
CADPAC FUSION LINETYPE
 72
              65
 73
               2
 40
8.9175000000000004
 49
0.0
 49
-8.9175000000000004
  0
LTYPE
  2
CENTERX2
 70
               0
  3
CADPAC FUSION LINETYPE
 72
              65
 73
               4
 40
71.340000000000003
 49
29.725000000000001
 49
-14.862500000000001
 49
11.890000000000001
 49
-14.862500000000001
  0
LTYPE
  2
CENTER
 70
               0
  3
CADPAC FUSION LINETYPE
 72
              65
 73
               4
 40
54.694000000000003
 49
23.780000000000001
 49
-11.890000000000001
 49
7.1340000000000003
 49
-11.890000000000001
  0
LTYPE
  2
CENTER2
 70
               0
  3
CADPAC FUSION LINETYPE
 72
              65
 73
               4
 40
38.048000000000002
 49
17.835000000000001
 49
-8.9175000000000004
 49
2.3780000000000001
 49
-8.9175000000000004
  0
LTYPE
  2
DASHDOTX2
 70
               0
  3
CADPAC FUSION LINETYPE
 72
              65
 73
               4
 40
59.450000000000003
 49
29.725000000000001
 49
-14.862500000000001
 49
0.0
 49
-14.862500000000001
  0
LTYPE
  2
DASHDOT
 70
               0
  3
CADPAC FUSION LINETYPE
 72
              65
 73
               4
 40
47.560000000000002
 49
23.780000000000001
 49
-11.890000000000001
 49
0.0
 49
-11.890000000000001
  0
LTYPE
  2
DASHDOT2
 70
               0
  3
CADPAC FUSION LINETYPE
 72
              65
 73
               4
 40
35.670000000000002
 49
17.835000000000001
 49
-8.9175000000000004
 49
0.0
 49
-8.9175000000000004
  0
LTYPE
  2
DIVIDEX2
 70
               0
  3
CADPAC FUSION LINETYPE
 72
              65
 73
               6
 40
74.3125
 49
29.725000000000001
 49
-14.862500000000001
 49
0.0
 49
-14.862500000000001
 49
0.0
 49
-14.862500000000001
  0
LTYPE
  2
DIVIDE
 70
               0
  3
CADPAC FUSION LINETYPE
 72
              65
 73
               6
 40
59.450000000000003
 49
23.780000000000001
 49
-11.890000000000001
 49
0.0
 49
-11.890000000000001
 49
0.0
 49
-11.890000000000001
  0
LTYPE
  2
DIVIDE2
 70
               0
  3
CADPAC FUSION LINETYPE
 72
              65
 73
               6
 40
44.587500000000006
 49
17.835000000000001
 49
-8.9175000000000004
 49
0.0
 49
-8.9175000000000004
 49
0.0
 49
-8.9175000000000004
  0
LTYPE
  2
BORDERX2
 70
               0
  3
CADPAC FUSION LINETYPE
 72
              65
 73
               6
 40
104.03750000000001
 49
29.725000000000001
 49
-14.862500000000001
 49
29.725000000000001
 49
-14.862500000000001
 49
0.0
 49
-14.862500000000001
  0
LTYPE
  2
BORDER
 70
               0
  3
CADPAC FUSION LINETYPE
 72
              65
 73
               6
 40
83.230000000000004
 49
23.780000000000001
 49
-11.890000000000001
 49
23.780000000000001
 49
-11.890000000000001
 49
0.0
 49
-11.890000000000001
  0
LTYPE
  2
BORDER2
 70
               0
  3
CADPAC FUSION LINETYPE
 72
              65
 73
               6
 40
62.422499999999999
 49
17.835000000000001
 49
-8.9175000000000004
 49
17.835000000000001
 49
-8.9175000000000004
 49
0.0
 49
-8.9175000000000004
  0
LTYPE
  2
PHANTOMX2
 70
               0
  3
CADPAC FUSION LINETYPE
 72
              65
 73
               6
 40
89.175000000000011
 49
29.725000000000001
 49
-11.890000000000001
 49
11.890000000000001
 49
-11.890000000000001
 49
11.890000000000001
 49
-11.890000000000001
  0
LTYPE
  2
PHANTOM
 70
               0
  3
CADPAC FUSION LINETYPE
 72
              65
 73
               6
 40
73.718000000000004
 49
23.780000000000001
 49
-11.890000000000001
 49
7.1340000000000003
 49
-11.890000000000001
 49
7.1340000000000003
 49
-11.890000000000001
  0
LTYPE
  2
PHANTOM2
 70
               0
  3
CADPAC FUSION LINETYPE
 72
              65
 73
               6
 40
63.017000000000003
 49
17.835000000000001
 49
-11.890000000000001
 49
4.7560000000000002
 49
-11.890000000000001
 49
4.7560000000000002
 49
-11.890000000000001
  0
ENDTAB
  0
TABLE
  2
LAYER
 70
             256
  0
LAYER
  2
0
 70
               0
 62
               7
  6
CONTINUOUS
  0
LAYER
  2
LAYER001
 70
               0
 62
               7
  6
CONTINUOUS
  0
LAYER
  2
LAYER002
 70
               0
 62
               7
  6
CONTINUOUS
  0
LAYER
  2
LAYER003
 70
               0
 62
               7
  6
CONTINUOUS
  0
LAYER
  2
LAYER004
 70
               0
 62
               7
  6
CONTINUOUS
  0
LAYER
  2
LAYER005
 70
               0
 62
               7
  6
CONTINUOUS
  0
LAYER
  2
LAYER006
 70
               0
 62
               7
  6
CONTINUOUS
  0
LAYER
  2
LAYER007
 70
               0
 62
               7
  6
CONTINUOUS
  0
LAYER
  2
LAYER008
 70
               0
 62
               7
  6
CONTINUOUS
  0
LAYER
  2
LAYER009
 70
               0
 62
               7
  6
CONTINUOUS
  0
LAYER
  2
LAYER010
 70
               0
 62
               7
  6
CONTINUOUS
  0
LAYER
  2
LAYER011
 70
               0
 62
               7
  6
CONTINUOUS
  0
LAYER
  2
LAYER012
 70
               0
 62
               7
  6
CONTINUOUS
  0
LAYER
  2
LAYER013
 70
               0
 62
               7
  6
CONTINUOUS
  0
LAYER
  2
LAYER014
 70
               0
 62
               7
  6
CONTINUOUS
  0
LAYER
  2
LAYER015
 70
               0
 62
               7
  6
CONTINUOUS
  0
LAYER
  2
LAYER016
 70
               0
 62
               7
  6
CONTINUOUS
  0
LAYER
  2
LAYER017
 70
               0
 62
               7
  6
CONTINUOUS
  0
LAYER
  2
LAYER018
 70
               0
 62
               7
  6
CONTINUOUS
  0
LAYER
  2
LAYER019
 70
               0
 62
               7
  6
CONTINUOUS
  0
LAYER
  2
LAYER020
 70
               0
 62
               7
  6
CONTINUOUS
  0
LAYER
  2
LAYER021
 70
               0
 62
               7
  6
CONTINUOUS
  0
LAYER
  2
LAYER022
 70
               0
 62
               7
  6
CONTINUOUS
  0
LAYER
  2
LAYER023
 70
               0
 62
               7
  6
CONTINUOUS
  0
LAYER
  2
LAYER024
 70
               0
 62
               7
  6
CONTINUOUS
  0
LAYER
  2
LAYER025
 70
               0
 62
               7
  6
CONTINUOUS
  0
LAYER
  2
LAYER026
 70
               0
 62
               7
  6
CONTINUOUS
  0
LAYER
  2
LAYER027
 70
               0
 62
               7
  6
CONTINUOUS
  0
LAYER
  2
LAYER028
 70
               0
 62
               7
  6
CONTINUOUS
  0
LAYER
  2
LAYER029
 70
               0
 62
               7
  6
CONTINUOUS
  0
LAYER
  2
LAYER030
 70
               0
 62
               7
  6
CONTINUOUS
  0
LAYER
  2
LAYER031
 70
               0
 62
               7
  6
CONTINUOUS
  0
LAYER
  2
LAYER032
 70
               0
 62
               7
  6
CONTINUOUS
  0
LAYER
  2
LAYER033
 70
               0
 62
               7
  6
CONTINUOUS
  0
LAYER
  2
LAYER034
 70
               0
 62
               7
  6
CONTINUOUS
  0
LAYER
  2
LAYER035
 70
               0
 62
               7
  6
CONTINUOUS
  0
LAYER
  2
LAYER036
 70
               0
 62
               7
  6
CONTINUOUS
  0
LAYER
  2
LAYER037
 70
               0
 62
               7
  6
CONTINUOUS
  0
LAYER
  2
LAYER038
 70
               0
 62
               7
  6
CONTINUOUS
  0
LAYER
  2
LAYER039
 70
               0
 62
               7
  6
CONTINUOUS
  0
LAYER
  2
LAYER040
 70
               0
 62
               7
  6
CONTINUOUS
  0
LAYER
  2
LAYER041
 70
               0
 62
               7
  6
CONTINUOUS
  0
LAYER
  2
LAYER042
 70
               0
 62
               7
  6
CONTINUOUS
  0
LAYER
  2
LAYER043
 70
               0
 62
               7
  6
CONTINUOUS
  0
LAYER
  2
LAYER044
 70
               0
 62
               7
  6
CONTINUOUS
  0
LAYER
  2
LAYER045
 70
               0
 62
               7
  6
CONTINUOUS
  0
LAYER
  2
LAYER046
 70
               0
 62
               7
  6
CONTINUOUS
  0
LAYER
  2
LAYER047
 70
               0
 62
               7
  6
CONTINUOUS
  0
LAYER
  2
LAYER048
 70
               0
 62
               7
  6
CONTINUOUS
  0
LAYER
  2
LAYER049
 70
               0
 62
               7
  6
CONTINUOUS
  0
LAYER
  2
LAYER050
 70
               0
 62
               7
  6
CONTINUOUS
  0
LAYER
  2
LAYER051
 70
               0
 62
               7
  6
CONTINUOUS
  0
LAYER
  2
LAYER052
 70
               0
 62
               7
  6
CONTINUOUS
  0
LAYER
  2
LAYER053
 70
               0
 62
               7
  6
CONTINUOUS
  0
LAYER
  2
LAYER054
 70
               0
 62
               7
  6
CONTINUOUS
  0
LAYER
  2
LAYER055
 70
               0
 62
               7
  6
CONTINUOUS
  0
LAYER
  2
LAYER056
 70
               0
 62
               7
  6
CONTINUOUS
  0
LAYER
  2
LAYER057
 70
               0
 62
               7
  6
CONTINUOUS
  0
LAYER
  2
LAYER058
 70
               0
 62
               7
  6
CONTINUOUS
  0
LAYER
  2
LAYER059
 70
               0
 62
               7
  6
CONTINUOUS
  0
LAYER
  2
LAYER060
 70
               0
 62
               7
  6
CONTINUOUS
  0
LAYER
  2
LAYER061
 70
               0
 62
               7
  6
CONTINUOUS
  0
LAYER
  2
LAYER062
 70
               0
 62
               7
  6
CONTINUOUS
  0
LAYER
  2
LAYER063
 70
               0
 62
               7
  6
CONTINUOUS
  0
LAYER
  2
LAYER064
 70
               0
 62
               7
  6
CONTINUOUS
  0
LAYER
  2
LAYER065
 70
               0
 62
               7
  6
CONTINUOUS
  0
LAYER
  2
LAYER066
 70
               0
 62
               7
  6
CONTINUOUS
  0
LAYER
  2
LAYER067
 70
               0
 62
               7
  6
CONTINUOUS
  0
LAYER
  2
LAYER068
 70
               0
 62
               7
  6
CONTINUOUS
  0
LAYER
  2
LAYER069
 70
               0
 62
               7
  6
CONTINUOUS
  0
LAYER
  2
LAYER070
 70
               0
 62
               7
  6
CONTINUOUS
  0
LAYER
  2
LAYER071
 70
               0
 62
               7
  6
CONTINUOUS
  0
LAYER
  2
LAYER072
 70
               0
 62
               7
  6
CONTINUOUS
  0
LAYER
  2
LAYER073
 70
               0
 62
               7
  6
CONTINUOUS
  0
LAYER
  2
LAYER074
 70
               0
 62
               7
  6
CONTINUOUS
  0
LAYER
  2
LAYER075
 70
               0
 62
               7
  6
CONTINUOUS
  0
LAYER
  2
LAYER076
 70
               0
 62
               7
  6
CONTINUOUS
  0
LAYER
  2
LAYER077
 70
               0
 62
               7
  6
CONTINUOUS
  0
LAYER
  2
LAYER078
 70
               0
 62
               7
  6
CONTINUOUS
  0
LAYER
  2
LAYER079
 70
               0
 62
               7
  6
CONTINUOUS
  0
LAYER
  2
LAYER080
 70
               0
 62
               7
  6
CONTINUOUS
  0
LAYER
  2
LAYER081
 70
               0
 62
               7
  6
CONTINUOUS
  0
LAYER
  2
LAYER082
 70
               0
 62
               7
  6
CONTINUOUS
  0
LAYER
  2
LAYER083
 70
               0
 62
               7
  6
CONTINUOUS
  0
LAYER
  2
LAYER084
 70
               0
 62
               7
  6
CONTINUOUS
  0
LAYER
  2
LAYER085
 70
               0
 62
               7
  6
CONTINUOUS
  0
LAYER
  2
LAYER086
 70
               0
 62
               7
  6
CONTINUOUS
  0
LAYER
  2
LAYER087
 70
               0
 62
               7
  6
CONTINUOUS
  0
LAYER
  2
LAYER088
 70
               0
 62
               7
  6
CONTINUOUS
  0
LAYER
  2
LAYER089
 70
               0
 62
               7
  6
CONTINUOUS
  0
LAYER
  2
LAYER090
 70
               0
 62
               7
  6
CONTINUOUS
  0
LAYER
  2
LAYER091
 70
               0
 62
               7
  6
CONTINUOUS
  0
LAYER
  2
LAYER092
 70
               0
 62
               7
  6
CONTINUOUS
  0
LAYER
  2
LAYER093
 70
               0
 62
               7
  6
CONTINUOUS
  0
LAYER
  2
LAYER094
 70
               0
 62
               7
  6
CONTINUOUS
  0
LAYER
  2
LAYER095
 70
               0
 62
               7
  6
CONTINUOUS
  0
LAYER
  2
LAYER096
 70
               0
 62
               7
  6
CONTINUOUS
  0
LAYER
  2
LAYER097
 70
               0
 62
               7
  6
CONTINUOUS
  0
LAYER
  2
LAYER098
 70
               0
 62
               7
  6
CONTINUOUS
  0
LAYER
  2
LAYER099
 70
               0
 62
               7
  6
CONTINUOUS
  0
LAYER
  2
LAYER100
 70
               0
 62
               7
  6
CONTINUOUS
  0
LAYER
  2
LAYER101
 70
               0
 62
               7
  6
CONTINUOUS
  0
LAYER
  2
LAYER102
 70
               0
 62
               7
  6
CONTINUOUS
  0
LAYER
  2
LAYER103
 70
               0
 62
               7
  6
CONTINUOUS
  0
LAYER
  2
LAYER104
 70
               0
 62
               7
  6
CONTINUOUS
  0
LAYER
  2
LAYER105
 70
               0
 62
               7
  6
CONTINUOUS
  0
LAYER
  2
LAYER106
 70
               0
 62
               7
  6
CONTINUOUS
  0
LAYER
  2
LAYER107
 70
               0
 62
               7
  6
CONTINUOUS
  0
LAYER
  2
LAYER108
 70
               0
 62
               7
  6
CONTINUOUS
  0
LAYER
  2
LAYER109
 70
               0
 62
               7
  6
CONTINUOUS
  0
LAYER
  2
LAYER110
 70
               0
 62
               7
  6
CONTINUOUS
  0
LAYER
  2
LAYER111
 70
               0
 62
               7
  6
CONTINUOUS
  0
LAYER
  2
LAYER112
 70
               0
 62
               7
  6
CONTINUOUS
  0
LAYER
  2
LAYER113
 70
               0
 62
               7
  6
CONTINUOUS
  0
LAYER
  2
LAYER114
 70
               0
 62
               7
  6
CONTINUOUS
  0
LAYER
  2
LAYER115
 70
               0
 62
               7
  6
CONTINUOUS
  0
LAYER
  2
LAYER116
 70
               0
 62
               7
  6
CONTINUOUS
  0
LAYER
  2
LAYER117
 70
               0
 62
               7
  6
CONTINUOUS
  0
LAYER
  2
LAYER118
 70
               0
 62
               7
  6
CONTINUOUS
  0
LAYER
  2
LAYER119
 70
               0
 62
               7
  6
CONTINUOUS
  0
LAYER
  2
LAYER120
 70
               0
 62
               7
  6
CONTINUOUS
  0
LAYER
  2
LAYER121
 70
               0
 62
               7
  6
CONTINUOUS
  0
LAYER
  2
LAYER122
 70
               0
 62
               7
  6
CONTINUOUS
  0
LAYER
  2
LAYER123
 70
               0
 62
               7
  6
CONTINUOUS
  0
LAYER
  2
LAYER124
 70
               0
 62
               7
  6
CONTINUOUS
  0
LAYER
  2
LAYER125
 70
               0
 62
               7
  6
CONTINUOUS
  0
LAYER
  2
LAYER126
 70
               0
 62
               7
  6
CONTINUOUS
  0
LAYER
  2
LAYER127
 70
               0
 62
               7
  6
CONTINUOUS
  0
LAYER
  2
LAYER128
 70
               0
 62
               7
  6
CONTINUOUS
  0
LAYER
  2
LAYER129
 70
               0
 62
               7
  6
CONTINUOUS
  0
LAYER
  2
LAYER130
 70
               0
 62
               7
  6
CONTINUOUS
  0
LAYER
  2
LAYER131
 70
               0
 62
               7
  6
CONTINUOUS
  0
LAYER
  2
LAYER132
 70
               0
 62
               7
  6
CONTINUOUS
  0
LAYER
  2
LAYER133
 70
               0
 62
               7
  6
CONTINUOUS
  0
LAYER
  2
LAYER134
 70
               0
 62
               7
  6
CONTINUOUS
  0
LAYER
  2
LAYER135
 70
               0
 62
               7
  6
CONTINUOUS
  0
LAYER
  2
LAYER136
 70
               0
 62
               7
  6
CONTINUOUS
  0
LAYER
  2
LAYER137
 70
               0
 62
               7
  6
CONTINUOUS
  0
LAYER
  2
LAYER138
 70
               0
 62
               7
  6
CONTINUOUS
  0
LAYER
  2
LAYER139
 70
               0
 62
               7
  6
CONTINUOUS
  0
LAYER
  2
LAYER140
 70
               0
 62
               7
  6
CONTINUOUS
  0
LAYER
  2
LAYER141
 70
               0
 62
               7
  6
CONTINUOUS
  0
LAYER
  2
LAYER142
 70
               0
 62
               7
  6
CONTINUOUS
  0
LAYER
  2
LAYER143
 70
               0
 62
               7
  6
CONTINUOUS
  0
LAYER
  2
LAYER144
 70
               0
 62
               7
  6
CONTINUOUS
  0
LAYER
  2
LAYER145
 70
               0
 62
               7
  6
CONTINUOUS
  0
LAYER
  2
LAYER146
 70
               0
 62
               7
  6
CONTINUOUS
  0
LAYER
  2
LAYER147
 70
               0
 62
               7
  6
CONTINUOUS
  0
LAYER
  2
LAYER148
 70
               0
 62
               7
  6
CONTINUOUS
  0
LAYER
  2
LAYER149
 70
               0
 62
               7
  6
CONTINUOUS
  0
LAYER
  2
LAYER150
 70
               0
 62
               7
  6
CONTINUOUS
  0
LAYER
  2
LAYER151
 70
               0
 62
               7
  6
CONTINUOUS
  0
LAYER
  2
LAYER152
 70
               0
 62
               7
  6
CONTINUOUS
  0
LAYER
  2
LAYER153
 70
               0
 62
               7
  6
CONTINUOUS
  0
LAYER
  2
LAYER154
 70
               0
 62
               7
  6
CONTINUOUS
  0
LAYER
  2
LAYER155
 70
               0
 62
               7
  6
CONTINUOUS
  0
LAYER
  2
LAYER156
 70
               0
 62
               7
  6
CONTINUOUS
  0
LAYER
  2
LAYER157
 70
               0
 62
               7
  6
CONTINUOUS
  0
LAYER
  2
LAYER158
 70
               0
 62
               7
  6
CONTINUOUS
  0
LAYER
  2
LAYER159
 70
               0
 62
               7
  6
CONTINUOUS
  0
LAYER
  2
LAYER160
 70
               0
 62
               7
  6
CONTINUOUS
  0
LAYER
  2
LAYER161
 70
               0
 62
               7
  6
CONTINUOUS
  0
LAYER
  2
LAYER162
 70
               0
 62
               7
  6
CONTINUOUS
  0
LAYER
  2
LAYER163
 70
               0
 62
               7
  6
CONTINUOUS
  0
LAYER
  2
LAYER164
 70
               0
 62
               7
  6
CONTINUOUS
  0
LAYER
  2
LAYER165
 70
               0
 62
               7
  6
CONTINUOUS
  0
LAYER
  2
LAYER166
 70
               0
 62
               7
  6
CONTINUOUS
  0
LAYER
  2
LAYER167
 70
               0
 62
               7
  6
CONTINUOUS
  0
LAYER
  2
LAYER168
 70
               0
 62
               7
  6
CONTINUOUS
  0
LAYER
  2
LAYER169
 70
               0
 62
               7
  6
CONTINUOUS
  0
LAYER
  2
LAYER170
 70
               0
 62
               7
  6
CONTINUOUS
  0
LAYER
  2
LAYER171
 70
               0
 62
               7
  6
CONTINUOUS
  0
LAYER
  2
LAYER172
 70
               0
 62
               7
  6
CONTINUOUS
  0
LAYER
  2
LAYER173
 70
               0
 62
               7
  6
CONTINUOUS
  0
LAYER
  2
LAYER174
 70
               0
 62
               7
  6
CONTINUOUS
  0
LAYER
  2
LAYER175
 70
               0
 62
               7
  6
CONTINUOUS
  0
LAYER
  2
LAYER176
 70
               0
 62
               7
  6
CONTINUOUS
  0
LAYER
  2
LAYER177
 70
               0
 62
               7
  6
CONTINUOUS
  0
LAYER
  2
LAYER178
 70
               0
 62
               7
  6
CONTINUOUS
  0
LAYER
  2
LAYER179
 70
               0
 62
               7
  6
CONTINUOUS
  0
LAYER
  2
LAYER180
 70
               0
 62
               7
  6
CONTINUOUS
  0
LAYER
  2
LAYER181
 70
               0
 62
               7
  6
CONTINUOUS
  0
LAYER
  2
LAYER182
 70
               0
 62
               7
  6
CONTINUOUS
  0
LAYER
  2
LAYER183
 70
               0
 62
               7
  6
CONTINUOUS
  0
LAYER
  2
LAYER184
 70
               0
 62
               7
  6
CONTINUOUS
  0
LAYER
  2
LAYER185
 70
               0
 62
               7
  6
CONTINUOUS
  0
LAYER
  2
LAYER186
 70
               0
 62
               7
  6
CONTINUOUS
  0
LAYER
  2
LAYER187
 70
               0
 62
               7
  6
CONTINUOUS
  0
LAYER
  2
LAYER188
 70
               0
 62
               7
  6
CONTINUOUS
  0
LAYER
  2
LAYER189
 70
               0
 62
               7
  6
CONTINUOUS
  0
LAYER
  2
LAYER190
 70
               0
 62
               7
  6
CONTINUOUS
  0
LAYER
  2
LAYER191
 70
               0
 62
               7
  6
CONTINUOUS
  0
LAYER
  2
LAYER192
 70
               0
 62
               7
  6
CONTINUOUS
  0
LAYER
  2
LAYER193
 70
               0
 62
               7
  6
CONTINUOUS
  0
LAYER
  2
LAYER194
 70
               0
 62
               7
  6
CONTINUOUS
  0
LAYER
  2
LAYER195
 70
               0
 62
               7
  6
CONTINUOUS
  0
LAYER
  2
LAYER196
 70
               0
 62
               7
  6
CONTINUOUS
  0
LAYER
  2
LAYER197
 70
               0
 62
               7
  6
CONTINUOUS
  0
LAYER
  2
LAYER198
 70
               0
 62
               7
  6
CONTINUOUS
  0
LAYER
  2
LAYER199
 70
               0
 62
               7
  6
CONTINUOUS
  0
LAYER
  2
LAYER200
 70
               0
 62
               7
  6
CONTINUOUS
  0
LAYER
  2
LAYER201
 70
               0
 62
               7
  6
CONTINUOUS
  0
LAYER
  2
LAYER202
 70
               0
 62
               7
  6
CONTINUOUS
  0
LAYER
  2
LAYER203
 70
               0
 62
               7
  6
CONTINUOUS
  0
LAYER
  2
LAYER204
 70
               0
 62
               7
  6
CONTINUOUS
  0
LAYER
  2
LAYER205
 70
               0
 62
               7
  6
CONTINUOUS
  0
LAYER
  2
LAYER206
 70
               0
 62
               7
  6
CONTINUOUS
  0
LAYER
  2
LAYER207
 70
               0
 62
               7
  6
CONTINUOUS
  0
LAYER
  2
LAYER208
 70
               0
 62
               7
  6
CONTINUOUS
  0
LAYER
  2
LAYER209
 70
               0
 62
               7
  6
CONTINUOUS
  0
LAYER
  2
LAYER210
 70
               0
 62
               7
  6
CONTINUOUS
  0
LAYER
  2
LAYER211
 70
               0
 62
               7
  6
CONTINUOUS
  0
LAYER
  2
LAYER212
 70
               0
 62
               7
  6
CONTINUOUS
  0
LAYER
  2
LAYER213
 70
               0
 62
               7
  6
CONTINUOUS
  0
LAYER
  2
LAYER214
 70
               0
 62
               7
  6
CONTINUOUS
  0
LAYER
  2
LAYER215
 70
               0
 62
               7
  6
CONTINUOUS
  0
LAYER
  2
LAYER216
 70
               0
 62
               7
  6
CONTINUOUS
  0
LAYER
  2
LAYER217
 70
               0
 62
               7
  6
CONTINUOUS
  0
LAYER
  2
LAYER218
 70
               0
 62
               7
  6
CONTINUOUS
  0
LAYER
  2
LAYER219
 70
               0
 62
               7
  6
CONTINUOUS
  0
LAYER
  2
LAYER220
 70
               0
 62
               7
  6
CONTINUOUS
  0
LAYER
  2
LAYER221
 70
               0
 62
               7
  6
CONTINUOUS
  0
LAYER
  2
LAYER222
 70
               0
 62
               7
  6
CONTINUOUS
  0
LAYER
  2
LAYER223
 70
               0
 62
               7
  6
CONTINUOUS
  0
LAYER
  2
LAYER224
 70
               0
 62
               7
  6
CONTINUOUS
  0
LAYER
  2
LAYER225
 70
               0
 62
               7
  6
CONTINUOUS
  0
LAYER
  2
LAYER226
 70
               0
 62
               7
  6
CONTINUOUS
  0
LAYER
  2
LAYER227
 70
               0
 62
               7
  6
CONTINUOUS
  0
LAYER
  2
LAYER228
 70
               0
 62
               7
  6
CONTINUOUS
  0
LAYER
  2
LAYER229
 70
               0
 62
               7
  6
CONTINUOUS
  0
LAYER
  2
LAYER230
 70
               0
 62
               7
  6
CONTINUOUS
  0
LAYER
  2
LAYER231
 70
               0
 62
               7
  6
CONTINUOUS
  0
LAYER
  2
LAYER232
 70
               0
 62
               7
  6
CONTINUOUS
  0
LAYER
  2
LAYER233
 70
               0
 62
               7
  6
CONTINUOUS
  0
LAYER
  2
LAYER234
 70
               0
 62
               7
  6
CONTINUOUS
  0
LAYER
  2
LAYER235
 70
               0
 62
               7
  6
CONTINUOUS
  0
LAYER
  2
LAYER236
 70
               0
 62
               7
  6
CONTINUOUS
  0
LAYER
  2
LAYER237
 70
               0
 62
               7
  6
CONTINUOUS
  0
LAYER
  2
LAYER238
 70
               0
 62
               7
  6
CONTINUOUS
  0
LAYER
  2
LAYER239
 70
               0
 62
               7
  6
CONTINUOUS
  0
LAYER
  2
LAYER240
 70
               0
 62
               7
  6
CONTINUOUS
  0
LAYER
  2
LAYER241
 70
               0
 62
               7
  6
CONTINUOUS
  0
LAYER
  2
LAYER242
 70
               0
 62
               7
  6
CONTINUOUS
  0
LAYER
  2
LAYER243
 70
               0
 62
               7
  6
CONTINUOUS
  0
LAYER
  2
LAYER244
 70
               0
 62
               7
  6
CONTINUOUS
  0
LAYER
  2
LAYER245
 70
               0
 62
               7
  6
CONTINUOUS
  0
LAYER
  2
LAYER246
 70
               0
 62
               7
  6
CONTINUOUS
  0
LAYER
  2
LAYER247
 70
               0
 62
               7
  6
CONTINUOUS
  0
LAYER
  2
LAYER248
 70
               0
 62
               7
  6
CONTINUOUS
  0
LAYER
  2
LAYER249
 70
               0
 62
               7
  6
CONTINUOUS
  0
LAYER
  2
LAYER250
 70
               0
 62
               7
  6
CONTINUOUS
  0
LAYER
  2
LAYER251
 70
               0
 62
               7
  6
CONTINUOUS
  0
LAYER
  2
LAYER252
 70
               0
 62
               7
  6
CONTINUOUS
  0
LAYER
  2
LAYER253
 70
               0
 62
               7
  6
CONTINUOUS
  0
LAYER
  2
LAYER254
 70
               0
 62
               7
  6
CONTINUOUS
  0
LAYER
  2
LAYER255
 70
               0
 62
               7
  6
CONTINUOUS
  0
ENDTAB
  0
TABLE
  2
STYLE
 70
               1
  0
STYLE
  2
STANDARD
 70
               0
 40
0.0
 41
0.8
 50
0.0
 71
               0
 42
40.0
  3
MS PGothic.ttf
  4

  0
ENDTAB
  0
TABLE
  2
VIEW
 70
               0
  0
VIEW
  2
QQQQ
 70
               0
 40
1887.2817014287336
 10
-610.33750762261502
 20
-388.55921090688514
 41
1318.0291081540204
 11
0.0
 21
0.0
 31
1.0
 12
100.0
 22
100.0
 32
0.0
 42
50.0
 43
0.0
 44
0.0
 50
0.0
 71
               0
  0
ENDTAB
  0
TABLE
  2
UCS
 70
               0
  0
ENDTAB
  0
TABLE
  2
APPID
 70
               1
  0
APPID
  2
ACAD
 70
               0
  0
ENDTAB
  0
TABLE
  2
DIMSTYLE
 70
               1
  0
DIMSTYLE
  2
STANDARD
 70
               0
  3

  4

  5

  6

  7

 40
1.0
 41
0.18
 42
0.0625
 43
0.38
 44
0.18
 45
0.0
 46
0.0
 47
0.0
 48
0.0
140
0.18
141
0.09
142
0.0
143
25.399999999999999
144
1.0
145
0.0
146
1.0
147
0.09
 71
               0
 72
               0
 73
               1
 74
               1
 75
               0
 76
               0
 77
               0
 78
               0
170
               0
171
               2
172
               0
173
               0
174
               0
175
               0
176
               0
177
               0
178
               0
  0
ENDTAB
  0
ENDSEC
  0
SECTION
  2
BLOCKS
  0
ENDSEC
  0
SECTION
  2
ENTITIES
  0
POINT
  8
0
  6
CONTINUOUS
 62
               5
  5
136
 10
-631.73076923076917
 20
9.7375855273297702
 30
0.0
  0
POINT
  8
0
  6
CONTINUOUS
 62
               5
  5
137
 10
-631.73076923076974
 20
357.91777019277174
 30
0.0
  0
POINT
  8
0
  6
CONTINUOUS
 62
               5
  5
138
 10
-731.73076923076917
 20
-721.26241447267023
 30
0.0
  0
POINT
  8
0
  6
CONTINUOUS
 62
               5
  5
139
 10
-904.9608407407294
 20
-722.55320854755894
 30
0.0
  0
POINT
  8
0
  6
CONTINUOUS
 62
               5
  5
13A
 10
-558.50069772080883
 20
-722.55320854755917
 30
0.0
  0
POINT
  8
0
  6
CONTINUOUS
 62
               5
  5
13B
 10
-726.52156330565811
 20
-554.53234296271012
 30
0.0
  0
POINT
  8
0
  6
CONTINUOUS
 62
               5
  5
13C
 10
-238.71417450450087
 20
-687.93538030718071
 30
0.0
  0
POINT
  8
0
  6
CONTINUOUS
 62
               5
  5
13D
 10
-238.71417450450099
 20
-1165.0164022055433
 30
0.0
  0
LINE
  8
0
  6
DASHDOT
 62
               4
  5
13E
 10
-631.73076923076917
 20
29.73758552732977
 30
0.0
 11
-631.73076923076917
 21
-348.26241447267023
 31
0.0
  0
LINE
  8
0
  6
DASHDOT
 62
               4
  5
13F
 10
-131.73076923076923
 20
57.917770192771627
 30
0.0
 11
-131.73076923076923
 21
-348.26241447267023
 31
0.0
  0
LINE
  8
0
  6
DASHDOT
 62
               4
  5
140
 10
-1131.7307692307691
 20
57.917770192771627
 30
0.0
 11
-1131.7307692307691
 21
-348.26241447267023
 31
0.0
  0
LINE
  8
0
  6
DASHDOT
 62
               4
  5
141
 10
-544.28715663976493
 20
357.91777019277174
 30
0.0
 11
-783.73076923077042
 21
357.9177701927718
 31
0.0
  0
LINE
  8
0
  6
DASHDOT
 62
               4
  5
142
 10
-631.73076923077042
 20
209.71250851025036
 30
0.0
 11
-631.73076923076985
 21
465.41440964910294
 31
0.0
  0
LINE
  8
0
  6
DASHDOT
 62
               4
  5
143
 10
-966.7307692307694
 20
-204.26241447266986
 30
0.0
 11
-1070.6709744787838
 21
-204.26241447266986
 31
0.0
  0
LINE
  8
0
  6
DASHDOT
 62
               4
  5
144
 10
-568.65226923076978
 20
-204.26241447267063
 30
0.0
 11
-694.8092692307697
 21
-204.26241447267063
 31
0.0
  0
LINE
  8
0
  6
DASHDOT
 62
               4
  5
145
 10
-296.730769230769
 20
-204.26241447266986
 30
0.0
 11
-192.79056398275446
 21
-204.26241447266986
 31
0.0
  0
LINE
  8
0
  6
DASHDOT
 62
               4
  5
146
 10
-966.7307692307694
 20
-204.26241447266975
 30
0.0
 11
-1070.6709744787838
 21
-204.26241447266975
 31
0.0
  0
LINE
  8
0
  6
DASHDOT
 62
               4
  5
147
 10
-731.73076923076917
 20
-785.76241447267023
 30
0.0
 11
-731.73076923076917
 21
-669.76241447267023
 31
0.0
  0
LINE
  8
0
  6
DASHDOT
 62
               4
  5
148
 10
-789.73076923076917
 20
-727.76241447267023
 30
0.0
 11
-673.73076923076917
 21
-727.76241447267023
 31
0.0
  0
LINE
  8
0
  6
DASHDOT
 62
               4
  5
149
 10
-781.73076923076917
 20
-735.76241447267023
 30
0.0
 11
-681.73076923076917
 21
-735.76241447267023
 31
0.0
  0
LINE
  8
0
  6
DASHDOT
 62
               4
  5
14A
 10
-895.65699748735813
 20
-735.76241447267023
 30
0.0
 11
-830.18770166728871
 21
-735.76241447267023
 31
0.0
  0
LINE
  8
0
  6
DASHDOT
 62
               4
  5
14B
 10
-954.23076923076917
 20
-727.76241447267023
 30
0.0
 11
-855.63076923076903
 21
-727.76241447267023
 31
0.0
  0
LINE
  8
0
  6
DASHDOT
 62
               4
  5
14C
 10
-567.80454097418021
 20
-735.76241447267046
 30
0.0
 11
-633.27383679424952
 21
-735.76241447267023
 31
0.0
  0
LINE
  8
0
  6
DASHDOT
 62
               4
  5
14D
 10
-509.23076923076911
 20
-727.76241447267046
 30
0.0
 11
-607.83076923076919
 21
-727.76241447267023
 31
0.0
  0
LINE
  8
0
  6
DASHDOT
 62
               4
  5
14E
 10
-731.73076923076917
 20
-505.26241447267029
 30
0.0
 11
-731.73076923076917
 21
-629.30548203615069
 31
0.0
  0
LINE
  8
0
  6
DASHDOT
 62
               4
  5
14F
 10
-122.44424601446133
 20
-580.72617438206987
 30
0.0
 11
-122.44424601446133
 21
-851.27296118189633
 31
0.0
  0
LINE
  8
0
  6
DASHDOT
 62
               4
  5
150
 10
-284.44424601446121
 20
-689.22617438206987
 30
0.0
 11
-13.9442460144611
 21
-689.22617438206987
 31
0.0
  0
LINE
  8
0
  6
DASHDOT
 62
               4
  5
151
 10
-122.44424601446133
 20
-879.82617438207012
 30
0.0
 11
-122.44424601446133
 21
-756.22617438206964
 31
0.0
  0
LINE
  8
0
  6
DASHDOT
 62
               4
  5
152
 10
-322.4442460144611
 20
-689.22617438206964
 30
0.0
 11
-189.4442460144611
 21
-689.22617438206964
 31
0.0
  0
LINE
  8
0
  6
DASHDOT
 62
               4
  5
153
 10
-53.919021239236599
 20
-1163.7256081306541
 30
0.0
 11
-284.17285930788955
 21
-1163.7256081306541
 31
0.0
  0
LINE
  8
0
  6
DASHDOT
 62
               4
  5
154
 10
-122.44424601446133
 20
-977.72560813065434
 30
0.0
 11
-122.44424601446133
 21
-1228.7256081306541
 31
0.0
  0
LINE
  8
0
  6
DASHDOT
 62
               4
  5
155
 10
-172.44424601446133
 20
-1178.2256081306541
 30
0.0
 11
-72.4442460144611
 21
-1178.2256081306541
 31
0.0
  0
LINE
  8
0
  6
DASHDOT
 62
               4
  5
156
 10
-322.44424601446133
 20
-1170.2256081306541
 30
0.0
 11
-248.04424601446135
 21
-1170.2256081306541
 31
0.0
  0
LINE
  8
0
  6
DASHDOT
 62
               4
  5
157
 10
-1202.4807692307691
 20
-196.76241447267009
 30
0.0
 11
-1060.9807692307691
 21
-196.76241447267009
 31
0.0
  0
LINE
  8
0
  6
DASHDOT
 62
               4
  5
158
 10
-783.73076923076917
 20
-196.76241447266997
 30
0.0
 11
-677.73076923076906
 21
-196.76241447266997
 31
0.0
  0
LINE
  8
0
  6
DASHED2
 62
               4
  5
159
 10
-688.73076923076917
 20
-55.26241447267023
 30
0.0
 11
-574.73076923076917
 21
-55.26241447267023
 31
0.0
  0
LINE
  8
0
  6
DASHED2
 62
               4
  5
15A
 10
-179.44424601446121
 20
-1062.7256081306543
 30
0.0
 11
-65.444246014461442
 21
-1062.7256081306543
 31
0.0
  0
LINE
  8
0
  6
DASHED2
 62
               4
  5
15B
 10
-188.73076923076923
 20
-55.26241447267023
 30
0.0
 11
-74.730769230769226
 21
-55.26241447267023
 31
0.0
  0
LINE
  8
0
  6
DASHED2
 62
               4
  5
15C
 10
-1188.7307692307691
 20
-55.26241447267023
 30
0.0
 11
-1074.7307692307691
 21
-55.26241447267023
 31
0.0
  0
POINT
  8
0
  6
CONTINUOUS
 62
               4
  5
15D
 10
-876.23076923076906
 20
-676.76241447267
 30
0.0
  0
POINT
  8
0
  6
CONTINUOUS
 62
               4
  5
15E
 10
-587.23076923076917
 20
-676.76241447267023
 30
0.0
  0
POINT
  8
0
  6
CONTINUOUS
 62
               4
  5
15F
 10
-680.73076923076906
 20
-583.26241447267046
 30
0.0
  0
POINT
  8
0
  6
CONTINUOUS
 62
               4
  5
160
 10
-77.944246014461328
 20
-833.62617438207008
 30
0.0
  0
POINT
  8
0
  6
CONTINUOUS
 62
               4
  5
161
 10
-266.84424601446119
 20
-733.72617438206964
 30
0.0
  0
LINE
  8
0
  6
CONTINUOUS
 62
               4
  5
162
 10
-45.444246014461442
 20
-1094.1899543778013
 30
0.0
 11
-50.444246014461442
 21
-1089.1899543778013
 31
0.0
  0
ARC
  8
0
  6
CONTINUOUS
 62
               4
  5
163
 10
-67.944246014461442
 20
-1104.7256081306541
 30
0.0
 40
19.999999999999996
 50
0.0
 51
31.788330617014989
  0
LINE
  8
0
  6
CONTINUOUS
 62
               4
  5
164
 10
-50.944246014460987
 20
-1094.1899543778013
 30
0.0
 11
-50.944246014460987
 21
-1089.1899543778009
 31
0.0
  0
LINE
  8
0
  6
CONTINUOUS
 62
               4
  5
165
 10
-50.444246014461442
 20
-1089.1899543778013
 30
0.0
 11
-50.944246014460987
 21
-1089.1899543778013
 31
0.0
  0
LINE
  8
0
  6
CONTINUOUS
 62
               4
  5
166
 10
-45.694246014461214
 20
-1094.4399543778013
 30
0.0
 11
-50.944246014460987
 21
-1089.1899543778013
 31
0.0
  0
LINE
  8
0
  6
CONTINUOUS
 62
               4
  5
167
 10
-45.694246014461214
 20
-1094.4399543778013
 30
0.0
 11
-45.444246014461442
 21
-1094.1899543778013
 31
0.0
  0
LINE
  8
0
  6
CONTINUOUS
 62
               4
  5
168
 10
-45.444246014461442
 20
-1094.1899543778013
 30
0.0
 11
-45.444246014461442
 21
-1224.8786317277713
 31
0.0
  0
LINE
  8
0
  6
CONTINUOUS
 62
               4
  5
169
 10
-45.694246014461214
 20
-1094.4399543778013
 30
0.0
 11
-45.694246014461214
 21
-1224.5932746206358
 31
0.0
  0
LINE
  8
0
  6
CONTINUOUS
 62
               4
  5
16A
 10
-47.944246014461442
 20
-1104.5725845335369
 30
0.0
 11
-47.944246014461442
 21
-1223.7256081306541
 31
0.0
  0
POINT
  8
0
  6
CONTINUOUS
 62
               4
  5
16B
 10
-266.84424601446131
 20
-1119.2256081306541
 30
0.0
  0
CIRCLE
  8
0
  6
DASHED
 62
               4
  5
16C
 10
-731.73076923076917
 20
-727.76241447267023
 30
0.0
 40
33.5
  0
LINE
  8
0
  6
CONTINUOUS
 62
               3
  5
16D
 10
-56.73076923076917
 20
9.7375855273297702
 30
0.0
 11
-206.73076923076923
 21
9.7375855273297702
 31
0.0
  0
LINE
  8
0
  6
CONTINUOUS
 62
               3
  5
16E
 10
-206.73076923076923
 20
-7.2624144726703435
 30
0.0
 11
-206.73076923076923
 21
9.7375855273297702
 31
0.0
  0
LINE
  8
0
  6
CONTINUOUS
 62
               3
  5
16F
 10
-206.73076923076923
 20
-7.2624144726703435
 30
0.0
 11
-56.73076923076917
 21
-7.2624144726703435
 31
0.0
  0
LINE
  8
0
  6
CONTINUOUS
 62
               3
  5
170
 10
-56.73076923076917
 20
-7.2624144726703435
 30
0.0
 11
-56.73076923076917
 21
9.7375855273297702
 31
0.0
  0
LINE
  8
0
  6
CONTINUOUS
 62
               3
  5
171
 10
-203.73076923076923
 20
-11.844990167626065
 30
0.0
 11
-203.73076923076877
 21
-71.296116524882109
 31
0.0
  0
LINE
  8
0
  6
CONTINUOUS
 62
               3
  5
172
 10
-59.730769230769624
 20
-71.296116524882109
 30
0.0
 11
-59.73076923076917
 21
-11.844990167626065
 31
0.0
  0
ARC
  8
0
  6
CONTINUOUS
 62
               3
  5
173
 10
-208.73076923076923
 20
-11.844990167626065
 30
0.0
 40
5.0
 50
0.0
 51
66.421821521783841
  0
ARC
  8
0
  6
CONTINUOUS
 62
               3
  5
174
 10
-54.73076923076917
 20
-11.844990167626065
 30
0.0
 40
5.0
 50
113.5781784781816
 51
179.99999999996524
  0
LINE
  8
0
  6
CONTINUOUS
 62
               3
  5
175
 10
-64.730769230770534
 20
-84.897587033618834
 30
0.0
 11
-64.73076923076917
 21
-198.7624144726702
 31
0.0
  0
ARC
  8
0
  6
CONTINUOUS
 62
               3
  5
176
 10
-70.730769230769624
 20
-71.296116524882109
 30
0.0
 40
11.0
 50
319.63240645574831
 51
359.99999999993042
  0
ARC
  8
0
  6
CONTINUOUS
 62
               3
  5
177
 10
-54.730769230770534
 20
-84.897587033618834
 30
0.0
 40
10.0
 50
139.63240645578361
 51
179.99999999996521
  0
LINE
  8
0
  6
CONTINUOUS
 62
               3
  5
178
 10
-1206.7307692307691
 20
9.7375855273297702
 30
0.0
 11
-1056.7307692307691
 21
9.7375855273297702
 31
0.0
  0
LINE
  8
0
  6
CONTINUOUS
 62
               3
  5
179
 10
-1056.7307692307691
 20
-7.2624144726703435
 30
0.0
 11
-1056.7307692307691
 21
9.7375855273297702
 31
0.0
  0
LINE
  8
0
  6
CONTINUOUS
 62
               3
  5
17A
 10
-1056.7307692307691
 20
-7.2624144726703435
 30
0.0
 11
-1206.7307692307691
 21
-7.2624144726703435
 31
0.0
  0
LINE
  8
0
  6
CONTINUOUS
 62
               3
  5
17B
 10
-1206.7307692307691
 20
-7.2624144726703435
 30
0.0
 11
-1206.7307692307691
 21
9.7375855273297702
 31
0.0
  0
LINE
  8
0
  6
CONTINUOUS
 62
               3
  5
17C
 10
-1059.7307692307693
 20
-11.844990167626065
 30
0.0
 11
-1059.7307692307695
 21
-71.296116524882109
 31
0.0
  0
LINE
  8
0
  6
CONTINUOUS
 62
               3
  5
17D
 10
-1203.7307692307686
 20
-71.296116524882109
 30
0.0
 11
-1203.7307692307691
 21
-11.844990167626065
 31
0.0
  0
ARC
  8
0
  6
CONTINUOUS
 62
               3
  5
17E
 10
-1054.7307692307691
 20
-11.844990167626065
 30
0.0
 40
5.0
 50
113.578178478181
 51
179.99999999996524
  0
ARC
  8
0
  6
CONTINUOUS
 62
               3
  5
17F
 10
-1208.7307692307691
 20
-11.844990167626065
 30
0.0
 40
5.0
 50
0.0
 51
66.421821521783841
  0
LINE
  8
0
  6
CONTINUOUS
 62
               3
  5
180
 10
-1198.7307692307677
 20
-84.897587033618834
 30
0.0
 11
-1198.7307692307691
 21
-198.7624144726702
 31
0.0
  0
ARC
  8
0
  6
CONTINUOUS
 62
               3
  5
181
 10
-1070.7307692307695
 20
-71.296116524882109
 30
0.0
 40
11.0
 50
319.63240645574854
 51
359.99999999993042
  0
ARC
  8
0
  6
CONTINUOUS
 62
               3
  5
182
 10
-1054.7307692307704
 20
-84.897587033618834
 30
0.0
 40
10.0
 50
139.63240645578361
 51
179.99999999996521
  0
ARC
  8
0
  6
CONTINUOUS
 62
               3
  5
183
 10
-1192.7307692307686
 20
-71.296116524882109
 30
0.0
 40
11.0
 50
179.99999999996521
 51
220.36759354414724
  0
ARC
  8
0
  6
CONTINUOUS
 62
               3
  5
184
 10
-1208.7307692307677
 20
-84.897587033618834
 30
0.0
 40
10.0
 50
359.99999999993042
 51
400.3675935441122
  0
LINE
  8
0
  6
CONTINUOUS
 62
               3
  5
185
 10
-556.73076923076917
 20
9.7375855273297702
 30
0.0
 11
-706.73076923076917
 21
9.7375855273297702
 31
0.0
  0
LINE
  8
0
  6
CONTINUOUS
 62
               3
  5
186
 10
-706.73076923076917
 20
-7.2624144726703435
 30
0.0
 11
-706.73076923076917
 21
9.7375855273297702
 31
0.0
  0
LINE
  8
0
  6
CONTINUOUS
 62
               3
  5
187
 10
-706.73076923076917
 20
-7.2624144726703435
 30
0.0
 11
-556.73076923076917
 21
-7.2624144726703435
 31
0.0
  0
LINE
  8
0
  6
CONTINUOUS
 62
               3
  5
188
 10
-556.73076923076917
 20
-7.2624144726703435
 30
0.0
 11
-556.73076923076917
 21
9.7375855273297702
 31
0.0
  0
LINE
  8
0
  6
CONTINUOUS
 62
               3
  5
189
 10
-703.73076923076917
 20
-11.844990167626065
 30
0.0
 11
-703.73076923076871
 21
-71.296116524882109
 31
0.0
  0
LINE
  8
0
  6
CONTINUOUS
 62
               3
  5
18A
 10
-559.73076923076962
 20
-71.296116524882109
 30
0.0
 11
-559.73076923076917
 21
-11.844990167626065
 31
0.0
  0
ARC
  8
0
  6
CONTINUOUS
 62
               3
  5
18B
 10
-708.73076923076917
 20
-11.844990167626065
 30
0.0
 40
5.0
 50
0.0
 51
66.421821521784153
  0
ARC
  8
0
  6
CONTINUOUS
 62
               3
  5
18C
 10
-554.73076923076917
 20
-11.844990167626065
 30
0.0
 40
5.0
 50
113.57817847818114
 51
179.99999999996524
  0
LINE
  8
0
  6
CONTINUOUS
 62
               3
  5
18D
 10
-564.73076923077053
 20
-84.897587033618834
 30
0.0
 11
-564.73076923076917
 21
-198.7624144726702
 31
0.0
  0
ARC
  8
0
  6
CONTINUOUS
 62
               3
  5
18E
 10
-570.73076923076962
 20
-71.296116524882109
 30
0.0
 40
11.0
 50
319.63240645574848
 51
359.99999999993042
  0
ARC
  8
0
  6
CONTINUOUS
 62
               3
  5
18F
 10
-554.73076923077053
 20
-84.897587033618834
 30
0.0
 40
10.0
 50
139.63240645578358
 51
179.99999999996521
  0
ARC
  8
0
  6
CONTINUOUS
 62
               3
  5
190
 10
-1134.4696339011732
 20
-199.19431426276068
 30
0.0
 40
75.238995147991176
 50
66.251709401198312
 51
99.116170731709559
  0
ARC
  8
0
  6
CONTINUOUS
 62
               3
  5
191
 10
-1147.0240020707547
 20
-120.95617655533587
 30
0.0
 40
4.0
 50
151.46651938399236
 51
279.11617073167417
  0
ARC
  8
0
  6
CONTINUOUS
 62
               3
  5
192
 10
-1102.5585547722112
 20
-126.66500032082067
 30
0.0
 40
4.0
 50
246.2517094011618
 51
395.78778983843796
  0
ARC
  8
0
  6
CONTINUOUS
 62
               3
  5
193
 10
-1129.2079201735628
 20
-113.89742428688248
 30
0.0
 40
15.395931900744419
 50
47.914158101626271
 51
144.58600371305195
  0
ARC
  8
0
  6
CONTINUOUS
 62
               3
  5
194
 10
-1029.1256682403709
 20
-185.05898061917352
 30
0.0
 40
138.19831075251042
 50
144.58600371305204
 51
151.4665193839929
  0
ARC
  8
0
  6
CONTINUOUS
 62
               3
  5
195
 10
-1211.9752765229673
 20
-205.54338790078256
 30
0.0
 40
138.88446547285218
 50
35.78778983850804
 51
47.914158101626469
  0
LINE
  8
0
  6
CONTINUOUS
 62
               3
  5
196
 10
-1131.7307692307691
 20
-113.56508825356832
 30
0.0
 11
-1106.9033970748658
 21
-128.35792873206853
 31
0.0
  0
LINE
  8
0
  6
CONTINUOUS
 62
               3
  5
197
 10
-1131.7307692307691
 20
-113.56508832427141
 30
0.0
 11
-1147.9619944878964
 21
-122.9361905957513
 31
0.0
  0
LINE
  8
0
  6
CONTINUOUS
 62
               3
  5
198
 10
-1131.7931450276133
 20
-113.56508825356832
 30
0.0
 11
-1131.7931450276133
 21
-100.07625630371479
 31
0.0
  0
ARC
  8
0
  6
CONTINUOUS
 62
               3
  5
199
 10
-631.73076923076985
 20
357.91777019277174
 30
0.0
 40
51.5
 50
247.14815970707957
 51
510.93845082055998
  0
ARC
  8
0
  6
CONTINUOUS
 62
               3
  5
19A
 10
-631.73076923076974
 20
357.91777019277174
 30
0.0
 40
75.5
 50
0.0
 51
143.13068213364525
  0
ARC
  8
0
  6
CONTINUOUS
 62
               3
  5
19B
 10
-631.73076923076974
 20
357.91777019277174
 30
0.0
 40
75.5
 50
269.99999999994776
 51
359.99999999993042
  0
LINE
  8
0
  6
CONTINUOUS
 62
               3
  5
19C
 10
-651.73076923077326
 20
357.91777019277174
 30
0.0
 11
-684.23076923077031
 21
357.91777019277174
 31
0.0
  0
LINE
  8
0
  6
CONTINUOUS
 62
               3
  5
19D
 10
-651.73076923076985
 20
309.3765505954027
 30
0.0
 11
-651.73076923076974
 21
353.77563456904136
 31
0.0
  0
ARC
  8
0
  6
CONTINUOUS
 62
               3
  5
19E
 10
-661.73076923076974
 20
353.77563456904136
 30
0.0
 40
10.0
 50
359.99999999993048
 51
404.99999999992167
  0
LINE
  8
0
  6
CONTINUOUS
 62
               3
  5
19F
 10
-654.65970141890432
 20
360.84670238090689
 30
0.0
 11
-677.48164334595913
 21
383.66864430795749
 31
0.0
  0
CIRCLE
  8
0
  6
CONTINUOUS
 62
               3
  5
1A0
 10
-631.73076923077031
 20
357.91777019277174
 30
0.0
 40
52.5
  0
CIRCLE
  8
0
  6
CONTINUOUS
 62
               3
  5
1A1
 10
-631.73076923077031
 20
357.91777019277174
 30
0.0
 40
74.999999999999488
  0
ARC
  8
0
  6
CONTINUOUS
 62
               3
  5
1A2
 10
-631.73076923076974
 20
357.91777019277174
 30
0.0
 40
75.5
 50
216.86931786628514
 51
269.99999999994742
  0
LINE
  8
0
  6
CONTINUOUS
 62
               3
  5
1A3
 10
-564.73076923076917
 20
-199.25487148945658
 30
0.0
 11
-573.73076923076917
 21
-244.5009269185891
 31
0.0
  0
LINE
  8
0
  6
CONTINUOUS
 62
               3
  5
1A4
 10
-573.73076923076917
 20
-244.69420986807344
 30
0.0
 11
-573.73076923076917
 21
-254.26241447267043
 31
0.0
  0
LINE
  8
0
  6
CONTINUOUS
 62
               3
  5
1A5
 10
-574.73076923076917
 20
-255.36713423556679
 30
0.0
 11
-574.73076923076917
 21
-323.33221346607513
 31
0.0
  0
LINE
  8
0
  6
CONTINUOUS
 62
               3
  5
1A6
 10
-576.72955088480592
 20
-325.26241447267023
 30
0.0
 11
-574.73076923076917
 21
-323.33221346607513
 31
0.0
  0
LINE
  8
0
  6
CONTINUOUS
 62
               3
  5
1A7
 10
-574.73076923076917
 20
-255.2624144726702
 30
0.0
 11
-573.73076923076917
 21
-254.26241447267043
 31
0.0
  0
LINE
  8
0
  6
CONTINUOUS
 62
               3
  5
1A8
 10
-688.73076923076917
 20
-255.36713423556679
 30
0.0
 11
-688.73076923076917
 21
-323.33221346607513
 31
0.0
  0
LINE
  8
0
  6
CONTINUOUS
 62
               3
  5
1A9
 10
-686.73198757673242
 20
-325.26241447267023
 30
0.0
 11
-688.73076923076917
 21
-323.33221346607513
 31
0.0
  0
LINE
  8
0
  6
CONTINUOUS
 62
               3
  5
1AA
 10
-576.72955088480649
 20
-325.26241447267023
 30
0.0
 11
-686.73198757673242
 21
-325.26241447267023
 31
0.0
  0
LINE
  8
0
  6
CONTINUOUS
 62
               3
  5
1AB
 10
-688.73076923076917
 20
-255.2624144726702
 30
0.0
 11
-574.73076923076917
 21
-255.2624144726702
 31
0.0
  0
LINE
  8
0
  6
CONTINUOUS
 62
               3
  5
1AC
 10
-689.73076923076917
 20
-254.26241447267032
 30
0.0
 11
-573.73076923076917
 21
-254.26241447267043
 31
0.0
  0
LINE
  8
0
  6
CONTINUOUS
 62
               3
  5
1AD
 10
-64.73076923076917
 20
-199.25487148945692
 30
0.0
 11
-73.73076923076917
 21
-244.50092691858944
 31
0.0
  0
LINE
  8
0
  6
CONTINUOUS
 62
               3
  5
1AE
 10
-73.73076923076917
 20
-244.69420986807378
 30
0.0
 11
-73.73076923076917
 21
-254.26241447267043
 31
0.0
  0
LINE
  8
0
  6
CONTINUOUS
 62
               3
  5
1AF
 10
-74.73076923076917
 20
-255.2624144726702
 30
0.0
 11
-73.73076923076917
 21
-254.26241447267043
 31
0.0
  0
LINE
  8
0
  6
CONTINUOUS
 62
               3
  5
1B0
 10
-74.73076923076917
 20
-255.2624144726702
 30
0.0
 11
-74.73076923076917
 21
-323.33221346607479
 31
0.0
  0
LINE
  8
0
  6
CONTINUOUS
 62
               3
  5
1B1
 10
-188.73076923076923
 20
-255.2624144726702
 30
0.0
 11
-74.73076923076917
 21
-255.2624144726702
 31
0.0
  0
LINE
  8
0
  6
CONTINUOUS
 62
               3
  5
1B2
 10
-189.73076923076923
 20
-254.26241447267032
 30
0.0
 11
-73.73076923076917
 21
-254.26241447267043
 31
0.0
  0
LINE
  8
0
  6
CONTINUOUS
 62
               3
  5
1B3
 10
-76.729550884805917
 20
-325.26241447266989
 30
0.0
 11
-74.73076923076917
 21
-323.33221346607479
 31
0.0
  0
LINE
  8
0
  6
CONTINUOUS
 62
               3
  5
1B4
 10
-76.729550884806372
 20
-325.26241447266989
 30
0.0
 11
-186.73198757673248
 21
-325.26241447266989
 31
0.0
  0
LINE
  8
0
  6
CONTINUOUS
 62
               3
  5
1B5
 10
-188.73076923076923
 20
-255.2624144726702
 30
0.0
 11
-188.73076923076923
 21
-323.33221346607479
 31
0.0
  0
LINE
  8
0
  6
CONTINUOUS
 62
               3
  5
1B6
 10
-186.73198757673248
 20
-325.26241447266989
 30
0.0
 11
-188.73076923076923
 21
-323.33221346607479
 31
0.0
  0
LINE
  8
0
  6
CONTINUOUS
 62
               3
  5
1B7
 10
-1074.7307692307691
 20
-255.26241447267043
 30
0.0
 11
-1073.7307692307691
 21
-254.26241447267054
 31
0.0
  0
LINE
  8
0
  6
CONTINUOUS
 62
               3
  5
1B8
 10
-1074.7307692307691
 20
-255.26241447267043
 30
0.0
 11
-1074.7307692307691
 21
-323.33221346607502
 31
0.0
  0
LINE
  8
0
  6
CONTINUOUS
 62
               3
  5
1B9
 10
-1188.7307692307691
 20
-255.26241447267043
 30
0.0
 11
-1074.7307692307691
 21
-255.26241447267043
 31
0.0
  0
LINE
  8
0
  6
CONTINUOUS
 62
               3
  5
1BA
 10
-1189.7307692307691
 20
-254.26241447267043
 30
0.0
 11
-1073.7307692307691
 21
-254.26241447267054
 31
0.0
  0
LINE
  8
0
  6
CONTINUOUS
 62
               3
  5
1BB
 10
-1076.729550884806
 20
-325.26241447267012
 30
0.0
 11
-1074.7307692307691
 21
-323.33221346607502
 31
0.0
  0
LINE
  8
0
  6
CONTINUOUS
 62
               3
  5
1BC
 10
-1076.7295508848065
 20
-325.26241447267012
 30
0.0
 11
-1186.7319875767325
 21
-325.26241447267012
 31
0.0
  0
LINE
  8
0
  6
CONTINUOUS
 62
               3
  5
1BD
 10
-1198.7307692307691
 20
-199.25487148945703
 30
0.0
 11
-1189.7307692307691
 21
-244.50092691858956
 31
0.0
  0
LINE
  8
0
  6
CONTINUOUS
 62
               3
  5
1BE
 10
-1189.7307692307691
 20
-244.6942098680739
 30
0.0
 11
-1189.7307692307691
 21
-254.26241447267054
 31
0.0
  0
LINE
  8
0
  6
CONTINUOUS
 62
               3
  5
1BF
 10
-1188.7307692307691
 20
-255.26241447267043
 30
0.0
 11
-1189.7307692307691
 21
-254.26241447267054
 31
0.0
  0
LINE
  8
0
  6
CONTINUOUS
 62
               3
  5
1C0
 10
-1188.7307692307691
 20
-255.26241447267043
 30
0.0
 11
-1188.7307692307691
 21
-323.33221346607502
 31
0.0
  0
LINE
  8
0
  6
CONTINUOUS
 62
               3
  5
1C1
 10
-1186.7319875767325
 20
-325.26241447267012
 30
0.0
 11
-1188.7307692307691
 21
-323.33221346607502
 31
0.0
  0
LINE
  8
0
  6
CONTINUOUS
 62
               3
  5
1C2
 10
-1064.7307692307697
 20
-154.36504286356919
 30
0.0
 11
-1064.7307692307704
 21
-84.89758703361872
 31
0.0
  0
ARC
  8
0
  6
CONTINUOUS
 62
               3
  5
1C3
 10
-1070.7307692307695
 20
-71.296116524882109
 30
0.0
 40
11.0
 50
319.63240645574854
 51
359.99999999993042
  0
ARC
  8
0
  6
CONTINUOUS
 62
               3
  5
1C4
 10
-1054.7307692307704
 20
-84.89758703361872
 30
0.0
 40
10.0
 50
139.63240645578361
 51
179.99999999996521
  0
LINE
  8
0
  6
CONTINUOUS
 62
               3
  5
1C5
 10
-1004.7307692307692
 20
-163.51241447266986
 30
0.0
 11
-1005.4023253567336
 21
-163.51241447266986
 31
0.0
  0
LINE
  8
0
  6
CONTINUOUS
 62
               3
  5
1C6
 10
-1007.7307692307694
 20
-161.18397059863466
 30
0.0
 11
-1005.4023253567336
 21
-163.51241447266986
 31
0.0
  0
LINE
  8
0
  6
CONTINUOUS
 62
               3
  5
1C7
 10
-1004.7307692307692
 20
-161.18397059863455
 30
0.0
 11
-1002.2307692307692
 21
-161.18397059863455
 31
0.0
  0
ARC
  8
0
  6
CONTINUOUS
 62
               3
  5
1C8
 10
-1002.2307692307692
 20
-163.68397059863455
 30
0.0
 40
2.5
 50
0.0
 51
89.999999999982862
  0
LINE
  8
0
  6
CONTINUOUS
 62
               3
  5
1C9
 10
-1059.905266714283
 20
-159.36199699866458
 30
0.0
 11
-1007.7307692307694
 21
-161.18397059863466
 31
0.0
  0
ARC
  8
0
  6
CONTINUOUS
 62
               3
  5
1CA
 10
-1059.7307692307704
 20
-154.36504286356907
 30
0.0
 40
5.0
 50
179.99999999996524
 51
267.99999999994753
  0
LINE
  8
0
  6
CONTINUOUS
 62
               3
  5
1CB
 10
-1007.7307692307694
 20
-247.34085834670552
 30
0.0
 11
-1007.7307692307694
 21
-161.18397059863466
 31
0.0
  0
LINE
  8
0
  6
CONTINUOUS
 62
               3
  5
1CC
 10
-1004.7307692307692
 20
-245.01241447266986
 30
0.0
 11
-1005.4023253567336
 21
-245.01241447266986
 31
0.0
  0
LINE
  8
0
  6
CONTINUOUS
 62
               3
  5
1CD
 10
-1007.7307692307694
 20
-247.34085834670552
 30
0.0
 11
-1005.4023253567336
 21
-245.01241447266986
 31
0.0
  0
LINE
  8
0
  6
CONTINUOUS
 62
               3
  5
1CE
 10
-1005.4023253567336
 20
-163.51241447266986
 30
0.0
 11
-1005.4023253567336
 21
-245.01241447266986
 31
0.0
  0
LINE
  8
0
  6
CONTINUOUS
 62
               3
  5
1CF
 10
-999.73076923076917
 20
-163.68397059863455
 30
0.0
 11
-999.73076923076917
 21
-244.84085834670552
 31
0.0
  0
LINE
  8
0
  6
CONTINUOUS
 62
               3
  5
1D0
 10
-1004.7307692307692
 20
-247.34085834670552
 30
0.0
 11
-1004.7307692307692
 21
-161.18397059863455
 31
0.0
  0
LINE
  8
0
  6
CONTINUOUS
 62
               3
  5
1D1
 10
-1004.7307692307692
 20
-247.34085834670552
 30
0.0
 11
-1002.2307692307692
 21
-247.34085834670552
 31
0.0
  0
ARC
  8
0
  6
CONTINUOUS
 62
               3
  5
1D2
 10
-1002.2307692307692
 20
-244.84085834670552
 30
0.0
 40
2.5
 50
269.99999999994731
 51
359.99999999993014
  0
LINE
  8
0
  6
CONTINUOUS
 62
               3
  5
1D3
 10
-1074.7307692307693
 20
-255.26241447267043
 30
0.0
 11
-1073.7307692307691
 21
-254.26241447267054
 31
0.0
  0
ARC
  8
0
  6
CONTINUOUS
 62
               3
  5
1D4
 10
-1068.7307692307691
 20
-254.43269380048363
 30
0.0
 40
5.0
 50
91.999999999981938
 51
178.04836525987568
  0
LINE
  8
0
  6
CONTINUOUS
 62
               3
  5
1D5
 10
-1008.0027323839289
 20
-247.30897630257479
 30
0.0
 11
-1068.9052667142817
 21
-249.43573966538813
 31
0.0
  0
LINE
  8
0
  6
CONTINUOUS
 62
               3
  5
1D6
 10
-648.35153936936422
 20
-186.26241447267054
 30
0.0
 11
-615.10999909217526
 21
-186.26241447267054
 31
0.0
  0
CIRCLE
  8
0
  6
CONTINUOUS
 62
               3
  5
1D7
 10
-631.73076923076974
 20
-204.26241447267066
 30
0.0
 40
34.100000000000001
  0
CIRCLE
  8
0
  6
CONTINUOUS
 62
               3
  5
1D8
 10
-631.73076923076974
 20
-204.26241447267066
 30
0.0
 40
28.649999999999999
  0
CIRCLE
  8
0
  6
CONTINUOUS
 62
               3
  5
1D9
 10
-631.73076923076974
 20
-204.26241447267066
 30
0.0
 40
33.0
  0
CIRCLE
  8
0
  6
CONTINUOUS
 62
               3
  5
1DA
 10
-631.73076923076974
 20
-204.26241447267066
 30
0.0
 40
24.5
  0
LINE
  8
0
  6
CONTINUOUS
 62
               3
  5
1DB
 10
-653.29752605695955
 20
-225.82917129886013
 30
0.0
 11
-655.06529300992531
 21
-227.59693825182725
 31
0.0
  0
LINE
  8
0
  6
CONTINUOUS
 62
               3
  5
1DC
 10
-610.16401240458015
 20
-225.82917129886013
 30
0.0
 11
-608.39624545161371
 21
-227.5969382518268
 31
0.0
  0
ARC
  8
0
  6
CONTINUOUS
 62
               3
  5
1DD
 10
-631.73076923076985
 20
-204.26241447267054
 30
0.0
 40
30.5
 50
224.99999999995646
 51
314.99999999993918
  0
CIRCLE
  8
0
  6
CONTINUOUS
 62
               3
  5
1DE
 10
-631.73076923076974
 20
-204.26241447267066
 30
0.0
 40
43.078500000000005
  0
LINE
  8
0
  6
CONTINUOUS
 62
               3
  5
1DF
 10
-580.22854643860023
 20
-198.76241447267032
 30
0.0
 11
-564.73076923076917
 21
-198.76241447267032
 31
0.0
  0
LINE
  8
0
  6
CONTINUOUS
 62
               3
  5
1E0
 10
-258.73076923076923
 20
-163.51241447266963
 30
0.0
 11
-258.05921310480466
 21
-163.51241447266963
 31
0.0
  0
LINE
  8
0
  6
CONTINUOUS
 62
               3
  5
1E1
 10
-255.730769230769
 20
-247.3408583467054
 30
0.0
 11
-255.730769230769
 21
-161.18397059863455
 31
0.0
  0
LINE
  8
0
  6
CONTINUOUS
 62
               3
  5
1E2
 10
-258.73076923076923
 20
-245.01241447266975
 30
0.0
 11
-258.05921310480466
 21
-245.01241447266975
 31
0.0
  0
LINE
  8
0
  6
CONTINUOUS
 62
               3
  5
1E3
 10
-255.730769230769
 20
-161.18397059863455
 30
0.0
 11
-258.05921310480466
 21
-163.51241447266963
 31
0.0
  0
LINE
  8
0
  6
CONTINUOUS
 62
               3
  5
1E4
 10
-255.730769230769
 20
-247.3408583467054
 30
0.0
 11
-258.05921310480466
 21
-245.01241447266975
 31
0.0
  0
LINE
  8
0
  6
CONTINUOUS
 62
               3
  5
1E5
 10
-258.05921310480466
 20
-163.51241447266963
 30
0.0
 11
-258.05921310480466
 21
-245.01241447266975
 31
0.0
  0
LINE
  8
0
  6
CONTINUOUS
 62
               3
  5
1E6
 10
-263.73076923076923
 20
-163.68397059863443
 30
0.0
 11
-263.73076923076923
 21
-244.8408583467054
 31
0.0
  0
LINE
  8
0
  6
CONTINUOUS
 62
               3
  5
1E7
 10
-258.73076923076923
 20
-247.3408583467054
 30
0.0
 11
-258.73076923076923
 21
-161.18397059863443
 31
0.0
  0
LINE
  8
0
  6
CONTINUOUS
 62
               3
  5
1E8
 10
-258.73076923076923
 20
-161.18397059863443
 30
0.0
 11
-261.23076923076923
 21
-161.18397059863443
 31
0.0
  0
LINE
  8
0
  6
CONTINUOUS
 62
               3
  5
1E9
 10
-258.73076923076923
 20
-247.3408583467054
 30
0.0
 11
-261.23076923076923
 21
-247.3408583467054
 31
0.0
  0
ARC
  8
0
  6
CONTINUOUS
 62
               3
  5
1EA
 10
-261.23076923076923
 20
-244.8408583467054
 30
0.0
 40
2.5
 50
179.99999999996507
 51
269.99999999994731
  0
ARC
  8
0
  6
CONTINUOUS
 62
               3
  5
1EB
 10
-261.23076923076923
 20
-163.68397059863443
 30
0.0
 40
2.5
 50
89.999999999982862
 51
179.99999999996507
  0
LINE
  8
0
  6
CONTINUOUS
 62
               3
  5
1EC
 10
-203.55627174725527
 20
-159.36199699866447
 30
0.0
 11
-255.730769230769
 21
-161.18397059863455
 31
0.0
  0
ARC
  8
0
  6
CONTINUOUS
 62
               3
  5
1ED
 10
-203.73076923076786
 20
-154.36504286356896
 30
0.0
 40
5.0
 50
271.99999999994827
 51
359.99999999993048
  0
ARC
  8
0
  6
CONTINUOUS
 62
               3
  5
1EE
 10
-194.73076923076923
 20
-254.43269380048352
 30
0.0
 40
5.0
 50
1.951634740089389
 51
87.999999999983118
  0
LINE
  8
0
  6
CONTINUOUS
 62
               3
  5
1EF
 10
-255.45880607760949
 20
-247.30897630257456
 30
0.0
 11
-194.55627174725663
 21
-249.4357396653879
 31
0.0
  0
LINE
  8
0
  6
CONTINUOUS
 62
               3
  5
1F0
 10
-188.73076923076923
 20
-255.26241447266986
 30
0.0
 11
-189.73076923076923
 21
-254.26241447266986
 31
0.0
  0
LINE
  8
0
  6
CONTINUOUS
 62
               3
  5
1F1
 10
-198.73076923076786
 20
-154.36504286356896
 30
0.0
 11
-198.73076923076786
 21
-84.89758703361872
 31
0.0
  0
ARC
  8
0
  6
CONTINUOUS
 62
               3
  5
1F2
 10
-192.73076923076877
 20
-71.296116524882109
 30
0.0
 40
11.0
 50
179.99999999996521
 51
220.36759354414724
  0
ARC
  8
0
  6
CONTINUOUS
 62
               3
  5
1F3
 10
-208.73076923076786
 20
-84.89758703361872
 30
0.0
 40
10.0
 50
359.99999999993042
 51
400.36759354411203
  0
LINE
  8
0
  6
CONTINUOUS
 62
               3
  5
1F4
 10
-159.09537829751247
 20
-198.76241447266986
 30
0.0
 11
-64.73076923076917
 21
-198.76241447266986
 31
0.0
  0
LINE
  8
0
  6
CONTINUOUS
 62
               3
  5
1F5
 10
-672.48076923077053
 20
230.91777019277174
 30
0.0
 11
-672.48076923077053
 21
231.58932631873608
 31
0.0
  0
LINE
  8
0
  6
CONTINUOUS
 62
               3
  5
1F6
 10
-588.65232535673488
 20
233.91777019277185
 30
0.0
 11
-674.80921310480562
 21
233.91777019277185
 31
0.0
  0
LINE
  8
0
  6
CONTINUOUS
 62
               3
  5
1F7
 10
-590.98076923077042
 20
230.91777019277174
 30
0.0
 11
-590.98076923077042
 21
231.58932631873608
 31
0.0
  0
LINE
  8
0
  6
CONTINUOUS
 62
               3
  5
1F8
 10
-674.80921310480562
 20
233.91777019277185
 30
0.0
 11
-672.48076923077053
 21
231.58932631873608
 31
0.0
  0
LINE
  8
0
  6
CONTINUOUS
 62
               3
  5
1F9
 10
-588.65232535673488
 20
233.91777019277185
 30
0.0
 11
-590.98076923077042
 21
231.58932631873608
 31
0.0
  0
LINE
  8
0
  6
CONTINUOUS
 62
               3
  5
1FA
 10
-672.48076923077053
 20
231.58932631873608
 30
0.0
 11
-590.98076923077042
 21
231.58932631873608
 31
0.0
  0
LINE
  8
0
  6
CONTINUOUS
 62
               3
  5
1FB
 10
-672.30921310480574
 20
225.91777019277174
 30
0.0
 11
-591.15232535673488
 21
225.91777019277174
 31
0.0
  0
LINE
  8
0
  6
CONTINUOUS
 62
               3
  5
1FC
 10
-588.65232535673488
 20
230.91777019277174
 30
0.0
 11
-674.80921310480574
 21
230.91777019277174
 31
0.0
  0
LINE
  8
0
  6
CONTINUOUS
 62
               3
  5
1FD
 10
-674.80921310480574
 20
230.91777019277174
 30
0.0
 11
-674.80921310480574
 21
228.41777019277174
 31
0.0
  0
LINE
  8
0
  6
CONTINUOUS
 62
               3
  5
1FE
 10
-588.65232535673488
 20
230.91777019277174
 30
0.0
 11
-588.65232535673488
 21
228.41777019277174
 31
0.0
  0
ARC
  8
0
  6
CONTINUOUS
 62
               3
  5
1FF
 10
-591.15232535673488
 20
228.41777019277174
 30
0.0
 40
2.5
 50
269.99999999994782
 51
359.99999999993014
  0
ARC
  8
0
  6
CONTINUOUS
 62
               3
  5
200
 10
-672.30921310480574
 20
228.41777019277174
 30
0.0
 40
2.5
 50
179.99999999996572
 51
269.99999999994782
  0
LINE
  8
0
  6
CONTINUOUS
 62
               3
  5
201
 10
-586.4089193843464
 20
298.16051183449258
 30
0.0
 11
-588.65232535673488
 21
233.91777019277185
 31
0.0
  0
LINE
  8
0
  6
CONTINUOUS
 62
               3
  5
202
 10
-677.05261907719466
 20
298.16051183449304
 30
0.0
 11
-674.80921310480562
 21
233.91777019277185
 31
0.0
  0
CIRCLE
  8
0
  6
CONTINUOUS
 62
               3
  5
203
 10
-1131.7307692307691
 20
-196.76241447267009
 30
0.0
 40
50.75
  0
ARC
  8
0
  6
CONTINUOUS
 62
               3
  5
204
 10
-692.73076923076871
 20
-71.296116524882223
 30
0.0
 40
11.0
 50
179.99999999996521
 51
220.36759354414716
  0
ARC
  8
0
  6
CONTINUOUS
 62
               3
  5
205
 10
-708.73076923076781
 20
-84.897587033618834
 30
0.0
 40
10.0
 50
359.99999999993042
 51
400.36759354411203
  0
LINE
  8
0
  6
CONTINUOUS
 62
               3
  5
206
 10
-698.73076923076781
 20
-90.868266093988382
 30
0.0
 11
-698.73076923076781
 21
-85.365969700263804
 31
0.0
  0
ARC
  8
0
  6
CONTINUOUS
 62
               3
  5
207
 10
-688.73076923077065
 20
-90.309621014939239
 30
0.0
 40
10.0
 50
179.99999999996518
 51
239.99999999995384
  0
ARC
  8
0
  6
CONTINUOUS
 62
               3
  5
208
 10
-795.93076923077069
 20
-114.97052124181641
 30
0.0
 40
100.0
 50
354.52634157402622
 51
373.59049396673356
  0
ARC
  8
0
  6
CONTINUOUS
 62
               3
  5
209
 10
-701.36395422223347
 20
-124.03239186222706
 30
0.0
 40
5.0
 50
319.75762935177835
 51
354.52634157402639
  0
ARC
  8
0
  6
CONTINUOUS
 62
               3
  5
20A
 10
-712.19268957349027
 20
-117.06221916716467
 30
0.0
 40
25.849089312664582
 50
335.43172396391844
 51
404.42073963319945
  0
ARC
  8
0
  6
CONTINUOUS
 62
               3
  5
20B
 10
-693.23114213905785
 20
-125.73079713931529
 30
0.0
 40
5.0
 50
242.21780931705263
 51
335.43172396391856
  0
ARC
  8
0
  6
CONTINUOUS
 62
               3
  5
20C
 10
-700.22281707549951
 20
-139.00168563944996
 30
0.0
 40
10.0
 50
62.217809317087166
 51
80.342813712503926
  0
ARC
  8
0
  6
CONTINUOUS
 62
               3
  5
20D
 10
-693.73076923076781
 20
-130.4926153015567
 30
0.0
 40
5.0
 50
139.75762935181393
 51
164.34500844833747
  0
LINE
  8
0
  6
CONTINUOUS
 62
               3
  5
20E
 10
-688.73076923076917
 20
-255.2624144726702
 30
0.0
 11
-689.73076923076917
 21
-254.26241447267043
 31
0.0
  0
LINE
  8
0
  6
CONTINUOUS
 62
               3
  5
20F
 10
-698.73076923076781
 20
-130.4926153015567
 30
0.0
 11
-698.73076923076781
 21
-139.11504286356953
 31
0.0
  0
ARC
  8
0
  6
CONTINUOUS
 62
               3
  5
210
 10
-700.22281707549951
 20
-139.00168563944996
 30
0.0
 40
10.0
 50
62.217809317087166
 51
80.342813712503926
  0
ARC
  8
0
  6
CONTINUOUS
 62
               3
  5
211
 10
-693.73076923076781
 20
-130.4926153015567
 30
0.0
 40
5.0
 50
139.75762935181393
 51
179.99999999996524
  0
LINE
  8
0
  6
CONTINUOUS
 62
               3
  5
212
 10
-758.73076923076917
 20
-245.2624144726702
 30
0.0
 11
-758.05921310480494
 21
-245.2624144726702
 31
0.0
  0
LINE
  8
0
  6
CONTINUOUS
 62
               3
  5
213
 10
-755.73076923076906
 20
-247.59085834670552
 30
0.0
 11
-758.05921310480494
 21
-245.2624144726702
 31
0.0
  0
LINE
  8
0
  6
CONTINUOUS
 62
               3
  5
214
 10
-758.73076923076917
 20
-148.26241447267032
 30
0.0
 11
-758.05921310480494
 21
-148.26241447267032
 31
0.0
  0
LINE
  8
0
  6
CONTINUOUS
 62
               3
  5
215
 10
-755.73076923076906
 20
-145.93397059863443
 30
0.0
 11
-758.05921310480494
 21
-148.26241447267032
 31
0.0
  0
LINE
  8
0
  6
CONTINUOUS
 62
               3
  5
216
 10
-758.05921310480494
 20
-148.26241447267032
 30
0.0
 11
-758.05921310480494
 21
-245.2624144726702
 31
0.0
  0
LINE
  8
0
  6
CONTINUOUS
 62
               3
  5
217
 10
-755.73076923076906
 20
-247.59085834670552
 30
0.0
 11
-755.73076923076906
 21
-145.93397059863443
 31
0.0
  0
LINE
  8
0
  6
CONTINUOUS
 62
               3
  5
218
 10
-758.73076923076917
 20
-247.59085834670552
 30
0.0
 11
-758.73076923076917
 21
-145.93397059863443
 31
0.0
  0
LINE
  8
0
  6
CONTINUOUS
 62
               3
  5
219
 10
-758.73076923076917
 20
-145.93397059863443
 30
0.0
 11
-761.23076923076917
 21
-145.93397059863443
 31
0.0
  0
ARC
  8
0
  6
CONTINUOUS
 62
               3
  5
21A
 10
-761.23076923076917
 20
-148.43397059863443
 30
0.0
 40
2.5
 50
89.999999999982862
 51
179.99999999996507
  0
LINE
  8
0
  6
CONTINUOUS
 62
               3
  5
21B
 10
-763.73076923076917
 20
-148.43397059863443
 30
0.0
 11
-763.73076923076917
 21
-245.09085834670552
 31
0.0
  0
LINE
  8
0
  6
CONTINUOUS
 62
               3
  5
21C
 10
-758.73076923076917
 20
-247.59085834670552
 30
0.0
 11
-761.23076923076917
 21
-247.59085834670552
 31
0.0
  0
ARC
  8
0
  6
CONTINUOUS
 62
               3
  5
21D
 10
-761.23076923076917
 20
-245.09085834670552
 30
0.0
 40
2.5
 50
179.99999999996507
 51
269.99999999994793
  0
LINE
  8
0
  6
CONTINUOUS
 62
               3
  5
21E
 10
-755.73076923076906
 20
-145.93397059863443
 30
0.0
 11
-703.55627174725532
 21
-144.11199699866503
 31
0.0
  0
LINE
  8
0
  6
CONTINUOUS
 62
               3
  5
21F
 10
-755.73076923076906
 20
-247.59085834670552
 30
0.0
 11
-694.5348438255063
 21
-249.72786715161712
 31
0.0
  0
ARC
  8
0
  6
CONTINUOUS
 62
               3
  5
220
 10
-703.73076923076781
 20
-139.11504286356953
 30
0.0
 40
5.0
 50
271.99999999994731
 51
359.99999999993048
  0
ARC
  8
0
  6
CONTINUOUS
 62
               3
  5
221
 10
-694.7093413090189
 20
-254.72482128671263
 30
0.0
 40
5.0
 50
5.3063742452975937
 51
87.999999999982791
  0
LINE
  8
0
  6
CONTINUOUS
 62
               3
  5
222
 10
-758.73076923077042
 20
309.41777019277174
 30
0.0
 11
-758.05921310480619
 21
309.41777019277174
 31
0.0
  0
LINE
  8
0
  6
CONTINUOUS
 62
               3
  5
223
 10
-755.73076923077031
 20
307.08932631873677
 30
0.0
 11
-758.05921310480619
 21
309.41777019277174
 31
0.0
  0
LINE
  8
0
  6
CONTINUOUS
 62
               3
  5
224
 10
-758.73076923077042
 20
406.41777019277197
 30
0.0
 11
-758.05921310480619
 21
406.41777019277197
 31
0.0
  0
LINE
  8
0
  6
CONTINUOUS
 62
               3
  5
225
 10
-755.73076923077031
 20
408.74621406680762
 30
0.0
 11
-758.05921310480619
 21
406.41777019277197
 31
0.0
  0
LINE
  8
0
  6
CONTINUOUS
 62
               3
  5
226
 10
-758.05921310480619
 20
406.41777019277197
 30
0.0
 11
-758.05921310480619
 21
309.41777019277174
 31
0.0
  0
LINE
  8
0
  6
CONTINUOUS
 62
               3
  5
227
 10
-755.73076923077031
 20
307.08932631873677
 30
0.0
 11
-755.73076923077031
 21
408.74621406680762
 31
0.0
  0
LINE
  8
0
  6
CONTINUOUS
 62
               3
  5
228
 10
-763.73076923077042
 20
406.24621406680762
 30
0.0
 11
-763.73076923077042
 21
309.58932631873677
 31
0.0
  0
LINE
  8
0
  6
CONTINUOUS
 62
               3
  5
229
 10
-758.73076923077042
 20
307.08932631873677
 30
0.0
 11
-758.73076923077042
 21
408.74621406680762
 31
0.0
  0
LINE
  8
0
  6
CONTINUOUS
 62
               3
  5
22A
 10
-758.73076923077042
 20
408.74621406680762
 30
0.0
 11
-761.23076923077042
 21
408.74621406680762
 31
0.0
  0
LINE
  8
0
  6
CONTINUOUS
 62
               3
  5
22B
 10
-758.73076923077042
 20
307.08932631873677
 30
0.0
 11
-761.23076923077042
 21
307.08932631873677
 31
0.0
  0
ARC
  8
0
  6
CONTINUOUS
 62
               3
  5
22C
 10
-761.23076923077042
 20
309.58932631873677
 30
0.0
 40
2.5
 50
179.99999999996572
 51
269.99999999994793
  0
ARC
  8
0
  6
CONTINUOUS
 62
               3
  5
22D
 10
-761.23076923077042
 20
406.24621406680762
 30
0.0
 40
2.5
 50
89.999999999982862
 51
179.99999999996572
  0
LINE
  8
0
  6
CONTINUOUS
 62
               3
  5
22E
 10
-684.47863838222304
 20
304.60114708157744
 30
0.0
 11
-755.73076923077031
 21
307.08932631873677
 31
0.0
  0
LINE
  8
0
  6
CONTINUOUS
 62
               3
  5
22F
 10
-684.47863838222338
 20
411.23439330396582
 30
0.0
 11
-755.73076923077031
 21
408.74621406680762
 31
0.0
  0
LINE
  8
0
  6
CONTINUOUS
 62
               3
  5
230
 10
-1150.811191133861
 20
-170.76241447266997
 30
0.0
 11
-1112.6503473276764
 21
-170.76241447266997
 31
0.0
  0
CIRCLE
  8
0
  6
CONTINUOUS
 62
               3
  5
231
 10
-1131.7307692307691
 20
-196.76241447267009
 30
0.0
 40
41.849999999999994
  0
CIRCLE
  8
0
  6
CONTINUOUS
 62
               3
  5
232
 10
-1131.7307692307691
 20
-196.76241447267009
 30
0.0
 40
40.75
  0
CIRCLE
  8
0
  6
CONTINUOUS
 62
               3
  5
233
 10
-1131.7307692307686
 20
-196.76241447267009
 30
0.0
 40
36.399999999999999
  0
CIRCLE
  8
0
  6
CONTINUOUS
 62
               3
  5
234
 10
-1131.7307692307686
 20
-196.76241447267009
 30
0.0
 40
32.25
  0
LINE
  8
0
  6
CONTINUOUS
 62
               3
  5
235
 10
-1158.7776036111541
 20
-223.80924885305544
 30
0.0
 11
-1160.545370564121
 21
-225.57701580602188
 31
0.0
  0
LINE
  8
0
  6
CONTINUOUS
 62
               3
  5
236
 10
-1104.68393485039
 20
-223.80924885306226
 30
0.0
 11
-1102.9161678974178
 21
-225.57701580602244
 31
0.0
  0
ARC
  8
0
  6
CONTINUOUS
 62
               3
  5
237
 10
-1131.7307692307686
 20
-196.76241447267009
 30
0.0
 40
38.25
 50
224.99999999994745
 51
314.99999999992463
  0
CIRCLE
  8
0
  6
CONTINUOUS
 62
               3
  5
238
 10
-631.73076923076985
 20
357.91777019277174
 30
0.0
 40
59.0
  0
CIRCLE
  8
0
  6
CONTINUOUS
 62
               3
  5
239
 10
-122.44424601446133
 20
-689.22617438206987
 30
0.0
 40
75.0
  0
CIRCLE
  8
0
  6
CONTINUOUS
 62
               3
  5
23A
 10
-122.44424601446133
 20
-689.22617438206987
 30
0.0
 40
52.5
  0
LINE
  8
0
  6
CONTINUOUS
 62
               3
  5
23B
 10
-208.65474421508657
 20
-669.22617438206987
 30
0.0
 11
-194.7284074884667
 21
-669.22617438206987
 31
0.0
  0
LINE
  8
0
  6
CONTINUOUS
 62
               3
  5
23C
 10
-194.7284074884667
 20
-709.22617438206987
 30
0.0
 11
-208.65474421508657
 21
-709.22617438206987
 31
0.0
  0
ARC
  8
0
  6
CONTINUOUS
 62
               3
  5
23D
 10
-122.44424601446133
 20
-689.22617438206987
 30
0.0
 40
88.5
 50
166.93897588500769
 51
193.06102411457871
  0
LINE
  8
0
  6
CONTINUOUS
 62
               3
  5
23E
 10
-142.44424601446133
 20
-775.43667258269477
 30
0.0
 11
-142.44424601446133
 21
-761.5103358560749
 31
0.0
  0
LINE
  8
0
  6
CONTINUOUS
 62
               3
  5
23F
 10
-102.44424601446133
 20
-761.5103358560749
 30
0.0
 11
-102.44424601446133
 21
-775.43667258269477
 31
0.0
  0
ARC
  8
0
  6
CONTINUOUS
 62
               3
  5
240
 10
-122.44424601446133
 20
-689.22617438206987
 30
0.0
 40
88.5
 50
256.93897588490427
 51
283.0610241144754
  0
LINE
  8
0
  6
CONTINUOUS
 62
               3
  5
241
 10
-36.233747813836658
 20
-709.22617438206987
 30
0.0
 11
-50.160084540457092
 21
-709.22617438206987
 31
0.0
  0
LINE
  8
0
  6
CONTINUOUS
 62
               3
  5
242
 10
-50.160084540457092
 20
-669.22617438206987
 30
0.0
 11
-36.233747813836658
 21
-669.22617438206987
 31
0.0
  0
ARC
  8
0
  6
CONTINUOUS
 62
               3
  5
243
 10
-122.44424601446133
 20
-689.22617438206987
 30
0.0
 40
88.5
 50
346.93897588480093
 51
373.061024114372
  0
LINE
  8
0
  6
CONTINUOUS
 62
               3
  5
244
 10
-102.44424601446133
 20
-603.01567618144429
 30
0.0
 11
-102.44424601446133
 21
-616.94201290806484
 31
0.0
  0
LINE
  8
0
  6
CONTINUOUS
 62
               3
  5
245
 10
-142.44424601446133
 20
-616.94201290806484
 30
0.0
 11
-142.44424601446133
 21
-603.01567618144429
 31
0.0
  0
ARC
  8
0
  6
CONTINUOUS
 62
               3
  5
246
 10
-122.44424601446133
 20
-689.22617438206987
 30
0.0
 40
88.5
 50
76.938975885111105
 51
103.06102411468221
  0
LINE
  8
0
  6
CONTINUOUS
 62
               3
  5
247
 10
-170.11236953532239
 20
-711.22617438207033
 30
0.0
 11
-74.776122493601406
 21
-711.22617438207033
 31
0.0
  0
ARC
  8
0
  6
CONTINUOUS
 62
               3
  5
248
 10
-109.9406343650802
 20
-680.51977675445085
 30
0.0
 40
54.763804151667173
 50
141.38591763667552
 51
145.15009542078701
  0
ARC
  8
0
  6
CONTINUOUS
 62
               3
  5
249
 10
-122.44424601446133
 20
-689.22617438206987
 30
0.0
 40
51.5
 50
334.71098847307314
 51
410.95932736316854
  0
ARC
  8
0
  6
CONTINUOUS
 62
               3
  5
24A
 10
-122.44424601446133
 20
-689.22617438206987
 30
0.0
 40
51.5
 50
129.0406726362117
 51
205.28901152630652
  0
ARC
  8
0
  6
CONTINUOUS
 62
               3
  5
24B
 10
-122.44424601446133
 20
-689.22617438206987
 30
0.0
 40
77.5
 50
104.95524831652284
 51
128.57288309088563
  0
ARC
  8
0
  6
CONTINUOUS
 62
               3
  5
24C
 10
-122.44424601446133
 20
-689.22617438206987
 30
0.0
 40
77.5
 50
14.95524831662607
 51
75.044751683270547
  0
ARC
  8
0
  6
CONTINUOUS
 62
               3
  5
24D
 10
-122.44424601446133
 20
-689.22617438206987
 30
0.0
 40
77.5
 50
321.42711690859693
 51
345.04475168296023
  0
LINE
  8
0
  6
CONTINUOUS
 62
               3
  5
24E
 10
-262.44424601446133
 20
-744.22617438206987
 30
0.0
 11
-261.7726898884971
 21
-744.22617438206987
 31
0.0
  0
LINE
  8
0
  6
CONTINUOUS
 62
               3
  5
24F
 10
-259.27268988849664
 20
-746.72617438206987
 30
0.0
 11
-261.7726898884971
 21
-744.22617438206987
 31
0.0
  0
LINE
  8
0
  6
CONTINUOUS
 62
               3
  5
250
 10
-262.44424601446133
 20
-634.22617438206987
 30
0.0
 11
-261.7726898884971
 21
-634.22617438206987
 31
0.0
  0
LINE
  8
0
  6
CONTINUOUS
 62
               3
  5
251
 10
-259.2726898884971
 20
-631.72617438206987
 30
0.0
 11
-261.7726898884971
 21
-634.22617438206987
 31
0.0
  0
LINE
  8
0
  6
CONTINUOUS
 62
               3
  5
252
 10
-261.7726898884971
 20
-634.22617438206987
 30
0.0
 11
-261.7726898884971
 21
-744.22617438206987
 31
0.0
  0
LINE
  8
0
  6
CONTINUOUS
 62
               3
  5
253
 10
-167.93458180083928
 20
-628.53657736372827
 30
0.0
 11
-259.2726898884971
 21
-631.72617438206987
 31
0.0
  0
LINE
  8
0
  6
CONTINUOUS
 62
               3
  5
254
 10
-187.28071773101237
 20
-749.24018944703755
 30
0.0
 11
-259.27268988849653
 21
-746.72617438206987
 31
0.0
  0
LINE
  8
0
  6
CONTINUOUS
 62
               3
  5
255
 10
-267.44424601446133
 20
-634.39773050803399
 30
0.0
 11
-267.44424601446133
 21
-744.32617438206978
 31
0.0
  0
LINE
  8
0
  6
CONTINUOUS
 62
               3
  5
256
 10
-262.44424601446133
 20
-746.82617438206978
 30
0.0
 11
-262.44424601446133
 21
-631.62617438206973
 31
0.0
  0
LINE
  8
0
  6
CONTINUOUS
 62
               3
  5
257
 10
-262.44424601446133
 20
-631.62617438206973
 30
0.0
 11
-264.94424601446133
 21
-631.62617438206973
 31
0.0
  0
LINE
  8
0
  6
CONTINUOUS
 62
               3
  5
258
 10
-262.44424601446133
 20
-746.82617438206978
 30
0.0
 11
-264.94424601446133
 21
-746.82617438206978
 31
0.0
  0
ARC
  8
0
  6
CONTINUOUS
 62
               3
  5
259
 10
-264.94424601446133
 20
-744.32617438206978
 30
0.0
 40
2.5
 50
179.99999999979377
 51
269.99999999968935
  0
ARC
  8
0
  6
CONTINUOUS
 62
               3
  5
25A
 10
-264.94424601446133
 20
-634.12617438206973
 30
0.0
 40
2.5
 50
89.999999999898193
 51
179.99999999979377
  0
LINE
  8
0
  6
CONTINUOUS
 62
               3
  5
25B
 10
-154.88264918107893
 20
-649.2261743820701
 30
0.0
 11
-122.44424601446133
 21
-649.2261743820701
 31
0.0
  0
LINE
  8
0
  6
CONTINUOUS
 62
               3
  5
25C
 10
-122.44424601446133
 20
-649.2261743820701
 30
0.0
 11
-88.440569742622642
 21
-649.2261743820701
 31
0.0
  0
LINE
  8
0
  6
CONTINUOUS
 62
               3
  5
25D
 10
-259.27268988849664
 20
-746.72617438206987
 30
0.0
 11
-259.2726898884971
 21
-631.72617438206987
 31
0.0
  0
ARC
  8
0
  6
CONTINUOUS
 62
               3
  5
25E
 10
-168.10907928435176
 20
-623.53962322863265
 30
0.0
 40
5.0
 50
271.99999999968759
 51
304.80675787007704
  0
LINE
  8
0
  6
CONTINUOUS
 62
               3
  5
25F
 10
-67.444246014461442
 20
-829.22617438206998
 30
0.0
 11
-67.444246014461442
 21
-828.55461825610564
 31
0.0
  0
LINE
  8
0
  6
CONTINUOUS
 62
               3
  5
260
 10
-64.944246014461442
 20
-826.05461825610519
 30
0.0
 11
-67.444246014461442
 21
-828.55461825610564
 31
0.0
  0
LINE
  8
0
  6
CONTINUOUS
 62
               3
  5
261
 10
-177.44424601446144
 20
-829.22617438206998
 30
0.0
 11
-177.44424601446144
 21
-828.55461825610564
 31
0.0
  0
LINE
  8
0
  6
CONTINUOUS
 62
               3
  5
262
 10
-179.94424601446144
 20
-826.05461825610564
 30
0.0
 11
-177.44424601446144
 21
-828.55461825610564
 31
0.0
  0
LINE
  8
0
  6
CONTINUOUS
 62
               3
  5
263
 10
-177.44424601446144
 20
-828.55461825610564
 30
0.0
 11
-67.444246014461442
 21
-828.55461825610564
 31
0.0
  0
LINE
  8
0
  6
CONTINUOUS
 62
               3
  5
264
 10
-177.27268988849733
 20
-834.22617438206998
 30
0.0
 11
-67.344246014461419
 21
-834.22617438206998
 31
0.0
  0
LINE
  8
0
  6
CONTINUOUS
 62
               3
  5
265
 10
-64.844246014461419
 20
-829.22617438206998
 30
0.0
 11
-180.04424601446146
 21
-829.22617438206998
 31
0.0
  0
LINE
  8
0
  6
CONTINUOUS
 62
               3
  5
266
 10
-180.04424601446146
 20
-829.22617438206998
 30
0.0
 11
-180.04424601446146
 21
-831.72617438206998
 31
0.0
  0
LINE
  8
0
  6
CONTINUOUS
 62
               3
  5
267
 10
-64.844246014461419
 20
-829.22617438206998
 30
0.0
 11
-64.844246014461419
 21
-831.72617438206998
 31
0.0
  0
ARC
  8
0
  6
CONTINUOUS
 62
               3
  5
268
 10
-67.344246014461419
 20
-831.72617438206998
 30
0.0
 40
2.5
 50
269.99999999968935
 51
359.99999999958749
  0
ARC
  8
0
  6
CONTINUOUS
 62
               3
  5
269
 10
-177.54424601446146
 20
-831.72617438206998
 30
0.0
 40
2.5
 50
179.99999999979377
 51
269.99999999968935
  0
LINE
  8
0
  6
CONTINUOUS
 62
               3
  5
26A
 10
-64.944246014461442
 20
-826.05461825610519
 30
0.0
 11
-179.94424601446144
 21
-826.05461825610564
 31
0.0
  0
LINE
  8
0
  6
CONTINUOUS
 62
               3
  5
26B
 10
-61.754648996120295
 20
-734.71651016844828
 30
0.0
 11
-64.944246014461442
 21
-826.05461825610519
 31
0.0
  0
ARC
  8
0
  6
CONTINUOUS
 62
               3
  5
26C
 10
-56.757694861024788
 20
-734.89100765196088
 30
0.0
 40
5.0
 50
145.1932421294062
 51
177.9999999997965
  0
LINE
  8
0
  6
CONTINUOUS
 62
               3
  5
26D
 10
-182.45826107942946
 20
-754.0626460986208
 30
0.0
 11
-179.94424601446144
 21
-826.05461825610564
 31
0.0
  0
ARC
  8
0
  6
CONTINUOUS
 62
               3
  5
26E
 10
-187.45521521452486
 20
-754.23714358213294
 30
0.0
 40
5.0
 50
1.9999999999945166
 51
87.999999999898392
  0
CIRCLE
  8
0
  6
CONTINUOUS
 62
               3
  5
26F
 10
-122.44424601446133
 20
-689.22617438206987
 30
0.0
 40
59.0
  0
LINE
  8
0
  6
CONTINUOUS
 62
               3
  5
270
 10
-197.44424601446133
 20
-997.72560813065434
 30
0.0
 11
-47.444246014461328
 21
-997.72560813065434
 31
0.0
  0
LINE
  8
0
  6
CONTINUOUS
 62
               3
  5
271
 10
-210.94424601446156
 20
-1007.7256081306543
 30
0.0
 11
-210.94424601446156
 21
-1014.7256081306539
 31
0.0
  0
LINE
  8
0
  6
CONTINUOUS
 62
               3
  5
272
 10
-210.94424601446156
 20
-1007.7256081306543
 30
0.0
 11
-197.44424601446133
 21
-997.72560813065434
 31
0.0
  0
ARC
  8
0
  6
CONTINUOUS
 62
               3
  5
273
 10
-199.44424601446121
 20
-1019.3081838256096
 30
0.0
 40
4.9999999999999991
 50
0.0
 51
66.421821521722734
  0
LINE
  8
0
  6
CONTINUOUS
 62
               3
  5
274
 10
-210.94424601446156
 20
-1014.7256081306539
 30
0.0
 11
-33.944246014461669
 21
-1014.7256081306539
 31
0.0
  0
ARC
  8
0
  6
CONTINUOUS
 62
               3
  5
275
 10
-177.44424601446133
 20
-1104.7256081306541
 30
0.0
 40
19.999999999999996
 50
148.21166938277776
 51
167.26981986149508
  0
LINE
  8
0
  6
CONTINUOUS
 62
               3
  5
276
 10
-194.44424601446121
 20
-1019.3081838256096
 30
0.0
 11
-194.44424601446121
 21
-1094.1899543778013
 31
0.0
  0
LINE
  8
0
  6
CONTINUOUS
 62
               3
  5
277
 10
-50.444246014461442
 20
-1089.1899543778009
 30
0.0
 11
-50.444246014461442
 21
-1019.3081838256096
 31
0.0
  0
LINE
  8
0
  6
CONTINUOUS
 62
               3
  5
278
 10
-194.44424601446121
 20
-1094.1899543778013
 30
0.0
 11
-50.944246014460987
 21
-1094.1899543778013
 31
0.0
  0
LINE
  8
0
  6
CONTINUOUS
 62
               3
  5
279
 10
-142.44424601446133
 20
-1014.7256081306539
 30
0.0
 11
-142.44424601446133
 21
-997.72560813065434
 31
0.0
  0
LINE
  8
0
  6
CONTINUOUS
 62
               3
  5
27A
 10
-102.44424601446133
 20
-997.72560813065434
 30
0.0
 11
-102.44424601446133
 21
-1014.7256081306539
 31
0.0
  0
LINE
  8
0
  6
CONTINUOUS
 62
               3
  5
27B
 10
-142.44424601446133
 20
-1007.7256081306543
 30
0.0
 11
-102.44424601446133
 21
-1007.7256081306543
 31
0.0
  0
LINE
  8
0
  6
CONTINUOUS
 62
               3
  5
27C
 10
-194.7284074884667
 20
-997.72560813065434
 30
0.0
 11
-194.7284074884667
 21
-1014.7256081306539
 31
0.0
  0
LINE
  8
0
  6
CONTINUOUS
 62
               3
  5
27D
 10
-208.65474421508657
 20
-1007.7256081306543
 30
0.0
 11
-208.65474421508657
 21
-1014.7256081306539
 31
0.0
  0
LINE
  8
0
  6
CONTINUOUS
 62
               3
  5
27E
 10
-210.94424601446156
 20
-1007.7256081306543
 30
0.0
 11
-208.65474421508657
 21
-1007.7256081306543
 31
0.0
  0
LINE
  8
0
  6
CONTINUOUS
 62
               3
  5
27F
 10
-208.65474421508657
 20
-1007.7256081306543
 30
0.0
 11
-194.7284074884667
 21
-997.72560813065434
 31
0.0
  0
LINE
  8
0
  6
CONTINUOUS
 62
               3
  5
280
 10
-33.944246014461669
 20
-1007.7256081306543
 30
0.0
 11
-33.944246014461669
 21
-1014.7256081306539
 31
0.0
  0
LINE
  8
0
  6
CONTINUOUS
 62
               3
  5
281
 10
-33.944246014461669
 20
-1007.7256081306543
 30
0.0
 11
-47.444246014461328
 21
-997.72560813065434
 31
0.0
  0
ARC
  8
0
  6
CONTINUOUS
 62
               3
  5
282
 10
-45.444246014461442
 20
-1019.3081838256096
 30
0.0
 40
4.9999999999999991
 50
113.57817847807091
 51
179.99999999979377
  0
LINE
  8
0
  6
CONTINUOUS
 62
               3
  5
283
 10
-50.160084540457092
 20
-997.72560813065434
 30
0.0
 11
-50.160084540457092
 21
-1014.7256081306539
 31
0.0
  0
LINE
  8
0
  6
CONTINUOUS
 62
               3
  5
284
 10
-36.233747813836089
 20
-1007.7256081306543
 30
0.0
 11
-36.233747813836089
 21
-1014.7256081306539
 31
0.0
  0
LINE
  8
0
  6
CONTINUOUS
 62
               3
  5
285
 10
-33.944246014461669
 20
-1007.7256081306543
 30
0.0
 11
-36.233747813836089
 21
-1007.7256081306543
 31
0.0
  0
LINE
  8
0
  6
CONTINUOUS
 62
               3
  5
286
 10
-36.233747813836089
 20
-1007.7256081306543
 30
0.0
 11
-50.160084540457092
 21
-997.72560813065434
 31
0.0
  0
ARC
  8
0
  6
CONTINUOUS
 62
               3
  5
287
 10
-187.44424601446133
 20
-1226.2256081306541
 30
0.0
 40
2.4999999999999996
 50
89.999999999896886
 51
269.99999999968935
  0
ARC
  8
0
  6
CONTINUOUS
 62
               3
  5
288
 10
-47.444246014461328
 20
-1226.2256081306541
 30
0.0
 40
2.4999999999999996
 50
269.99999999968935
 51
449.99999999948307
  0
LINE
  8
0
  6
CONTINUOUS
 62
               3
  5
289
 10
-262.44424601446133
 20
-1218.7256081306541
 30
0.0
 11
-261.77268988849698
 21
-1218.7256081306541
 31
0.0
  0
LINE
  8
0
  6
CONTINUOUS
 62
               3
  5
28A
 10
-259.27268988849687
 20
-1221.2256081306537
 30
0.0
 11
-261.77268988849698
 21
-1218.7256081306541
 31
0.0
  0
LINE
  8
0
  6
CONTINUOUS
 62
               3
  5
28B
 10
-259.27268988849607
 20
-1221.2256081306541
 30
0.0
 11
-217.10757963221874
 21
-1222.6980462265083
 31
0.0
  0
LINE
  8
0
  6
CONTINUOUS
 62
               3
  5
28C
 10
-198.90871210852879
 20
-1238.9972975569403
 30
0.0
 11
-213.74654320979857
 21
-1224.159466455671
 31
0.0
  0
ARC
  8
0
  6
CONTINUOUS
 62
               3
  5
28D
 10
-202.44424601446133
 20
-1242.5328314628732
 30
0.0
 40
4.9999999999999991
 50
0.0
 51
44.999999999947391
  0
LINE
  8
0
  6
CONTINUOUS
 62
               3
  5
28E
 10
-262.44424601446133
 20
-1108.7256081306541
 30
0.0
 11
-261.77268988849698
 21
-1108.7256081306541
 31
0.0
  0
LINE
  8
0
  6
CONTINUOUS
 62
               3
  5
28F
 10
-259.27268988849687
 20
-1106.2256081306541
 30
0.0
 11
-261.77268988849698
 21
-1108.7256081306541
 31
0.0
  0
LINE
  8
0
  6
CONTINUOUS
 62
               3
  5
290
 10
-259.27268988849698
 20
-1106.2256081306541
 30
0.0
 11
-201.65521368632267
 21
-1104.213561525502
 31
0.0
  0
LINE
  8
0
  6
CONTINUOUS
 62
               3
  5
291
 10
-261.77268988849698
 20
-1108.7256081306541
 30
0.0
 11
-261.77268988849698
 21
-1218.7256081306541
 31
0.0
  0
LINE
  8
0
  6
CONTINUOUS
 62
               3
  5
292
 10
-262.44424601446133
 20
-1221.325608130654
 30
0.0
 11
-262.44424601446133
 21
-1106.1256081306542
 31
0.0
  0
LINE
  8
0
  6
CONTINUOUS
 62
               3
  5
293
 10
-262.44424601446133
 20
-1106.1256081306542
 30
0.0
 11
-264.94424601446133
 21
-1106.1256081306542
 31
0.0
  0
ARC
  8
0
  6
CONTINUOUS
 62
               3
  5
294
 10
-264.94424601446133
 20
-1108.6256081306542
 30
0.0
 40
2.5
 50
89.999999999898193
 51
179.99999999979116
  0
LINE
  8
0
  6
CONTINUOUS
 62
               3
  5
295
 10
-267.44424601446133
 20
-1108.6256081306542
 30
0.0
 11
-267.44424601446133
 21
-1218.825608130654
 31
0.0
  0
LINE
  8
0
  6
CONTINUOUS
 62
               3
  5
296
 10
-262.44424601446133
 20
-1221.325608130654
 30
0.0
 11
-264.94424601446133
 21
-1221.325608130654
 31
0.0
  0
ARC
  8
0
  6
CONTINUOUS
 62
               3
  5
297
 10
-264.94424601446133
 20
-1218.825608130654
 30
0.0
 40
2.5
 50
179.99999999979116
 51
269.99999999968935
  0
LINE
  8
0
  6
CONTINUOUS
 62
               3
  5
298
 10
-259.27268988849687
 20
-1106.2256081306541
 30
0.0
 11
-259.27268988849607
 21
-1221.2256081306541
 31
0.0
  0
ARC
  8
0
  6
CONTINUOUS
 62
               3
  5
299
 10
-217.28207711573123
 20
-1227.6950003616039
 30
0.0
 40
5.0
 50
44.999999999950617
 51
87.999999999898392
  0
ARC
  8
0
  6
CONTINUOUS
 62
               3
  5
29A
 10
-201.82971116983515
 20
-1099.2166073904064
 30
0.0
 40
5.0
 50
271.99999999968816
 51
347.26981986128635
  0
CIRCLE
  8
0
  6
CONTINUOUS
 62
               3
  5
29B
 10
-122.44424601446133
 20
-1163.7256081306541
 30
0.0
 40
48.5
  0
CIRCLE
  8
0
  6
CONTINUOUS
 62
               3
  5
29C
 10
-122.44424601446133
 20
-1163.7256081306541
 30
0.0
 40
47.299999999999997
  0
LINE
  8
0
  6
CONTINUOUS
 62
               3
  5
29D
 10
-154.26405116785588
 20
-1195.5454132840487
 30
0.0
 11
-155.89039676458503
 21
-1197.1717588807778
 31
0.0
  0
LINE
  8
0
  6
CONTINUOUS
 62
               3
  5
29E
 10
-90.62444086106666
 20
-1195.5454132840487
 30
0.0
 11
-88.998095264337621
 21
-1197.1717588807778
 31
0.0
  0
ARC
  8
0
  6
CONTINUOUS
 62
               3
  5
29F
 10
-122.44424601446133
 20
-1163.7256081306541
 30
0.0
 40
45.0
 50
224.99999999974142
 51
314.99999999963831
  0
CIRCLE
  8
0
  6
CONTINUOUS
 62
               3
  5
2A0
 10
-122.44424601446133
 20
-1163.7256081306541
 30
0.0
 40
57.600000000000001
  0
ARC
  8
0
  6
CONTINUOUS
 62
               3
  5
2A1
 10
-144.94424601446076
 20
-1226.2256081306541
 30
0.0
 40
2.4999999999999996
 50
269.99999999968935
 51
449.99999999948307
  0
ARC
  8
0
  6
CONTINUOUS
 62
               3
  5
2A2
 10
-99.944246014460759
 20
-1226.2256081306541
 30
0.0
 40
2.4999999999999996
 50
89.999999999895579
 51
269.99999999968935
  0
LINE
  8
0
  6
CONTINUOUS
 62
               3
  5
2A3
 10
-187.44424601446133
 20
-1228.7256081306541
 30
0.0
 11
-144.94424601446076
 21
-1228.7256081306541
 31
0.0
  0
LINE
  8
0
  6
CONTINUOUS
 62
               3
  5
2A4
 10
-187.44424601446133
 20
-1223.7256081306541
 30
0.0
 11
-144.94424601446076
 21
-1223.7256081306541
 31
0.0
  0
LINE
  8
0
  6
CONTINUOUS
 62
               3
  5
2A5
 10
-99.944246014460759
 20
-1223.7256081306541
 30
0.0
 11
-47.444246014461328
 21
-1223.7256081306541
 31
0.0
  0
LINE
  8
0
  6
CONTINUOUS
 62
               3
  5
2A6
 10
-99.944246014460759
 20
-1228.7256081306541
 30
0.0
 11
-47.444246014461328
 21
-1228.7256081306541
 31
0.0
  0
CIRCLE
  8
0
  6
CONTINUOUS
 62
               7
  5
2A7
 10
-731.73076923076917
 20
-727.76241447267023
 30
0.0
 40
38.0
  0
LINE
  8
0
  6
CONTINUOUS
 62
               7
  5
2A8
 10
-876.23076923076906
 20
-689.76241447267
 30
0.0
 11
-876.23076923076917
 21
-765.75717835199555
 31
0.0
  0
LINE
  8
0
  6
CONTINUOUS
 62
               7
  5
2A9
 10
-876.23076923076906
 20
-676.76241447267
 30
0.0
 11
-875.63076923076903
 21
-676.76241447267
 31
0.0
  0
LINE
  8
0
  6
CONTINUOUS
 62
               7
  5
2AA
 10
-934.23076923076917
 20
-764.76241447267
 30
0.0
 11
-934.23076923076917
 21
-690.76241447267
 31
0.0
  0
LINE
  8
0
  6
CONTINUOUS
 62
               7
  5
2AB
 10
-876.23076923076917
 20
-765.76241447267
 30
0.0
 11
-851.63076923076903
 21
-765.76241447267
 31
0.0
  0
LINE
  8
0
  6
CONTINUOUS
 62
               7
  5
2AC
 10
-934.23076923076917
 20
-764.76241447267
 30
0.0
 11
-933.23076923076917
 21
-765.76241447267
 31
0.0
  0
LINE
  8
0
  6
CONTINUOUS
 62
               7
  5
2AD
 10
-933.23076923076917
 20
-689.76241447267
 30
0.0
 11
-876.23076923076906
 21
-689.76241447267
 31
0.0
  0
LINE
  8
0
  6
CONTINUOUS
 62
               7
  5
2AE
 10
-841.23076923076917
 20
-764.76241447267
 30
0.0
 11
-842.23076923076917
 21
-765.76241447267
 31
0.0
  0
CIRCLE
  8
0
  6
CONTINUOUS
 62
               7
  5
2AF
 10
-731.73076923076917
 20
-735.76241447267023
 30
0.0
 40
30.0
  0
CIRCLE
  8
0
  6
CONTINUOUS
 62
               7
  5
2B0
 10
-731.73076923076917
 20
-735.76241447267023
 30
0.0
 40
0.1981604108525852
  0
CIRCLE
  8
0
  6
CONTINUOUS
 62
               7
  5
2B1
 10
-731.73076923076917
 20
-735.76241447267023
 30
0.0
 40
25.5
  0
LINE
  8
0
  6
CONTINUOUS
 62
               7
  5
2B2
 10
-850.63076923076903
 20
-764.76241447267
 30
0.0
 11
-850.63076923076903
 21
-706.76241447267023
 31
0.0
  0
LINE
  8
0
  6
CONTINUOUS
 62
               7
  5
2B3
 10
-876.23076923076906
 20
-705.76241447267023
 30
0.0
 11
-851.63076923076903
 21
-705.76241447267023
 31
0.0
  0
LINE
  8
0
  6
CONTINUOUS
 62
               7
  5
2B4
 10
-876.23076923076917
 20
-765.75717835199555
 30
0.0
 11
-933.23076923076917
 21
-765.76241447267
 31
0.0
  0
LINE
  8
0
  6
CONTINUOUS
 62
               7
  5
2B5
 10
-933.23076923076917
 20
-689.76241447267
 30
0.0
 11
-934.23076923076917
 21
-690.76241447267
 31
0.0
  0
LINE
  8
0
  6
CONTINUOUS
 62
               7
  5
2B6
 10
-851.63076923076903
 20
-705.76241447267023
 30
0.0
 11
-850.63076923076903
 21
-706.76241447267023
 31
0.0
  0
LINE
  8
0
  6
CONTINUOUS
 62
               7
  5
2B7
 10
-850.63076923076903
 20
-764.76241447267
 30
0.0
 11
-851.63076923076903
 21
-765.76241447267
 31
0.0
  0
LINE
  8
0
  6
CONTINUOUS
 62
               7
  5
2B8
 10
-587.23076923076917
 20
-689.76241447267023
 30
0.0
 11
-587.23076923076917
 21
-765.75717835199578
 31
0.0
  0
LINE
  8
0
  6
CONTINUOUS
 62
               7
  5
2B9
 10
-587.23076923076917
 20
-676.76241447267023
 30
0.0
 11
-587.83076923076919
 21
-676.76241447267023
 31
0.0
  0
LINE
  8
0
  6
CONTINUOUS
 62
               7
  5
2BA
 10
-529.23076923076917
 20
-764.76241447267023
 30
0.0
 11
-529.23076923076906
 21
-690.76241447267023
 31
0.0
  0
LINE
  8
0
  6
CONTINUOUS
 62
               7
  5
2BB
 10
-587.23076923076917
 20
-765.76241447267023
 30
0.0
 11
-611.83076923076919
 21
-765.76241447267023
 31
0.0
  0
LINE
  8
0
  6
CONTINUOUS
 62
               7
  5
2BC
 10
-529.23076923076917
 20
-764.76241447267023
 30
0.0
 11
-530.23076923076917
 21
-765.76241447267023
 31
0.0
  0
LINE
  8
0
  6
CONTINUOUS
 62
               7
  5
2BD
 10
-530.23076923076906
 20
-689.76241447267023
 30
0.0
 11
-587.23076923076917
 21
-689.76241447267023
 31
0.0
  0
LINE
  8
0
  6
CONTINUOUS
 62
               7
  5
2BE
 10
-622.23076923076917
 20
-764.76241447267023
 30
0.0
 11
-621.23076923076917
 21
-765.76241447267023
 31
0.0
  0
LINE
  8
0
  6
CONTINUOUS
 62
               7
  5
2BF
 10
-612.83076923076919
 20
-764.76241447267023
 30
0.0
 11
-612.83076923076919
 21
-706.76241447267046
 31
0.0
  0
LINE
  8
0
  6
CONTINUOUS
 62
               7
  5
2C0
 10
-587.23076923076917
 20
-705.76241447267046
 30
0.0
 11
-611.83076923076919
 21
-705.76241447267046
 31
0.0
  0
LINE
  8
0
  6
CONTINUOUS
 62
               7
  5
2C1
 10
-587.23076923076917
 20
-765.75717835199578
 30
0.0
 11
-530.23076923076917
 21
-765.76241447267023
 31
0.0
  0
LINE
  8
0
  6
CONTINUOUS
 62
               7
  5
2C2
 10
-530.23076923076906
 20
-689.76241447267023
 30
0.0
 11
-529.23076923076906
 21
-690.76241447267023
 31
0.0
  0
LINE
  8
0
  6
CONTINUOUS
 62
               7
  5
2C3
 10
-611.83076923076919
 20
-705.76241447267046
 30
0.0
 11
-612.83076923076919
 21
-706.76241447267046
 31
0.0
  0
LINE
  8
0
  6
CONTINUOUS
 62
               7
  5
2C4
 10
-612.83076923076919
 20
-764.76241447267023
 30
0.0
 11
-611.83076923076919
 21
-765.76241447267023
 31
0.0
  0
LINE
  8
0
  6
CONTINUOUS
 62
               7
  5
2C5
 10
-693.73076923076906
 20
-583.26241447267046
 30
0.0
 11
-769.7255331100946
 21
-583.26241447267023
 31
0.0
  0
LINE
  8
0
  6
CONTINUOUS
 62
               7
  5
2C6
 10
-680.73076923076906
 20
-582.66241447267032
 30
0.0
 11
-680.73076923076906
 21
-583.26241447267046
 31
0.0
  0
LINE
  8
0
  6
CONTINUOUS
 62
               7
  5
2C7
 10
-768.73076923076894
 20
-525.26241447267034
 30
0.0
 11
-694.73076923076894
 21
-525.26241447267034
 31
0.0
  0
LINE
  8
0
  6
CONTINUOUS
 62
               7
  5
2C8
 10
-761.73076923076906
 20
-583.26241447267023
 30
0.0
 11
-761.73076923076906
 21
-607.86241447267037
 31
0.0
  0
LINE
  8
0
  6
CONTINUOUS
 62
               7
  5
2C9
 10
-768.73076923076894
 20
-525.26241447267034
 30
0.0
 11
-769.73076923076894
 21
-526.26241447267034
 31
0.0
  0
LINE
  8
0
  6
CONTINUOUS
 62
               7
  5
2CA
 10
-693.73076923076894
 20
-526.26241447267034
 30
0.0
 11
-693.73076923076906
 21
-583.26241447267046
 31
0.0
  0
LINE
  8
0
  6
CONTINUOUS
 62
               7
  5
2CB
 10
-760.73076923076906
 20
-618.26241447267023
 30
0.0
 11
-761.73076923076906
 21
-617.26241447267023
 31
0.0
  0
LINE
  8
0
  6
CONTINUOUS
 62
               7
  5
2CC
 10
-760.73076923076906
 20
-608.86241447267037
 30
0.0
 11
-702.73076923076917
 21
-608.86241447267037
 31
0.0
  0
LINE
  8
0
  6
CONTINUOUS
 62
               7
  5
2CD
 10
-701.73076923076917
 20
-583.26241447267046
 30
0.0
 11
-701.73076923076917
 21
-607.86241447267037
 31
0.0
  0
LINE
  8
0
  6
CONTINUOUS
 62
               7
  5
2CE
 10
-769.7255331100946
 20
-583.26241447267023
 30
0.0
 11
-769.73076923076894
 21
-526.26241447267034
 31
0.0
  0
LINE
  8
0
  6
CONTINUOUS
 62
               7
  5
2CF
 10
-693.73076923076894
 20
-526.26241447267034
 30
0.0
 11
-694.73076923076894
 21
-525.26241447267034
 31
0.0
  0
LINE
  8
0
  6
CONTINUOUS
 62
               7
  5
2D0
 10
-701.73076923076917
 20
-607.86241447267037
 30
0.0
 11
-702.73076923076917
 21
-608.86241447267037
 31
0.0
  0
LINE
  8
0
  6
CONTINUOUS
 62
               7
  5
2D1
 10
-760.73076923076906
 20
-608.86241447267037
 30
0.0
 11
-761.73076923076906
 21
-607.86241447267037
 31
0.0
  0
LINE
  8
0
  6
CONTINUOUS
 62
               7
  5
2D2
 10
-151.44424601446133
 20
-859.82617438206989
 30
0.0
 11
-93.444246014461328
 21
-859.82617438206989
 31
0.0
  0
LINE
  8
0
  6
CONTINUOUS
 62
               7
  5
2D3
 10
-77.944246014461328
 20
-834.22617438206998
 30
0.0
 11
-166.94424601446133
 21
-834.22617438206998
 31
0.0
  0
LINE
  8
0
  6
CONTINUOUS
 62
               7
  5
2D4
 10
-77.944246014461328
 20
-833.62617438207008
 30
0.0
 11
-77.944246014461328
 21
-834.22617438206998
 31
0.0
  0
LINE
  8
0
  6
CONTINUOUS
 62
               7
  5
2D5
 10
-165.94424601446133
 20
-776.22617438206964
 30
0.0
 11
-78.944246014461328
 21
-776.22617438206964
 31
0.0
  0
LINE
  8
0
  6
CONTINUOUS
 62
               7
  5
2D6
 10
-77.944246014461328
 20
-834.09172263658957
 30
0.0
 11
-77.944246014461328
 21
-777.22617438206964
 31
0.0
  0
LINE
  8
0
  6
CONTINUOUS
 62
               7
  5
2D7
 10
-152.44424601446133
 20
-858.82617438206989
 30
0.0
 11
-152.44424601446133
 21
-834.22617438206998
 31
0.0
  0
LINE
  8
0
  6
CONTINUOUS
 62
               7
  5
2D8
 10
-92.444246014461328
 20
-858.82617438206989
 30
0.0
 11
-92.444246014461328
 21
-834.22617438206998
 31
0.0
  0
LINE
  8
0
  6
CONTINUOUS
 62
               7
  5
2D9
 10
-92.444246014461328
 20
-858.82617438206989
 30
0.0
 11
-93.444246014461328
 21
-859.82617438206989
 31
0.0
  0
LINE
  8
0
  6
CONTINUOUS
 62
               7
  5
2DA
 10
-77.944246014461328
 20
-777.22617438206964
 30
0.0
 11
-78.944246014461328
 21
-776.22617438206964
 31
0.0
  0
LINE
  8
0
  6
CONTINUOUS
 62
               7
  5
2DB
 10
-151.44424601446133
 20
-859.82617438206989
 30
0.0
 11
-152.44424601446133
 21
-858.82617438206989
 31
0.0
  0
LINE
  8
0
  6
CONTINUOUS
 62
               7
  5
2DC
 10
-165.94424601446133
 20
-776.22617438206964
 30
0.0
 11
-166.94424601446133
 21
-777.22617438206964
 31
0.0
  0
LINE
  8
0
  6
CONTINUOUS
 62
               7
  5
2DD
 10
-166.94424601446133
 20
-834.09172263658957
 30
0.0
 11
-166.94424601446133
 21
-777.22617438206964
 31
0.0
  0
LINE
  8
0
  6
CONTINUOUS
 62
               7
  5
2DE
 10
-267.44424601446133
 20
-733.72617438206964
 30
0.0
 11
-267.4442460144611
 21
-644.7314105027441
 31
0.0
  0
LINE
  8
0
  6
CONTINUOUS
 62
               7
  5
2DF
 10
-266.84424601446119
 20
-733.72617438206964
 30
0.0
 11
-267.44424601446133
 21
-733.72617438206964
 31
0.0
  0
LINE
  8
0
  6
CONTINUOUS
 62
               7
  5
2E0
 10
-302.4442460144611
 20
-652.22617438206964
 30
0.0
 11
-302.44424601446133
 21
-726.22617438206964
 31
0.0
  0
LINE
  8
0
  6
CONTINUOUS
 62
               7
  5
2E1
 10
-209.4442460144611
 20
-645.72617438206987
 30
0.0
 11
-209.44424601446133
 21
-732.72617438206964
 31
0.0
  0
LINE
  8
0
  6
CONTINUOUS
 62
               7
  5
2E2
 10
-267.44424601446133
 20
-733.72617438206964
 30
0.0
 11
-210.44424601446133
 21
-733.72617438206964
 31
0.0
  0
LINE
  8
0
  6
CONTINUOUS
 62
               7
  5
2E3
 10
-301.4442460144611
 20
-651.22617438206964
 30
0.0
 11
-267.4442460144611
 21
-651.22617438206964
 31
0.0
  0
LINE
  8
0
  6
CONTINUOUS
 62
               7
  5
2E4
 10
-210.44424601446133
 20
-733.72617438206964
 30
0.0
 11
-209.44424601446133
 21
-732.72617438206964
 31
0.0
  0
LINE
  8
0
  6
CONTINUOUS
 62
               7
  5
2E5
 10
-209.4442460144611
 20
-645.72617438206987
 30
0.0
 11
-210.4442460144611
 21
-644.72617438206987
 31
0.0
  0
LINE
  8
0
  6
CONTINUOUS
 62
               7
  5
2E6
 10
-301.44424601446133
 20
-727.22617438206964
 30
0.0
 11
-267.4442460144611
 21
-727.22617438206964
 31
0.0
  0
LINE
  8
0
  6
CONTINUOUS
 62
               7
  5
2E7
 10
-301.44424601446133
 20
-727.22617438206964
 30
0.0
 11
-302.44424601446133
 21
-726.22617438206964
 31
0.0
  0
LINE
  8
0
  6
CONTINUOUS
 62
               7
  5
2E8
 10
-302.4442460144611
 20
-652.22617438206964
 30
0.0
 11
-301.4442460144611
 21
-651.22617438206964
 31
0.0
  0
LINE
  8
0
  6
CONTINUOUS
 62
               7
  5
2E9
 10
-267.4442460144611
 20
-644.72617438206964
 30
0.0
 11
-210.4442460144611
 21
-644.72617438206964
 31
0.0
  0
CIRCLE
  8
0
  6
CONTINUOUS
 62
               7
  5
2EA
 10
-122.44424601446133
 20
-1178.2256081306541
 30
0.0
 40
25.5
  0
CIRCLE
  8
0
  6
CONTINUOUS
 62
               7
  5
2EB
 10
-122.44424601446133
 20
-1163.7256081306541
 30
0.0
 40
44.5
  0
CIRCLE
  8
0
  6
CONTINUOUS
 62
               7
  5
2EC
 10
-122.44424601446133
 20
-1178.2256081306541
 30
0.0
 40
30.0
  0
LINE
  8
0
  6
CONTINUOUS
 62
               7
  5
2ED
 10
-267.44424601446133
 20
-1119.2256081306541
 30
0.0
 11
-267.44424601446133
 21
-1208.2203720099797
 31
0.0
  0
LINE
  8
0
  6
CONTINUOUS
 62
               7
  5
2EE
 10
-266.84424601446131
 20
-1119.2256081306541
 30
0.0
 11
-267.44424601446133
 21
-1119.2256081306541
 31
0.0
  0
LINE
  8
0
  6
CONTINUOUS
 62
               7
  5
2EF
 10
-302.44424601446133
 20
-1207.2256081306541
 30
0.0
 11
-302.44424601446133
 21
-1133.2256081306541
 31
0.0
  0
LINE
  8
0
  6
CONTINUOUS
 62
               7
  5
2F0
 10
-209.44424601446133
 20
-1207.2256081306541
 30
0.0
 11
-209.44424601446133
 21
-1120.2256081306541
 31
0.0
  0
LINE
  8
0
  6
CONTINUOUS
 62
               7
  5
2F1
 10
-267.44424601446133
 20
-1119.2256081306541
 30
0.0
 11
-210.44424601446133
 21
-1119.2256081306541
 31
0.0
  0
LINE
  8
0
  6
CONTINUOUS
 62
               7
  5
2F2
 10
-301.44424601446133
 20
-1208.2256081306541
 30
0.0
 11
-210.44424601446133
 21
-1208.2256081306541
 31
0.0
  0
LINE
  8
0
  6
CONTINUOUS
 62
               7
  5
2F3
 10
-210.44424601446133
 20
-1119.2256081306541
 30
0.0
 11
-209.44424601446133
 21
-1120.2256081306541
 31
0.0
  0
LINE
  8
0
  6
CONTINUOUS
 62
               7
  5
2F4
 10
-209.44424601446133
 20
-1207.2256081306541
 30
0.0
 11
-210.44424601446133
 21
-1208.2256081306541
 31
0.0
  0
LINE
  8
0
  6
CONTINUOUS
 62
               7
  5
2F5
 10
-301.44424601446133
 20
-1132.2256081306541
 30
0.0
 11
-267.44424601446133
 21
-1132.2256081306541
 31
0.0
  0
LINE
  8
0
  6
CONTINUOUS
 62
               7
  5
2F6
 10
-301.44424601446133
 20
-1132.2256081306541
 30
0.0
 11
-302.44424601446133
 21
-1133.2256081306541
 31
0.0
  0
LINE
  8
0
  6
CONTINUOUS
 62
               7
  5
2F7
 10
-302.44424601446133
 20
-1207.2256081306541
 30
0.0
 11
-301.44424601446133
 21
-1208.2256081306541
 31
0.0
  0
CIRCLE
  8
0
  6
DASHED
 62
               7
  5
2F8
 10
-122.44424601446133
 20
-1163.7256081306541
 30
0.0
 40
40.0
  0
TEXT
  8
0
 62
               3
  5
2F9
 10
-731.73076923076917
 20
-812.26241447267034
 30
0.0
 40
40.0
  1
EMB_65×50
 41
0.8
 72
               1
 11
-731.73076923076917
 21
-812.26241447267034
 31
0.0
 73
               3
  0
TEXT
  8
0
 62
               3
  5
2FA
 10
-729.886235422867
 20
-434.34762089695306
 30
0.0
 40
40.0
  1
横枝管を縮径して使用するときは、EMBをご使用ください。
 41
0.8
 72
               1
 11
-729.886235422867
 21
-434.34762089695306
 31
0.0
 73
               3
  0
TEXT
  8
0
 62
               3
  5
2FB
 10
-126.14164999210163
 20
-509.7798058768505
 30
0.0
 40
40.0
  1
EMB使用例
 41
0.8
 72
               1
 11
-126.14164999210163
 21
-509.7798058768505
 31
0.0
 73
               3
  0
ENDSEC
  0
EOF
