  0
SECTION
  2
HEADER
  9
$ACADVER
  1
AC1009
  9
$INSBASE
 10
0.0
 20
0.0
 30
0.0
  9
$EXTMIN
 10
-727.09601832512442
 20
-1058.3476555762259
 30
0.0
  9
$EXTMAX
 10
658.62524563232353
 20
1058.3476555762259
 30
0.0
  9
$LIMMIN
 10
-770.39980782379462
 20
-1124.4943840497399
  9
$LIMMAX
 10
701.92903513099373
 20
1124.4943840497399
  9
$ORTHOMODE
 70
               0
  9
$REGENMODE
 70
               1
  9
$FILLMODE
 70
               1
  9
$QTEXTMODE
 70
               0
  9
$MIRRTEXT
 70
               1
  9
$DRAGMODE
 70
               2
  9
$LTSCALE
 40
1.0
  9
$OSMODE
 70
               0
  9
$ATTMODE
 70
               1
  9
$TEXTSIZE
 40
0.2
  9
$TRACEWID
 40
0.05
  9
$TEXTSTYLE
  7
STANDARD
  9
$CLAYER
  8
0
  9
$CELTYPE
  6
CONTINUOUS
  9
$CECOLOR
 62
             256
  9
$DIMSCALE
 40
1.0
  9
$DIMASZ
 40
0.18
  9
$DIMEXO
 40
0.0625
  9
$DIMDLI
 40
0.38
  9
$DIMRND
 40
0.0
  9
$DIMDLE
 40
0.0
  9
$DIMEXE
 40
0.18
  9
$DIMTP
 40
0.0
  9
$DIMTM
 40
0.0
  9
$DIMTXT
 40
0.18
  9
$DIMCEN
 40
0.09
  9
$DIMTSZ
 40
0.0
  9
$DIMTOL
 70
               0
  9
$DIMLIM
 70
               0
  9
$DIMTIH
 70
               1
  9
$DIMTOH
 70
               1
  9
$DIMSE1
 70
               0
  9
$DIMSE2
 70
               0
  9
$DIMTAD
 70
               0
  9
$DIMZIN
 70
               0
  9
$DIMBLK
  1

  9
$DIMASO
 70
               1
  9
$DIMSHO
 70
               1
  9
$DIMPOST
  1

  9
$DIMAPOST
  1

  9
$DIMALT
 70
               0
  9
$DIMALTD
 70
               2
  9
$DIMALTF
 40
25.399999999999999
  9
$DIMLFAC
 40
1.0
  9
$DIMTOFL
 70
               0
  9
$DIMTVP
 40
0.0
  9
$DIMTIX
 70
               0
  9
$DIMSOXD
 70
               0
  9
$DIMSAH
 70
               0
  9
$DIMBLK1
  1

  9
$DIMBLK2
  1

  9
$DIMSTYLE
  2
STANDARD
  9
$DIMCLRD
 70
               0
  9
$DIMCLRE
 70
               0
  9
$DIMCLRT
 70
               0
  9
$DIMTFAC
 40
1.0
  9
$DIMGAP
 40
0.09
  9
$LUNITS
 70
               2
  9
$LUPREC
 70
               4
  9
$AXISMODE
 70
               0
  9
$AXISUNIT
 10
0.0
 20
0.0
  9
$SKETCHINC
 40
0.1
  9
$FILLETRAD
 40
0.0
  9
$AUNITS
 70
               0
  9
$AUPREC
 70
               0
  9
$MENU
  1
acad
  9
$ELEVATION
 40
0.0
  9
$PELEVATION
 40
0.0
  9
$THICKNESS
 40
0.0
  9
$LIMCHECK
 70
               0
  9
$BLIPMODE
 70
               1
  9
$CHAMFERA
 40
0.0
  9
$CHAMFERB
 40
0.0
  9
$SKPOLY
 70
               0
  9
$TDCREATE
 40
0.000000000
  9
$TDUPDATE
 40
0.000000000
  9
$TDINDWG
 40
0.0000000000
  9
$TDUSRTIMER
 40
0.0000000000
  9
$USRTIMER
 70
               1
  9
$ANGBASE
 50
0.0
  9
$ANGDIR
 70
               0
  9
$PDMODE
 70
               0
  9
$PDSIZE
 40
1.0
  9
$PLINEWID
 40
0.0
  9
$COORDS
 70
               1
  9
$SPLFRAME
 70
               0
  9
$SPLINETYPE
 70
               6
  9
$SPLINESEGS
 70
               8
  9
$ATTDIA
 70
               0
  9
$ATTREQ
 70
               1
  9
$HANDLING
 70
               1
  9
$HANDSEED
  5
36F
  9
$SURFTAB1
 70
               6
  9
$SURFTAB2
 70
               6
  9
$SURFTYPE
 70
               6
  9
$SURFU
 70
               6
  9
$SURFV
 70
               6
  9
$UCSNAME
  2

  9
$UCSORG
 10
0.0
 20
0.0
 30
0.0
  9
$UCSXDIR
 10
1.0
 20
0.0
 30
0.0
  9
$UCSYDIR
 10
0.0
 20
1.0
 30
0.0
  9
$PUCSNAME
  2

  9
$PUCSORG
 10
0.0
 20
0.0
 30
0.0
  9
$PUCSXDIR
 10
1.0
 20
0.0
 30
0.0
  9
$PUCSYDIR
 10
0.0
 20
1.0
 30
0.0
  9
$USERI1
 70
               0
  9
$USERI2
 70
               0
  9
$USERI3
 70
               0
  9
$USERI4
 70
               0
  9
$USERI5
 70
               0
  9
$USERR1
 40
0.0
  9
$USERR2
 40
0.0
  9
$USERR3
 40
0.0
  9
$USERR4
 40
0.0
  9
$USERR5
 40
0.0
  9
$WORLDVIEW
 70
               1
  9
$SHADEDGE
 70
               3
  9
$SHADEDIF
 70
              70
  9
$TILEMODE
 70
               1
  9
$MAXACTVP
 70
              16
  9
$PINSBASE
 10
0.0
 20
0.0
 30
0.0
  9
$PLIMCHECK
 70
               0
  9
$PEXTMIN
 10
1.0000000000000000E+20
 20
1.0000000000000000E+20
 30
1.0000000000000000E+20
  9
$PEXTMAX
 10
-1.0000000000000000E+20
 20
-1.0000000000000000E+20
 30
-1.0000000000000000E+20
  9
$PLIMMIN
 10
0.0
 20
0.0
  9
$PLIMMAX
 10
12.0
 20
9.0
  9
$UNITMODE
 70
               0
  9
$VISRETAIN
 70
               0
  9
$PLINEGEN
 70
               1
  9
$PSLTSCALE
 70
               0
  9
$TREEDEPTH
 70
            3020
  9
$DWGCODEPAGE
  3
dos932
  0
ENDSEC
  0
SECTION
  2
TABLES
  0
TABLE
  2
VPORT
 70
               1
  0
VPORT
  2
*ACTIVE
 70
               0
 10
0.0
 20
0.0
 11
1.0
 21
1.0
 12
-34.235386346400446
 22
0.0
 13
0.0
 23
0.0
 14
1.0
 24
1.0
 15
0.0
 25
0.0
 16
0.0
 26
0.0
 36
1.0
 17
0.0
 27
0.0
 37
0.0
 40
2248.9887680994798
 41
0.6546626038506133
 42
50.0
 43
0.0
 44
0.0
 50
0.0
 51
0.0
 71
               0
 72
             100
 73
               1
 74
               1
 75
               0
 76
               0
 77
               0
 78
               0
  0
ENDTAB
  0
TABLE
  2
LTYPE
 70
              26
  0
LTYPE
  2
CONTINUOUS
 70
               0
  3
Solid line
 72
              65
 73
               0
 40
0.0
  0
LTYPE
  2
HIDDENX2
 70
               0
  3
CADPAC FUSION LINETYPE
 72
              65
 73
               2
 40
47.560000000000002
 49
35.670000000000002
 49
-11.890000000000001
  0
LTYPE
  2
HIDDEN
 70
               0
  3
CADPAC FUSION LINETYPE
 72
              65
 73
               2
 40
35.670000000000002
 49
23.780000000000001
 49
-11.890000000000001
  0
LTYPE
  2
HIDDEN2
 70
               0
  3
CADPAC FUSION LINETYPE
 72
              65
 73
               2
 40
29.725000000000001
 49
17.835000000000001
 49
-11.890000000000001
  0
LTYPE
  2
DASHED
 70
               0
  3
CADPAC FUSION LINETYPE
 72
              65
 73
               2
 40
35.670000000000002
 49
23.780000000000001
 49
-11.890000000000001
  0
LTYPE
  2
DASHED2
 70
               0
  3
CADPAC FUSION LINETYPE
 72
              65
 73
               2
 40
26.752500000000001
 49
17.835000000000001
 49
-8.9175000000000004
  0
LTYPE
  2
DASHEDX2
 70
               0
  3
CADPAC FUSION LINETYPE
 72
              65
 73
               2
 40
53.505000000000003
 49
35.670000000000002
 49
-17.835000000000001
  0
LTYPE
  2
DOTX2
 70
               0
  3
CADPAC FUSION LINETYPE
 72
              65
 73
               2
 40
14.862500000000001
 49
0.0
 49
-14.862500000000001
  0
LTYPE
  2
DOT
 70
               0
  3
CADPAC FUSION LINETYPE
 72
              65
 73
               2
 40
11.890000000000001
 49
0.0
 49
-11.890000000000001
  0
LTYPE
  2
DOTS
 70
               0
  3
CADPAC FUSION LINETYPE
 72
              65
 73
               2
 40
11.890000000000001
 49
0.0
 49
-11.890000000000001
  0
LTYPE
  2
DOT2
 70
               0
  3
CADPAC FUSION LINETYPE
 72
              65
 73
               2
 40
8.9175000000000004
 49
0.0
 49
-8.9175000000000004
  0
LTYPE
  2
CENTERX2
 70
               0
  3
CADPAC FUSION LINETYPE
 72
              65
 73
               4
 40
71.340000000000003
 49
29.725000000000001
 49
-14.862500000000001
 49
11.890000000000001
 49
-14.862500000000001
  0
LTYPE
  2
CENTER
 70
               0
  3
CADPAC FUSION LINETYPE
 72
              65
 73
               4
 40
54.694000000000003
 49
23.780000000000001
 49
-11.890000000000001
 49
7.1340000000000003
 49
-11.890000000000001
  0
LTYPE
  2
CENTER2
 70
               0
  3
CADPAC FUSION LINETYPE
 72
              65
 73
               4
 40
38.048000000000002
 49
17.835000000000001
 49
-8.9175000000000004
 49
2.3780000000000001
 49
-8.9175000000000004
  0
LTYPE
  2
DASHDOTX2
 70
               0
  3
CADPAC FUSION LINETYPE
 72
              65
 73
               4
 40
59.450000000000003
 49
29.725000000000001
 49
-14.862500000000001
 49
0.0
 49
-14.862500000000001
  0
LTYPE
  2
DASHDOT
 70
               0
  3
CADPAC FUSION LINETYPE
 72
              65
 73
               4
 40
47.560000000000002
 49
23.780000000000001
 49
-11.890000000000001
 49
0.0
 49
-11.890000000000001
  0
LTYPE
  2
DASHDOT2
 70
               0
  3
CADPAC FUSION LINETYPE
 72
              65
 73
               4
 40
35.670000000000002
 49
17.835000000000001
 49
-8.9175000000000004
 49
0.0
 49
-8.9175000000000004
  0
LTYPE
  2
DIVIDEX2
 70
               0
  3
CADPAC FUSION LINETYPE
 72
              65
 73
               6
 40
74.3125
 49
29.725000000000001
 49
-14.862500000000001
 49
0.0
 49
-14.862500000000001
 49
0.0
 49
-14.862500000000001
  0
LTYPE
  2
DIVIDE
 70
               0
  3
CADPAC FUSION LINETYPE
 72
              65
 73
               6
 40
59.450000000000003
 49
23.780000000000001
 49
-11.890000000000001
 49
0.0
 49
-11.890000000000001
 49
0.0
 49
-11.890000000000001
  0
LTYPE
  2
DIVIDE2
 70
               0
  3
CADPAC FUSION LINETYPE
 72
              65
 73
               6
 40
44.587500000000006
 49
17.835000000000001
 49
-8.9175000000000004
 49
0.0
 49
-8.9175000000000004
 49
0.0
 49
-8.9175000000000004
  0
LTYPE
  2
BORDERX2
 70
               0
  3
CADPAC FUSION LINETYPE
 72
              65
 73
               6
 40
104.03750000000001
 49
29.725000000000001
 49
-14.862500000000001
 49
29.725000000000001
 49
-14.862500000000001
 49
0.0
 49
-14.862500000000001
  0
LTYPE
  2
BORDER
 70
               0
  3
CADPAC FUSION LINETYPE
 72
              65
 73
               6
 40
83.230000000000004
 49
23.780000000000001
 49
-11.890000000000001
 49
23.780000000000001
 49
-11.890000000000001
 49
0.0
 49
-11.890000000000001
  0
LTYPE
  2
BORDER2
 70
               0
  3
CADPAC FUSION LINETYPE
 72
              65
 73
               6
 40
62.422499999999999
 49
17.835000000000001
 49
-8.9175000000000004
 49
17.835000000000001
 49
-8.9175000000000004
 49
0.0
 49
-8.9175000000000004
  0
LTYPE
  2
PHANTOMX2
 70
               0
  3
CADPAC FUSION LINETYPE
 72
              65
 73
               6
 40
89.175000000000011
 49
29.725000000000001
 49
-11.890000000000001
 49
11.890000000000001
 49
-11.890000000000001
 49
11.890000000000001
 49
-11.890000000000001
  0
LTYPE
  2
PHANTOM
 70
               0
  3
CADPAC FUSION LINETYPE
 72
              65
 73
               6
 40
73.718000000000004
 49
23.780000000000001
 49
-11.890000000000001
 49
7.1340000000000003
 49
-11.890000000000001
 49
7.1340000000000003
 49
-11.890000000000001
  0
LTYPE
  2
PHANTOM2
 70
               0
  3
CADPAC FUSION LINETYPE
 72
              65
 73
               6
 40
63.017000000000003
 49
17.835000000000001
 49
-11.890000000000001
 49
4.7560000000000002
 49
-11.890000000000001
 49
4.7560000000000002
 49
-11.890000000000001
  0
ENDTAB
  0
TABLE
  2
LAYER
 70
             256
  0
LAYER
  2
0
 70
               0
 62
               7
  6
CONTINUOUS
  0
LAYER
  2
LAYER001
 70
               0
 62
               7
  6
CONTINUOUS
  0
LAYER
  2
LAYER002
 70
               0
 62
               7
  6
CONTINUOUS
  0
LAYER
  2
LAYER003
 70
               0
 62
               7
  6
CONTINUOUS
  0
LAYER
  2
LAYER004
 70
               0
 62
               7
  6
CONTINUOUS
  0
LAYER
  2
LAYER005
 70
               0
 62
               7
  6
CONTINUOUS
  0
LAYER
  2
LAYER006
 70
               0
 62
               7
  6
CONTINUOUS
  0
LAYER
  2
LAYER007
 70
               0
 62
               7
  6
CONTINUOUS
  0
LAYER
  2
LAYER008
 70
               0
 62
               7
  6
CONTINUOUS
  0
LAYER
  2
LAYER009
 70
               0
 62
               7
  6
CONTINUOUS
  0
LAYER
  2
LAYER010
 70
               0
 62
               7
  6
CONTINUOUS
  0
LAYER
  2
LAYER011
 70
               0
 62
               7
  6
CONTINUOUS
  0
LAYER
  2
LAYER012
 70
               0
 62
               7
  6
CONTINUOUS
  0
LAYER
  2
LAYER013
 70
               0
 62
               7
  6
CONTINUOUS
  0
LAYER
  2
LAYER014
 70
               0
 62
               7
  6
CONTINUOUS
  0
LAYER
  2
LAYER015
 70
               0
 62
               7
  6
CONTINUOUS
  0
LAYER
  2
LAYER016
 70
               0
 62
               7
  6
CONTINUOUS
  0
LAYER
  2
LAYER017
 70
               0
 62
               7
  6
CONTINUOUS
  0
LAYER
  2
LAYER018
 70
               0
 62
               7
  6
CONTINUOUS
  0
LAYER
  2
LAYER019
 70
               0
 62
               7
  6
CONTINUOUS
  0
LAYER
  2
LAYER020
 70
               0
 62
               7
  6
CONTINUOUS
  0
LAYER
  2
LAYER021
 70
               0
 62
               7
  6
CONTINUOUS
  0
LAYER
  2
LAYER022
 70
               0
 62
               7
  6
CONTINUOUS
  0
LAYER
  2
LAYER023
 70
               0
 62
               7
  6
CONTINUOUS
  0
LAYER
  2
LAYER024
 70
               0
 62
               7
  6
CONTINUOUS
  0
LAYER
  2
LAYER025
 70
               0
 62
               7
  6
CONTINUOUS
  0
LAYER
  2
LAYER026
 70
               0
 62
               7
  6
CONTINUOUS
  0
LAYER
  2
LAYER027
 70
               0
 62
               7
  6
CONTINUOUS
  0
LAYER
  2
LAYER028
 70
               0
 62
               7
  6
CONTINUOUS
  0
LAYER
  2
LAYER029
 70
               0
 62
               7
  6
CONTINUOUS
  0
LAYER
  2
LAYER030
 70
               0
 62
               7
  6
CONTINUOUS
  0
LAYER
  2
LAYER031
 70
               0
 62
               7
  6
CONTINUOUS
  0
LAYER
  2
LAYER032
 70
               0
 62
               7
  6
CONTINUOUS
  0
LAYER
  2
LAYER033
 70
               0
 62
               7
  6
CONTINUOUS
  0
LAYER
  2
LAYER034
 70
               0
 62
               7
  6
CONTINUOUS
  0
LAYER
  2
LAYER035
 70
               0
 62
               7
  6
CONTINUOUS
  0
LAYER
  2
LAYER036
 70
               0
 62
               7
  6
CONTINUOUS
  0
LAYER
  2
LAYER037
 70
               0
 62
               7
  6
CONTINUOUS
  0
LAYER
  2
LAYER038
 70
               0
 62
               7
  6
CONTINUOUS
  0
LAYER
  2
LAYER039
 70
               0
 62
               7
  6
CONTINUOUS
  0
LAYER
  2
LAYER040
 70
               0
 62
               7
  6
CONTINUOUS
  0
LAYER
  2
LAYER041
 70
               0
 62
               7
  6
CONTINUOUS
  0
LAYER
  2
LAYER042
 70
               0
 62
               7
  6
CONTINUOUS
  0
LAYER
  2
LAYER043
 70
               0
 62
               7
  6
CONTINUOUS
  0
LAYER
  2
LAYER044
 70
               0
 62
               7
  6
CONTINUOUS
  0
LAYER
  2
LAYER045
 70
               0
 62
               7
  6
CONTINUOUS
  0
LAYER
  2
LAYER046
 70
               0
 62
               7
  6
CONTINUOUS
  0
LAYER
  2
LAYER047
 70
               0
 62
               7
  6
CONTINUOUS
  0
LAYER
  2
LAYER048
 70
               0
 62
               7
  6
CONTINUOUS
  0
LAYER
  2
LAYER049
 70
               0
 62
               7
  6
CONTINUOUS
  0
LAYER
  2
LAYER050
 70
               0
 62
               7
  6
CONTINUOUS
  0
LAYER
  2
LAYER051
 70
               0
 62
               7
  6
CONTINUOUS
  0
LAYER
  2
LAYER052
 70
               0
 62
               7
  6
CONTINUOUS
  0
LAYER
  2
LAYER053
 70
               0
 62
               7
  6
CONTINUOUS
  0
LAYER
  2
LAYER054
 70
               0
 62
               7
  6
CONTINUOUS
  0
LAYER
  2
LAYER055
 70
               0
 62
               7
  6
CONTINUOUS
  0
LAYER
  2
LAYER056
 70
               0
 62
               7
  6
CONTINUOUS
  0
LAYER
  2
LAYER057
 70
               0
 62
               7
  6
CONTINUOUS
  0
LAYER
  2
LAYER058
 70
               0
 62
               7
  6
CONTINUOUS
  0
LAYER
  2
LAYER059
 70
               0
 62
               7
  6
CONTINUOUS
  0
LAYER
  2
LAYER060
 70
               0
 62
               7
  6
CONTINUOUS
  0
LAYER
  2
LAYER061
 70
               0
 62
               7
  6
CONTINUOUS
  0
LAYER
  2
LAYER062
 70
               0
 62
               7
  6
CONTINUOUS
  0
LAYER
  2
LAYER063
 70
               0
 62
               7
  6
CONTINUOUS
  0
LAYER
  2
LAYER064
 70
               0
 62
               7
  6
CONTINUOUS
  0
LAYER
  2
LAYER065
 70
               0
 62
               7
  6
CONTINUOUS
  0
LAYER
  2
LAYER066
 70
               0
 62
               7
  6
CONTINUOUS
  0
LAYER
  2
LAYER067
 70
               0
 62
               7
  6
CONTINUOUS
  0
LAYER
  2
LAYER068
 70
               0
 62
               7
  6
CONTINUOUS
  0
LAYER
  2
LAYER069
 70
               0
 62
               7
  6
CONTINUOUS
  0
LAYER
  2
LAYER070
 70
               0
 62
               7
  6
CONTINUOUS
  0
LAYER
  2
LAYER071
 70
               0
 62
               7
  6
CONTINUOUS
  0
LAYER
  2
LAYER072
 70
               0
 62
               7
  6
CONTINUOUS
  0
LAYER
  2
LAYER073
 70
               0
 62
               7
  6
CONTINUOUS
  0
LAYER
  2
LAYER074
 70
               0
 62
               7
  6
CONTINUOUS
  0
LAYER
  2
LAYER075
 70
               0
 62
               7
  6
CONTINUOUS
  0
LAYER
  2
LAYER076
 70
               0
 62
               7
  6
CONTINUOUS
  0
LAYER
  2
LAYER077
 70
               0
 62
               7
  6
CONTINUOUS
  0
LAYER
  2
LAYER078
 70
               0
 62
               7
  6
CONTINUOUS
  0
LAYER
  2
LAYER079
 70
               0
 62
               7
  6
CONTINUOUS
  0
LAYER
  2
LAYER080
 70
               0
 62
               7
  6
CONTINUOUS
  0
LAYER
  2
LAYER081
 70
               0
 62
               7
  6
CONTINUOUS
  0
LAYER
  2
LAYER082
 70
               0
 62
               7
  6
CONTINUOUS
  0
LAYER
  2
LAYER083
 70
               0
 62
               7
  6
CONTINUOUS
  0
LAYER
  2
LAYER084
 70
               0
 62
               7
  6
CONTINUOUS
  0
LAYER
  2
LAYER085
 70
               0
 62
               7
  6
CONTINUOUS
  0
LAYER
  2
LAYER086
 70
               0
 62
               7
  6
CONTINUOUS
  0
LAYER
  2
LAYER087
 70
               0
 62
               7
  6
CONTINUOUS
  0
LAYER
  2
LAYER088
 70
               0
 62
               7
  6
CONTINUOUS
  0
LAYER
  2
LAYER089
 70
               0
 62
               7
  6
CONTINUOUS
  0
LAYER
  2
LAYER090
 70
               0
 62
               7
  6
CONTINUOUS
  0
LAYER
  2
LAYER091
 70
               0
 62
               7
  6
CONTINUOUS
  0
LAYER
  2
LAYER092
 70
               0
 62
               7
  6
CONTINUOUS
  0
LAYER
  2
LAYER093
 70
               0
 62
               7
  6
CONTINUOUS
  0
LAYER
  2
LAYER094
 70
               0
 62
               7
  6
CONTINUOUS
  0
LAYER
  2
LAYER095
 70
               0
 62
               7
  6
CONTINUOUS
  0
LAYER
  2
LAYER096
 70
               0
 62
               7
  6
CONTINUOUS
  0
LAYER
  2
LAYER097
 70
               0
 62
               7
  6
CONTINUOUS
  0
LAYER
  2
LAYER098
 70
               0
 62
               7
  6
CONTINUOUS
  0
LAYER
  2
LAYER099
 70
               0
 62
               7
  6
CONTINUOUS
  0
LAYER
  2
LAYER100
 70
               0
 62
               7
  6
CONTINUOUS
  0
LAYER
  2
LAYER101
 70
               0
 62
               7
  6
CONTINUOUS
  0
LAYER
  2
LAYER102
 70
               0
 62
               7
  6
CONTINUOUS
  0
LAYER
  2
LAYER103
 70
               0
 62
               7
  6
CONTINUOUS
  0
LAYER
  2
LAYER104
 70
               0
 62
               7
  6
CONTINUOUS
  0
LAYER
  2
LAYER105
 70
               0
 62
               7
  6
CONTINUOUS
  0
LAYER
  2
LAYER106
 70
               0
 62
               7
  6
CONTINUOUS
  0
LAYER
  2
LAYER107
 70
               0
 62
               7
  6
CONTINUOUS
  0
LAYER
  2
LAYER108
 70
               0
 62
               7
  6
CONTINUOUS
  0
LAYER
  2
LAYER109
 70
               0
 62
               7
  6
CONTINUOUS
  0
LAYER
  2
LAYER110
 70
               0
 62
               7
  6
CONTINUOUS
  0
LAYER
  2
LAYER111
 70
               0
 62
               7
  6
CONTINUOUS
  0
LAYER
  2
LAYER112
 70
               0
 62
               7
  6
CONTINUOUS
  0
LAYER
  2
LAYER113
 70
               0
 62
               7
  6
CONTINUOUS
  0
LAYER
  2
LAYER114
 70
               0
 62
               7
  6
CONTINUOUS
  0
LAYER
  2
LAYER115
 70
               0
 62
               7
  6
CONTINUOUS
  0
LAYER
  2
LAYER116
 70
               0
 62
               7
  6
CONTINUOUS
  0
LAYER
  2
LAYER117
 70
               0
 62
               7
  6
CONTINUOUS
  0
LAYER
  2
LAYER118
 70
               0
 62
               7
  6
CONTINUOUS
  0
LAYER
  2
LAYER119
 70
               0
 62
               7
  6
CONTINUOUS
  0
LAYER
  2
LAYER120
 70
               0
 62
               7
  6
CONTINUOUS
  0
LAYER
  2
LAYER121
 70
               0
 62
               7
  6
CONTINUOUS
  0
LAYER
  2
LAYER122
 70
               0
 62
               7
  6
CONTINUOUS
  0
LAYER
  2
LAYER123
 70
               0
 62
               7
  6
CONTINUOUS
  0
LAYER
  2
LAYER124
 70
               0
 62
               7
  6
CONTINUOUS
  0
LAYER
  2
LAYER125
 70
               0
 62
               7
  6
CONTINUOUS
  0
LAYER
  2
LAYER126
 70
               0
 62
               7
  6
CONTINUOUS
  0
LAYER
  2
LAYER127
 70
               0
 62
               7
  6
CONTINUOUS
  0
LAYER
  2
LAYER128
 70
               0
 62
               7
  6
CONTINUOUS
  0
LAYER
  2
LAYER129
 70
               0
 62
               7
  6
CONTINUOUS
  0
LAYER
  2
LAYER130
 70
               0
 62
               7
  6
CONTINUOUS
  0
LAYER
  2
LAYER131
 70
               0
 62
               7
  6
CONTINUOUS
  0
LAYER
  2
LAYER132
 70
               0
 62
               7
  6
CONTINUOUS
  0
LAYER
  2
LAYER133
 70
               0
 62
               7
  6
CONTINUOUS
  0
LAYER
  2
LAYER134
 70
               0
 62
               7
  6
CONTINUOUS
  0
LAYER
  2
LAYER135
 70
               0
 62
               7
  6
CONTINUOUS
  0
LAYER
  2
LAYER136
 70
               0
 62
               7
  6
CONTINUOUS
  0
LAYER
  2
LAYER137
 70
               0
 62
               7
  6
CONTINUOUS
  0
LAYER
  2
LAYER138
 70
               0
 62
               7
  6
CONTINUOUS
  0
LAYER
  2
LAYER139
 70
               0
 62
               7
  6
CONTINUOUS
  0
LAYER
  2
LAYER140
 70
               0
 62
               7
  6
CONTINUOUS
  0
LAYER
  2
LAYER141
 70
               0
 62
               7
  6
CONTINUOUS
  0
LAYER
  2
LAYER142
 70
               0
 62
               7
  6
CONTINUOUS
  0
LAYER
  2
LAYER143
 70
               0
 62
               7
  6
CONTINUOUS
  0
LAYER
  2
LAYER144
 70
               0
 62
               7
  6
CONTINUOUS
  0
LAYER
  2
LAYER145
 70
               0
 62
               7
  6
CONTINUOUS
  0
LAYER
  2
LAYER146
 70
               0
 62
               7
  6
CONTINUOUS
  0
LAYER
  2
LAYER147
 70
               0
 62
               7
  6
CONTINUOUS
  0
LAYER
  2
LAYER148
 70
               0
 62
               7
  6
CONTINUOUS
  0
LAYER
  2
LAYER149
 70
               0
 62
               7
  6
CONTINUOUS
  0
LAYER
  2
LAYER150
 70
               0
 62
               7
  6
CONTINUOUS
  0
LAYER
  2
LAYER151
 70
               0
 62
               7
  6
CONTINUOUS
  0
LAYER
  2
LAYER152
 70
               0
 62
               7
  6
CONTINUOUS
  0
LAYER
  2
LAYER153
 70
               0
 62
               7
  6
CONTINUOUS
  0
LAYER
  2
LAYER154
 70
               0
 62
               7
  6
CONTINUOUS
  0
LAYER
  2
LAYER155
 70
               0
 62
               7
  6
CONTINUOUS
  0
LAYER
  2
LAYER156
 70
               0
 62
               7
  6
CONTINUOUS
  0
LAYER
  2
LAYER157
 70
               0
 62
               7
  6
CONTINUOUS
  0
LAYER
  2
LAYER158
 70
               0
 62
               7
  6
CONTINUOUS
  0
LAYER
  2
LAYER159
 70
               0
 62
               7
  6
CONTINUOUS
  0
LAYER
  2
LAYER160
 70
               0
 62
               7
  6
CONTINUOUS
  0
LAYER
  2
LAYER161
 70
               0
 62
               7
  6
CONTINUOUS
  0
LAYER
  2
LAYER162
 70
               0
 62
               7
  6
CONTINUOUS
  0
LAYER
  2
LAYER163
 70
               0
 62
               7
  6
CONTINUOUS
  0
LAYER
  2
LAYER164
 70
               0
 62
               7
  6
CONTINUOUS
  0
LAYER
  2
LAYER165
 70
               0
 62
               7
  6
CONTINUOUS
  0
LAYER
  2
LAYER166
 70
               0
 62
               7
  6
CONTINUOUS
  0
LAYER
  2
LAYER167
 70
               0
 62
               7
  6
CONTINUOUS
  0
LAYER
  2
LAYER168
 70
               0
 62
               7
  6
CONTINUOUS
  0
LAYER
  2
LAYER169
 70
               0
 62
               7
  6
CONTINUOUS
  0
LAYER
  2
LAYER170
 70
               0
 62
               7
  6
CONTINUOUS
  0
LAYER
  2
LAYER171
 70
               0
 62
               7
  6
CONTINUOUS
  0
LAYER
  2
LAYER172
 70
               0
 62
               7
  6
CONTINUOUS
  0
LAYER
  2
LAYER173
 70
               0
 62
               7
  6
CONTINUOUS
  0
LAYER
  2
LAYER174
 70
               0
 62
               7
  6
CONTINUOUS
  0
LAYER
  2
LAYER175
 70
               0
 62
               7
  6
CONTINUOUS
  0
LAYER
  2
LAYER176
 70
               0
 62
               7
  6
CONTINUOUS
  0
LAYER
  2
LAYER177
 70
               0
 62
               7
  6
CONTINUOUS
  0
LAYER
  2
LAYER178
 70
               0
 62
               7
  6
CONTINUOUS
  0
LAYER
  2
LAYER179
 70
               0
 62
               7
  6
CONTINUOUS
  0
LAYER
  2
LAYER180
 70
               0
 62
               7
  6
CONTINUOUS
  0
LAYER
  2
LAYER181
 70
               0
 62
               7
  6
CONTINUOUS
  0
LAYER
  2
LAYER182
 70
               0
 62
               7
  6
CONTINUOUS
  0
LAYER
  2
LAYER183
 70
               0
 62
               7
  6
CONTINUOUS
  0
LAYER
  2
LAYER184
 70
               0
 62
               7
  6
CONTINUOUS
  0
LAYER
  2
LAYER185
 70
               0
 62
               7
  6
CONTINUOUS
  0
LAYER
  2
LAYER186
 70
               0
 62
               7
  6
CONTINUOUS
  0
LAYER
  2
LAYER187
 70
               0
 62
               7
  6
CONTINUOUS
  0
LAYER
  2
LAYER188
 70
               0
 62
               7
  6
CONTINUOUS
  0
LAYER
  2
LAYER189
 70
               0
 62
               7
  6
CONTINUOUS
  0
LAYER
  2
LAYER190
 70
               0
 62
               7
  6
CONTINUOUS
  0
LAYER
  2
LAYER191
 70
               0
 62
               7
  6
CONTINUOUS
  0
LAYER
  2
LAYER192
 70
               0
 62
               7
  6
CONTINUOUS
  0
LAYER
  2
LAYER193
 70
               0
 62
               7
  6
CONTINUOUS
  0
LAYER
  2
LAYER194
 70
               0
 62
               7
  6
CONTINUOUS
  0
LAYER
  2
LAYER195
 70
               0
 62
               7
  6
CONTINUOUS
  0
LAYER
  2
LAYER196
 70
               0
 62
               7
  6
CONTINUOUS
  0
LAYER
  2
LAYER197
 70
               0
 62
               7
  6
CONTINUOUS
  0
LAYER
  2
LAYER198
 70
               0
 62
               7
  6
CONTINUOUS
  0
LAYER
  2
LAYER199
 70
               0
 62
               7
  6
CONTINUOUS
  0
LAYER
  2
LAYER200
 70
               0
 62
               7
  6
CONTINUOUS
  0
LAYER
  2
LAYER201
 70
               0
 62
               7
  6
CONTINUOUS
  0
LAYER
  2
LAYER202
 70
               0
 62
               7
  6
CONTINUOUS
  0
LAYER
  2
LAYER203
 70
               0
 62
               7
  6
CONTINUOUS
  0
LAYER
  2
LAYER204
 70
               0
 62
               7
  6
CONTINUOUS
  0
LAYER
  2
LAYER205
 70
               0
 62
               7
  6
CONTINUOUS
  0
LAYER
  2
LAYER206
 70
               0
 62
               7
  6
CONTINUOUS
  0
LAYER
  2
LAYER207
 70
               0
 62
               7
  6
CONTINUOUS
  0
LAYER
  2
LAYER208
 70
               0
 62
               7
  6
CONTINUOUS
  0
LAYER
  2
LAYER209
 70
               0
 62
               7
  6
CONTINUOUS
  0
LAYER
  2
LAYER210
 70
               0
 62
               7
  6
CONTINUOUS
  0
LAYER
  2
LAYER211
 70
               0
 62
               7
  6
CONTINUOUS
  0
LAYER
  2
LAYER212
 70
               0
 62
               7
  6
CONTINUOUS
  0
LAYER
  2
LAYER213
 70
               0
 62
               7
  6
CONTINUOUS
  0
LAYER
  2
LAYER214
 70
               0
 62
               7
  6
CONTINUOUS
  0
LAYER
  2
LAYER215
 70
               0
 62
               7
  6
CONTINUOUS
  0
LAYER
  2
LAYER216
 70
               0
 62
               7
  6
CONTINUOUS
  0
LAYER
  2
LAYER217
 70
               0
 62
               7
  6
CONTINUOUS
  0
LAYER
  2
LAYER218
 70
               0
 62
               7
  6
CONTINUOUS
  0
LAYER
  2
LAYER219
 70
               0
 62
               7
  6
CONTINUOUS
  0
LAYER
  2
LAYER220
 70
               0
 62
               7
  6
CONTINUOUS
  0
LAYER
  2
LAYER221
 70
               0
 62
               7
  6
CONTINUOUS
  0
LAYER
  2
LAYER222
 70
               0
 62
               7
  6
CONTINUOUS
  0
LAYER
  2
LAYER223
 70
               0
 62
               7
  6
CONTINUOUS
  0
LAYER
  2
LAYER224
 70
               0
 62
               7
  6
CONTINUOUS
  0
LAYER
  2
LAYER225
 70
               0
 62
               7
  6
CONTINUOUS
  0
LAYER
  2
LAYER226
 70
               0
 62
               7
  6
CONTINUOUS
  0
LAYER
  2
LAYER227
 70
               0
 62
               7
  6
CONTINUOUS
  0
LAYER
  2
LAYER228
 70
               0
 62
               7
  6
CONTINUOUS
  0
LAYER
  2
LAYER229
 70
               0
 62
               7
  6
CONTINUOUS
  0
LAYER
  2
LAYER230
 70
               0
 62
               7
  6
CONTINUOUS
  0
LAYER
  2
LAYER231
 70
               0
 62
               7
  6
CONTINUOUS
  0
LAYER
  2
LAYER232
 70
               0
 62
               7
  6
CONTINUOUS
  0
LAYER
  2
LAYER233
 70
               0
 62
               7
  6
CONTINUOUS
  0
LAYER
  2
LAYER234
 70
               0
 62
               7
  6
CONTINUOUS
  0
LAYER
  2
LAYER235
 70
               0
 62
               7
  6
CONTINUOUS
  0
LAYER
  2
LAYER236
 70
               0
 62
               7
  6
CONTINUOUS
  0
LAYER
  2
LAYER237
 70
               0
 62
               7
  6
CONTINUOUS
  0
LAYER
  2
LAYER238
 70
               0
 62
               7
  6
CONTINUOUS
  0
LAYER
  2
LAYER239
 70
               0
 62
               7
  6
CONTINUOUS
  0
LAYER
  2
LAYER240
 70
               0
 62
               7
  6
CONTINUOUS
  0
LAYER
  2
LAYER241
 70
               0
 62
               7
  6
CONTINUOUS
  0
LAYER
  2
LAYER242
 70
               0
 62
               7
  6
CONTINUOUS
  0
LAYER
  2
LAYER243
 70
               0
 62
               7
  6
CONTINUOUS
  0
LAYER
  2
LAYER244
 70
               0
 62
               7
  6
CONTINUOUS
  0
LAYER
  2
LAYER245
 70
               0
 62
               7
  6
CONTINUOUS
  0
LAYER
  2
LAYER246
 70
               0
 62
               7
  6
CONTINUOUS
  0
LAYER
  2
LAYER247
 70
               0
 62
               7
  6
CONTINUOUS
  0
LAYER
  2
LAYER248
 70
               0
 62
               7
  6
CONTINUOUS
  0
LAYER
  2
LAYER249
 70
               0
 62
               7
  6
CONTINUOUS
  0
LAYER
  2
LAYER250
 70
               0
 62
               7
  6
CONTINUOUS
  0
LAYER
  2
LAYER251
 70
               0
 62
               7
  6
CONTINUOUS
  0
LAYER
  2
LAYER252
 70
               0
 62
               7
  6
CONTINUOUS
  0
LAYER
  2
LAYER253
 70
               0
 62
               7
  6
CONTINUOUS
  0
LAYER
  2
LAYER254
 70
               0
 62
               7
  6
CONTINUOUS
  0
LAYER
  2
LAYER255
 70
               0
 62
               7
  6
CONTINUOUS
  0
ENDTAB
  0
TABLE
  2
STYLE
 70
               1
  0
STYLE
  2
STANDARD
 70
               0
 40
0.0
 41
0.8
 50
0.0
 71
               0
 42
40.0
  3
MS PGothic.ttf
  4

  0
ENDTAB
  0
TABLE
  2
VIEW
 70
               0
  0
VIEW
  2
QQQQ
 70
               0
 40
2248.9887680994798
 10
-34.235386346400446
 20
0.0
 41
1472.3288429547883
 11
0.0
 21
0.0
 31
1.0
 12
100.0
 22
100.0
 32
0.0
 42
50.0
 43
0.0
 44
0.0
 50
0.0
 71
               0
  0
ENDTAB
  0
TABLE
  2
UCS
 70
               0
  0
ENDTAB
  0
TABLE
  2
APPID
 70
               1
  0
APPID
  2
ACAD
 70
               0
  0
ENDTAB
  0
TABLE
  2
DIMSTYLE
 70
               1
  0
DIMSTYLE
  2
STANDARD
 70
               0
  3

  4

  5

  6

  7

 40
1.0
 41
0.18
 42
0.0625
 43
0.38
 44
0.18
 45
0.0
 46
0.0
 47
0.0
 48
0.0
140
0.18
141
0.09
142
0.0
143
25.399999999999999
144
1.0
145
0.0
146
1.0
147
0.09
 71
               0
 72
               0
 73
               1
 74
               1
 75
               0
 76
               0
 77
               0
 78
               0
170
               0
171
               2
172
               0
173
               0
174
               0
175
               0
176
               0
177
               0
178
               0
  0
ENDTAB
  0
ENDSEC
  0
SECTION
  2
BLOCKS
  0
ENDSEC
  0
SECTION
  2
ENTITIES
  0
LINE
  8
0
  6
CONTINUOUS
 62
               3
  5
136
 10
-160.80976342932024
 20
584.62844047460112
 30
0.0
 11
-10.809763429320242
 21
584.62844047460112
 31
0.0
  0
LINE
  8
0
  6
CONTINUOUS
 62
               3
  5
137
 10
-174.30976342932047
 20
574.62844047460112
 30
0.0
 11
-174.30976342932047
 21
567.62844047460135
 31
0.0
  0
LINE
  8
0
  6
CONTINUOUS
 62
               3
  5
138
 10
-174.30976342932047
 20
574.62844047460112
 30
0.0
 11
-160.80976342932024
 21
584.62844047460112
 31
0.0
  0
ARC
  8
0
  6
CONTINUOUS
 62
               3
  5
139
 10
-162.80976342932013
 20
563.04586477964563
 30
0.0
 40
4.9999999999999991
 50
0.0
 51
66.421821521759782
  0
LINE
  8
0
  6
CONTINUOUS
 62
               3
  5
13A
 10
-174.30976342932047
 20
567.62844047460135
 30
0.0
 11
2.6902365706794171
 21
567.62844047460135
 31
0.0
  0
ARC
  8
0
  6
CONTINUOUS
 62
               3
  5
13B
 10
-140.80976342932024
 20
477.62844047460106
 30
0.0
 40
19.999999999999996
 50
148.21166938286291
 51
167.26981986159126
  0
LINE
  8
0
  6
CONTINUOUS
 62
               3
  5
13C
 10
-157.80976342932013
 20
563.04586477964563
 30
0.0
 11
-157.80976342932013
 21
488.16409422745386
 31
0.0
  0
LINE
  8
0
  6
CONTINUOUS
 62
               3
  5
13D
 10
-13.809763429320355
 20
493.16409422745443
 30
0.0
 11
-13.809763429320355
 21
563.04586477964563
 31
0.0
  0
LINE
  8
0
  6
CONTINUOUS
 62
               3
  5
13E
 10
-143.80976342932036
 20
11.628440474600723
 30
0.0
 11
-160.80976342932024
 21
160.62844047460118
 31
0.0
  0
LINE
  8
0
  6
CONTINUOUS
 62
               3
  5
13F
 10
-157.80976342932013
 20
488.16409422745386
 30
0.0
 11
-14.309763429319901
 21
488.16409422745386
 31
0.0
  0
LINE
  8
0
  6
CONTINUOUS
 62
               3
  5
140
 10
-105.80976342932024
 20
567.62844047460135
 30
0.0
 11
-105.80976342932024
 21
584.62844047460112
 31
0.0
  0
LINE
  8
0
  6
CONTINUOUS
 62
               3
  5
141
 10
-65.809763429320242
 20
584.62844047460112
 30
0.0
 11
-65.809763429320242
 21
567.62844047460135
 31
0.0
  0
LINE
  8
0
  6
CONTINUOUS
 62
               3
  5
142
 10
-105.80976342932024
 20
574.62844047460112
 30
0.0
 11
-65.809763429320242
 21
574.62844047460112
 31
0.0
  0
LINE
  8
0
  6
CONTINUOUS
 62
               3
  5
143
 10
-158.09392490332561
 20
584.62844047460112
 30
0.0
 11
-158.09392490332561
 21
567.62844047460135
 31
0.0
  0
LINE
  8
0
  6
CONTINUOUS
 62
               3
  5
144
 10
-172.02026162994548
 20
574.62844047460112
 30
0.0
 11
-172.02026162994548
 21
567.62844047460135
 31
0.0
  0
LINE
  8
0
  6
CONTINUOUS
 62
               3
  5
145
 10
-174.30976342932047
 20
574.62844047460112
 30
0.0
 11
-172.02026162994548
 21
574.62844047460112
 31
0.0
  0
LINE
  8
0
  6
CONTINUOUS
 62
               3
  5
146
 10
-172.02026162994548
 20
574.62844047460112
 30
0.0
 11
-158.09392490332561
 21
584.62844047460112
 31
0.0
  0
LINE
  8
0
  6
CONTINUOUS
 62
               3
  5
147
 10
2.6902365706794171
 20
574.62844047460112
 30
0.0
 11
2.6902365706794171
 21
567.62844047460135
 31
0.0
  0
LINE
  8
0
  6
CONTINUOUS
 62
               3
  5
148
 10
2.6902365706794171
 20
574.62844047460112
 30
0.0
 11
-10.809763429320242
 21
584.62844047460112
 31
0.0
  0
ARC
  8
0
  6
CONTINUOUS
 62
               3
  5
149
 10
-8.8097634293203555
 20
563.04586477964563
 30
0.0
 40
4.9999999999999991
 50
113.57817847813641
 51
179.9999999998962
  0
LINE
  8
0
  6
CONTINUOUS
 62
               3
  5
14A
 10
-13.525601955316006
 20
584.62844047460112
 30
0.0
 11
-13.525601955316006
 21
567.62844047460135
 31
0.0
  0
LINE
  8
0
  6
CONTINUOUS
 62
               3
  5
14B
 10
0.4007347713049967
 20
574.62844047460112
 30
0.0
 11
0.4007347713049967
 21
567.62844047460135
 31
0.0
  0
LINE
  8
0
  6
CONTINUOUS
 62
               3
  5
14C
 10
2.6902365706794171
 20
574.62844047460112
 30
0.0
 11
0.4007347713049967
 21
574.62844047460112
 31
0.0
  0
LINE
  8
0
  6
CONTINUOUS
 62
               3
  5
14D
 10
0.4007347713049967
 20
574.62844047460112
 30
0.0
 11
-13.525601955316006
 21
584.62844047460112
 31
0.0
  0
LINE
  8
0
  6
CONTINUOUS
 62
               3
  5
14E
 10
-143.80976342932036
 20
11.628440474601291
 30
0.0
 11
-27.809763429320135
 21
11.628440474600723
 31
0.0
  0
ARC
  8
0
  6
CONTINUOUS
 62
               3
  5
14F
 10
-10.809763429320242
 20
356.12844047460106
 30
0.0
 40
2.4999999999999996
 50
269.99999999984499
 51
449.99999999974102
  0
LINE
  8
0
  6
CONTINUOUS
 62
               3
  5
150
 10
-160.80976342932024
 20
160.62844047460118
 30
0.0
 11
-132.17787122137713
 21
160.62844047460118
 31
0.0
  0
LINE
  8
0
  6
CONTINUOUS
 62
               3
  5
151
 10
-87.782596709471136
 20
160.62844047460118
 30
0.0
 11
-11.312998295670468
 21
160.62844047460118
 31
0.0
  0
LINE
  8
0
  6
CONTINUOUS
 62
               3
  5
152
 10
-225.80976342932024
 20
363.62844047460106
 30
0.0
 11
-225.13820730335584
 21
363.62844047460106
 31
0.0
  0
LINE
  8
0
  6
CONTINUOUS
 62
               3
  5
153
 10
-222.63820730335578
 20
361.1284404746018
 30
0.0
 11
-225.13820730335584
 21
363.62844047460106
 31
0.0
  0
LINE
  8
0
  6
CONTINUOUS
 62
               3
  5
154
 10
-222.63820730335505
 20
361.12844047460106
 30
0.0
 11
-180.47309704707763
 21
359.65600237874702
 31
0.0
  0
LINE
  8
0
  6
CONTINUOUS
 62
               3
  5
155
 10
-162.27422952338776
 20
343.35675104831506
 30
0.0
 11
-177.11206062465749
 21
358.19458214958433
 31
0.0
  0
ARC
  8
0
  6
CONTINUOUS
 62
               3
  5
156
 10
-165.80976342932024
 20
339.82121714238195
 30
0.0
 40
4.9999999999999991
 50
0.0
 51
44.999999999973191
  0
LINE
  8
0
  6
CONTINUOUS
 62
               3
  5
157
 10
-225.80976342932024
 20
473.62844047460095
 30
0.0
 11
-225.13820730335584
 21
473.62844047460095
 31
0.0
  0
LINE
  8
0
  6
CONTINUOUS
 62
               3
  5
158
 10
-222.63820730335578
 20
476.12844047460118
 30
0.0
 11
-225.13820730335584
 21
473.62844047460095
 31
0.0
  0
LINE
  8
0
  6
CONTINUOUS
 62
               3
  5
159
 10
-222.63820730335584
 20
476.12844047460112
 30
0.0
 11
-165.02073110118155
 21
478.14048707975337
 31
0.0
  0
LINE
  8
0
  6
CONTINUOUS
 62
               3
  5
15A
 10
-225.13820730335584
 20
473.62844047460095
 30
0.0
 11
-225.13820730335584
 21
363.62844047460106
 31
0.0
  0
LINE
  8
0
  6
CONTINUOUS
 62
               3
  5
15B
 10
-225.80976342932024
 20
361.0284404746011
 30
0.0
 11
-225.80976342932024
 21
476.22844047460109
 31
0.0
  0
LINE
  8
0
  6
CONTINUOUS
 62
               3
  5
15C
 10
-225.80976342932024
 20
476.22844047460109
 30
0.0
 11
-228.30976342932024
 21
476.22844047460109
 31
0.0
  0
ARC
  8
0
  6
CONTINUOUS
 62
               3
  5
15D
 10
-228.30976342932024
 20
473.72844047460109
 30
0.0
 40
2.5
 50
89.999999999948997
 51
179.99999999989677
  0
LINE
  8
0
  6
CONTINUOUS
 62
               3
  5
15E
 10
-230.80976342932024
 20
473.72844047460109
 30
0.0
 11
-230.80976342932024
 21
363.5284404746011
 31
0.0
  0
LINE
  8
0
  6
CONTINUOUS
 62
               3
  5
15F
 10
-225.80976342932024
 20
361.0284404746011
 30
0.0
 11
-228.30976342932024
 21
361.0284404746011
 31
0.0
  0
ARC
  8
0
  6
CONTINUOUS
 62
               3
  5
160
 10
-228.30976342932024
 20
363.5284404746011
 30
0.0
 40
2.5
 50
179.99999999989637
 51
269.99999999984499
  0
LINE
  8
0
  6
CONTINUOUS
 62
               3
  5
161
 10
-222.63820730335578
 20
476.12844047460118
 30
0.0
 11
-222.63820730335505
 21
361.12844047460106
 31
0.0
  0
ARC
  8
0
  6
CONTINUOUS
 62
               3
  5
162
 10
-180.64759453059017
 20
354.65904824365157
 30
0.0
 40
5.0
 50
44.999999999974797
 51
87.999999999949068
  0
ARC
  8
0
  6
CONTINUOUS
 62
               3
  5
163
 10
-165.19522858469406
 20
483.13744121484882
 30
0.0
 40
5.0
 50
271.99999999984334
 51
347.26981986148638
  0
LINE
  8
0
  6
CONTINUOUS
 62
               3
  5
164
 10
-150.80976342932249
 20
358.62844047460106
 30
0.0
 11
-85.809763429320242
 21
358.62844047460106
 31
0.0
  0
LINE
  8
0
  6
CONTINUOUS
 62
               3
  5
165
 10
-85.809763429320242
 20
358.62844047460106
 30
0.0
 11
-10.809763429320242
 21
358.62844047460106
 31
0.0
  0
LINE
  8
0
  6
CONTINUOUS
 62
               3
  5
166
 10
-150.80976342932249
 20
353.62844047459953
 30
0.0
 11
-85.809763429320242
 21
353.62844047460106
 31
0.0
  0
LINE
  8
0
  6
CONTINUOUS
 62
               3
  5
167
 10
-85.809763429320242
 20
353.62844047460106
 30
0.0
 11
-10.809763429320242
 21
353.62844047460106
 31
0.0
  0
LINE
  8
0
  6
CONTINUOUS
 62
               3
  5
168
 10
-160.80976342932024
 20
339.82121714238195
 30
0.0
 11
-160.80976342932024
 21
160.62844047460118
 31
0.0
  0
LINE
  8
0
  6
CONTINUOUS
 62
               3
  5
169
 10
-27.809763429319567
 20
0.6284404746010637
 30
0.0
 11
-27.809763429319567
 21
11.628440474600723
 31
0.0
  0
LINE
  8
0
  6
CONTINUOUS
 62
               3
  5
16A
 10
-143.80976342931979
 20
11.628440474600723
 30
0.0
 11
-143.80976342931979
 21
0.6284404746006089
 31
0.0
  0
LINE
  8
0
  6
CONTINUOUS
 62
               3
  5
16B
 10
-140.80976342932024
 20
-100.37155952539894
 30
0.0
 11
-30.809763429320242
 21
-100.37155952539894
 31
0.0
  0
LINE
  8
0
  6
CONTINUOUS
 62
               3
  5
16C
 10
-142.80976342932024
 20
-98.371559525398936
 30
0.0
 11
-142.80976342932024
 21
-0.3715595253989363
 31
0.0
  0
LINE
  8
0
  6
CONTINUOUS
 62
               3
  5
16D
 10
-28.809763429320242
 20
-98.371559525398936
 30
0.0
 11
-28.809763429320242
 21
-0.3715595253989363
 31
0.0
  0
LINE
  8
0
  6
CONTINUOUS
 62
               3
  5
16E
 10
-142.80976342932027
 20
-0.3715595253989363
 30
0.0
 11
-143.80976342931979
 21
0.6284404746006089
 31
0.0
  0
LINE
  8
0
  6
CONTINUOUS
 62
               3
  5
16F
 10
-28.809763429320242
 20
-0.3715595253989363
 30
0.0
 11
-27.809763429320242
 21
0.6284404746010637
 31
0.0
  0
ARC
  8
0
  6
CONTINUOUS
 62
               3
  5
170
 10
-150.80976342932024
 20
356.12844047459953
 30
0.0
 40
2.4999999999999996
 50
89.999999999948017
 51
269.99999999984499
  0
LINE
  8
0
  6
CONTINUOUS
 62
               3
  5
171
 10
489.19023657067987
 20
584.62844047460112
 30
0.0
 11
339.19023657067976
 21
584.62844047460112
 31
0.0
  0
LINE
  8
0
  6
CONTINUOUS
 62
               3
  5
172
 10
502.6902365706801
 20
574.62844047460112
 30
0.0
 11
502.6902365706801
 21
567.62844047460135
 31
0.0
  0
LINE
  8
0
  6
CONTINUOUS
 62
               3
  5
173
 10
502.6902365706801
 20
574.62844047460112
 30
0.0
 11
489.19023657067987
 21
584.62844047460112
 31
0.0
  0
ARC
  8
0
  6
CONTINUOUS
 62
               3
  5
174
 10
491.19023657067964
 20
563.04586477964563
 30
0.0
 40
4.9999999999999991
 50
113.57817847813752
 51
179.9999999998962
  0
LINE
  8
0
  6
CONTINUOUS
 62
               3
  5
175
 10
502.6902365706801
 20
567.62844047460135
 30
0.0
 11
325.69023657067953
 21
567.62844047460135
 31
0.0
  0
ARC
  8
0
  6
CONTINUOUS
 62
               3
  5
176
 10
469.19023657067987
 20
477.62844047460112
 30
0.0
 40
19.999999999999996
 50
0.0
 51
31.78833061703358
  0
LINE
  8
0
  6
CONTINUOUS
 62
               3
  5
177
 10
486.19023657067964
 20
563.04586477964563
 30
0.0
 11
486.19023657067964
 21
488.16409422745392
 31
0.0
  0
ARC
  8
0
  6
CONTINUOUS
 62
               3
  5
178
 10
359.19023657067976
 20
477.62844047460112
 30
0.0
 40
19.999999999999996
 50
148.21166938286285
 51
179.99999999989649
  0
LINE
  8
0
  6
CONTINUOUS
 62
               3
  5
179
 10
342.19023657067987
 20
488.16409422745392
 30
0.0
 11
342.19023657067987
 21
563.04586477964563
 31
0.0
  0
LINE
  8
0
  6
CONTINUOUS
 62
               3
  5
17A
 10
472.19023657067987
 20
11.628440474600836
 30
0.0
 11
489.19023657067987
 21
160.62844047460118
 31
0.0
  0
LINE
  8
0
  6
CONTINUOUS
 62
               3
  5
17B
 10
356.19023657067964
 20
11.628440474600836
 30
0.0
 11
339.19023657067976
 21
160.62844047460118
 31
0.0
  0
LINE
  8
0
  6
CONTINUOUS
 62
               3
  5
17C
 10
489.1902365706793
 20
353.62844047460112
 30
0.0
 11
489.19023657067987
 21
160.62844047460118
 31
0.0
  0
LINE
  8
0
  6
CONTINUOUS
 62
               3
  5
17D
 10
434.19023657067976
 20
567.62844047460135
 30
0.0
 11
434.19023657067976
 21
584.62844047460112
 31
0.0
  0
LINE
  8
0
  6
CONTINUOUS
 62
               3
  5
17E
 10
394.19023657067976
 20
584.62844047460112
 30
0.0
 11
394.19023657067976
 21
567.62844047460135
 31
0.0
  0
LINE
  8
0
  6
CONTINUOUS
 62
               3
  5
17F
 10
434.19023657067976
 20
574.62844047460112
 30
0.0
 11
394.19023657067976
 21
574.62844047460112
 31
0.0
  0
LINE
  8
0
  6
CONTINUOUS
 62
               3
  5
180
 10
486.47439804468468
 20
584.62844047460112
 30
0.0
 11
486.47439804468468
 21
567.62844047460135
 31
0.0
  0
LINE
  8
0
  6
CONTINUOUS
 62
               3
  5
181
 10
500.400734771305
 20
574.62844047460112
 30
0.0
 11
500.400734771305
 21
567.62844047460135
 31
0.0
  0
LINE
  8
0
  6
CONTINUOUS
 62
               3
  5
182
 10
502.6902365706801
 20
574.62844047460112
 30
0.0
 11
500.400734771305
 21
574.62844047460112
 31
0.0
  0
LINE
  8
0
  6
CONTINUOUS
 62
               3
  5
183
 10
500.400734771305
 20
574.62844047460112
 30
0.0
 11
486.47439804468468
 21
584.62844047460112
 31
0.0
  0
LINE
  8
0
  6
CONTINUOUS
 62
               3
  5
184
 10
325.69023657067953
 20
574.62844047460112
 30
0.0
 11
325.69023657067953
 21
567.62844047460135
 31
0.0
  0
LINE
  8
0
  6
CONTINUOUS
 62
               3
  5
185
 10
325.69023657067953
 20
574.62844047460112
 30
0.0
 11
339.19023657067976
 21
584.62844047460112
 31
0.0
  0
ARC
  8
0
  6
CONTINUOUS
 62
               3
  5
186
 10
337.19023657067987
 20
563.04586477964563
 30
0.0
 40
4.9999999999999991
 50
0.0
 51
66.421821521759654
  0
LINE
  8
0
  6
CONTINUOUS
 62
               3
  5
187
 10
341.90607509667495
 20
584.62844047460112
 30
0.0
 11
341.90607509667495
 21
567.62844047460135
 31
0.0
  0
LINE
  8
0
  6
CONTINUOUS
 62
               3
  5
188
 10
327.97973837005452
 20
574.62844047460112
 30
0.0
 11
327.97973837005452
 21
567.62844047460135
 31
0.0
  0
LINE
  8
0
  6
CONTINUOUS
 62
               3
  5
189
 10
325.69023657067953
 20
574.62844047460112
 30
0.0
 11
327.97973837005452
 21
574.62844047460112
 31
0.0
  0
LINE
  8
0
  6
CONTINUOUS
 62
               3
  5
18A
 10
327.97973837005452
 20
574.62844047460112
 30
0.0
 11
341.90607509667495
 21
584.62844047460112
 31
0.0
  0
LINE
  8
0
  6
CONTINUOUS
 62
               3
  5
18B
 10
472.19023657067987
 20
11.628440474601405
 30
0.0
 11
356.19023657067964
 21
11.628440474600836
 31
0.0
  0
LINE
  8
0
  6
CONTINUOUS
 62
               3
  5
18C
 10
486.19023657067964
 20
488.16409422745392
 30
0.0
 11
425.91723657067996
 21
488.16409422745392
 31
0.0
  0
LINE
  8
0
  6
CONTINUOUS
 62
               3
  5
18D
 10
402.46323657067956
 20
488.16409422745392
 30
0.0
 11
342.19023657067987
 21
488.16409422745392
 31
0.0
  0
ARC
  8
0
  6
CONTINUOUS
 62
               3
  5
18E
 10
489.1902365706793
 20
356.12844047460112
 30
0.0
 40
2.4999999999999996
 50
269.99999999984306
 51
449.99999999974102
  0
LINE
  8
0
  6
CONTINUOUS
 62
               3
  5
18F
 10
339.19023657067919
 20
358.62844047460112
 30
0.0
 11
405.97323657067898
 21
358.62844047460112
 31
0.0
  0
LINE
  8
0
  6
CONTINUOUS
 62
               3
  5
190
 10
422.40723657067883
 20
358.62844047460112
 30
0.0
 11
489.1902365706793
 21
358.62844047460112
 31
0.0
  0
LINE
  8
0
  6
CONTINUOUS
 62
               3
  5
191
 10
339.19023657067919
 20
353.62844047460112
 30
0.0
 11
406.12859203726396
 21
353.62844047460112
 31
0.0
  0
LINE
  8
0
  6
CONTINUOUS
 62
               3
  5
192
 10
422.40723657067883
 20
353.62844047460112
 30
0.0
 11
489.1902365706793
 21
353.62844047460112
 31
0.0
  0
LINE
  8
0
  6
CONTINUOUS
 62
               3
  5
193
 10
489.19023657067987
 20
160.62844047460118
 30
0.0
 11
422.4072365706794
 21
160.62844047460118
 31
0.0
  0
LINE
  8
0
  6
CONTINUOUS
 62
               3
  5
194
 10
405.97323657067955
 20
160.62844047460118
 30
0.0
 11
339.19023657067976
 21
160.62844047460118
 31
0.0
  0
LINE
  8
0
  6
CONTINUOUS
 62
               3
  5
195
 10
489.19023657067987
 20
477.62844047460112
 30
0.0
 11
489.1902365706793
 21
358.62844047460112
 31
0.0
  0
LINE
  8
0
  6
CONTINUOUS
 62
               3
  5
196
 10
-660.80976342932013
 20
584.62844047460112
 30
0.0
 11
-510.80976342932075
 21
584.62844047460112
 31
0.0
  0
LINE
  8
0
  6
CONTINUOUS
 62
               3
  5
197
 10
-674.30976342932036
 20
574.62844047460112
 30
0.0
 11
-674.30976342932036
 21
567.62844047460135
 31
0.0
  0
LINE
  8
0
  6
CONTINUOUS
 62
               3
  5
198
 10
-674.30976342932036
 20
574.62844047460112
 30
0.0
 11
-660.80976342932013
 21
584.62844047460112
 31
0.0
  0
ARC
  8
0
  6
CONTINUOUS
 62
               3
  5
199
 10
-662.80976342932013
 20
563.04586477964563
 30
0.0
 40
4.9999999999999991
 50
0.0
 51
66.421821521759654
  0
LINE
  8
0
  6
CONTINUOUS
 62
               3
  5
19A
 10
-674.30976342932036
 20
567.62844047460135
 30
0.0
 11
-497.30976342932053
 21
567.62844047460135
 31
0.0
  0
ARC
  8
0
  6
CONTINUOUS
 62
               3
  5
19B
 10
-640.80976342932013
 20
477.62844047460112
 30
0.0
 40
19.999999999999996
 50
148.21166938286285
 51
179.99999999989649
  0
LINE
  8
0
  6
CONTINUOUS
 62
               3
  5
19C
 10
-657.80976342932013
 20
563.04586477964563
 30
0.0
 11
-657.80976342932013
 21
488.16409422745392
 31
0.0
  0
ARC
  8
0
  6
CONTINUOUS
 62
               3
  5
19D
 10
-530.80976342932081
 20
477.62844047460112
 30
0.0
 40
19.999999999999996
 50
0.0
 51
31.788330617033512
  0
LINE
  8
0
  6
CONTINUOUS
 62
               3
  5
19E
 10
-513.80976342932036
 20
488.16409422745392
 30
0.0
 11
-513.80976342932036
 21
563.04586477964563
 31
0.0
  0
LINE
  8
0
  6
CONTINUOUS
 62
               3
  5
19F
 10
-643.80976342932036
 20
11.628440474600836
 30
0.0
 11
-660.80976342932013
 21
160.62844047460129
 31
0.0
  0
LINE
  8
0
  6
CONTINUOUS
 62
               3
  5
1A0
 10
-660.8097634293207
 20
353.62844047460112
 30
0.0
 11
-660.80976342932013
 21
160.62844047460129
 31
0.0
  0
LINE
  8
0
  6
CONTINUOUS
 62
               3
  5
1A1
 10
-657.80976342932013
 20
488.16409422745392
 30
0.0
 11
-513.80976342932036
 21
488.16409422745392
 31
0.0
  0
LINE
  8
0
  6
CONTINUOUS
 62
               3
  5
1A2
 10
-605.80976342932013
 20
567.62844047460135
 30
0.0
 11
-605.80976342932013
 21
584.62844047460112
 31
0.0
  0
LINE
  8
0
  6
CONTINUOUS
 62
               3
  5
1A3
 10
-565.8097634293207
 20
584.62844047460112
 30
0.0
 11
-565.8097634293207
 21
567.62844047460135
 31
0.0
  0
LINE
  8
0
  6
CONTINUOUS
 62
               3
  5
1A4
 10
-605.80976342932013
 20
574.62844047460112
 30
0.0
 11
-565.8097634293207
 21
574.62844047460112
 31
0.0
  0
LINE
  8
0
  6
CONTINUOUS
 62
               3
  5
1A5
 10
-658.09392490332448
 20
584.62844047460112
 30
0.0
 11
-658.09392490332448
 21
567.62844047460135
 31
0.0
  0
LINE
  8
0
  6
CONTINUOUS
 62
               3
  5
1A6
 10
-672.02026162994548
 20
574.62844047460112
 30
0.0
 11
-672.02026162994548
 21
567.62844047460135
 31
0.0
  0
LINE
  8
0
  6
CONTINUOUS
 62
               3
  5
1A7
 10
-674.30976342932036
 20
574.62844047460112
 30
0.0
 11
-672.02026162994548
 21
574.62844047460112
 31
0.0
  0
LINE
  8
0
  6
CONTINUOUS
 62
               3
  5
1A8
 10
-672.02026162994548
 20
574.62844047460112
 30
0.0
 11
-658.09392490332448
 21
584.62844047460112
 31
0.0
  0
LINE
  8
0
  6
CONTINUOUS
 62
               3
  5
1A9
 10
-497.30976342932053
 20
574.62844047460112
 30
0.0
 11
-497.30976342932053
 21
567.62844047460135
 31
0.0
  0
LINE
  8
0
  6
CONTINUOUS
 62
               3
  5
1AA
 10
-497.30976342932053
 20
574.62844047460112
 30
0.0
 11
-510.80976342932075
 21
584.62844047460112
 31
0.0
  0
ARC
  8
0
  6
CONTINUOUS
 62
               3
  5
1AB
 10
-508.8097634293203
 20
563.04586477964563
 30
0.0
 40
4.9999999999999991
 50
113.57817847813625
 51
179.9999999998962
  0
LINE
  8
0
  6
CONTINUOUS
 62
               3
  5
1AC
 10
-513.52560195531532
 20
584.62844047460112
 30
0.0
 11
-513.52560195531532
 21
567.62844047460135
 31
0.0
  0
LINE
  8
0
  6
CONTINUOUS
 62
               3
  5
1AD
 10
-499.59926522869495
 20
574.62844047460112
 30
0.0
 11
-499.59926522869495
 21
567.62844047460135
 31
0.0
  0
LINE
  8
0
  6
CONTINUOUS
 62
               3
  5
1AE
 10
-497.30976342932053
 20
574.62844047460112
 30
0.0
 11
-499.59926522869495
 21
574.62844047460112
 31
0.0
  0
LINE
  8
0
  6
CONTINUOUS
 62
               3
  5
1AF
 10
-499.59926522869495
 20
574.62844047460112
 30
0.0
 11
-513.52560195531532
 21
584.62844047460112
 31
0.0
  0
LINE
  8
0
  6
CONTINUOUS
 62
               3
  5
1B0
 10
-643.80976342932036
 20
11.628440474601405
 30
0.0
 11
-527.80976342932013
 21
11.628440474600836
 31
0.0
  0
ARC
  8
0
  6
CONTINUOUS
 62
               3
  5
1B1
 10
-660.8097634293207
 20
356.12844047460112
 30
0.0
 40
2.4999999999999996
 50
89.99999999994769
 51
269.99999999984306
  0
LINE
  8
0
  6
CONTINUOUS
 62
               3
  5
1B2
 10
-660.80976342932013
 20
477.62844047460112
 30
0.0
 11
-660.8097634293207
 21
358.62844047460112
 31
0.0
  0
LINE
  8
0
  6
CONTINUOUS
 62
               3
  5
1B3
 10
-660.80976342932013
 20
160.62844047460129
 30
0.0
 11
-526.86076342932006
 21
160.62844047460152
 31
0.0
  0
LINE
  8
0
  6
CONTINUOUS
 62
               3
  5
1B4
 10
-514.05339688578101
 20
160.62844047460152
 30
0.0
 11
-510.80976342932075
 21
160.62844047460152
 31
0.0
  0
LINE
  8
0
  6
CONTINUOUS
 62
               3
  5
1B5
 10
-559.0224063368413
 20
446.62844047460101
 30
0.0
 11
-612.59712052180021
 21
446.62844047460101
 31
0.0
  0
CIRCLE
  8
0
  6
CONTINUOUS
 62
               3
  5
1B6
 10
-585.8097634293207
 20
418.62844047460112
 30
0.0
 40
48.5
  0
CIRCLE
  8
0
  6
CONTINUOUS
 62
               3
  5
1B7
 10
-585.8097634293207
 20
418.62844047460112
 30
0.0
 40
38.75
  0
CIRCLE
  8
0
  6
CONTINUOUS
 62
               3
  5
1B8
 10
-585.8097634293207
 20
418.62844047460112
 30
0.0
 40
47.299999999999997
  0
LINE
  8
0
  6
CONTINUOUS
 62
               3
  5
1B9
 10
-617.62956858271536
 20
386.80863532120657
 30
0.0
 11
-619.25591417944452
 21
385.18228972447741
 31
0.0
  0
LINE
  8
0
  6
CONTINUOUS
 62
               3
  5
1BA
 10
-553.98995827592603
 20
386.80863532120657
 30
0.0
 11
-552.36361267919699
 21
385.18228972447753
 31
0.0
  0
ARC
  8
0
  6
CONTINUOUS
 62
               3
  5
1BB
 10
-585.8097634293207
 20
418.62844047460112
 30
0.0
 40
45.0
 50
224.99999999987045
 51
314.99999999981878
  0
CIRCLE
  8
0
  6
CONTINUOUS
 62
               3
  5
1BC
 10
-585.8097634293207
 20
418.62844047460112
 30
0.0
 40
43.0
  0
CIRCLE
  8
0
  6
CONTINUOUS
 62
               3
  5
1BD
 10
-585.8097634293207
 20
418.62844047460112
 30
0.0
 40
57.600000000000001
  0
LINE
  8
0
  6
CONTINUOUS
 62
               3
  5
1BE
 10
-527.80976342932013
 20
11.628440474600836
 30
0.0
 11
-515.26167244861961
 21
121.60876730545084
 31
0.0
  0
LINE
  8
0
  6
CONTINUOUS
 62
               3
  5
1BF
 10
-513.20962047555918
 20
139.59439930462861
 30
0.0
 11
-510.80976342932075
 21
160.62844047460152
 31
0.0
  0
CIRCLE
  8
0
  6
CONTINUOUS
 62
               3
  5
1C0
 10
-85.809763429320242
 20
909.14197651560175
 30
0.0
 40
75.0
  0
CIRCLE
  8
0
  6
CONTINUOUS
 62
               3
  5
1C1
 10
-85.809763429320242
 20
909.14197651560175
 30
0.0
 40
52.5
  0
LINE
  8
0
  6
CONTINUOUS
 62
               3
  5
1C2
 10
-172.02026162994548
 20
929.14197651560175
 30
0.0
 11
-158.09392490332561
 21
929.14197651560175
 31
0.0
  0
LINE
  8
0
  6
CONTINUOUS
 62
               3
  5
1C3
 10
-158.09392490332561
 20
889.14197651560175
 30
0.0
 11
-172.02026162994548
 21
889.14197651560175
 31
0.0
  0
ARC
  8
0
  6
CONTINUOUS
 62
               3
  5
1C4
 10
-85.809763429320242
 20
909.14197651560175
 30
0.0
 40
88.5
 50
166.93897588510345
 51
193.06102411468945
  0
LINE
  8
0
  6
CONTINUOUS
 62
               3
  5
1C5
 10
-105.80976342932024
 20
822.93147831497686
 30
0.0
 11
-105.80976342932024
 21
836.85781504159672
 31
0.0
  0
LINE
  8
0
  6
CONTINUOUS
 62
               3
  5
1C6
 10
-65.809763429320242
 20
836.85781504159672
 30
0.0
 11
-65.809763429320242
 21
822.93147831497686
 31
0.0
  0
ARC
  8
0
  6
CONTINUOUS
 62
               3
  5
1C7
 10
-85.809763429320242
 20
909.14197651560175
 30
0.0
 40
88.5
 50
256.9389758850516
 51
283.06102411463769
  0
LINE
  8
0
  6
CONTINUOUS
 62
               3
  5
1C8
 10
0.4007347713044283
 20
889.14197651560175
 30
0.0
 11
-13.525601955316006
 21
889.14197651560175
 31
0.0
  0
LINE
  8
0
  6
CONTINUOUS
 62
               3
  5
1C9
 10
-13.525601955316006
 20
929.14197651560175
 30
0.0
 11
0.4007347713044283
 21
929.14197651560175
 31
0.0
  0
ARC
  8
0
  6
CONTINUOUS
 62
               3
  5
1CA
 10
-85.809763429320242
 20
909.14197651560175
 30
0.0
 40
88.5
 50
346.93897588499976
 51
373.06102411458573
  0
LINE
  8
0
  6
CONTINUOUS
 62
               3
  5
1CB
 10
-65.809763429320242
 20
995.35247471622733
 30
0.0
 11
-65.809763429320242
 21
981.42613798960679
 31
0.0
  0
LINE
  8
0
  6
CONTINUOUS
 62
               3
  5
1CC
 10
-105.80976342932024
 20
981.42613798960679
 30
0.0
 11
-105.80976342932024
 21
995.35247471622733
 31
0.0
  0
ARC
  8
0
  6
CONTINUOUS
 62
               3
  5
1CD
 10
-85.809763429320242
 20
909.14197651560175
 30
0.0
 40
88.5
 50
76.938975885155187
 51
103.06102411474123
  0
LINE
  8
0
  6
CONTINUOUS
 62
               3
  5
1CE
 10
-133.4778869501813
 20
887.1419765156013
 30
0.0
 11
-38.141639908460327
 21
887.1419765156013
 31
0.0
  0
ARC
  8
0
  6
CONTINUOUS
 62
               3
  5
1CF
 10
-73.306151779939114
 20
917.84837414322078
 30
0.0
 40
54.763804151667173
 50
141.38591763675657
 51
145.15009542087034
  0
ARC
  8
0
  6
CONTINUOUS
 62
               3
  5
1D0
 10
-85.809763429320242
 20
909.14197651560175
 30
0.0
 40
51.5
 50
334.71098847326505
 51
410.95932736340399
  0
ARC
  8
0
  6
CONTINUOUS
 62
               3
  5
1D1
 10
-85.809763429320242
 20
909.14197651560175
 30
0.0
 40
51.5
 50
129.04067263628568
 51
205.2890115264241
  0
ARC
  8
0
  6
CONTINUOUS
 62
               3
  5
1D2
 10
-85.809763429320242
 20
909.14197651560175
 30
0.0
 40
77.5
 50
104.95524831658294
 51
128.57288309095938
  0
ARC
  8
0
  6
CONTINUOUS
 62
               3
  5
1D3
 10
-85.809763429320242
 20
909.14197651560175
 30
0.0
 40
77.5
 50
14.955248316634693
 51
75.044751683313507
  0
LINE
  8
0
  6
CONTINUOUS
 62
               3
  5
1D4
 10
-225.80976342932021
 20
854.14197651560175
 30
0.0
 11
-225.13820730335598
 21
854.14197651560175
 31
0.0
  0
LINE
  8
0
  6
CONTINUOUS
 62
               3
  5
1D5
 10
-222.63820730335553
 20
851.64197651560175
 30
0.0
 11
-225.13820730335598
 21
854.14197651560175
 31
0.0
  0
LINE
  8
0
  6
CONTINUOUS
 62
               3
  5
1D6
 10
-225.80976342932021
 20
964.14197651560175
 30
0.0
 11
-225.13820730335598
 21
964.14197651560175
 31
0.0
  0
LINE
  8
0
  6
CONTINUOUS
 62
               3
  5
1D7
 10
-222.63820730335598
 20
966.64197651560175
 30
0.0
 11
-225.13820730335598
 21
964.14197651560175
 31
0.0
  0
LINE
  8
0
  6
CONTINUOUS
 62
               3
  5
1D8
 10
-225.13820730335598
 20
964.14197651560175
 30
0.0
 11
-225.13820730335598
 21
854.14197651560175
 31
0.0
  0
LINE
  8
0
  6
CONTINUOUS
 62
               3
  5
1D9
 10
-131.30009921569814
 20
969.83157353394336
 30
0.0
 11
-222.63820730335598
 21
966.64197651560175
 31
0.0
  0
LINE
  8
0
  6
CONTINUOUS
 62
               3
  5
1DA
 10
-131.30009921569882
 20
848.45237949726061
 30
0.0
 11
-222.6382073033555
 21
851.64197651560175
 31
0.0
  0
LINE
  8
0
  6
CONTINUOUS
 62
               3
  5
1DB
 10
-230.80976342932021
 20
963.97042038963764
 30
0.0
 11
-230.80976342932021
 21
854.04197651560162
 31
0.0
  0
LINE
  8
0
  6
CONTINUOUS
 62
               3
  5
1DC
 10
-225.80976342932021
 20
851.54197651560162
 30
0.0
 11
-225.80976342932021
 21
966.74197651560166
 31
0.0
  0
LINE
  8
0
  6
CONTINUOUS
 62
               3
  5
1DD
 10
-225.80976342932021
 20
966.74197651560166
 30
0.0
 11
-228.30976342932021
 21
966.74197651560166
 31
0.0
  0
LINE
  8
0
  6
CONTINUOUS
 62
               3
  5
1DE
 10
-225.80976342932021
 20
851.54197651560162
 30
0.0
 11
-228.30976342932021
 21
851.54197651560162
 31
0.0
  0
ARC
  8
0
  6
CONTINUOUS
 62
               3
  5
1DF
 10
-228.30976342932021
 20
854.04197651560162
 30
0.0
 40
2.5
 50
179.99999999989799
 51
269.99999999984499
  0
ARC
  8
0
  6
CONTINUOUS
 62
               3
  5
1E0
 10
-228.30976342932021
 20
964.24197651560166
 30
0.0
 40
2.5
 50
89.999999999948997
 51
179.99999999989799
  0
LINE
  8
0
  6
CONTINUOUS
 62
               3
  5
1E1
 10
-118.24816659593785
 20
949.14197651560153
 30
0.0
 11
-85.809763429320242
 21
949.14197651560153
 31
0.0
  0
LINE
  8
0
  6
CONTINUOUS
 62
               3
  5
1E2
 10
-85.809763429320242
 20
949.14197651560153
 30
0.0
 11
-51.806087157481564
 21
949.14197651560153
 31
0.0
  0
LINE
  8
0
  6
CONTINUOUS
 62
               3
  5
1E3
 10
-222.63820730335553
 20
851.64197651560175
 30
0.0
 11
-222.63820730335598
 21
966.64197651560175
 31
0.0
  0
ARC
  8
0
  6
CONTINUOUS
 62
               3
  5
1E4
 10
-131.47459669921068
 20
974.82852766903875
 30
0.0
 40
5.0
 50
271.99999999984362
 51
304.80675787025211
  0
ARC
  8
0
  6
CONTINUOUS
 62
               3
  5
1E5
 10
-131.4745966992113
 20
843.45542536216499
 30
0.0
 40
5.0
 50
55.193242129540046
 51
87.999999999949637
  0
ARC
  8
0
  6
CONTINUOUS
 62
               3
  5
1E6
 10
339.19023657067908
 20
356.12844047460112
 30
0.0
 40
2.4999999999999996
 50
90.000000000051912
 51
269.99999999994731
  0
LINE
  8
0
  6
CONTINUOUS
 62
               3
  5
1E7
 10
339.19023657067976
 20
160.62844047460118
 30
0.0
 11
339.19023657067908
 21
353.62844047460112
 31
0.0
  0
LINE
  8
0
  6
CONTINUOUS
 62
               3
  5
1E8
 10
339.19023657067908
 20
358.62844047460112
 30
0.0
 11
339.19023657067976
 21
477.62844047461306
 31
0.0
  0
ARC
  8
0
  6
CONTINUOUS
 62
               3
  5
1E9
 10
-510.8097634293207
 20
356.12844047460112
 30
0.0
 40
2.4999999999999996
 50
269.99999999994731
 51
449.99999999984396
  0
LINE
  8
0
  6
CONTINUOUS
 62
               3
  5
1EA
 10
-510.80976342932075
 20
160.62844047460129
 30
0.0
 11
-510.8097634293207
 21
353.62844047460112
 31
0.0
  0
LINE
  8
0
  6
CONTINUOUS
 62
               3
  5
1EB
 10
-510.8097634293207
 20
358.62844047460112
 30
0.0
 11
-510.80976342932075
 21
477.62844047460112
 31
0.0
  0
ARC
  8
0
  6
CONTINUOUS
 62
               3
  5
1EC
 10
-608.3097634293199
 20
356.12844047460112
 30
0.0
 40
2.4999999999999996
 50
269.99999999989518
 51
449.99999999982703
  0
ARC
  8
0
  6
CONTINUOUS
 62
               3
  5
1ED
 10
-563.3097634293199
 20
356.12844047460112
 30
0.0
 40
2.4999999999999996
 50
89.999999999965937
 51
269.99999999989518
  0
LINE
  8
0
  6
CONTINUOUS
 62
               3
  5
1EE
 10
-660.8097634293207
 20
358.62844047460112
 30
0.0
 11
-608.3097634293199
 21
358.62844047460112
 31
0.0
  0
LINE
  8
0
  6
CONTINUOUS
 62
               3
  5
1EF
 10
-563.3097634293199
 20
358.62844047460112
 30
0.0
 11
-510.80976342932132
 21
358.62844047460112
 31
0.0
  0
LINE
  8
0
  6
CONTINUOUS
 62
               3
  5
1F0
 10
-660.8097634293207
 20
353.62844047460112
 30
0.0
 11
-608.3097634293199
 21
353.62844047460112
 31
0.0
  0
LINE
  8
0
  6
CONTINUOUS
 62
               3
  5
1F1
 10
-563.3097634293199
 20
353.62844047460112
 30
0.0
 11
-510.80976342932132
 21
353.62844047460112
 31
0.0
  0
ARC
  8
0
  6
CONTINUOUS
 62
               3
  5
1F2
 10
-85.809763429320242
 20
909.14197651560175
 30
0.0
 40
77.5
 50
231.42711690887722
 51
255.0447516832586
  0
ARC
  8
0
  6
CONTINUOUS
 62
               3
  5
1F3
 10
-85.809763429320242
 20
909.14197651560175
 30
0.0
 40
77.5
 50
284.95524831653381
 51
345.04475168315804
  0
LINE
  8
0
  6
CONTINUOUS
 62
               3
  5
1F4
 10
-142.80976342932024
 20
-98.371559525398936
 30
0.0
 11
-140.80976342932024
 21
-100.37155952539894
 31
0.0
  0
LINE
  8
0
  6
CONTINUOUS
 62
               3
  5
1F5
 10
-30.809763429320242
 20
-100.37155952539894
 30
0.0
 11
-28.809763429320242
 21
-98.371559525398936
 31
0.0
  0
LINE
  8
0
  6
CONTINUOUS
 62
               3
  5
1F6
 10
-640.80976342932013
 20
-100.37155952539894
 30
0.0
 11
-530.80976342932013
 21
-100.37155952539894
 31
0.0
  0
LINE
  8
0
  6
CONTINUOUS
 62
               3
  5
1F7
 10
-642.80976342932013
 20
-98.371559525398936
 30
0.0
 11
-642.80976342932013
 21
-0.3715595253989363
 31
0.0
  0
LINE
  8
0
  6
CONTINUOUS
 62
               3
  5
1F8
 10
-528.80976342932013
 20
-98.371559525398936
 30
0.0
 11
-528.80976342932013
 21
-0.3715595253989363
 31
0.0
  0
LINE
  8
0
  6
CONTINUOUS
 62
               3
  5
1F9
 10
-642.80976342932013
 20
-0.3715595253989363
 30
0.0
 11
-643.80976342931967
 21
0.6284404746006089
 31
0.0
  0
LINE
  8
0
  6
CONTINUOUS
 62
               3
  5
1FA
 10
-528.80976342932013
 20
-0.3715595253989363
 30
0.0
 11
-527.80976342932013
 21
0.6284404746010637
 31
0.0
  0
LINE
  8
0
  6
CONTINUOUS
 62
               3
  5
1FB
 10
-642.80976342932013
 20
-98.371559525398936
 30
0.0
 11
-640.80976342932013
 21
-100.37155952539894
 31
0.0
  0
LINE
  8
0
  6
CONTINUOUS
 62
               3
  5
1FC
 10
-530.80976342932013
 20
-100.37155952539894
 30
0.0
 11
-528.80976342932013
 21
-98.371559525398936
 31
0.0
  0
LINE
  8
0
  6
CONTINUOUS
 62
               3
  5
1FD
 10
-527.80976342931945
 20
0.6284404746010637
 30
0.0
 11
-527.80976342931945
 21
11.628440474600723
 31
0.0
  0
LINE
  8
0
  6
CONTINUOUS
 62
               3
  5
1FE
 10
-643.80976342931967
 20
11.628440474600723
 30
0.0
 11
-643.80976342931967
 21
0.6284404746006089
 31
0.0
  0
LINE
  8
0
  6
CONTINUOUS
 62
               3
  5
1FF
 10
359.19023657067976
 20
-100.37155952539894
 30
0.0
 11
469.19023657067976
 21
-100.37155952539894
 31
0.0
  0
LINE
  8
0
  6
CONTINUOUS
 62
               3
  5
200
 10
357.19023657067976
 20
-98.371559525398936
 30
0.0
 11
357.19023657067976
 21
-0.3715595253989363
 31
0.0
  0
LINE
  8
0
  6
CONTINUOUS
 62
               3
  5
201
 10
471.19023657067976
 20
-98.371559525398936
 30
0.0
 11
471.19023657067976
 21
-0.3715595253989363
 31
0.0
  0
LINE
  8
0
  6
CONTINUOUS
 62
               3
  5
202
 10
357.19023657067976
 20
-0.3715595253989363
 30
0.0
 11
356.19023657068021
 21
0.6284404746006089
 31
0.0
  0
LINE
  8
0
  6
CONTINUOUS
 62
               3
  5
203
 10
471.19023657067976
 20
-0.3715595253989363
 30
0.0
 11
472.19023657067976
 21
0.6284404746010637
 31
0.0
  0
LINE
  8
0
  6
CONTINUOUS
 62
               3
  5
204
 10
357.19023657067976
 20
-98.371559525398936
 30
0.0
 11
359.19023657067976
 21
-100.37155952539894
 31
0.0
  0
LINE
  8
0
  6
CONTINUOUS
 62
               3
  5
205
 10
469.19023657067976
 20
-100.37155952539894
 30
0.0
 11
471.19023657067976
 21
-98.371559525398936
 31
0.0
  0
LINE
  8
0
  6
CONTINUOUS
 62
               3
  5
206
 10
472.19023657068044
 20
0.6284404746010637
 30
0.0
 11
472.19023657068044
 21
11.628440474600723
 31
0.0
  0
LINE
  8
0
  6
CONTINUOUS
 62
               3
  5
207
 10
356.19023657068021
 20
11.628440474600723
 30
0.0
 11
356.19023657068021
 21
0.6284404746006089
 31
0.0
  0
CIRCLE
  8
0
  6
CONTINUOUS
 62
               3
  5
208
 10
-85.809763429320242
 20
909.14197651560175
 30
0.0
 40
59.0
  0
CIRCLE
  8
0
  6
CONTINUOUS
 62
               3
  5
209
 10
523.47675978698771
 20
-464.33531943479846
 30
0.0
 40
75.0
  0
CIRCLE
  8
0
  6
CONTINUOUS
 62
               3
  5
20A
 10
523.47675978698771
 20
-464.33531943479846
 30
0.0
 40
52.5
  0
LINE
  8
0
  6
CONTINUOUS
 62
               3
  5
20B
 10
437.26626158636236
 20
-444.33531943479846
 30
0.0
 11
451.19259831298223
 21
-444.33531943479846
 31
0.0
  0
LINE
  8
0
  6
CONTINUOUS
 62
               3
  5
20C
 10
451.19259831298223
 20
-484.33531943479846
 30
0.0
 11
437.26626158636236
 21
-484.33531943479846
 31
0.0
  0
ARC
  8
0
  6
CONTINUOUS
 62
               3
  5
20D
 10
523.47675978698771
 20
-464.33531943479846
 30
0.0
 40
88.5
 50
166.93897588507147
 51
193.06102411465253
  0
LINE
  8
0
  6
CONTINUOUS
 62
               3
  5
20E
 10
503.47675978698771
 20
-550.54581763542342
 30
0.0
 11
503.47675978698771
 21
-536.61948090880355
 31
0.0
  0
LINE
  8
0
  6
CONTINUOUS
 62
               3
  5
20F
 10
543.47675978698771
 20
-536.61948090880355
 30
0.0
 11
543.47675978698771
 21
-550.54581763542342
 31
0.0
  0
ARC
  8
0
  6
CONTINUOUS
 62
               3
  5
210
 10
523.47675978698771
 20
-464.33531943479846
 30
0.0
 40
88.5
 50
256.93897588500261
 51
283.06102411458357
  0
LINE
  8
0
  6
CONTINUOUS
 62
               3
  5
211
 10
609.68725798761238
 20
-484.33531943479846
 30
0.0
 11
595.76092126099184
 21
-484.33531943479846
 31
0.0
  0
LINE
  8
0
  6
CONTINUOUS
 62
               3
  5
212
 10
595.76092126099184
 20
-444.33531943479846
 30
0.0
 11
609.68725798761238
 21
-444.33531943479846
 31
0.0
  0
ARC
  8
0
  6
CONTINUOUS
 62
               3
  5
213
 10
523.47675978698771
 20
-464.33531943479846
 30
0.0
 40
88.5
 50
346.93897588493354
 51
373.06102411451457
  0
LINE
  8
0
  6
CONTINUOUS
 62
               3
  5
214
 10
543.47675978698771
 20
-378.12482123417288
 30
0.0
 11
543.47675978698771
 21
-392.05115796079343
 31
0.0
  0
LINE
  8
0
  6
CONTINUOUS
 62
               3
  5
215
 10
503.47675978698771
 20
-392.05115796079343
 30
0.0
 11
503.47675978698771
 21
-378.12482123417288
 31
0.0
  0
ARC
  8
0
  6
CONTINUOUS
 62
               3
  5
216
 10
523.47675978698771
 20
-464.33531943479846
 30
0.0
 40
88.5
 50
76.938975885140493
 51
103.06102411472153
  0
LINE
  8
0
  6
CONTINUOUS
 62
               3
  5
217
 10
475.80863626612654
 20
-486.33531943479892
 30
0.0
 11
571.14488330784752
 21
-486.33531943479892
 31
0.0
  0
ARC
  8
0
  6
CONTINUOUS
 62
               3
  5
218
 10
535.98037143636884
 20
-455.62892180717944
 30
0.0
 40
54.763804151667173
 50
141.3859176367296
 51
145.15009542084252
  0
ARC
  8
0
  6
CONTINUOUS
 62
               3
  5
219
 10
523.47675978698771
 20
-464.33531943479846
 30
0.0
 40
51.5
 50
334.7109884732011
 51
410.95932736332554
  0
ARC
  8
0
  6
CONTINUOUS
 62
               3
  5
21A
 10
523.47675978698771
 20
-464.33531943479846
 30
0.0
 40
51.5
 50
129.04067263626098
 51
205.289011526385
  0
ARC
  8
0
  6
CONTINUOUS
 62
               3
  5
21B
 10
523.47675978698771
 20
-464.33531943479846
 30
0.0
 40
77.5
 50
104.95524831656299
 51
128.57288309093474
  0
ARC
  8
0
  6
CONTINUOUS
 62
               3
  5
21C
 10
523.47675978698771
 20
-464.33531943479846
 30
0.0
 40
77.5
 50
14.95524831663182
 51
75.044751683299182
  0
ARC
  8
0
  6
CONTINUOUS
 62
               3
  5
21D
 10
523.47675978698771
 20
-464.33531943479846
 30
0.0
 40
77.5
 50
321.42711690871977
 51
345.04475168309216
  0
LINE
  8
0
  6
CONTINUOUS
 62
               3
  5
21E
 10
383.4767597869876
 20
-519.33531943479852
 30
0.0
 11
384.14831591295183
 21
-519.33531943479852
 31
0.0
  0
LINE
  8
0
  6
CONTINUOUS
 62
               3
  5
21F
 10
386.64831591295228
 20
-521.83531943479852
 30
0.0
 11
384.14831591295183
 21
-519.33531943479852
 31
0.0
  0
LINE
  8
0
  6
CONTINUOUS
 62
               3
  5
220
 10
383.4767597869876
 20
-409.33531943479846
 30
0.0
 11
384.14831591295183
 21
-409.33531943479846
 31
0.0
  0
LINE
  8
0
  6
CONTINUOUS
 62
               3
  5
221
 10
386.64831591295183
 20
-406.83531943479846
 30
0.0
 11
384.14831591295183
 21
-409.33531943479846
 31
0.0
  0
LINE
  8
0
  6
CONTINUOUS
 62
               3
  5
222
 10
384.14831591295183
 20
-409.33531943479846
 30
0.0
 11
384.14831591295183
 21
-519.33531943479852
 31
0.0
  0
LINE
  8
0
  6
CONTINUOUS
 62
               3
  5
223
 10
477.98642400060976
 20
-403.64572241645686
 30
0.0
 11
386.64831591295183
 21
-406.83531943479846
 31
0.0
  0
LINE
  8
0
  6
CONTINUOUS
 62
               3
  5
224
 10
458.64028807043655
 20
-524.3493344997662
 30
0.0
 11
386.6483159129524
 21
-521.83531943479852
 31
0.0
  0
LINE
  8
0
  6
CONTINUOUS
 62
               3
  5
225
 10
378.4767597869876
 20
-409.50687556076258
 30
0.0
 11
378.4767597869876
 21
-519.43531943479843
 31
0.0
  0
LINE
  8
0
  6
CONTINUOUS
 62
               3
  5
226
 10
383.4767597869876
 20
-521.93531943479843
 30
0.0
 11
383.4767597869876
 21
-406.73531943479833
 31
0.0
  0
LINE
  8
0
  6
CONTINUOUS
 62
               3
  5
227
 10
383.4767597869876
 20
-406.73531943479833
 30
0.0
 11
380.9767597869876
 21
-406.73531943479833
 31
0.0
  0
LINE
  8
0
  6
CONTINUOUS
 62
               3
  5
228
 10
383.4767597869876
 20
-521.93531943479843
 30
0.0
 11
380.9767597869876
 21
-521.93531943479843
 31
0.0
  0
ARC
  8
0
  6
CONTINUOUS
 62
               3
  5
229
 10
380.9767597869876
 20
-519.43531943479843
 30
0.0
 40
2.5
 50
179.9999999998615
 51
269.99999999979229
  0
ARC
  8
0
  6
CONTINUOUS
 62
               3
  5
22A
 10
380.9767597869876
 20
-409.23531943479833
 30
0.0
 40
2.5
 50
89.999999999932058
 51
179.9999999998615
  0
LINE
  8
0
  6
CONTINUOUS
 62
               3
  5
22B
 10
491.03835662037
 20
-424.33531943479869
 30
0.0
 11
523.47675978698771
 21
-424.33531943479869
 31
0.0
  0
LINE
  8
0
  6
CONTINUOUS
 62
               3
  5
22C
 10
523.47675978698771
 20
-424.33531943479869
 30
0.0
 11
557.4804360588264
 21
-424.33531943479869
 31
0.0
  0
LINE
  8
0
  6
CONTINUOUS
 62
               3
  5
22D
 10
386.64831591295228
 20
-521.83531943479852
 30
0.0
 11
386.64831591295183
 21
-406.83531943479846
 31
0.0
  0
ARC
  8
0
  6
CONTINUOUS
 62
               3
  5
22E
 10
477.81192651709716
 20
-398.64876828136124
 30
0.0
 40
5.0
 50
271.9999999997919
 51
304.80675787019305
  0
LINE
  8
0
  6
CONTINUOUS
 62
               3
  5
22F
 10
578.47675978698749
 20
-604.33531943479852
 30
0.0
 11
578.47675978698749
 21
-603.66376330883418
 31
0.0
  0
LINE
  8
0
  6
CONTINUOUS
 62
               3
  5
230
 10
580.97675978698749
 20
-601.16376330883372
 30
0.0
 11
578.47675978698749
 21
-603.66376330883418
 31
0.0
  0
LINE
  8
0
  6
CONTINUOUS
 62
               3
  5
231
 10
468.47675978698749
 20
-604.33531943479852
 30
0.0
 11
468.47675978698749
 21
-603.66376330883418
 31
0.0
  0
LINE
  8
0
  6
CONTINUOUS
 62
               3
  5
232
 10
465.97675978698749
 20
-601.16376330883418
 30
0.0
 11
468.47675978698749
 21
-603.66376330883418
 31
0.0
  0
LINE
  8
0
  6
CONTINUOUS
 62
               3
  5
233
 10
468.47675978698749
 20
-603.66376330883418
 30
0.0
 11
578.47675978698749
 21
-603.66376330883418
 31
0.0
  0
LINE
  8
0
  6
CONTINUOUS
 62
               3
  5
234
 10
468.6483159129516
 20
-609.33531943479852
 30
0.0
 11
578.57675978698762
 21
-609.33531943479852
 31
0.0
  0
LINE
  8
0
  6
CONTINUOUS
 62
               3
  5
235
 10
581.07675978698762
 20
-604.33531943479852
 30
0.0
 11
465.87675978698758
 21
-604.33531943479852
 31
0.0
  0
LINE
  8
0
  6
CONTINUOUS
 62
               3
  5
236
 10
465.87675978698758
 20
-604.33531943479852
 30
0.0
 11
465.87675978698758
 21
-606.83531943479852
 31
0.0
  0
LINE
  8
0
  6
CONTINUOUS
 62
               3
  5
237
 10
581.07675978698762
 20
-604.33531943479852
 30
0.0
 11
581.07675978698762
 21
-606.83531943479852
 31
0.0
  0
ARC
  8
0
  6
CONTINUOUS
 62
               3
  5
238
 10
578.57675978698762
 20
-606.83531943479852
 30
0.0
 40
2.5
 50
269.99999999979354
 51
359.999999999723
  0
ARC
  8
0
  6
CONTINUOUS
 62
               3
  5
239
 10
468.37675978698758
 20
-606.83531943479852
 30
0.0
 40
2.5
 50
179.99999999985891
 51
269.99999999979354
  0
LINE
  8
0
  6
CONTINUOUS
 62
               3
  5
23A
 10
580.97675978698749
 20
-601.16376330883372
 30
0.0
 11
465.97675978698749
 21
-601.16376330883418
 31
0.0
  0
LINE
  8
0
  6
CONTINUOUS
 62
               3
  5
23B
 10
584.16635680532863
 20
-509.82565522117665
 30
0.0
 11
580.97675978698749
 21
-601.16376330883372
 31
0.0
  0
ARC
  8
0
  6
CONTINUOUS
 62
               3
  5
23C
 10
589.16331094042425
 20
-510.00015270468947
 30
0.0
 40
5.0
 50
145.19324212946151
 51
177.99999999986429
  0
LINE
  8
0
  6
CONTINUOUS
 62
               3
  5
23D
 10
463.46274472201958
 20
-529.17179115134945
 30
0.0
 11
465.97675978698749
 21
-601.16376330883418
 31
0.0
  0
ARC
  8
0
  6
CONTINUOUS
 62
               3
  5
23E
 10
458.46579058692419
 20
-529.34628863486137
 30
0.0
 40
5.0
 50
1.9999999999958187
 51
87.999999999932285
  0
LINE
  8
0
  6
CONTINUOUS
 62
               3
  5
23F
 10
448.47675978698771
 20
-772.83475318338265
 30
0.0
 11
598.47675978698771
 21
-772.83475318338265
 31
0.0
  0
LINE
  8
0
  6
CONTINUOUS
 62
               3
  5
240
 10
434.97675978698749
 20
-782.83475318338265
 30
0.0
 11
434.97675978698749
 21
-789.83475318338219
 31
0.0
  0
LINE
  8
0
  6
CONTINUOUS
 62
               3
  5
241
 10
434.97675978698749
 20
-782.83475318338265
 30
0.0
 11
448.47675978698771
 21
-772.83475318338265
 31
0.0
  0
ARC
  8
0
  6
CONTINUOUS
 62
               3
  5
242
 10
446.47675978698771
 20
-794.41732887833791
 30
0.0
 40
4.9999999999999991
 50
0.0
 51
66.421821521747205
  0
LINE
  8
0
  6
CONTINUOUS
 62
               3
  5
243
 10
434.97675978698749
 20
-789.83475318338219
 30
0.0
 11
611.97675978698726
 21
-789.83475318338219
 31
0.0
  0
ARC
  8
0
  6
CONTINUOUS
 62
               3
  5
244
 10
468.47675978698771
 20
-879.83475318338265
 30
0.0
 40
19.999999999999996
 50
148.2116693828344
 51
167.26981986155914
  0
LINE
  8
0
  6
CONTINUOUS
 62
               3
  5
245
 10
451.47675978698771
 20
-794.41732887833791
 30
0.0
 11
451.47675978698771
 21
-869.29909943052985
 31
0.0
  0
LINE
  8
0
  6
CONTINUOUS
 62
               3
  5
246
 10
595.47675978698749
 20
-864.2990994305294
 30
0.0
 11
595.47675978698749
 21
-794.41732887833791
 31
0.0
  0
LINE
  8
0
  6
CONTINUOUS
 62
               3
  5
247
 10
451.47675978698771
 20
-869.29909943052985
 30
0.0
 11
594.97675978698794
 21
-869.29909943052985
 31
0.0
  0
LINE
  8
0
  6
CONTINUOUS
 62
               3
  5
248
 10
503.47675978698771
 20
-789.83475318338219
 30
0.0
 11
503.47675978698771
 21
-772.83475318338265
 31
0.0
  0
LINE
  8
0
  6
CONTINUOUS
 62
               3
  5
249
 10
543.47675978698771
 20
-772.83475318338265
 30
0.0
 11
543.47675978698771
 21
-789.83475318338219
 31
0.0
  0
LINE
  8
0
  6
CONTINUOUS
 62
               3
  5
24A
 10
503.47675978698771
 20
-782.83475318338265
 30
0.0
 11
543.47675978698771
 21
-782.83475318338265
 31
0.0
  0
LINE
  8
0
  6
CONTINUOUS
 62
               3
  5
24B
 10
451.19259831298223
 20
-772.83475318338265
 30
0.0
 11
451.19259831298223
 21
-789.83475318338219
 31
0.0
  0
LINE
  8
0
  6
CONTINUOUS
 62
               3
  5
24C
 10
437.26626158636236
 20
-782.83475318338265
 30
0.0
 11
437.26626158636236
 21
-789.83475318338219
 31
0.0
  0
LINE
  8
0
  6
CONTINUOUS
 62
               3
  5
24D
 10
434.97675978698749
 20
-782.83475318338265
 30
0.0
 11
437.26626158636236
 21
-782.83475318338265
 31
0.0
  0
LINE
  8
0
  6
CONTINUOUS
 62
               3
  5
24E
 10
437.26626158636236
 20
-782.83475318338265
 30
0.0
 11
451.19259831298223
 21
-772.83475318338265
 31
0.0
  0
LINE
  8
0
  6
CONTINUOUS
 62
               3
  5
24F
 10
611.97675978698726
 20
-782.83475318338265
 30
0.0
 11
611.97675978698726
 21
-789.83475318338219
 31
0.0
  0
LINE
  8
0
  6
CONTINUOUS
 62
               3
  5
250
 10
611.97675978698726
 20
-782.83475318338265
 30
0.0
 11
598.47675978698771
 21
-772.83475318338265
 31
0.0
  0
ARC
  8
0
  6
CONTINUOUS
 62
               3
  5
251
 10
600.47675978698749
 20
-794.41732887833791
 30
0.0
 40
4.9999999999999991
 50
113.5781784781135
 51
179.9999999998615
  0
LINE
  8
0
  6
CONTINUOUS
 62
               3
  5
252
 10
595.76092126099184
 20
-772.83475318338265
 30
0.0
 11
595.76092126099184
 21
-789.83475318338219
 31
0.0
  0
LINE
  8
0
  6
CONTINUOUS
 62
               3
  5
253
 10
609.68725798761284
 20
-782.83475318338265
 30
0.0
 11
609.68725798761284
 21
-789.83475318338219
 31
0.0
  0
LINE
  8
0
  6
CONTINUOUS
 62
               3
  5
254
 10
611.97675978698726
 20
-782.83475318338265
 30
0.0
 11
609.68725798761284
 21
-782.83475318338265
 31
0.0
  0
LINE
  8
0
  6
CONTINUOUS
 62
               3
  5
255
 10
609.68725798761284
 20
-782.83475318338265
 30
0.0
 11
595.76092126099184
 21
-772.83475318338265
 31
0.0
  0
ARC
  8
0
  6
CONTINUOUS
 62
               3
  5
256
 10
458.47675978698771
 20
-1001.3347531833826
 30
0.0
 40
2.4999999999999996
 50
89.999999999929457
 51
269.99999999979354
  0
ARC
  8
0
  6
CONTINUOUS
 62
               3
  5
257
 10
598.47675978698771
 20
-1001.3347531833826
 30
0.0
 40
2.4999999999999996
 50
269.99999999979354
 51
449.99999999965507
  0
LINE
  8
0
  6
CONTINUOUS
 62
               3
  5
258
 10
383.4767597869876
 20
-993.83475318338265
 30
0.0
 11
384.14831591295194
 21
-993.83475318338265
 31
0.0
  0
LINE
  8
0
  6
CONTINUOUS
 62
               3
  5
259
 10
386.64831591295206
 20
-996.33475318338219
 30
0.0
 11
384.14831591295194
 21
-993.83475318338265
 31
0.0
  0
LINE
  8
0
  6
CONTINUOUS
 62
               3
  5
25A
 10
386.64831591295285
 20
-996.33475318338265
 30
0.0
 11
428.8134261692303
 21
-997.8071912792368
 31
0.0
  0
LINE
  8
0
  6
CONTINUOUS
 62
               3
  5
25B
 10
447.01229369292014
 20
-1014.1064426096689
 30
0.0
 11
432.17446259165035
 21
-999.26861150839954
 31
0.0
  0
ARC
  8
0
  6
CONTINUOUS
 62
               3
  5
25C
 10
443.47675978698771
 20
-1017.6419765156018
 30
0.0
 40
4.9999999999999991
 50
0.0
 51
44.999999999964892
  0
LINE
  8
0
  6
CONTINUOUS
 62
               3
  5
25D
 10
383.4767597869876
 20
-883.83475318338265
 30
0.0
 11
384.14831591295194
 21
-883.83475318338265
 31
0.0
  0
LINE
  8
0
  6
CONTINUOUS
 62
               3
  5
25E
 10
386.64831591295206
 20
-881.33475318338265
 30
0.0
 11
384.14831591295194
 21
-883.83475318338265
 31
0.0
  0
LINE
  8
0
  6
CONTINUOUS
 62
               3
  5
25F
 10
386.64831591295194
 20
-881.33475318338265
 30
0.0
 11
444.26579211512626
 21
-879.32270657823051
 31
0.0
  0
LINE
  8
0
  6
CONTINUOUS
 62
               3
  5
260
 10
384.14831591295194
 20
-883.83475318338265
 30
0.0
 11
384.14831591295194
 21
-993.83475318338265
 31
0.0
  0
LINE
  8
0
  6
CONTINUOUS
 62
               3
  5
261
 10
383.4767597869876
 20
-996.43475318338255
 30
0.0
 11
383.4767597869876
 21
-881.23475318338274
 31
0.0
  0
LINE
  8
0
  6
CONTINUOUS
 62
               3
  5
262
 10
383.4767597869876
 20
-881.23475318338274
 30
0.0
 11
380.9767597869876
 21
-881.23475318338274
 31
0.0
  0
ARC
  8
0
  6
CONTINUOUS
 62
               3
  5
263
 10
380.9767597869876
 20
-883.73475318338274
 30
0.0
 40
2.5
 50
89.999999999932058
 51
179.99999999985891
  0
LINE
  8
0
  6
CONTINUOUS
 62
               3
  5
264
 10
378.4767597869876
 20
-883.73475318338274
 30
0.0
 11
378.4767597869876
 21
-993.93475318338255
 31
0.0
  0
LINE
  8
0
  6
CONTINUOUS
 62
               3
  5
265
 10
383.4767597869876
 20
-996.43475318338255
 30
0.0
 11
380.9767597869876
 21
-996.43475318338255
 31
0.0
  0
ARC
  8
0
  6
CONTINUOUS
 62
               3
  5
266
 10
380.9767597869876
 20
-993.93475318338255
 30
0.0
 40
2.5
 50
179.99999999985891
 51
269.99999999979229
  0
LINE
  8
0
  6
CONTINUOUS
 62
               3
  5
267
 10
386.64831591295206
 20
-881.33475318338265
 30
0.0
 11
386.64831591295285
 21
-996.33475318338265
 31
0.0
  0
ARC
  8
0
  6
CONTINUOUS
 62
               3
  5
268
 10
428.6389286857177
 20
-1002.8041454143324
 30
0.0
 40
5.0
 50
44.999999999968587
 51
87.999999999932243
  0
ARC
  8
0
  6
CONTINUOUS
 62
               3
  5
269
 10
444.09129463161389
 20
-874.32575244313489
 30
0.0
 40
5.0
 50
271.9999999997919
 51
347.26981986141988
  0
CIRCLE
  8
0
  6
CONTINUOUS
 62
               3
  5
26A
 10
523.47675978698771
 20
-938.83475318338265
 30
0.0
 40
48.5
  0
CIRCLE
  8
0
  6
CONTINUOUS
 62
               3
  5
26B
 10
523.47675978698771
 20
-938.83475318338265
 30
0.0
 40
47.299999999999997
  0
LINE
  8
0
  6
CONTINUOUS
 62
               3
  5
26C
 10
491.65695463359316
 20
-970.6545583367772
 30
0.0
 11
490.03060903686401
 21
-972.28090393350635
 31
0.0
  0
LINE
  8
0
  6
CONTINUOUS
 62
               3
  5
26D
 10
555.29656494038227
 20
-970.6545583367772
 30
0.0
 11
556.92291053711142
 21
-972.28090393350635
 31
0.0
  0
ARC
  8
0
  6
CONTINUOUS
 62
               3
  5
26E
 10
523.47675978698771
 20
-938.83475318338265
 30
0.0
 40
45.0
 50
224.99999999982745
 51
314.99999999975864
  0
CIRCLE
  8
0
  6
CONTINUOUS
 62
               3
  5
26F
 10
523.47675978698771
 20
-938.83475318338265
 30
0.0
 40
57.600000000000001
  0
ARC
  8
0
  6
CONTINUOUS
 62
               3
  5
270
 10
500.97675978698817
 20
-1001.3347531833826
 30
0.0
 40
2.4999999999999996
 50
269.99999999979354
 51
449.99999999965507
  0
ARC
  8
0
  6
CONTINUOUS
 62
               3
  5
271
 10
545.97675978698817
 20
-1001.3347531833826
 30
0.0
 40
2.4999999999999996
 50
89.999999999929457
 51
269.99999999979354
  0
LINE
  8
0
  6
CONTINUOUS
 62
               3
  5
272
 10
458.47675978698771
 20
-1003.8347531833826
 30
0.0
 11
500.97675978698817
 21
-1003.8347531833826
 31
0.0
  0
LINE
  8
0
  6
CONTINUOUS
 62
               3
  5
273
 10
458.47675978698771
 20
-998.83475318338265
 30
0.0
 11
500.97675978698817
 21
-998.83475318338265
 31
0.0
  0
LINE
  8
0
  6
CONTINUOUS
 62
               3
  5
274
 10
545.97675978698817
 20
-998.83475318338265
 30
0.0
 11
598.47675978698771
 21
-998.83475318338265
 31
0.0
  0
LINE
  8
0
  6
CONTINUOUS
 62
               3
  5
275
 10
545.97675978698817
 20
-1003.8347531833826
 30
0.0
 11
598.47675978698771
 21
-1003.8347531833826
 31
0.0
  0
CIRCLE
  8
0
  6
CONTINUOUS
 62
               3
  5
276
 10
523.47675978698771
 20
-464.33531943479846
 30
0.0
 40
59.0
  0
LINE
  8
0
  6
DASHED2
 62
               3
  5
277
 10
-137.30976342932047
 20
-100.37155952539894
 30
0.0
 11
-137.30976342932047
 21
-20.371559525398936
 31
0.0
  0
LINE
  8
0
  6
DASHED2
 62
               3
  5
278
 10
-34.30976342932059
 20
-100.37155952539894
 30
0.0
 11
-34.30976342932059
 21
-20.371559525398936
 31
0.0
  0
LINE
  8
0
  6
DASHED2
 62
               3
  5
279
 10
-637.30976342932036
 20
-100.37155952539894
 30
0.0
 11
-637.30976342932036
 21
-20.371559525398936
 31
0.0
  0
LINE
  8
0
  6
DASHED2
 62
               3
  5
27A
 10
-534.30976342932047
 20
-100.37155952539894
 30
0.0
 11
-534.30976342932047
 21
-20.371559525398936
 31
0.0
  0
LINE
  8
0
  6
DASHED2
 62
               3
  5
27B
 10
362.69023657067953
 20
-100.37155952539894
 30
0.0
 11
362.69023657067953
 21
-20.371559525398936
 31
0.0
  0
LINE
  8
0
  6
DASHED2
 62
               3
  5
27C
 10
465.69023657067942
 20
-100.37155952539894
 30
0.0
 11
465.69023657067942
 21
-20.371559525398936
 31
0.0
  0
LINE
  8
0
  6
CONTINUOUS
 62
               4
  5
27D
 10
-8.8097634293203555
 20
488.16409422745386
 30
0.0
 11
-13.809763429320355
 21
493.16409422745386
 31
0.0
  0
LINE
  8
0
  6
CONTINUOUS
 62
               4
  5
27E
 10
-8.8097634293203555
 20
354.47541687748418
 30
0.0
 11
-8.8097634293203555
 21
160.51487224434601
 31
0.0
  0
LINE
  8
0
  6
CONTINUOUS
 62
               4
  5
27F
 10
-8.8097634293203555
 20
160.51487224434601
 30
0.0
 11
-25.537987828971389
 21
13.90021607494981
 31
0.0
  0
LINE
  8
0
  6
CONTINUOUS
 62
               4
  5
280
 10
-27.809763429320135
 20
11.628440474601291
 30
0.0
 11
-25.537987828971389
 21
13.90021607494981
 31
0.0
  0
ARC
  8
0
  6
CONTINUOUS
 62
               4
  5
281
 10
-31.309763429320363
 20
477.62844047460106
 30
0.0
 40
19.999999999999996
 50
0.0
 51
31.788330617033498
  0
LINE
  8
0
  6
CONTINUOUS
 62
               4
  5
282
 10
-14.309763429319901
 20
488.16409422745386
 30
0.0
 11
-14.309763429319901
 21
493.16409422745443
 31
0.0
  0
LINE
  8
0
  6
CONTINUOUS
 62
               4
  5
283
 10
-13.809763429320355
 20
493.16409422745386
 30
0.0
 11
-14.309763429319901
 21
493.16409422745386
 31
0.0
  0
LINE
  8
0
  6
CONTINUOUS
 62
               4
  5
284
 10
-9.0597634293201281
 20
487.91409422745386
 30
0.0
 11
-14.309763429319901
 21
493.16409422745386
 31
0.0
  0
LINE
  8
0
  6
CONTINUOUS
 62
               4
  5
285
 10
-9.0597634293201281
 20
487.91409422745386
 30
0.0
 11
-8.8097634293203555
 21
488.16409422745386
 31
0.0
  0
LINE
  8
0
  6
CONTINUOUS
 62
               4
  5
286
 10
-11.309763429320355
 20
353.47541687748395
 30
0.0
 11
-11.309763429320355
 21
160.65683253216554
 31
0.0
  0
LINE
  8
0
  6
CONTINUOUS
 62
               4
  5
287
 10
-9.0597634293201281
 20
354.19005977034811
 30
0.0
 11
-9.0597634293201281
 21
160.52906827312796
 31
0.0
  0
LINE
  8
0
  6
CONTINUOUS
 62
               4
  5
288
 10
-11.309763429320355
 20
160.65683253216554
 30
0.0
 11
-28.312998295669793
 21
11.628440474600723
 31
0.0
  0
LINE
  8
0
  6
CONTINUOUS
 62
               4
  5
289
 10
-11.312998295670468
 20
160.62844047460118
 30
0.0
 11
-8.8097634293203555
 21
160.51487224434601
 31
0.0
  0
LINE
  8
0
  6
CONTINUOUS
 62
               4
  5
28A
 10
-9.0597634293201281
 20
160.52906827312796
 30
0.0
 11
-25.815488875641456
 21
13.673038514914936
 31
0.0
  0
LINE
  8
0
  6
CONTINUOUS
 62
               4
  5
28B
 10
-28.312998295669793
 20
11.628440474600723
 30
0.0
 11
-25.537987828971389
 21
13.90021607494981
 31
0.0
  0
LINE
  8
0
  6
CONTINUOUS
 62
               4
  5
28C
 10
-8.8097634293203555
 20
488.16409422745386
 30
0.0
 11
-8.8097634293203555
 21
357.47541687748407
 31
0.0
  0
LINE
  8
0
  6
CONTINUOUS
 62
               4
  5
28D
 10
-9.0597634293201281
 20
487.91409422745386
 30
0.0
 11
-9.0597634293201281
 21
357.76077398461956
 31
0.0
  0
LINE
  8
0
  6
CONTINUOUS
 62
               4
  5
28E
 10
-11.309763429320355
 20
477.62844047460106
 30
0.0
 11
-11.309763429320355
 21
358.62844047460106
 31
0.0
  0
LINE
  8
0
  6
CONTINUOUS
 62
               4
  5
28F
 10
-27.668630842814316
 20
106.84393141840138
 30
0.0
 11
-151.32176342932075
 21
210.60122936565421
 31
0.0
  0
ARC
  8
0
  6
CONTINUOUS
 62
               4
  5
290
 10
-1000.0820835298598
 20
-933.95718776129434
 30
0.0
 40
1424.9238755783815
 50
50.189956146237648
 51
53.440796050701131
  0
ARC
  8
0
  6
CONTINUOUS
 62
               4
  5
291
 10
-22.230374592287269
 20
231.40109938944732
 30
0.0
 40
130.75634311527989
 50
189.15312334019521
 51
212.7691831126306
  0
ARC
  8
0
  6
CONTINUOUS
 62
               4
  5
292
 10
-24.445737929769173
 20
241.53512014068764
 30
0.0
 40
134.72974192119386
 50
216.90649751121279
 51
268.62928723395265
  0
ARC
  8
0
  6
CONTINUOUS
 62
               4
  5
293
 10
-819.44011152782855
 20
-717.61823043640788
 30
0.0
 40
1143.0835201141012
 50
46.158732653398935
 51
50.202696616627449
  0
LINE
  8
0
  6
CONTINUOUS
 62
               4
  5
294
 10
-142.80976342932024
 20
-0.3715595253989363
 30
0.0
 11
-28.809763429320242
 21
-0.3715595253989363
 31
0.0
  0
LINE
  8
0
  6
CONTINUOUS
 62
               4
  5
295
 10
-143.80976342931979
 20
0.6284404746006089
 30
0.0
 11
-27.809763429319851
 21
0.6284404746010637
 31
0.0
  0
ARC
  8
0
  6
CONTINUOUS
 62
               4
  5
296
 10
388.40627075871362
 20
477.62844047460112
 30
0.0
 40
17.566965811965957
 50
0.0
 51
36.851448659209822
  0
LINE
  8
0
  6
CONTINUOUS
 62
               4
  5
297
 10
425.91723657067996
 20
493.16409422745392
 30
0.0
 11
402.46323657067956
 21
493.16409422745392
 31
0.0
  0
ARC
  8
0
  6
CONTINUOUS
 62
               4
  5
298
 10
439.97420238264533
 20
477.62844047460112
 30
0.0
 40
17.566965811965957
 50
143.14855134068668
 51
179.99999999989654
  0
LINE
  8
0
  6
CONTINUOUS
 62
               4
  5
299
 10
402.46323657067956
 20
488.16409422745392
 30
0.0
 11
402.46323657067956
 21
493.16409422745392
 31
0.0
  0
LINE
  8
0
  6
CONTINUOUS
 62
               4
  5
29A
 10
425.91723657067996
 20
488.16409422745392
 30
0.0
 11
425.91723657067996
 21
493.16409422745392
 31
0.0
  0
LINE
  8
0
  6
CONTINUOUS
 62
               4
  5
29B
 10
402.46323657067956
 20
493.16409422745392
 30
0.0
 11
408.19023657067953
 21
488.16409422745392
 31
0.0
  0
LINE
  8
0
  6
CONTINUOUS
 62
               4
  5
29C
 10
420.19023657067942
 20
488.16409422745392
 30
0.0
 11
425.91723657067996
 21
493.16409422745392
 31
0.0
  0
LINE
  8
0
  6
CONTINUOUS
 62
               4
  5
29D
 10
408.19023657067953
 20
488.16409422745392
 30
0.0
 11
420.19023657067942
 21
488.16409422745392
 31
0.0
  0
LINE
  8
0
  6
CONTINUOUS
 62
               4
  5
29E
 10
420.19023657067885
 20
357.62844047460123
 30
0.0
 11
408.19023657067896
 21
357.62844047460123
 31
0.0
  0
ARC
  8
0
  6
CONTINUOUS
 62
               4
  5
29F
 10
406.12859203726396
 20
356.21436062613452
 30
0.0
 40
2.4999999999999996
 50
34.446185822123951
 51
93.562780573740966
  0
ARC
  8
0
  6
CONTINUOUS
 62
               4
  5
2A0
 10
422.25188110409442
 20
356.21436062613452
 30
0.0
 40
2.4999999999999996
 50
86.437219426154229
 51
145.55381417777213
  0
LINE
  8
0
  6
CONTINUOUS
 62
               4
  5
2A1
 10
420.19023657067885
 20
354.62844047460135
 30
0.0
 11
408.19023657067896
 21
354.62844047460135
 31
0.0
  0
ARC
  8
0
  6
CONTINUOUS
 62
               4
  5
2A2
 10
406.12859203726396
 20
356.04252032306772
 30
0.0
 40
2.4999999999999996
 50
266.43721942605066
 51
325.55381417766819
  0
ARC
  8
0
  6
CONTINUOUS
 62
               4
  5
2A3
 10
422.25188110409442
 20
356.04252032306772
 30
0.0
 40
2.4999999999999996
 50
214.44618582202128
 51
273.56278057363744
  0
LINE
  8
0
  6
CONTINUOUS
 62
               4
  5
2A4
 10
405.97323657067898
 20
353.62844047460112
 30
0.0
 11
405.97323657067955
 21
11.628440474600836
 31
0.0
  0
LINE
  8
0
  6
CONTINUOUS
 62
               4
  5
2A5
 10
422.40723657067883
 20
353.54252032306772
 30
0.0
 11
422.4072365706794
 21
11.628440474600836
 31
0.0
  0
LINE
  8
0
  6
CONTINUOUS
 62
               4
  5
2A6
 10
408.19023657067896
 20
354.62844047460135
 30
0.0
 11
408.19023657067953
 21
13.90021607494981
 31
0.0
  0
LINE
  8
0
  6
CONTINUOUS
 62
               4
  5
2A7
 10
420.19023657067942
 20
13.90021607494981
 30
0.0
 11
420.19023657067885
 21
354.62844047460135
 31
0.0
  0
LINE
  8
0
  6
CONTINUOUS
 62
               4
  5
2A8
 10
422.4072365706794
 20
160.62844047460118
 30
0.0
 11
405.97323657067955
 21
160.62844047460118
 31
0.0
  0
LINE
  8
0
  6
CONTINUOUS
 62
               4
  5
2A9
 10
408.19023657067953
 20
13.90021607494981
 30
0.0
 11
420.19023657067942
 21
13.90021607494981
 31
0.0
  0
LINE
  8
0
  6
CONTINUOUS
 62
               4
  5
2AA
 10
405.97323657067955
 20
11.628440474600836
 30
0.0
 11
408.19023657067953
 21
13.90021607494981
 31
0.0
  0
LINE
  8
0
  6
CONTINUOUS
 62
               4
  5
2AB
 10
420.19023657067942
 20
13.90021607494981
 30
0.0
 11
422.4072365706794
 21
11.628440474600836
 31
0.0
  0
LINE
  8
0
  6
CONTINUOUS
 62
               4
  5
2AC
 10
405.97323657067955
 20
477.62844047460112
 30
0.0
 11
405.97323657067898
 21
358.62844047460112
 31
0.0
  0
LINE
  8
0
  6
CONTINUOUS
 62
               4
  5
2AD
 10
422.4072365706794
 20
477.62844047460112
 30
0.0
 11
422.40723657067883
 21
358.62844047460112
 31
0.0
  0
LINE
  8
0
  6
CONTINUOUS
 62
               4
  5
2AE
 10
420.19023657067885
 20
357.62844047460123
 30
0.0
 11
420.19023657067942
 21
488.16409422745392
 31
0.0
  0
LINE
  8
0
  6
CONTINUOUS
 62
               4
  5
2AF
 10
408.19023657067953
 20
488.16409422745392
 30
0.0
 11
408.19023657067896
 21
357.62844047460123
 31
0.0
  0
ARC
  8
0
  6
CONTINUOUS
 62
               4
  5
2B0
 10
399.21216362415203
 20
156.33119082101956
 30
0.0
 40
59.149634972654262
 50
186.49999999989254
 51
236.78754046655169
  0
ARC
  8
0
  6
CONTINUOUS
 62
               4
  5
2B1
 10
420.11715610137367
 20
168.18020791977125
 30
0.0
 40
81.261593956721953
 50
186.49999999989257
 51
229.00792456441033
  0
ARC
  8
0
  6
CONTINUOUS
 62
               4
  5
2B2
 10
274.87152774718453
 20
83.842689095076537
 30
0.0
 40
204.24864340422488
 50
353.49999999979656
 51
373.43680216726273
  0
ARC
  8
0
  6
CONTINUOUS
 62
               4
  5
2B3
 10
312.56253751524559
 20
86.127106164484246
 30
0.0
 40
167.18634723772169
 50
351.25933879873276
 51
375.67746336832698
  0
ARC
  8
0
  6
CONTINUOUS
 62
               4
  5
2B4
 10
-864.73899227844504
 20
38.956042063138682
 30
0.0
 40
359.11818398045398
 50
13.306177675722571
 51
28.55244350160207
  0
ARC
  8
0
  6
CONTINUOUS
 62
               4
  5
2B5
 10
-586.14094989931425
 20
147.2027179657079
 30
0.0
 40
73.327111796148202
 50
342.62945642111072
 51
419.83689160537818
  0
LINE
  8
0
  6
CONTINUOUS
 62
               4
  5
2B6
 10
-642.80976342932013
 20
-0.3715595253989363
 30
0.0
 11
-528.80976342932013
 21
-0.3715595253989363
 31
0.0
  0
LINE
  8
0
  6
CONTINUOUS
 62
               4
  5
2B7
 10
-643.80976342931967
 20
0.6284404746006089
 30
0.0
 11
-527.80976342931967
 21
0.6284404746010637
 31
0.0
  0
LINE
  8
0
  6
CONTINUOUS
 62
               4
  5
2B8
 10
357.19023657067976
 20
-0.3715595253989363
 30
0.0
 11
471.19023657067976
 21
-0.3715595253989363
 31
0.0
  0
LINE
  8
0
  6
CONTINUOUS
 62
               4
  5
2B9
 10
356.19023657068021
 20
0.6284404746006089
 30
0.0
 11
472.19023657068021
 21
0.6284404746010637
 31
0.0
  0
POINT
  8
0
  6
CONTINUOUS
 62
               4
  5
2BA
 10
-332.84753247978892
 20
-477.51975500658926
 30
0.0
  0
POINT
  8
0
  6
CONTINUOUS
 62
               4
  5
2BB
 10
-623.04753247978874
 20
-477.51975500658926
 30
0.0
  0
POINT
  8
0
  6
CONTINUOUS
 62
               4
  5
2BC
 10
-435.39348987555547
 20
-369.45187093755447
 30
0.0
  0
POINT
  8
0
  6
CONTINUOUS
 62
               4
  5
2BD
 10
157.02416025656078
 20
-477.51975500658926
 30
0.0
  0
POINT
  8
0
  6
CONTINUOUS
 62
               4
  5
2BE
 10
-86.887872193925091
 20
-477.51975500658926
 30
0.0
  0
POINT
  8
0
  6
CONTINUOUS
 62
               4
  5
2BF
 10
79.568144031317956
 20
-389.56373878134667
 30
0.0
  0
LINE
  8
0
  6
CONTINUOUS
 62
               4
  5
2C0
 10
600.47675978698749
 20
-869.29909943052985
 30
0.0
 11
595.47675978698749
 21
-864.29909943052985
 31
0.0
  0
ARC
  8
0
  6
CONTINUOUS
 62
               4
  5
2C1
 10
577.97675978698749
 20
-879.83475318338265
 30
0.0
 40
19.999999999999996
 50
0.0
 51
31.788330617027277
  0
LINE
  8
0
  6
CONTINUOUS
 62
               4
  5
2C2
 10
594.97675978698794
 20
-869.29909943052985
 30
0.0
 11
594.97675978698794
 21
-864.2990994305294
 31
0.0
  0
LINE
  8
0
  6
CONTINUOUS
 62
               4
  5
2C3
 10
595.47675978698749
 20
-864.29909943052985
 30
0.0
 11
594.97675978698794
 21
-864.29909943052985
 31
0.0
  0
LINE
  8
0
  6
CONTINUOUS
 62
               4
  5
2C4
 10
600.22675978698771
 20
-869.54909943052985
 30
0.0
 11
594.97675978698794
 21
-864.29909943052985
 31
0.0
  0
LINE
  8
0
  6
CONTINUOUS
 62
               4
  5
2C5
 10
600.22675978698771
 20
-869.54909943052985
 30
0.0
 11
600.47675978698749
 21
-869.29909943052985
 31
0.0
  0
LINE
  8
0
  6
CONTINUOUS
 62
               4
  5
2C6
 10
600.47675978698749
 20
-869.29909943052985
 30
0.0
 11
600.47675978698749
 21
-999.98777678049987
 31
0.0
  0
LINE
  8
0
  6
CONTINUOUS
 62
               4
  5
2C7
 10
600.22675978698771
 20
-869.54909943052985
 30
0.0
 11
600.22675978698771
 21
-999.70241967336437
 31
0.0
  0
LINE
  8
0
  6
CONTINUOUS
 62
               4
  5
2C8
 10
597.97675978698749
 20
-879.68172958626542
 30
0.0
 11
597.97675978698749
 21
-998.83475318338265
 31
0.0
  0
POINT
  8
0
  6
CONTINUOUS
 62
               4
  5
2C9
 10
567.97675978698771
 20
-608.73531943479861
 30
0.0
  0
POINT
  8
0
  6
CONTINUOUS
 62
               4
  5
2CA
 10
379.07675978698762
 20
-894.33475318338265
 30
0.0
  0
POINT
  8
0
  6
CONTINUOUS
 62
               4
  5
2CB
 10
379.07675978698774
 20
-508.83531943479801
 30
0.0
  0
LINE
  8
0
  6
DASHED2
 62
               4
  5
2CC
 10
-142.80976342932013
 20
519.62844047460112
 30
0.0
 11
-28.809763429320363
 21
519.62844047460112
 31
0.0
  0
LINE
  8
0
  6
DASHED2
 62
               4
  5
2CD
 10
357.19023657067987
 20
519.62844047460112
 30
0.0
 11
471.19023657067964
 21
519.62844047460112
 31
0.0
  0
LINE
  8
0
  6
DASHED2
 62
               4
  5
2CE
 10
-642.80976342932058
 20
519.62844047460112
 30
0.0
 11
-528.80976342932081
 21
519.62844047460112
 31
0.0
  0
LINE
  8
0
  6
DASHED2
 62
               4
  5
2CF
 10
466.47675978698771
 20
-837.83475318338265
 30
0.0
 11
580.47675978698749
 21
-837.83475318338265
 31
0.0
  0
LINE
  8
0
  6
DASHDOT
 62
               4
  5
2D0
 10
-247.80976342932013
 20
418.62844047460106
 30
0.0
 11
-147.80976342932013
 21
418.62844047460106
 31
0.0
  0
LINE
  8
0
  6
DASHDOT
 62
               4
  5
2D1
 10
-85.809763429320242
 20
614.14197651560175
 30
0.0
 11
-85.809763429320242
 21
-120.37155952539894
 31
0.0
  0
LINE
  8
0
  6
DASHDOT
 62
               4
  5
2D2
 10
414.19023657067976
 20
604.62844047460112
 30
0.0
 11
414.19023657067976
 21
-120.37155952539894
 31
0.0
  0
LINE
  8
0
  6
DASHDOT
 62
               4
  5
2D3
 10
-517.28453865409597
 20
418.62844047460112
 30
0.0
 11
-653.98533785489531
 21
418.62844047460112
 31
0.0
  0
LINE
  8
0
  6
DASHDOT
 62
               4
  5
2D4
 10
-585.80976342932013
 20
608.523286446165
 30
0.0
 11
-585.80976342932013
 21
-120.37155952539894
 31
0.0
  0
LINE
  8
0
  6
DASHDOT
 62
               4
  5
2D5
 10
-85.809763429320242
 20
1017.6419765156018
 30
0.0
 11
-85.809763429320327
 21
811.02318798589204
 31
0.0
  0
LINE
  8
0
  6
DASHDOT
 62
               4
  5
2D6
 10
-247.80976342932013
 20
909.14197651560175
 30
0.0
 11
22.690236570679986
 21
909.14197651560175
 31
0.0
  0
LINE
  8
0
  6
DASHDOT
 62
               4
  5
2D7
 10
-477.94753247978895
 20
-586.51975500658932
 30
0.0
 11
-477.94753247978883
 21
-457.51975500658949
 31
0.0
  0
LINE
  8
0
  6
DASHDOT
 62
               4
  5
2D8
 10
-535.94753247978883
 20
-528.51975500658932
 30
0.0
 11
-419.94753247978895
 21
-528.51975500658932
 31
0.0
  0
LINE
  8
0
  6
DASHDOT
 62
               4
  5
2D9
 10
-547.75071096389638
 20
-522.01975500658932
 30
0.0
 11
-413.44753247978895
 21
-522.01975500658932
 31
0.0
  0
LINE
  8
0
  6
DASHDOT
 62
               4
  5
2DA
 10
-354.04753247978886
 20
-522.01975500658932
 30
0.0
 11
-255.44753247978895
 21
-522.01975500658932
 31
0.0
  0
LINE
  8
0
  6
DASHDOT
 62
               4
  5
2DB
 10
-388.44753247978895
 20
-528.51975500658932
 30
0.0
 11
-314.04753247978897
 21
-528.51975500658932
 31
0.0
  0
LINE
  8
0
  6
DASHDOT
 62
               4
  5
2DC
 10
-601.8475324797887
 20
-522.01975500658932
 30
0.0
 11
-700.44753247978883
 21
-522.01975500658887
 31
0.0
  0
LINE
  8
0
  6
DASHDOT
 62
               4
  5
2DD
 10
-567.44753247978883
 20
-528.51975500658932
 30
0.0
 11
-641.8475324797887
 21
-528.51975500658932
 31
0.0
  0
LINE
  8
0
  6
DASHDOT
 62
               4
  5
2DE
 10
-479.89348987555547
 20
-425.05187093755438
 30
0.0
 11
-479.89348987555547
 21
-292.05187093755438
 31
0.0
  0
LINE
  8
0
  6
DASHDOT
 62
               4
  5
2DF
 10
135.82416025656073
 20
-522.01975500658932
 30
0.0
 11
234.42416025656087
 21
-522.01975500658932
 31
0.0
  0
LINE
  8
0
  6
DASHDOT
 62
               4
  5
2E0
 10
110.82416025656073
 20
-536.51975500658932
 30
0.0
 11
175.82416025656073
 21
-536.51975500658932
 31
0.0
  0
LINE
  8
0
  6
DASHDOT
 62
               4
  5
2E1
 10
-14.931855968682271
 20
-536.51975500658932
 30
0.0
 11
85.068144031317956
 21
-536.51975500658932
 31
0.0
  0
LINE
  8
0
  6
DASHDOT
 62
               4
  5
2E2
 10
35.068144031317729
 20
-586.51975500658932
 30
0.0
 11
35.068144031317956
 21
-457.51975500658949
 31
0.0
  0
LINE
  8
0
  6
DASHDOT
 62
               4
  5
2E3
 10
-29.431855968682271
 20
-522.01975500658932
 30
0.0
 11
105.11215381126897
 21
-522.01975500658932
 31
0.0
  0
LINE
  8
0
  6
DASHDOT
 62
               4
  5
2E4
 10
-65.687872193925045
 20
-522.01975500658932
 30
0.0
 11
-164.28787219392507
 21
-522.01975500658932
 31
0.0
  0
LINE
  8
0
  6
DASHDOT
 62
               4
  5
2E5
 10
-40.687872193925045
 20
-536.51975500658932
 30
0.0
 11
-105.68787219392505
 21
-536.51975500658932
 31
0.0
  0
LINE
  8
0
  6
DASHDOT
 62
               4
  5
2E6
 10
35.068144031317956
 20
-435.76373878134672
 30
0.0
 11
35.068144031317956
 21
-312.16373878134658
 31
0.0
  0
LINE
  8
0
  6
DASHDOT
 62
               4
  5
2E7
 10
523.47675978698771
 20
-355.83531943479846
 30
0.0
 11
523.47675978698771
 21
-626.38210623462487
 31
0.0
  0
LINE
  8
0
  6
DASHDOT
 62
               4
  5
2E8
 10
361.47675978698771
 20
-464.33531943479846
 30
0.0
 11
631.97675978698794
 21
-464.33531943479846
 31
0.0
  0
LINE
  8
0
  6
DASHDOT
 62
               4
  5
2E9
 10
592.00198456221233
 20
-938.83475318338265
 30
0.0
 11
361.74814649355937
 21
-938.83475318338265
 31
0.0
  0
LINE
  8
0
  6
DASHDOT
 62
               4
  5
2EA
 10
523.47675978698771
 20
-752.83475318338265
 30
0.0
 11
523.47675978698771
 21
-1003.8347531833826
 31
0.0
  0
LINE
  8
0
  6
DASHDOT
 62
               4
  5
2EB
 10
473.47675978698771
 20
-953.33475318338265
 30
0.0
 11
573.47675978698794
 21
-953.33475318338265
 31
0.0
  0
LINE
  8
0
  6
DASHDOT
 62
               4
  5
2EC
 10
523.47675978698771
 20
-654.93531943479843
 30
0.0
 11
523.47675978698771
 21
-531.33531943479807
 31
0.0
  0
LINE
  8
0
  6
DASHDOT
 62
               4
  5
2ED
 10
323.4767597869876
 20
-945.33475318338265
 30
0.0
 11
397.87675978698758
 21
-945.33475318338265
 31
0.0
  0
LINE
  8
0
  6
DASHDOT
 62
               4
  5
2EE
 10
323.47675978698783
 20
-464.33531943479824
 30
0.0
 11
456.47675978698794
 21
-464.33531943479824
 31
0.0
  0
POINT
  8
0
  6
DASHDOT
 62
               5
  5
2EF
 10
-85.809763429320242
 20
199.62844047460106
 30
0.0
  0
POINT
  8
0
  6
CONTINUOUS
 62
               5
  5
2F0
 10
-477.94753247978895
 20
-522.01975500658932
 30
0.0
  0
POINT
  8
0
  6
CONTINUOUS
 62
               5
  5
2F1
 10
-304.71746096982861
 20
-523.31054908147848
 30
0.0
  0
POINT
  8
0
  6
CONTINUOUS
 62
               5
  5
2F2
 10
-651.17760398974906
 20
-523.31054908147803
 30
0.0
  0
POINT
  8
0
  6
CONTINUOUS
 62
               5
  5
2F3
 10
-481.18428395044452
 20
-341.32179942759416
 30
0.0
  0
POINT
  8
0
  6
CONTINUOUS
 62
               5
  5
2F4
 10
407.20683129694794
 20
-940.12554725827181
 30
0.0
  0
POINT
  8
0
  6
CONTINUOUS
 62
               5
  5
2F5
 10
407.20683129694805
 20
-463.0445253599093
 30
0.0
  0
CIRCLE
  8
0
  6
CONTINUOUS
 62
               7
  5
2F6
 10
-477.94753247978895
 20
-528.51975500658932
 30
0.0
 40
38.0
  0
CIRCLE
  8
0
  6
CONTINUOUS
 62
               7
  5
2F7
 10
-477.94753247978895
 20
-528.51975500658932
 30
0.0
 40
33.5
  0
LINE
  8
0
  6
CONTINUOUS
 62
               7
  5
2F8
 10
-333.44753247978895
 20
-477.51975500658926
 30
0.0
 11
-333.44753247978895
 21
-566.51451888591487
 31
0.0
  0
LINE
  8
0
  6
CONTINUOUS
 62
               7
  5
2F9
 10
-332.84753247978892
 20
-477.51975500658926
 30
0.0
 11
-333.44753247978895
 21
-477.51975500658926
 31
0.0
  0
LINE
  8
0
  6
CONTINUOUS
 62
               7
  5
2FA
 10
-368.44753247978895
 20
-565.51975500658932
 30
0.0
 11
-368.44753247978895
 21
-491.51975500658926
 31
0.0
  0
LINE
  8
0
  6
CONTINUOUS
 62
               7
  5
2FB
 10
-275.44753247978895
 20
-565.51975500658932
 30
0.0
 11
-275.44753247978895
 21
-478.51975500658926
 31
0.0
  0
LINE
  8
0
  6
CONTINUOUS
 62
               7
  5
2FC
 10
-333.44753247978895
 20
-477.51975500658926
 30
0.0
 11
-276.44753247978895
 21
-477.51975500658926
 31
0.0
  0
LINE
  8
0
  6
CONTINUOUS
 62
               7
  5
2FD
 10
-367.44753247978895
 20
-566.51975500658932
 30
0.0
 11
-276.44753247978895
 21
-566.51975500658932
 31
0.0
  0
LINE
  8
0
  6
CONTINUOUS
 62
               7
  5
2FE
 10
-276.44753247978895
 20
-477.51975500658926
 30
0.0
 11
-275.44753247978895
 21
-478.51975500658926
 31
0.0
  0
LINE
  8
0
  6
CONTINUOUS
 62
               7
  5
2FF
 10
-275.44753247978895
 20
-565.51975500658932
 30
0.0
 11
-276.44753247978895
 21
-566.51975500658932
 31
0.0
  0
LINE
  8
0
  6
CONTINUOUS
 62
               7
  5
300
 10
-367.44753247978895
 20
-490.51975500658926
 30
0.0
 11
-333.44753247978895
 21
-490.51975500658926
 31
0.0
  0
CIRCLE
  8
0
  6
CONTINUOUS
 62
               7
  5
301
 10
-477.94753247978895
 20
-522.01975500658932
 30
0.0
 40
44.5
  0
LINE
  8
0
  6
CONTINUOUS
 62
               7
  5
302
 10
-367.44753247978895
 20
-490.51975500658926
 30
0.0
 11
-368.44753247978895
 21
-491.51975500658926
 31
0.0
  0
LINE
  8
0
  6
CONTINUOUS
 62
               7
  5
303
 10
-368.44753247978895
 20
-565.51975500658932
 30
0.0
 11
-367.44753247978895
 21
-566.51975500658932
 31
0.0
  0
LINE
  8
0
  6
CONTINUOUS
 62
               7
  5
304
 10
-622.44753247978883
 20
-477.51975500658926
 30
0.0
 11
-622.44753247978883
 21
-566.51451888591487
 31
0.0
  0
LINE
  8
0
  6
CONTINUOUS
 62
               7
  5
305
 10
-623.04753247978874
 20
-477.51975500658926
 30
0.0
 11
-622.44753247978883
 21
-477.51975500658926
 31
0.0
  0
LINE
  8
0
  6
CONTINUOUS
 62
               7
  5
306
 10
-587.44753247978883
 20
-565.51975500658932
 30
0.0
 11
-587.44753247978883
 21
-491.51975500658926
 31
0.0
  0
LINE
  8
0
  6
CONTINUOUS
 62
               7
  5
307
 10
-680.44753247978883
 20
-565.51975500658932
 30
0.0
 11
-680.44753247978883
 21
-478.51975500658926
 31
0.0
  0
LINE
  8
0
  6
CONTINUOUS
 62
               7
  5
308
 10
-622.44753247978883
 20
-477.51975500658926
 30
0.0
 11
-679.44753247978883
 21
-477.51975500658926
 31
0.0
  0
LINE
  8
0
  6
CONTINUOUS
 62
               7
  5
309
 10
-588.44753247978883
 20
-566.51975500658932
 30
0.0
 11
-679.44753247978883
 21
-566.51975500658932
 31
0.0
  0
LINE
  8
0
  6
CONTINUOUS
 62
               7
  5
30A
 10
-679.44753247978883
 20
-477.51975500658926
 30
0.0
 11
-680.44753247978883
 21
-478.51975500658926
 31
0.0
  0
LINE
  8
0
  6
CONTINUOUS
 62
               7
  5
30B
 10
-680.44753247978883
 20
-565.51975500658932
 30
0.0
 11
-679.44753247978883
 21
-566.51975500658932
 31
0.0
  0
LINE
  8
0
  6
CONTINUOUS
 62
               7
  5
30C
 10
-588.44753247978883
 20
-490.51975500658926
 30
0.0
 11
-622.44753247978883
 21
-490.51975500658926
 31
0.0
  0
LINE
  8
0
  6
CONTINUOUS
 62
               7
  5
30D
 10
-588.44753247978883
 20
-490.51975500658926
 30
0.0
 11
-587.44753247978883
 21
-491.51975500658926
 31
0.0
  0
LINE
  8
0
  6
CONTINUOUS
 62
               7
  5
30E
 10
-587.44753247978883
 20
-565.51975500658932
 30
0.0
 11
-588.44753247978883
 21
-566.51975500658932
 31
0.0
  0
LINE
  8
0
  6
CONTINUOUS
 62
               7
  5
30F
 10
-435.39348987555547
 20
-370.05187093755461
 30
0.0
 11
-524.38825375488091
 21
-370.05187093755438
 31
0.0
  0
LINE
  8
0
  6
CONTINUOUS
 62
               7
  5
310
 10
-435.39348987555547
 20
-369.45187093755447
 30
0.0
 11
-435.39348987555547
 21
-370.05187093755461
 31
0.0
  0
LINE
  8
0
  6
CONTINUOUS
 62
               7
  5
311
 10
-516.89348987555536
 20
-405.05187093755438
 30
0.0
 11
-442.89348987555547
 21
-405.05187093755461
 31
0.0
  0
LINE
  8
0
  6
CONTINUOUS
 62
               7
  5
312
 10
-523.39348987555536
 20
-312.05187093755438
 30
0.0
 11
-436.39348987555547
 21
-312.05187093755461
 31
0.0
  0
LINE
  8
0
  6
CONTINUOUS
 62
               7
  5
313
 10
-435.39348987555547
 20
-370.05187093755461
 30
0.0
 11
-435.39348987555547
 21
-313.05187093755461
 31
0.0
  0
LINE
  8
0
  6
CONTINUOUS
 62
               7
  5
314
 10
-517.89348987555536
 20
-404.05187093755438
 30
0.0
 11
-517.89348987555536
 21
-370.05187093755438
 31
0.0
  0
LINE
  8
0
  6
CONTINUOUS
 62
               7
  5
315
 10
-435.39348987555547
 20
-313.05187093755461
 30
0.0
 11
-436.39348987555547
 21
-312.05187093755461
 31
0.0
  0
LINE
  8
0
  6
CONTINUOUS
 62
               7
  5
316
 10
-523.39348987555536
 20
-312.05187093755438
 30
0.0
 11
-524.39348987555536
 21
-313.05187093755438
 31
0.0
  0
LINE
  8
0
  6
CONTINUOUS
 62
               7
  5
317
 10
-441.89348987555547
 20
-404.05187093755461
 30
0.0
 11
-441.89348987555547
 21
-370.05187093755438
 31
0.0
  0
LINE
  8
0
  6
CONTINUOUS
 62
               7
  5
318
 10
-441.89348987555547
 20
-404.05187093755461
 30
0.0
 11
-442.89348987555547
 21
-405.05187093755461
 31
0.0
  0
LINE
  8
0
  6
CONTINUOUS
 62
               7
  5
319
 10
-516.89348987555536
 20
-405.05187093755438
 30
0.0
 11
-517.89348987555536
 21
-404.05187093755438
 31
0.0
  0
LINE
  8
0
  6
CONTINUOUS
 62
               7
  5
31A
 10
-524.39348987555536
 20
-370.05187093755438
 30
0.0
 11
-524.39348987555536
 21
-313.05187093755438
 31
0.0
  0
LINE
  8
0
  6
CONTINUOUS
 62
               7
  5
31B
 10
130.82416025656073
 20
-565.51975500658932
 30
0.0
 11
130.82416025656073
 21
-507.51975500658926
 31
0.0
  0
LINE
  8
0
  6
CONTINUOUS
 62
               7
  5
31C
 10
156.42416025656064
 20
-477.51975500658926
 30
0.0
 11
156.42416025656064
 21
-566.51975500658932
 31
0.0
  0
LINE
  8
0
  6
CONTINUOUS
 62
               7
  5
31D
 10
157.02416025656078
 20
-477.51975500658926
 30
0.0
 11
156.42416025656064
 21
-477.51975500658926
 31
0.0
  0
LINE
  8
0
  6
CONTINUOUS
 62
               7
  5
31E
 10
214.42416025656087
 20
-565.51975500658932
 30
0.0
 11
214.42416025656087
 21
-478.51975500658926
 31
0.0
  0
CIRCLE
  8
0
  6
CONTINUOUS
 62
               7
  5
31F
 10
35.068144031317729
 20
-536.51975500658932
 30
0.0
 40
30.0
  0
CIRCLE
  8
0
  6
CONTINUOUS
 62
               7
  5
320
 10
35.068144031317729
 20
-536.51975500658932
 30
0.0
 40
25.5
  0
CIRCLE
  8
0
  6
CONTINUOUS
 62
               7
  5
321
 10
35.068144031317729
 20
-522.01975500658932
 30
0.0
 40
44.5
  0
LINE
  8
0
  6
CONTINUOUS
 62
               7
  5
322
 10
156.55861200204106
 20
-477.51975500658926
 30
0.0
 11
213.42416025656087
 21
-477.51975500658926
 31
0.0
  0
LINE
  8
0
  6
CONTINUOUS
 62
               7
  5
323
 10
131.82416025656073
 20
-566.51975500658932
 30
0.0
 11
213.42416025656087
 21
-566.51975500658932
 31
0.0
  0
LINE
  8
0
  6
CONTINUOUS
 62
               7
  5
324
 10
131.82416025656073
 20
-506.51975500658926
 30
0.0
 11
156.42416025656064
 21
-506.51975500658926
 31
0.0
  0
LINE
  8
0
  6
CONTINUOUS
 62
               7
  5
325
 10
131.82416025656073
 20
-506.51975500658926
 30
0.0
 11
130.82416025656073
 21
-507.51975500658926
 31
0.0
  0
LINE
  8
0
  6
CONTINUOUS
 62
               7
  5
326
 10
213.42416025656087
 20
-477.51975500658926
 30
0.0
 11
214.42416025656087
 21
-478.51975500658926
 31
0.0
  0
LINE
  8
0
  6
CONTINUOUS
 62
               7
  5
327
 10
130.82416025656073
 20
-565.51975500658932
 30
0.0
 11
131.82416025656073
 21
-566.51975500658932
 31
0.0
  0
LINE
  8
0
  6
CONTINUOUS
 62
               7
  5
328
 10
214.42416025656087
 20
-565.51975500658932
 30
0.0
 11
213.42416025656087
 21
-566.51975500658932
 31
0.0
  0
LINE
  8
0
  6
CONTINUOUS
 62
               7
  5
329
 10
-60.687872193925045
 20
-565.51975500658932
 30
0.0
 11
-60.687872193925045
 21
-507.51975500658926
 31
0.0
  0
LINE
  8
0
  6
CONTINUOUS
 62
               7
  5
32A
 10
-86.287872193925068
 20
-477.51975500658926
 30
0.0
 11
-86.287872193925068
 21
-566.51975500658932
 31
0.0
  0
LINE
  8
0
  6
CONTINUOUS
 62
               7
  5
32B
 10
-86.887872193925091
 20
-477.51975500658926
 30
0.0
 11
-86.287872193925068
 21
-477.51975500658926
 31
0.0
  0
LINE
  8
0
  6
CONTINUOUS
 62
               7
  5
32C
 10
-144.28787219392507
 20
-565.51975500658932
 30
0.0
 11
-144.28787219392507
 21
-478.51975500658926
 31
0.0
  0
LINE
  8
0
  6
CONTINUOUS
 62
               7
  5
32D
 10
-86.422323939405373
 20
-477.51975500658926
 30
0.0
 11
-143.28787219392507
 21
-477.51975500658926
 31
0.0
  0
LINE
  8
0
  6
CONTINUOUS
 62
               7
  5
32E
 10
-61.687872193925045
 20
-566.51975500658932
 30
0.0
 11
-143.28787219392507
 21
-566.51975500658932
 31
0.0
  0
LINE
  8
0
  6
CONTINUOUS
 62
               7
  5
32F
 10
-61.687872193925045
 20
-506.51975500658926
 30
0.0
 11
-86.287872193925068
 21
-506.51975500658926
 31
0.0
  0
LINE
  8
0
  6
CONTINUOUS
 62
               7
  5
330
 10
-61.687872193925045
 20
-506.51975500658926
 30
0.0
 11
-60.687872193925045
 21
-507.51975500658926
 31
0.0
  0
LINE
  8
0
  6
CONTINUOUS
 62
               7
  5
331
 10
-143.28787219392507
 20
-477.51975500658926
 30
0.0
 11
-144.28787219392507
 21
-478.51975500658926
 31
0.0
  0
LINE
  8
0
  6
CONTINUOUS
 62
               7
  5
332
 10
-60.687872193925045
 20
-565.51975500658932
 30
0.0
 11
-61.687872193925045
 21
-566.51975500658932
 31
0.0
  0
LINE
  8
0
  6
CONTINUOUS
 62
               7
  5
333
 10
-144.28787219392507
 20
-565.51975500658932
 30
0.0
 11
-143.28787219392507
 21
-566.51975500658932
 31
0.0
  0
LINE
  8
0
  6
CONTINUOUS
 62
               7
  5
334
 10
6.0681440313179564
 20
-415.76373878134672
 30
0.0
 11
64.068144031317956
 21
-415.76373878134672
 31
0.0
  0
LINE
  8
0
  6
CONTINUOUS
 62
               7
  5
335
 10
79.568144031317956
 20
-390.16373878134658
 30
0.0
 11
-9.4318559686820436
 21
-390.16373878134658
 31
0.0
  0
LINE
  8
0
  6
CONTINUOUS
 62
               7
  5
336
 10
79.568144031317956
 20
-389.56373878134667
 30
0.0
 11
79.568144031317956
 21
-390.16373878134658
 31
0.0
  0
LINE
  8
0
  6
CONTINUOUS
 62
               7
  5
337
 10
-8.4318559686820436
 20
-332.16373878134658
 30
0.0
 11
78.568144031317956
 21
-332.16373878134658
 31
0.0
  0
LINE
  8
0
  6
CONTINUOUS
 62
               7
  5
338
 10
79.568144031317956
 20
-390.02928703586639
 30
0.0
 11
79.568144031317956
 21
-333.16373878134658
 31
0.0
  0
LINE
  8
0
  6
CONTINUOUS
 62
               7
  5
339
 10
5.0681440313179564
 20
-414.76373878134672
 30
0.0
 11
5.0681440313179564
 21
-390.16373878134658
 31
0.0
  0
LINE
  8
0
  6
CONTINUOUS
 62
               7
  5
33A
 10
65.068144031317956
 20
-414.76373878134672
 30
0.0
 11
65.068144031317956
 21
-390.16373878134658
 31
0.0
  0
LINE
  8
0
  6
CONTINUOUS
 62
               7
  5
33B
 10
65.068144031317956
 20
-414.76373878134672
 30
0.0
 11
64.068144031317956
 21
-415.76373878134672
 31
0.0
  0
LINE
  8
0
  6
CONTINUOUS
 62
               7
  5
33C
 10
79.568144031317956
 20
-333.16373878134658
 30
0.0
 11
78.568144031317956
 21
-332.16373878134658
 31
0.0
  0
LINE
  8
0
  6
CONTINUOUS
 62
               7
  5
33D
 10
6.0681440313179564
 20
-415.76373878134672
 30
0.0
 11
5.0681440313179564
 21
-414.76373878134672
 31
0.0
  0
LINE
  8
0
  6
CONTINUOUS
 62
               7
  5
33E
 10
-8.4318559686820436
 20
-332.16373878134658
 30
0.0
 11
-9.4318559686820436
 21
-333.16373878134658
 31
0.0
  0
LINE
  8
0
  6
CONTINUOUS
 62
               7
  5
33F
 10
-9.4318559686820436
 20
-390.02928703586616
 30
0.0
 11
-9.4318559686820436
 21
-333.16373878134658
 31
0.0
  0
CIRCLE
  8
0
  6
CONTINUOUS
 62
               7
  5
340
 10
523.47675978698771
 20
-953.33475318338265
 30
0.0
 40
25.5
  0
CIRCLE
  8
0
  6
CONTINUOUS
 62
               7
  5
341
 10
523.47675978698771
 20
-938.83475318338265
 30
0.0
 40
44.5
  0
CIRCLE
  8
0
  6
CONTINUOUS
 62
               7
  5
342
 10
523.47675978698771
 20
-953.33475318338265
 30
0.0
 40
30.0
  0
LINE
  8
0
  6
CONTINUOUS
 62
               7
  5
343
 10
494.47675978698771
 20
-634.93531943479843
 30
0.0
 11
552.47675978698771
 21
-634.93531943479843
 31
0.0
  0
LINE
  8
0
  6
CONTINUOUS
 62
               7
  5
344
 10
567.97675978698771
 20
-609.33531943479852
 30
0.0
 11
478.97675978698771
 21
-609.33531943479852
 31
0.0
  0
LINE
  8
0
  6
CONTINUOUS
 62
               7
  5
345
 10
567.97675978698771
 20
-608.73531943479861
 30
0.0
 11
567.97675978698771
 21
-609.33531943479852
 31
0.0
  0
LINE
  8
0
  6
CONTINUOUS
 62
               7
  5
346
 10
479.97675978698771
 20
-551.33531943479807
 30
0.0
 11
566.97675978698771
 21
-551.33531943479807
 31
0.0
  0
LINE
  8
0
  6
CONTINUOUS
 62
               7
  5
347
 10
567.97675978698771
 20
-609.2008676893181
 30
0.0
 11
567.97675978698771
 21
-552.33531943479807
 31
0.0
  0
LINE
  8
0
  6
CONTINUOUS
 62
               7
  5
348
 10
493.47675978698771
 20
-633.93531943479843
 30
0.0
 11
493.47675978698771
 21
-609.33531943479852
 31
0.0
  0
LINE
  8
0
  6
CONTINUOUS
 62
               7
  5
349
 10
553.47675978698771
 20
-633.93531943479843
 30
0.0
 11
553.47675978698771
 21
-609.33531943479852
 31
0.0
  0
LINE
  8
0
  6
CONTINUOUS
 62
               7
  5
34A
 10
553.47675978698771
 20
-633.93531943479843
 30
0.0
 11
552.47675978698771
 21
-634.93531943479843
 31
0.0
  0
LINE
  8
0
  6
CONTINUOUS
 62
               7
  5
34B
 10
567.97675978698771
 20
-552.33531943479807
 30
0.0
 11
566.97675978698771
 21
-551.33531943479807
 31
0.0
  0
LINE
  8
0
  6
CONTINUOUS
 62
               7
  5
34C
 10
494.47675978698771
 20
-634.93531943479843
 30
0.0
 11
493.47675978698771
 21
-633.93531943479843
 31
0.0
  0
LINE
  8
0
  6
CONTINUOUS
 62
               7
  5
34D
 10
479.97675978698771
 20
-551.33531943479807
 30
0.0
 11
478.97675978698771
 21
-552.33531943479807
 31
0.0
  0
LINE
  8
0
  6
CONTINUOUS
 62
               7
  5
34E
 10
478.97675978698771
 20
-609.2008676893181
 30
0.0
 11
478.97675978698771
 21
-552.33531943479807
 31
0.0
  0
LINE
  8
0
  6
CONTINUOUS
 62
               7
  5
34F
 10
378.4767597869876
 20
-894.33475318338265
 30
0.0
 11
378.4767597869876
 21
-983.32951706270819
 31
0.0
  0
LINE
  8
0
  6
CONTINUOUS
 62
               7
  5
350
 10
379.07675978698762
 20
-894.33475318338265
 30
0.0
 11
378.4767597869876
 21
-894.33475318338265
 31
0.0
  0
LINE
  8
0
  6
CONTINUOUS
 62
               7
  5
351
 10
343.4767597869876
 20
-982.33475318338265
 30
0.0
 11
343.4767597869876
 21
-908.33475318338265
 31
0.0
  0
LINE
  8
0
  6
CONTINUOUS
 62
               7
  5
352
 10
436.47675978698771
 20
-982.33475318338265
 30
0.0
 11
436.47675978698771
 21
-895.33475318338265
 31
0.0
  0
LINE
  8
0
  6
CONTINUOUS
 62
               7
  5
353
 10
378.4767597869876
 20
-894.33475318338265
 30
0.0
 11
435.47675978698771
 21
-894.33475318338265
 31
0.0
  0
LINE
  8
0
  6
CONTINUOUS
 62
               7
  5
354
 10
344.4767597869876
 20
-983.33475318338265
 30
0.0
 11
435.47675978698771
 21
-983.33475318338265
 31
0.0
  0
LINE
  8
0
  6
CONTINUOUS
 62
               7
  5
355
 10
435.47675978698771
 20
-894.33475318338265
 30
0.0
 11
436.47675978698771
 21
-895.33475318338265
 31
0.0
  0
LINE
  8
0
  6
CONTINUOUS
 62
               7
  5
356
 10
436.47675978698771
 20
-982.33475318338265
 30
0.0
 11
435.47675978698771
 21
-983.33475318338265
 31
0.0
  0
LINE
  8
0
  6
CONTINUOUS
 62
               7
  5
357
 10
344.4767597869876
 20
-907.33475318338265
 30
0.0
 11
378.4767597869876
 21
-907.33475318338265
 31
0.0
  0
LINE
  8
0
  6
CONTINUOUS
 62
               7
  5
358
 10
344.4767597869876
 20
-907.33475318338265
 30
0.0
 11
343.4767597869876
 21
-908.33475318338265
 31
0.0
  0
LINE
  8
0
  6
CONTINUOUS
 62
               7
  5
359
 10
343.4767597869876
 20
-982.33475318338265
 30
0.0
 11
344.4767597869876
 21
-983.33475318338265
 31
0.0
  0
LINE
  8
0
  6
CONTINUOUS
 62
               7
  5
35A
 10
378.4767597869876
 20
-508.83531943479801
 30
0.0
 11
378.47675978698783
 21
-419.84055555547269
 31
0.0
  0
LINE
  8
0
  6
CONTINUOUS
 62
               7
  5
35B
 10
379.07675978698774
 20
-508.83531943479801
 30
0.0
 11
378.4767597869876
 21
-508.83531943479801
 31
0.0
  0
LINE
  8
0
  6
CONTINUOUS
 62
               7
  5
35C
 10
343.47675978698783
 20
-427.33531943479824
 30
0.0
 11
343.4767597869876
 21
-501.33531943479801
 31
0.0
  0
LINE
  8
0
  6
CONTINUOUS
 62
               7
  5
35D
 10
436.47675978698794
 20
-420.83531943479846
 30
0.0
 11
436.47675978698771
 21
-507.83531943479801
 31
0.0
  0
LINE
  8
0
  6
CONTINUOUS
 62
               7
  5
35E
 10
378.4767597869876
 20
-508.83531943479801
 30
0.0
 11
435.47675978698771
 21
-508.83531943479801
 31
0.0
  0
LINE
  8
0
  6
CONTINUOUS
 62
               7
  5
35F
 10
344.47675978698783
 20
-426.33531943479824
 30
0.0
 11
378.47675978698783
 21
-426.33531943479824
 31
0.0
  0
LINE
  8
0
  6
CONTINUOUS
 62
               7
  5
360
 10
435.47675978698771
 20
-508.83531943479801
 30
0.0
 11
436.47675978698771
 21
-507.83531943479801
 31
0.0
  0
LINE
  8
0
  6
CONTINUOUS
 62
               7
  5
361
 10
436.47675978698794
 20
-420.83531943479846
 30
0.0
 11
435.47675978698794
 21
-419.83531943479846
 31
0.0
  0
LINE
  8
0
  6
CONTINUOUS
 62
               7
  5
362
 10
344.4767597869876
 20
-502.33531943479801
 30
0.0
 11
378.47675978698783
 21
-502.33531943479801
 31
0.0
  0
LINE
  8
0
  6
CONTINUOUS
 62
               7
  5
363
 10
344.4767597869876
 20
-502.33531943479801
 30
0.0
 11
343.4767597869876
 21
-501.33531943479801
 31
0.0
  0
LINE
  8
0
  6
CONTINUOUS
 62
               7
  5
364
 10
343.47675978698783
 20
-427.33531943479824
 30
0.0
 11
344.47675978698783
 21
-426.33531943479824
 31
0.0
  0
LINE
  8
0
  6
CONTINUOUS
 62
               7
  5
365
 10
378.47675978698783
 20
-419.83531943479824
 30
0.0
 11
435.47675978698794
 21
-419.83531943479824
 31
0.0
  0
CIRCLE
  8
0
  6
DASHED
 62
               7
  5
366
 10
-477.94753247978895
 20
-522.01975500658932
 30
0.0
 40
40.0
  0
CIRCLE
  8
0
  6
DASHED
 62
               7
  5
367
 10
35.068144031317729
 20
-522.01975500658932
 30
0.0
 40
40.0
  0
CIRCLE
  8
0
  6
DASHED
 62
               7
  5
368
 10
523.47675978698771
 20
-938.83475318338265
 30
0.0
 40
40.0
  0
TEXT
  8
0
 62
               3
  5
369
 10
-477.94753247978895
 20
-606.51975500658932
 30
0.0
 40
40.0
  1
EMB_80×65
 41
0.8
 72
               1
 11
-477.94753247978895
 21
-606.51975500658932
 31
0.0
 73
               3
  0
TEXT
  8
0
 62
               3
  5
36A
 10
35.068144031317729
 20
-606.51975500658932
 30
0.0
 40
40.0
  1
EMB_80×50
 41
0.8
 72
               1
 11
35.068144031317729
 21
-606.51975500658932
 31
0.0
 73
               3
  0
TEXT
  8
0
 62
               3
  5
36B
 10
519.77935580934741
 20
-284.88895092957904
 30
0.0
 40
40.0
  1
EMB使用例
 41
0.8
 72
               1
 11
519.77935580934741
 21
-284.88895092957904
 31
0.0
 73
               3
  0
TEXT
  8
0
 62
               3
  5
36C
 10
-209.55246752021114
 20
-230.52881502923964
 30
0.0
 40
35.0
  1
横枝管に呼び６５、５０の管を接続するときは、EMBをご使用ください。
 41
0.8
 72
               1
 11
-209.55246752021114
 21
-230.52881502923964
 31
0.0
 73
               3
  0
ENDSEC
  0
EOF
