  0
SECTION
  2
HEADER
  9
$ACADVER
  1
AC1009
  9
$INSBASE
 10
0.0
 20
0.0
 30
0.0
  9
$EXTMIN
 10
-686.71226690395088
 20
-172.04479150489846
 30
0.0
  9
$EXTMAX
 10
329.36773309604899
 20
1046.3152084951016
 30
0.0
  9
$LIMMIN
 10
-718.46476690395093
 20
-210.11854150489847
  9
$LIMMAX
 10
361.12023309604899
 20
1084.3889584951016
  9
$ORTHOMODE
 70
               0
  9
$REGENMODE
 70
               1
  9
$FILLMODE
 70
               1
  9
$QTEXTMODE
 70
               0
  9
$MIRRTEXT
 70
               1
  9
$DRAGMODE
 70
               2
  9
$LTSCALE
 40
1.0
  9
$OSMODE
 70
               0
  9
$ATTMODE
 70
               1
  9
$TEXTSIZE
 40
0.2
  9
$TRACEWID
 40
0.05
  9
$TEXTSTYLE
  7
STANDARD
  9
$CLAYER
  8
0
  9
$CELTYPE
  6
CONTINUOUS
  9
$CECOLOR
 62
             256
  9
$DIMSCALE
 40
1.0
  9
$DIMASZ
 40
0.18
  9
$DIMEXO
 40
0.0625
  9
$DIMDLI
 40
0.38
  9
$DIMRND
 40
0.0
  9
$DIMDLE
 40
0.0
  9
$DIMEXE
 40
0.18
  9
$DIMTP
 40
0.0
  9
$DIMTM
 40
0.0
  9
$DIMTXT
 40
0.18
  9
$DIMCEN
 40
0.09
  9
$DIMTSZ
 40
0.0
  9
$DIMTOL
 70
               0
  9
$DIMLIM
 70
               0
  9
$DIMTIH
 70
               1
  9
$DIMTOH
 70
               1
  9
$DIMSE1
 70
               0
  9
$DIMSE2
 70
               0
  9
$DIMTAD
 70
               0
  9
$DIMZIN
 70
               0
  9
$DIMBLK
  1

  9
$DIMASO
 70
               1
  9
$DIMSHO
 70
               1
  9
$DIMPOST
  1

  9
$DIMAPOST
  1

  9
$DIMALT
 70
               0
  9
$DIMALTD
 70
               2
  9
$DIMALTF
 40
25.399999999999999
  9
$DIMLFAC
 40
1.0
  9
$DIMTOFL
 70
               0
  9
$DIMTVP
 40
0.0
  9
$DIMTIX
 70
               0
  9
$DIMSOXD
 70
               0
  9
$DIMSAH
 70
               0
  9
$DIMBLK1
  1

  9
$DIMBLK2
  1

  9
$DIMSTYLE
  2
STANDARD
  9
$DIMCLRD
 70
               0
  9
$DIMCLRE
 70
               0
  9
$DIMCLRT
 70
               0
  9
$DIMTFAC
 40
1.0
  9
$DIMGAP
 40
0.09
  9
$LUNITS
 70
               2
  9
$LUPREC
 70
               4
  9
$AXISMODE
 70
               0
  9
$AXISUNIT
 10
0.0
 20
0.0
  9
$SKETCHINC
 40
0.1
  9
$FILLETRAD
 40
0.0
  9
$AUNITS
 70
               0
  9
$AUPREC
 70
               0
  9
$MENU
  1
acad
  9
$ELEVATION
 40
0.0
  9
$PELEVATION
 40
0.0
  9
$THICKNESS
 40
0.0
  9
$LIMCHECK
 70
               0
  9
$BLIPMODE
 70
               1
  9
$CHAMFERA
 40
0.0
  9
$CHAMFERB
 40
0.0
  9
$SKPOLY
 70
               0
  9
$TDCREATE
 40
0.000000000
  9
$TDUPDATE
 40
0.000000000
  9
$TDINDWG
 40
0.0000000000
  9
$TDUSRTIMER
 40
0.0000000000
  9
$USRTIMER
 70
               1
  9
$ANGBASE
 50
0.0
  9
$ANGDIR
 70
               0
  9
$PDMODE
 70
               0
  9
$PDSIZE
 40
1.0
  9
$PLINEWID
 40
0.0
  9
$COORDS
 70
               1
  9
$SPLFRAME
 70
               0
  9
$SPLINETYPE
 70
               6
  9
$SPLINESEGS
 70
               8
  9
$ATTDIA
 70
               0
  9
$ATTREQ
 70
               1
  9
$HANDLING
 70
               1
  9
$HANDSEED
  5
254
  9
$SURFTAB1
 70
               6
  9
$SURFTAB2
 70
               6
  9
$SURFTYPE
 70
               6
  9
$SURFU
 70
               6
  9
$SURFV
 70
               6
  9
$UCSNAME
  2

  9
$UCSORG
 10
0.0
 20
0.0
 30
0.0
  9
$UCSXDIR
 10
1.0
 20
0.0
 30
0.0
  9
$UCSYDIR
 10
0.0
 20
1.0
 30
0.0
  9
$PUCSNAME
  2

  9
$PUCSORG
 10
0.0
 20
0.0
 30
0.0
  9
$PUCSXDIR
 10
1.0
 20
0.0
 30
0.0
  9
$PUCSYDIR
 10
0.0
 20
1.0
 30
0.0
  9
$USERI1
 70
               0
  9
$USERI2
 70
               0
  9
$USERI3
 70
               0
  9
$USERI4
 70
               0
  9
$USERI5
 70
               0
  9
$USERR1
 40
0.0
  9
$USERR2
 40
0.0
  9
$USERR3
 40
0.0
  9
$USERR4
 40
0.0
  9
$USERR5
 40
0.0
  9
$WORLDVIEW
 70
               1
  9
$SHADEDGE
 70
               3
  9
$SHADEDIF
 70
              70
  9
$TILEMODE
 70
               1
  9
$MAXACTVP
 70
              16
  9
$PINSBASE
 10
0.0
 20
0.0
 30
0.0
  9
$PLIMCHECK
 70
               0
  9
$PEXTMIN
 10
1.0000000000000000E+20
 20
1.0000000000000000E+20
 30
1.0000000000000000E+20
  9
$PEXTMAX
 10
-1.0000000000000000E+20
 20
-1.0000000000000000E+20
 30
-1.0000000000000000E+20
  9
$PLIMMIN
 10
0.0
 20
0.0
  9
$PLIMMAX
 10
12.0
 20
9.0
  9
$UNITMODE
 70
               0
  9
$VISRETAIN
 70
               0
  9
$PLINEGEN
 70
               1
  9
$PSLTSCALE
 70
               0
  9
$TREEDEPTH
 70
            3020
  9
$DWGCODEPAGE
  3
dos932
  0
ENDSEC
  0
SECTION
  2
TABLES
  0
TABLE
  2
VPORT
 70
               1
  0
VPORT
  2
*ACTIVE
 70
               0
 10
0.0
 20
0.0
 11
1.0
 21
1.0
 12
-178.67226690395097
 22
437.13520849510155
 13
0.0
 23
0.0
 14
1.0
 24
1.0
 15
0.0
 25
0.0
 16
0.0
 26
0.0
 36
1.0
 17
0.0
 27
0.0
 37
0.0
 40
1294.5075000000002
 41
0.8339735381988902
 42
50.0
 43
0.0
 44
0.0
 50
0.0
 51
0.0
 71
               0
 72
             100
 73
               1
 74
               1
 75
               0
 76
               0
 77
               0
 78
               0
  0
ENDTAB
  0
TABLE
  2
LTYPE
 70
              26
  0
LTYPE
  2
CONTINUOUS
 70
               0
  3
Solid line
 72
              65
 73
               0
 40
0.0
  0
LTYPE
  2
HIDDENX2
 70
               0
  3
CADPAC FUSION LINETYPE
 72
              65
 73
               2
 40
47.560000000000002
 49
35.670000000000002
 49
-11.890000000000001
  0
LTYPE
  2
HIDDEN
 70
               0
  3
CADPAC FUSION LINETYPE
 72
              65
 73
               2
 40
35.670000000000002
 49
23.780000000000001
 49
-11.890000000000001
  0
LTYPE
  2
HIDDEN2
 70
               0
  3
CADPAC FUSION LINETYPE
 72
              65
 73
               2
 40
29.725000000000001
 49
17.835000000000001
 49
-11.890000000000001
  0
LTYPE
  2
DASHED
 70
               0
  3
CADPAC FUSION LINETYPE
 72
              65
 73
               2
 40
35.670000000000002
 49
23.780000000000001
 49
-11.890000000000001
  0
LTYPE
  2
DASHED2
 70
               0
  3
CADPAC FUSION LINETYPE
 72
              65
 73
               2
 40
26.752500000000001
 49
17.835000000000001
 49
-8.9175000000000004
  0
LTYPE
  2
DASHEDX2
 70
               0
  3
CADPAC FUSION LINETYPE
 72
              65
 73
               2
 40
53.505000000000003
 49
35.670000000000002
 49
-17.835000000000001
  0
LTYPE
  2
DOTX2
 70
               0
  3
CADPAC FUSION LINETYPE
 72
              65
 73
               2
 40
14.862500000000001
 49
0.0
 49
-14.862500000000001
  0
LTYPE
  2
DOT
 70
               0
  3
CADPAC FUSION LINETYPE
 72
              65
 73
               2
 40
11.890000000000001
 49
0.0
 49
-11.890000000000001
  0
LTYPE
  2
DOTS
 70
               0
  3
CADPAC FUSION LINETYPE
 72
              65
 73
               2
 40
11.890000000000001
 49
0.0
 49
-11.890000000000001
  0
LTYPE
  2
DOT2
 70
               0
  3
CADPAC FUSION LINETYPE
 72
              65
 73
               2
 40
8.9175000000000004
 49
0.0
 49
-8.9175000000000004
  0
LTYPE
  2
CENTERX2
 70
               0
  3
CADPAC FUSION LINETYPE
 72
              65
 73
               4
 40
71.340000000000003
 49
29.725000000000001
 49
-14.862500000000001
 49
11.890000000000001
 49
-14.862500000000001
  0
LTYPE
  2
CENTER
 70
               0
  3
CADPAC FUSION LINETYPE
 72
              65
 73
               4
 40
54.694000000000003
 49
23.780000000000001
 49
-11.890000000000001
 49
7.1340000000000003
 49
-11.890000000000001
  0
LTYPE
  2
CENTER2
 70
               0
  3
CADPAC FUSION LINETYPE
 72
              65
 73
               4
 40
38.048000000000002
 49
17.835000000000001
 49
-8.9175000000000004
 49
2.3780000000000001
 49
-8.9175000000000004
  0
LTYPE
  2
DASHDOTX2
 70
               0
  3
CADPAC FUSION LINETYPE
 72
              65
 73
               4
 40
59.450000000000003
 49
29.725000000000001
 49
-14.862500000000001
 49
0.0
 49
-14.862500000000001
  0
LTYPE
  2
DASHDOT
 70
               0
  3
CADPAC FUSION LINETYPE
 72
              65
 73
               4
 40
47.560000000000002
 49
23.780000000000001
 49
-11.890000000000001
 49
0.0
 49
-11.890000000000001
  0
LTYPE
  2
DASHDOT2
 70
               0
  3
CADPAC FUSION LINETYPE
 72
              65
 73
               4
 40
35.670000000000002
 49
17.835000000000001
 49
-8.9175000000000004
 49
0.0
 49
-8.9175000000000004
  0
LTYPE
  2
DIVIDEX2
 70
               0
  3
CADPAC FUSION LINETYPE
 72
              65
 73
               6
 40
74.3125
 49
29.725000000000001
 49
-14.862500000000001
 49
0.0
 49
-14.862500000000001
 49
0.0
 49
-14.862500000000001
  0
LTYPE
  2
DIVIDE
 70
               0
  3
CADPAC FUSION LINETYPE
 72
              65
 73
               6
 40
59.450000000000003
 49
23.780000000000001
 49
-11.890000000000001
 49
0.0
 49
-11.890000000000001
 49
0.0
 49
-11.890000000000001
  0
LTYPE
  2
DIVIDE2
 70
               0
  3
CADPAC FUSION LINETYPE
 72
              65
 73
               6
 40
44.587500000000006
 49
17.835000000000001
 49
-8.9175000000000004
 49
0.0
 49
-8.9175000000000004
 49
0.0
 49
-8.9175000000000004
  0
LTYPE
  2
BORDERX2
 70
               0
  3
CADPAC FUSION LINETYPE
 72
              65
 73
               6
 40
104.03750000000001
 49
29.725000000000001
 49
-14.862500000000001
 49
29.725000000000001
 49
-14.862500000000001
 49
0.0
 49
-14.862500000000001
  0
LTYPE
  2
BORDER
 70
               0
  3
CADPAC FUSION LINETYPE
 72
              65
 73
               6
 40
83.230000000000004
 49
23.780000000000001
 49
-11.890000000000001
 49
23.780000000000001
 49
-11.890000000000001
 49
0.0
 49
-11.890000000000001
  0
LTYPE
  2
BORDER2
 70
               0
  3
CADPAC FUSION LINETYPE
 72
              65
 73
               6
 40
62.422499999999999
 49
17.835000000000001
 49
-8.9175000000000004
 49
17.835000000000001
 49
-8.9175000000000004
 49
0.0
 49
-8.9175000000000004
  0
LTYPE
  2
PHANTOMX2
 70
               0
  3
CADPAC FUSION LINETYPE
 72
              65
 73
               6
 40
89.175000000000011
 49
29.725000000000001
 49
-11.890000000000001
 49
11.890000000000001
 49
-11.890000000000001
 49
11.890000000000001
 49
-11.890000000000001
  0
LTYPE
  2
PHANTOM
 70
               0
  3
CADPAC FUSION LINETYPE
 72
              65
 73
               6
 40
73.718000000000004
 49
23.780000000000001
 49
-11.890000000000001
 49
7.1340000000000003
 49
-11.890000000000001
 49
7.1340000000000003
 49
-11.890000000000001
  0
LTYPE
  2
PHANTOM2
 70
               0
  3
CADPAC FUSION LINETYPE
 72
              65
 73
               6
 40
63.017000000000003
 49
17.835000000000001
 49
-11.890000000000001
 49
4.7560000000000002
 49
-11.890000000000001
 49
4.7560000000000002
 49
-11.890000000000001
  0
ENDTAB
  0
TABLE
  2
LAYER
 70
             256
  0
LAYER
  2
0
 70
               0
 62
               7
  6
CONTINUOUS
  0
LAYER
  2
LAYER001
 70
               0
 62
               7
  6
CONTINUOUS
  0
LAYER
  2
LAYER002
 70
               0
 62
               7
  6
CONTINUOUS
  0
LAYER
  2
LAYER003
 70
               0
 62
               7
  6
CONTINUOUS
  0
LAYER
  2
LAYER004
 70
               0
 62
               7
  6
CONTINUOUS
  0
LAYER
  2
LAYER005
 70
               0
 62
               7
  6
CONTINUOUS
  0
LAYER
  2
LAYER006
 70
               0
 62
               7
  6
CONTINUOUS
  0
LAYER
  2
LAYER007
 70
               0
 62
               7
  6
CONTINUOUS
  0
LAYER
  2
LAYER008
 70
               0
 62
               7
  6
CONTINUOUS
  0
LAYER
  2
LAYER009
 70
               0
 62
               7
  6
CONTINUOUS
  0
LAYER
  2
LAYER010
 70
               0
 62
               7
  6
CONTINUOUS
  0
LAYER
  2
LAYER011
 70
               0
 62
               7
  6
CONTINUOUS
  0
LAYER
  2
LAYER012
 70
               0
 62
               7
  6
CONTINUOUS
  0
LAYER
  2
LAYER013
 70
               0
 62
               7
  6
CONTINUOUS
  0
LAYER
  2
LAYER014
 70
               0
 62
               7
  6
CONTINUOUS
  0
LAYER
  2
LAYER015
 70
               0
 62
               7
  6
CONTINUOUS
  0
LAYER
  2
LAYER016
 70
               0
 62
               7
  6
CONTINUOUS
  0
LAYER
  2
LAYER017
 70
               0
 62
               7
  6
CONTINUOUS
  0
LAYER
  2
LAYER018
 70
               0
 62
               7
  6
CONTINUOUS
  0
LAYER
  2
LAYER019
 70
               0
 62
               7
  6
CONTINUOUS
  0
LAYER
  2
LAYER020
 70
               0
 62
               7
  6
CONTINUOUS
  0
LAYER
  2
LAYER021
 70
               0
 62
               7
  6
CONTINUOUS
  0
LAYER
  2
LAYER022
 70
               0
 62
               7
  6
CONTINUOUS
  0
LAYER
  2
LAYER023
 70
               0
 62
               7
  6
CONTINUOUS
  0
LAYER
  2
LAYER024
 70
               0
 62
               7
  6
CONTINUOUS
  0
LAYER
  2
LAYER025
 70
               0
 62
               7
  6
CONTINUOUS
  0
LAYER
  2
LAYER026
 70
               0
 62
               7
  6
CONTINUOUS
  0
LAYER
  2
LAYER027
 70
               0
 62
               7
  6
CONTINUOUS
  0
LAYER
  2
LAYER028
 70
               0
 62
               7
  6
CONTINUOUS
  0
LAYER
  2
LAYER029
 70
               0
 62
               7
  6
CONTINUOUS
  0
LAYER
  2
LAYER030
 70
               0
 62
               7
  6
CONTINUOUS
  0
LAYER
  2
LAYER031
 70
               0
 62
               7
  6
CONTINUOUS
  0
LAYER
  2
LAYER032
 70
               0
 62
               7
  6
CONTINUOUS
  0
LAYER
  2
LAYER033
 70
               0
 62
               7
  6
CONTINUOUS
  0
LAYER
  2
LAYER034
 70
               0
 62
               7
  6
CONTINUOUS
  0
LAYER
  2
LAYER035
 70
               0
 62
               7
  6
CONTINUOUS
  0
LAYER
  2
LAYER036
 70
               0
 62
               7
  6
CONTINUOUS
  0
LAYER
  2
LAYER037
 70
               0
 62
               7
  6
CONTINUOUS
  0
LAYER
  2
LAYER038
 70
               0
 62
               7
  6
CONTINUOUS
  0
LAYER
  2
LAYER039
 70
               0
 62
               7
  6
CONTINUOUS
  0
LAYER
  2
LAYER040
 70
               0
 62
               7
  6
CONTINUOUS
  0
LAYER
  2
LAYER041
 70
               0
 62
               7
  6
CONTINUOUS
  0
LAYER
  2
LAYER042
 70
               0
 62
               7
  6
CONTINUOUS
  0
LAYER
  2
LAYER043
 70
               0
 62
               7
  6
CONTINUOUS
  0
LAYER
  2
LAYER044
 70
               0
 62
               7
  6
CONTINUOUS
  0
LAYER
  2
LAYER045
 70
               0
 62
               7
  6
CONTINUOUS
  0
LAYER
  2
LAYER046
 70
               0
 62
               7
  6
CONTINUOUS
  0
LAYER
  2
LAYER047
 70
               0
 62
               7
  6
CONTINUOUS
  0
LAYER
  2
LAYER048
 70
               0
 62
               7
  6
CONTINUOUS
  0
LAYER
  2
LAYER049
 70
               0
 62
               7
  6
CONTINUOUS
  0
LAYER
  2
LAYER050
 70
               0
 62
               7
  6
CONTINUOUS
  0
LAYER
  2
LAYER051
 70
               0
 62
               7
  6
CONTINUOUS
  0
LAYER
  2
LAYER052
 70
               0
 62
               7
  6
CONTINUOUS
  0
LAYER
  2
LAYER053
 70
               0
 62
               7
  6
CONTINUOUS
  0
LAYER
  2
LAYER054
 70
               0
 62
               7
  6
CONTINUOUS
  0
LAYER
  2
LAYER055
 70
               0
 62
               7
  6
CONTINUOUS
  0
LAYER
  2
LAYER056
 70
               0
 62
               7
  6
CONTINUOUS
  0
LAYER
  2
LAYER057
 70
               0
 62
               7
  6
CONTINUOUS
  0
LAYER
  2
LAYER058
 70
               0
 62
               7
  6
CONTINUOUS
  0
LAYER
  2
LAYER059
 70
               0
 62
               7
  6
CONTINUOUS
  0
LAYER
  2
LAYER060
 70
               0
 62
               7
  6
CONTINUOUS
  0
LAYER
  2
LAYER061
 70
               0
 62
               7
  6
CONTINUOUS
  0
LAYER
  2
LAYER062
 70
               0
 62
               7
  6
CONTINUOUS
  0
LAYER
  2
LAYER063
 70
               0
 62
               7
  6
CONTINUOUS
  0
LAYER
  2
LAYER064
 70
               0
 62
               7
  6
CONTINUOUS
  0
LAYER
  2
LAYER065
 70
               0
 62
               7
  6
CONTINUOUS
  0
LAYER
  2
LAYER066
 70
               0
 62
               7
  6
CONTINUOUS
  0
LAYER
  2
LAYER067
 70
               0
 62
               7
  6
CONTINUOUS
  0
LAYER
  2
LAYER068
 70
               0
 62
               7
  6
CONTINUOUS
  0
LAYER
  2
LAYER069
 70
               0
 62
               7
  6
CONTINUOUS
  0
LAYER
  2
LAYER070
 70
               0
 62
               7
  6
CONTINUOUS
  0
LAYER
  2
LAYER071
 70
               0
 62
               7
  6
CONTINUOUS
  0
LAYER
  2
LAYER072
 70
               0
 62
               7
  6
CONTINUOUS
  0
LAYER
  2
LAYER073
 70
               0
 62
               7
  6
CONTINUOUS
  0
LAYER
  2
LAYER074
 70
               0
 62
               7
  6
CONTINUOUS
  0
LAYER
  2
LAYER075
 70
               0
 62
               7
  6
CONTINUOUS
  0
LAYER
  2
LAYER076
 70
               0
 62
               7
  6
CONTINUOUS
  0
LAYER
  2
LAYER077
 70
               0
 62
               7
  6
CONTINUOUS
  0
LAYER
  2
LAYER078
 70
               0
 62
               7
  6
CONTINUOUS
  0
LAYER
  2
LAYER079
 70
               0
 62
               7
  6
CONTINUOUS
  0
LAYER
  2
LAYER080
 70
               0
 62
               7
  6
CONTINUOUS
  0
LAYER
  2
LAYER081
 70
               0
 62
               7
  6
CONTINUOUS
  0
LAYER
  2
LAYER082
 70
               0
 62
               7
  6
CONTINUOUS
  0
LAYER
  2
LAYER083
 70
               0
 62
               7
  6
CONTINUOUS
  0
LAYER
  2
LAYER084
 70
               0
 62
               7
  6
CONTINUOUS
  0
LAYER
  2
LAYER085
 70
               0
 62
               7
  6
CONTINUOUS
  0
LAYER
  2
LAYER086
 70
               0
 62
               7
  6
CONTINUOUS
  0
LAYER
  2
LAYER087
 70
               0
 62
               7
  6
CONTINUOUS
  0
LAYER
  2
LAYER088
 70
               0
 62
               7
  6
CONTINUOUS
  0
LAYER
  2
LAYER089
 70
               0
 62
               7
  6
CONTINUOUS
  0
LAYER
  2
LAYER090
 70
               0
 62
               7
  6
CONTINUOUS
  0
LAYER
  2
LAYER091
 70
               0
 62
               7
  6
CONTINUOUS
  0
LAYER
  2
LAYER092
 70
               0
 62
               7
  6
CONTINUOUS
  0
LAYER
  2
LAYER093
 70
               0
 62
               7
  6
CONTINUOUS
  0
LAYER
  2
LAYER094
 70
               0
 62
               7
  6
CONTINUOUS
  0
LAYER
  2
LAYER095
 70
               0
 62
               7
  6
CONTINUOUS
  0
LAYER
  2
LAYER096
 70
               0
 62
               7
  6
CONTINUOUS
  0
LAYER
  2
LAYER097
 70
               0
 62
               7
  6
CONTINUOUS
  0
LAYER
  2
LAYER098
 70
               0
 62
               7
  6
CONTINUOUS
  0
LAYER
  2
LAYER099
 70
               0
 62
               7
  6
CONTINUOUS
  0
LAYER
  2
LAYER100
 70
               0
 62
               7
  6
CONTINUOUS
  0
LAYER
  2
LAYER101
 70
               0
 62
               7
  6
CONTINUOUS
  0
LAYER
  2
LAYER102
 70
               0
 62
               7
  6
CONTINUOUS
  0
LAYER
  2
LAYER103
 70
               0
 62
               7
  6
CONTINUOUS
  0
LAYER
  2
LAYER104
 70
               0
 62
               7
  6
CONTINUOUS
  0
LAYER
  2
LAYER105
 70
               0
 62
               7
  6
CONTINUOUS
  0
LAYER
  2
LAYER106
 70
               0
 62
               7
  6
CONTINUOUS
  0
LAYER
  2
LAYER107
 70
               0
 62
               7
  6
CONTINUOUS
  0
LAYER
  2
LAYER108
 70
               0
 62
               7
  6
CONTINUOUS
  0
LAYER
  2
LAYER109
 70
               0
 62
               7
  6
CONTINUOUS
  0
LAYER
  2
LAYER110
 70
               0
 62
               7
  6
CONTINUOUS
  0
LAYER
  2
LAYER111
 70
               0
 62
               7
  6
CONTINUOUS
  0
LAYER
  2
LAYER112
 70
               0
 62
               7
  6
CONTINUOUS
  0
LAYER
  2
LAYER113
 70
               0
 62
               7
  6
CONTINUOUS
  0
LAYER
  2
LAYER114
 70
               0
 62
               7
  6
CONTINUOUS
  0
LAYER
  2
LAYER115
 70
               0
 62
               7
  6
CONTINUOUS
  0
LAYER
  2
LAYER116
 70
               0
 62
               7
  6
CONTINUOUS
  0
LAYER
  2
LAYER117
 70
               0
 62
               7
  6
CONTINUOUS
  0
LAYER
  2
LAYER118
 70
               0
 62
               7
  6
CONTINUOUS
  0
LAYER
  2
LAYER119
 70
               0
 62
               7
  6
CONTINUOUS
  0
LAYER
  2
LAYER120
 70
               0
 62
               7
  6
CONTINUOUS
  0
LAYER
  2
LAYER121
 70
               0
 62
               7
  6
CONTINUOUS
  0
LAYER
  2
LAYER122
 70
               0
 62
               7
  6
CONTINUOUS
  0
LAYER
  2
LAYER123
 70
               0
 62
               7
  6
CONTINUOUS
  0
LAYER
  2
LAYER124
 70
               0
 62
               7
  6
CONTINUOUS
  0
LAYER
  2
LAYER125
 70
               0
 62
               7
  6
CONTINUOUS
  0
LAYER
  2
LAYER126
 70
               0
 62
               7
  6
CONTINUOUS
  0
LAYER
  2
LAYER127
 70
               0
 62
               7
  6
CONTINUOUS
  0
LAYER
  2
LAYER128
 70
               0
 62
               7
  6
CONTINUOUS
  0
LAYER
  2
LAYER129
 70
               0
 62
               7
  6
CONTINUOUS
  0
LAYER
  2
LAYER130
 70
               0
 62
               7
  6
CONTINUOUS
  0
LAYER
  2
LAYER131
 70
               0
 62
               7
  6
CONTINUOUS
  0
LAYER
  2
LAYER132
 70
               0
 62
               7
  6
CONTINUOUS
  0
LAYER
  2
LAYER133
 70
               0
 62
               7
  6
CONTINUOUS
  0
LAYER
  2
LAYER134
 70
               0
 62
               7
  6
CONTINUOUS
  0
LAYER
  2
LAYER135
 70
               0
 62
               7
  6
CONTINUOUS
  0
LAYER
  2
LAYER136
 70
               0
 62
               7
  6
CONTINUOUS
  0
LAYER
  2
LAYER137
 70
               0
 62
               7
  6
CONTINUOUS
  0
LAYER
  2
LAYER138
 70
               0
 62
               7
  6
CONTINUOUS
  0
LAYER
  2
LAYER139
 70
               0
 62
               7
  6
CONTINUOUS
  0
LAYER
  2
LAYER140
 70
               0
 62
               7
  6
CONTINUOUS
  0
LAYER
  2
LAYER141
 70
               0
 62
               7
  6
CONTINUOUS
  0
LAYER
  2
LAYER142
 70
               0
 62
               7
  6
CONTINUOUS
  0
LAYER
  2
LAYER143
 70
               0
 62
               7
  6
CONTINUOUS
  0
LAYER
  2
LAYER144
 70
               0
 62
               7
  6
CONTINUOUS
  0
LAYER
  2
LAYER145
 70
               0
 62
               7
  6
CONTINUOUS
  0
LAYER
  2
LAYER146
 70
               0
 62
               7
  6
CONTINUOUS
  0
LAYER
  2
LAYER147
 70
               0
 62
               7
  6
CONTINUOUS
  0
LAYER
  2
LAYER148
 70
               0
 62
               7
  6
CONTINUOUS
  0
LAYER
  2
LAYER149
 70
               0
 62
               7
  6
CONTINUOUS
  0
LAYER
  2
LAYER150
 70
               0
 62
               7
  6
CONTINUOUS
  0
LAYER
  2
LAYER151
 70
               0
 62
               7
  6
CONTINUOUS
  0
LAYER
  2
LAYER152
 70
               0
 62
               7
  6
CONTINUOUS
  0
LAYER
  2
LAYER153
 70
               0
 62
               7
  6
CONTINUOUS
  0
LAYER
  2
LAYER154
 70
               0
 62
               7
  6
CONTINUOUS
  0
LAYER
  2
LAYER155
 70
               0
 62
               7
  6
CONTINUOUS
  0
LAYER
  2
LAYER156
 70
               0
 62
               7
  6
CONTINUOUS
  0
LAYER
  2
LAYER157
 70
               0
 62
               7
  6
CONTINUOUS
  0
LAYER
  2
LAYER158
 70
               0
 62
               7
  6
CONTINUOUS
  0
LAYER
  2
LAYER159
 70
               0
 62
               7
  6
CONTINUOUS
  0
LAYER
  2
LAYER160
 70
               0
 62
               7
  6
CONTINUOUS
  0
LAYER
  2
LAYER161
 70
               0
 62
               7
  6
CONTINUOUS
  0
LAYER
  2
LAYER162
 70
               0
 62
               7
  6
CONTINUOUS
  0
LAYER
  2
LAYER163
 70
               0
 62
               7
  6
CONTINUOUS
  0
LAYER
  2
LAYER164
 70
               0
 62
               7
  6
CONTINUOUS
  0
LAYER
  2
LAYER165
 70
               0
 62
               7
  6
CONTINUOUS
  0
LAYER
  2
LAYER166
 70
               0
 62
               7
  6
CONTINUOUS
  0
LAYER
  2
LAYER167
 70
               0
 62
               7
  6
CONTINUOUS
  0
LAYER
  2
LAYER168
 70
               0
 62
               7
  6
CONTINUOUS
  0
LAYER
  2
LAYER169
 70
               0
 62
               7
  6
CONTINUOUS
  0
LAYER
  2
LAYER170
 70
               0
 62
               7
  6
CONTINUOUS
  0
LAYER
  2
LAYER171
 70
               0
 62
               7
  6
CONTINUOUS
  0
LAYER
  2
LAYER172
 70
               0
 62
               7
  6
CONTINUOUS
  0
LAYER
  2
LAYER173
 70
               0
 62
               7
  6
CONTINUOUS
  0
LAYER
  2
LAYER174
 70
               0
 62
               7
  6
CONTINUOUS
  0
LAYER
  2
LAYER175
 70
               0
 62
               7
  6
CONTINUOUS
  0
LAYER
  2
LAYER176
 70
               0
 62
               7
  6
CONTINUOUS
  0
LAYER
  2
LAYER177
 70
               0
 62
               7
  6
CONTINUOUS
  0
LAYER
  2
LAYER178
 70
               0
 62
               7
  6
CONTINUOUS
  0
LAYER
  2
LAYER179
 70
               0
 62
               7
  6
CONTINUOUS
  0
LAYER
  2
LAYER180
 70
               0
 62
               7
  6
CONTINUOUS
  0
LAYER
  2
LAYER181
 70
               0
 62
               7
  6
CONTINUOUS
  0
LAYER
  2
LAYER182
 70
               0
 62
               7
  6
CONTINUOUS
  0
LAYER
  2
LAYER183
 70
               0
 62
               7
  6
CONTINUOUS
  0
LAYER
  2
LAYER184
 70
               0
 62
               7
  6
CONTINUOUS
  0
LAYER
  2
LAYER185
 70
               0
 62
               7
  6
CONTINUOUS
  0
LAYER
  2
LAYER186
 70
               0
 62
               7
  6
CONTINUOUS
  0
LAYER
  2
LAYER187
 70
               0
 62
               7
  6
CONTINUOUS
  0
LAYER
  2
LAYER188
 70
               0
 62
               7
  6
CONTINUOUS
  0
LAYER
  2
LAYER189
 70
               0
 62
               7
  6
CONTINUOUS
  0
LAYER
  2
LAYER190
 70
               0
 62
               7
  6
CONTINUOUS
  0
LAYER
  2
LAYER191
 70
               0
 62
               7
  6
CONTINUOUS
  0
LAYER
  2
LAYER192
 70
               0
 62
               7
  6
CONTINUOUS
  0
LAYER
  2
LAYER193
 70
               0
 62
               7
  6
CONTINUOUS
  0
LAYER
  2
LAYER194
 70
               0
 62
               7
  6
CONTINUOUS
  0
LAYER
  2
LAYER195
 70
               0
 62
               7
  6
CONTINUOUS
  0
LAYER
  2
LAYER196
 70
               0
 62
               7
  6
CONTINUOUS
  0
LAYER
  2
LAYER197
 70
               0
 62
               7
  6
CONTINUOUS
  0
LAYER
  2
LAYER198
 70
               0
 62
               7
  6
CONTINUOUS
  0
LAYER
  2
LAYER199
 70
               0
 62
               7
  6
CONTINUOUS
  0
LAYER
  2
LAYER200
 70
               0
 62
               7
  6
CONTINUOUS
  0
LAYER
  2
LAYER201
 70
               0
 62
               7
  6
CONTINUOUS
  0
LAYER
  2
LAYER202
 70
               0
 62
               7
  6
CONTINUOUS
  0
LAYER
  2
LAYER203
 70
               0
 62
               7
  6
CONTINUOUS
  0
LAYER
  2
LAYER204
 70
               0
 62
               7
  6
CONTINUOUS
  0
LAYER
  2
LAYER205
 70
               0
 62
               7
  6
CONTINUOUS
  0
LAYER
  2
LAYER206
 70
               0
 62
               7
  6
CONTINUOUS
  0
LAYER
  2
LAYER207
 70
               0
 62
               7
  6
CONTINUOUS
  0
LAYER
  2
LAYER208
 70
               0
 62
               7
  6
CONTINUOUS
  0
LAYER
  2
LAYER209
 70
               0
 62
               7
  6
CONTINUOUS
  0
LAYER
  2
LAYER210
 70
               0
 62
               7
  6
CONTINUOUS
  0
LAYER
  2
LAYER211
 70
               0
 62
               7
  6
CONTINUOUS
  0
LAYER
  2
LAYER212
 70
               0
 62
               7
  6
CONTINUOUS
  0
LAYER
  2
LAYER213
 70
               0
 62
               7
  6
CONTINUOUS
  0
LAYER
  2
LAYER214
 70
               0
 62
               7
  6
CONTINUOUS
  0
LAYER
  2
LAYER215
 70
               0
 62
               7
  6
CONTINUOUS
  0
LAYER
  2
LAYER216
 70
               0
 62
               7
  6
CONTINUOUS
  0
LAYER
  2
LAYER217
 70
               0
 62
               7
  6
CONTINUOUS
  0
LAYER
  2
LAYER218
 70
               0
 62
               7
  6
CONTINUOUS
  0
LAYER
  2
LAYER219
 70
               0
 62
               7
  6
CONTINUOUS
  0
LAYER
  2
LAYER220
 70
               0
 62
               7
  6
CONTINUOUS
  0
LAYER
  2
LAYER221
 70
               0
 62
               7
  6
CONTINUOUS
  0
LAYER
  2
LAYER222
 70
               0
 62
               7
  6
CONTINUOUS
  0
LAYER
  2
LAYER223
 70
               0
 62
               7
  6
CONTINUOUS
  0
LAYER
  2
LAYER224
 70
               0
 62
               7
  6
CONTINUOUS
  0
LAYER
  2
LAYER225
 70
               0
 62
               7
  6
CONTINUOUS
  0
LAYER
  2
LAYER226
 70
               0
 62
               7
  6
CONTINUOUS
  0
LAYER
  2
LAYER227
 70
               0
 62
               7
  6
CONTINUOUS
  0
LAYER
  2
LAYER228
 70
               0
 62
               7
  6
CONTINUOUS
  0
LAYER
  2
LAYER229
 70
               0
 62
               7
  6
CONTINUOUS
  0
LAYER
  2
LAYER230
 70
               0
 62
               7
  6
CONTINUOUS
  0
LAYER
  2
LAYER231
 70
               0
 62
               7
  6
CONTINUOUS
  0
LAYER
  2
LAYER232
 70
               0
 62
               7
  6
CONTINUOUS
  0
LAYER
  2
LAYER233
 70
               0
 62
               7
  6
CONTINUOUS
  0
LAYER
  2
LAYER234
 70
               0
 62
               7
  6
CONTINUOUS
  0
LAYER
  2
LAYER235
 70
               0
 62
               7
  6
CONTINUOUS
  0
LAYER
  2
LAYER236
 70
               0
 62
               7
  6
CONTINUOUS
  0
LAYER
  2
LAYER237
 70
               0
 62
               7
  6
CONTINUOUS
  0
LAYER
  2
LAYER238
 70
               0
 62
               7
  6
CONTINUOUS
  0
LAYER
  2
LAYER239
 70
               0
 62
               7
  6
CONTINUOUS
  0
LAYER
  2
LAYER240
 70
               0
 62
               7
  6
CONTINUOUS
  0
LAYER
  2
LAYER241
 70
               0
 62
               7
  6
CONTINUOUS
  0
LAYER
  2
LAYER242
 70
               0
 62
               7
  6
CONTINUOUS
  0
LAYER
  2
LAYER243
 70
               0
 62
               7
  6
CONTINUOUS
  0
LAYER
  2
LAYER244
 70
               0
 62
               7
  6
CONTINUOUS
  0
LAYER
  2
LAYER245
 70
               0
 62
               7
  6
CONTINUOUS
  0
LAYER
  2
LAYER246
 70
               0
 62
               7
  6
CONTINUOUS
  0
LAYER
  2
LAYER247
 70
               0
 62
               7
  6
CONTINUOUS
  0
LAYER
  2
LAYER248
 70
               0
 62
               7
  6
CONTINUOUS
  0
LAYER
  2
LAYER249
 70
               0
 62
               7
  6
CONTINUOUS
  0
LAYER
  2
LAYER250
 70
               0
 62
               7
  6
CONTINUOUS
  0
LAYER
  2
LAYER251
 70
               0
 62
               7
  6
CONTINUOUS
  0
LAYER
  2
LAYER252
 70
               0
 62
               7
  6
CONTINUOUS
  0
LAYER
  2
LAYER253
 70
               0
 62
               7
  6
CONTINUOUS
  0
LAYER
  2
LAYER254
 70
               0
 62
               7
  6
CONTINUOUS
  0
LAYER
  2
LAYER255
 70
               0
 62
               7
  6
CONTINUOUS
  0
ENDTAB
  0
TABLE
  2
STYLE
 70
               1
  0
STYLE
  2
STANDARD
 70
               0
 40
0.0
 41
1.0
 50
0.0
 71
               0
 42
0.0
  3
txt
  4

  0
ENDTAB
  0
TABLE
  2
VIEW
 70
               0
  0
VIEW
  2
QQQQ
 70
               0
 40
1294.5075000000002
 10
-178.67226690395097
 20
437.13520849510155
 41
1079.585
 11
0.0
 21
0.0
 31
1.0
 12
100.0
 22
100.0
 32
0.0
 42
50.0
 43
0.0
 44
0.0
 50
0.0
 71
               0
  0
ENDTAB
  0
TABLE
  2
UCS
 70
               0
  0
ENDTAB
  0
TABLE
  2
APPID
 70
               1
  0
APPID
  2
ACAD
 70
               0
  0
ENDTAB
  0
TABLE
  2
DIMSTYLE
 70
               1
  0
DIMSTYLE
  2
STANDARD
 70
               0
  3

  4

  5

  6

  7

 40
1.0
 41
0.18
 42
0.0625
 43
0.38
 44
0.18
 45
0.0
 46
0.0
 47
0.0
 48
0.0
140
0.18
141
0.09
142
0.0
143
25.399999999999999
144
1.0
145
0.0
146
1.0
147
0.09
 71
               0
 72
               0
 73
               1
 74
               1
 75
               0
 76
               0
 77
               0
 78
               0
170
               0
171
               2
172
               0
173
               0
174
               0
175
               0
176
               0
177
               0
178
               0
  0
ENDTAB
  0
ENDSEC
  0
SECTION
  2
BLOCKS
  0
ENDSEC
  0
SECTION
  2
ENTITIES
  0
LINE
  8
0
  6
CONTINUOUS
 62
               3
  5
136
 10
-253.67226690395123
 20
579.38520849510155
 30
0.0
 11
-103.67226690395123
 21
579.38520849510155
 31
0.0
  0
LINE
  8
0
  6
CONTINUOUS
 62
               3
  5
137
 10
-267.17226690395148
 20
569.38520849510155
 30
0.0
 11
-267.17226690395148
 21
562.38520849510189
 31
0.0
  0
LINE
  8
0
  6
CONTINUOUS
 62
               3
  5
138
 10
-267.17226690395148
 20
569.38520849510155
 30
0.0
 11
-253.67226690395123
 21
579.38520849510155
 31
0.0
  0
ARC
  8
0
  6
CONTINUOUS
 62
               3
  5
139
 10
-255.67226690395111
 20
557.80263280014617
 30
0.0
 40
4.9999999999999991
 50
0.0
 51
66.421821521747177
  0
LINE
  8
0
  6
CONTINUOUS
 62
               3
  5
13A
 10
-267.17226690395148
 20
562.38520849510189
 30
0.0
 11
-90.172266903951567
 21
562.38520849510189
 31
0.0
  0
LINE
  8
0
  6
CONTINUOUS
 62
               3
  5
13B
 10
-250.67226690395111
 20
557.80263280014617
 30
0.0
 11
-250.67226690395111
 21
502.98293470124725
 31
0.0
  0
LINE
  8
0
  6
CONTINUOUS
 62
               3
  5
13C
 10
-106.67226690395134
 20
487.92086224795491
 30
0.0
 11
-106.67226690395134
 21
557.80263280014617
 31
0.0
  0
LINE
  8
0
  6
CONTINUOUS
 62
               3
  5
13D
 10
-236.67226690395134
 20
86.38520849510121
 30
0.0
 11
-253.67226690395123
 21
235.38520849510166
 31
0.0
  0
LINE
  8
0
  6
CONTINUOUS
 62
               3
  5
13E
 10
-253.67226690395108
 20
339.75286542651372
 30
0.0
 11
-253.67226690395123
 21
235.38520849510166
 31
0.0
  0
LINE
  8
0
  6
CONTINUOUS
 62
               3
  5
13F
 10
-230.67226690395111
 20
482.92086224795435
 30
0.0
 11
-107.17226690395088
 21
482.92086224795435
 31
0.0
  0
LINE
  8
0
  6
CONTINUOUS
 62
               3
  5
140
 10
-198.67226690395123
 20
562.38520849510189
 30
0.0
 11
-198.67226690395123
 21
579.38520849510155
 31
0.0
  0
LINE
  8
0
  6
CONTINUOUS
 62
               3
  5
141
 10
-158.67226690395123
 20
579.38520849510155
 30
0.0
 11
-158.67226690395123
 21
562.38520849510189
 31
0.0
  0
LINE
  8
0
  6
CONTINUOUS
 62
               3
  5
142
 10
-198.67226690395123
 20
569.38520849510155
 30
0.0
 11
-158.67226690395123
 21
569.38520849510155
 31
0.0
  0
LINE
  8
0
  6
CONTINUOUS
 62
               3
  5
143
 10
-250.9564283779566
 20
579.38520849510155
 30
0.0
 11
-250.9564283779566
 21
562.38520849510189
 31
0.0
  0
LINE
  8
0
  6
CONTINUOUS
 62
               3
  5
144
 10
-264.88276510457649
 20
569.38520849510155
 30
0.0
 11
-264.88276510457649
 21
562.38520849510189
 31
0.0
  0
LINE
  8
0
  6
CONTINUOUS
 62
               3
  5
145
 10
-267.17226690395148
 20
569.38520849510155
 30
0.0
 11
-264.88276510457649
 21
569.38520849510155
 31
0.0
  0
LINE
  8
0
  6
CONTINUOUS
 62
               3
  5
146
 10
-264.88276510457649
 20
569.38520849510155
 30
0.0
 11
-250.9564283779566
 21
579.38520849510155
 31
0.0
  0
LINE
  8
0
  6
CONTINUOUS
 62
               3
  5
147
 10
-90.172266903951567
 20
569.38520849510155
 30
0.0
 11
-90.172266903951567
 21
562.38520849510189
 31
0.0
  0
LINE
  8
0
  6
CONTINUOUS
 62
               3
  5
148
 10
-90.172266903951567
 20
569.38520849510155
 30
0.0
 11
-103.67226690395123
 21
579.38520849510155
 31
0.0
  0
ARC
  8
0
  6
CONTINUOUS
 62
               3
  5
149
 10
-101.67226690395134
 20
557.80263280014617
 30
0.0
 40
4.9999999999999991
 50
113.57817847811468
 51
179.99999999986184
  0
LINE
  8
0
  6
CONTINUOUS
 62
               3
  5
14A
 10
-106.38810542994699
 20
579.38520849510155
 30
0.0
 11
-106.38810542994699
 21
562.38520849510189
 31
0.0
  0
LINE
  8
0
  6
CONTINUOUS
 62
               3
  5
14B
 10
-92.461768703325987
 20
569.38520849510155
 30
0.0
 11
-92.461768703325987
 21
562.38520849510189
 31
0.0
  0
LINE
  8
0
  6
CONTINUOUS
 62
               3
  5
14C
 10
-90.172266903951567
 20
569.38520849510155
 30
0.0
 11
-92.461768703325987
 21
569.38520849510155
 31
0.0
  0
LINE
  8
0
  6
CONTINUOUS
 62
               3
  5
14D
 10
-92.461768703325987
 20
569.38520849510155
 30
0.0
 11
-106.38810542994699
 21
579.38520849510155
 31
0.0
  0
ARC
  8
0
  6
CONTINUOUS
 62
               3
  5
14E
 10
-243.67226690395123
 20
350.88520849510155
 30
0.0
 40
2.4999999999999996
 50
89.999999999930751
 51
269.99999999979326
  0
ARC
  8
0
  6
CONTINUOUS
 62
               3
  5
14F
 10
-103.67226690395123
 20
350.88520849510155
 30
0.0
 40
2.4999999999999996
 50
269.99999999979326
 51
449.99999999965507
  0
LINE
  8
0
  6
CONTINUOUS
 62
               3
  5
150
 10
-253.67226690395123
 20
235.38520849510166
 30
0.0
 11
-225.04037469600812
 21
235.38520849510166
 31
0.0
  0
LINE
  8
0
  6
CONTINUOUS
 62
               3
  5
151
 10
-180.64510018410212
 20
235.38520849510166
 30
0.0
 11
-104.17550177030145
 21
235.38520849510166
 31
0.0
  0
LINE
  8
0
  6
CONTINUOUS
 62
               3
  5
152
 10
-243.67226690395123
 20
353.38520849510155
 30
0.0
 11
-103.67226690395123
 21
353.38520849510155
 31
0.0
  0
LINE
  8
0
  6
CONTINUOUS
 62
               3
  5
153
 10
-243.67226690395123
 20
348.38520849510155
 30
0.0
 11
-103.67226690395123
 21
348.38520849510155
 31
0.0
  0
LINE
  8
0
  6
CONTINUOUS
 62
               3
  5
154
 10
-315.67226690395114
 20
355.88520849510155
 30
0.0
 11
-267.9672629057049
 21
354.21931304687575
 31
0.0
  0
LINE
  8
0
  6
CONTINUOUS
 62
               3
  5
155
 10
-264.60622648328462
 20
352.75789281771301
 30
0.0
 11
-255.13673299801818
 21
343.28839933244637
 31
0.0
  0
ARC
  8
0
  6
CONTINUOUS
 62
               3
  5
156
 10
-268.14176038921738
 20
349.22235891178025
 30
0.0
 40
5.0
 50
44.999999999974342
 51
87.999999999949068
  0
ARC
  8
0
  6
CONTINUOUS
 62
               3
  5
157
 10
-258.67226690395108
 20
339.75286542651372
 30
0.0
 40
5.0
 50
0.0
 51
44.999999999973873
  0
LINE
  8
0
  6
CONTINUOUS
 62
               3
  5
158
 10
-318.67226690395125
 20
358.21365236913744
 30
0.0
 11
-317.98445441074585
 21
358.21365236913744
 31
0.0
  0
LINE
  8
0
  6
CONTINUOUS
 62
               3
  5
159
 10
-315.65601053670997
 20
355.88520849510155
 30
0.0
 11
-317.98445441074585
 21
358.21365236913744
 31
0.0
  0
LINE
  8
0
  6
CONTINUOUS
 62
               3
  5
15A
 10
-318.67226690395125
 20
355.88520849510166
 30
0.0
 11
-321.17226690395125
 21
355.88520849510166
 31
0.0
  0
ARC
  8
0
  6
CONTINUOUS
 62
               3
  5
15B
 10
-321.17226690395125
 20
358.38520849510166
 30
0.0
 40
2.5
 50
179.99999999989603
 51
269.99999999984499
  0
LINE
  8
0
  6
CONTINUOUS
 62
               3
  5
15C
 10
-315.65601053670997
 20
495.88520849510155
 30
0.0
 11
-315.65601053670997
 21
355.88464081024824
 31
0.0
  0
LINE
  8
0
  6
CONTINUOUS
 62
               3
  5
15D
 10
-318.67226690395125
 20
493.55676462106567
 30
0.0
 11
-317.98445441074585
 21
493.55676462106567
 31
0.0
  0
LINE
  8
0
  6
CONTINUOUS
 62
               3
  5
15E
 10
-315.65601053670997
 20
495.88520849510155
 30
0.0
 11
-317.98445441074585
 21
493.55676462106567
 31
0.0
  0
LINE
  8
0
  6
CONTINUOUS
 62
               3
  5
15F
 10
-318.67226690395125
 20
495.88520849510144
 30
0.0
 11
-321.17226690395125
 21
495.88520849510144
 31
0.0
  0
ARC
  8
0
  6
CONTINUOUS
 62
               3
  5
160
 10
-321.17226690395125
 20
493.38520849510144
 30
0.0
 40
2.5
 50
89.999999999948997
 51
179.9999999998962
  0
LINE
  8
0
  6
CONTINUOUS
 62
               3
  5
161
 10
-323.67226690395125
 20
493.38520849510144
 30
0.0
 11
-323.67226690395125
 21
358.38520849510166
 31
0.0
  0
LINE
  8
0
  6
CONTINUOUS
 62
               3
  5
162
 10
-318.67226690395125
 20
355.88520849510166
 30
0.0
 11
-318.67226690395125
 21
495.88520849510144
 31
0.0
  0
LINE
  8
0
  6
CONTINUOUS
 62
               3
  5
163
 10
-317.98445441074585
 20
493.55676462106567
 30
0.0
 11
-317.98445441074585
 21
358.21365236913744
 31
0.0
  0
LINE
  8
0
  6
CONTINUOUS
 62
               3
  5
164
 10
-315.65601053670997
 20
495.88520849510155
 30
0.0
 11
-255.4977694204386
 21
497.98598056615174
 31
0.0
  0
ARC
  8
0
  6
CONTINUOUS
 62
               3
  5
165
 10
-255.67226690395111
 20
502.98293470124725
 30
0.0
 40
5.0
 50
271.99999999989535
 51
359.99999999986159
  0
LINE
  8
0
  6
CONTINUOUS
 62
               3
  5
166
 10
-120.67226690395113
 20
-4.6147915048975392
 30
0.0
 11
-120.67226690395113
 21
86.38520849510121
 31
0.0
  0
LINE
  8
0
  6
CONTINUOUS
 62
               3
  5
167
 10
-236.67226690395134
 20
86.38520849510121
 30
0.0
 11
-236.67226690395134
 21
-4.6147915048984487
 31
0.0
  0
LINE
  8
0
  6
CONTINUOUS
 62
               3
  5
168
 10
-236.67226690395134
 20
86.385208495101892
 30
0.0
 11
-120.67226690395113
 21
86.38520849510121
 31
0.0
  0
LINE
  8
0
  6
CONTINUOUS
 62
               3
  5
169
 10
-233.67226690395123
 20
-105.61479150489845
 30
0.0
 11
-123.67226690395115
 21
-105.61479150489845
 31
0.0
  0
LINE
  8
0
  6
CONTINUOUS
 62
               3
  5
16A
 10
-235.67226690395123
 20
-103.61479150489845
 30
0.0
 11
-235.67226690395123
 21
-5.6147915048984487
 31
0.0
  0
LINE
  8
0
  6
CONTINUOUS
 62
               3
  5
16B
 10
-235.67226690395123
 20
-5.6147915048984487
 30
0.0
 11
-236.67226690395077
 21
-4.6147915048989034
 31
0.0
  0
LINE
  8
0
  6
CONTINUOUS
 62
               3
  5
16C
 10
-121.67226690395115
 20
-103.61479150489845
 30
0.0
 11
-121.67226690395117
 21
-5.6147915048984487
 31
0.0
  0
LINE
  8
0
  6
CONTINUOUS
 62
               3
  5
16D
 10
-121.67226690395117
 20
-5.6147915048984487
 30
0.0
 11
-120.67226690395162
 21
-4.6147915048989034
 31
0.0
  0
LINE
  8
0
  6
CONTINUOUS
 62
               3
  5
16E
 10
-653.67226690395069
 20
579.38520849510155
 30
0.0
 11
-503.67226690395125
 21
579.38520849510155
 31
0.0
  0
LINE
  8
0
  6
CONTINUOUS
 62
               3
  5
16F
 10
-667.17226690395091
 20
569.38520849510155
 30
0.0
 11
-667.17226690395091
 21
562.38520849510189
 31
0.0
  0
LINE
  8
0
  6
CONTINUOUS
 62
               3
  5
170
 10
-667.17226690395091
 20
569.38520849510155
 30
0.0
 11
-653.67226690395069
 21
579.38520849510155
 31
0.0
  0
ARC
  8
0
  6
CONTINUOUS
 62
               3
  5
171
 10
-655.67226690395057
 20
557.80263280014617
 30
0.0
 40
4.9999999999999991
 50
0.0
 51
66.421821521746878
  0
LINE
  8
0
  6
CONTINUOUS
 62
               3
  5
172
 10
-667.17226690395091
 20
562.38520849510189
 30
0.0
 11
-490.17226690395103
 21
562.38520849510189
 31
0.0
  0
ARC
  8
0
  6
CONTINUOUS
 62
               3
  5
173
 10
-633.67226690395069
 20
472.38520849510155
 30
0.0
 40
19.999999999999996
 50
148.21166938283463
 51
179.9999999998621
  0
LINE
  8
0
  6
CONTINUOUS
 62
               3
  5
174
 10
-650.67226690395057
 20
557.80263280014617
 30
0.0
 11
-650.67226690395057
 21
482.92086224795435
 31
0.0
  0
ARC
  8
0
  6
CONTINUOUS
 62
               3
  5
175
 10
-523.67226690395125
 20
472.38520849510155
 30
0.0
 40
19.999999999999996
 50
0.0
 51
31.788330617027448
  0
LINE
  8
0
  6
CONTINUOUS
 62
               3
  5
176
 10
-506.6722669039508
 20
482.92086224795435
 30
0.0
 11
-506.6722669039508
 21
557.80263280014617
 31
0.0
  0
LINE
  8
0
  6
CONTINUOUS
 62
               3
  5
177
 10
-636.6722669039508
 20
86.385208495101267
 30
0.0
 11
-653.67226690395069
 21
235.38520849510172
 31
0.0
  0
LINE
  8
0
  6
CONTINUOUS
 62
               3
  5
178
 10
-653.67226690395069
 20
348.38520849510155
 30
0.0
 11
-653.67226690395069
 21
235.38520849510172
 31
0.0
  0
LINE
  8
0
  6
CONTINUOUS
 62
               3
  5
179
 10
-598.67226690395069
 20
562.38520849510189
 30
0.0
 11
-598.67226690395069
 21
579.38520849510155
 31
0.0
  0
LINE
  8
0
  6
CONTINUOUS
 62
               3
  5
17A
 10
-558.67226690395125
 20
579.38520849510155
 30
0.0
 11
-558.67226690395125
 21
562.38520849510189
 31
0.0
  0
LINE
  8
0
  6
CONTINUOUS
 62
               3
  5
17B
 10
-598.67226690395069
 20
569.38520849510155
 30
0.0
 11
-558.67226690395125
 21
569.38520849510155
 31
0.0
  0
LINE
  8
0
  6
CONTINUOUS
 62
               3
  5
17C
 10
-650.95642837795492
 20
579.38520849510155
 30
0.0
 11
-650.95642837795492
 21
562.38520849510189
 31
0.0
  0
LINE
  8
0
  6
CONTINUOUS
 62
               3
  5
17D
 10
-664.88276510457592
 20
569.38520849510155
 30
0.0
 11
-664.88276510457592
 21
562.38520849510189
 31
0.0
  0
LINE
  8
0
  6
CONTINUOUS
 62
               3
  5
17E
 10
-667.17226690395091
 20
569.38520849510155
 30
0.0
 11
-664.88276510457592
 21
569.38520849510155
 31
0.0
  0
LINE
  8
0
  6
CONTINUOUS
 62
               3
  5
17F
 10
-664.88276510457592
 20
569.38520849510155
 30
0.0
 11
-650.95642837795492
 21
579.38520849510155
 31
0.0
  0
LINE
  8
0
  6
CONTINUOUS
 62
               3
  5
180
 10
-490.17226690395103
 20
569.38520849510155
 30
0.0
 11
-490.17226690395103
 21
562.38520849510189
 31
0.0
  0
LINE
  8
0
  6
CONTINUOUS
 62
               3
  5
181
 10
-490.17226690395103
 20
569.38520849510155
 30
0.0
 11
-503.67226690395125
 21
579.38520849510155
 31
0.0
  0
ARC
  8
0
  6
CONTINUOUS
 62
               3
  5
182
 10
-501.6722669039508
 20
557.80263280014617
 30
0.0
 40
4.9999999999999991
 50
113.57817847811482
 51
179.99999999986184
  0
LINE
  8
0
  6
CONTINUOUS
 62
               3
  5
183
 10
-506.38810542994588
 20
579.38520849510155
 30
0.0
 11
-506.38810542994588
 21
562.38520849510189
 31
0.0
  0
LINE
  8
0
  6
CONTINUOUS
 62
               3
  5
184
 10
-492.46176870332545
 20
569.38520849510155
 30
0.0
 11
-492.46176870332545
 21
562.38520849510189
 31
0.0
  0
LINE
  8
0
  6
CONTINUOUS
 62
               3
  5
185
 10
-490.17226690395103
 20
569.38520849510155
 30
0.0
 11
-492.46176870332545
 21
569.38520849510155
 31
0.0
  0
LINE
  8
0
  6
CONTINUOUS
 62
               3
  5
186
 10
-492.46176870332545
 20
569.38520849510155
 30
0.0
 11
-506.38810542994588
 21
579.38520849510155
 31
0.0
  0
ARC
  8
0
  6
CONTINUOUS
 62
               3
  5
187
 10
-653.67226690395069
 20
350.88520849510155
 30
0.0
 40
2.4999999999999996
 50
89.999999999930751
 51
269.99999999979229
  0
LINE
  8
0
  6
CONTINUOUS
 62
               3
  5
188
 10
-653.67226690395069
 20
472.38520849510155
 30
0.0
 11
-653.67226690395069
 21
353.38520849510155
 31
0.0
  0
LINE
  8
0
  6
CONTINUOUS
 62
               3
  5
189
 10
-653.67226690395069
 20
235.38520849510172
 30
0.0
 11
-519.72326690395062
 21
235.38520849510201
 31
0.0
  0
LINE
  8
0
  6
CONTINUOUS
 62
               3
  5
18A
 10
-506.91590036041146
 20
235.38520849510201
 30
0.0
 11
-503.67226690395125
 21
235.38520849510201
 31
0.0
  0
ARC
  8
0
  6
CONTINUOUS
 62
               3
  5
18B
 10
-601.17226690395069
 20
350.88520849510155
 30
0.0
 40
2.4999999999999996
 50
269.99999999979229
 51
449.99999999965507
  0
ARC
  8
0
  6
CONTINUOUS
 62
               3
  5
18C
 10
-556.17226690395069
 20
350.88520849510155
 30
0.0
 40
2.4999999999999996
 50
89.999999999930751
 51
269.99999999979229
  0
LINE
  8
0
  6
CONTINUOUS
 62
               3
  5
18D
 10
-653.67226690395069
 20
348.38520849510155
 30
0.0
 11
-601.17226690395069
 21
348.38520849510155
 31
0.0
  0
LINE
  8
0
  6
CONTINUOUS
 62
               3
  5
18E
 10
-556.17226690395069
 20
348.38520849510155
 30
0.0
 11
-503.67226690395182
 21
348.38520849510155
 31
0.0
  0
LINE
  8
0
  6
CONTINUOUS
 62
               3
  5
18F
 10
-653.67226690395069
 20
353.38520849510155
 30
0.0
 11
-601.17226690395069
 21
353.38520849510155
 31
0.0
  0
LINE
  8
0
  6
CONTINUOUS
 62
               3
  5
190
 10
-556.17226690395069
 20
353.38520849510155
 30
0.0
 11
-503.67226690395182
 21
353.38520849510155
 31
0.0
  0
ARC
  8
0
  6
CONTINUOUS
 62
               3
  5
191
 10
-503.67226690395182
 20
350.88520849510155
 30
0.0
 40
2.4999999999999996
 50
269.99999999979229
 51
449.99999999965507
  0
LINE
  8
0
  6
CONTINUOUS
 62
               3
  5
192
 10
-503.67226690395125
 20
235.38520849510172
 30
0.0
 11
-503.67226690395182
 21
348.38520849510155
 31
0.0
  0
LINE
  8
0
  6
CONTINUOUS
 62
               3
  5
193
 10
-503.67226690395182
 20
353.38520849510155
 30
0.0
 11
-503.67226690395125
 21
472.38520849510155
 31
0.0
  0
LINE
  8
0
  6
CONTINUOUS
 62
               3
  5
194
 10
-520.67226690395057
 20
86.385208495101267
 30
0.0
 11
-508.12417592325005
 21
196.36553532595127
 31
0.0
  0
LINE
  8
0
  6
CONTINUOUS
 62
               3
  5
195
 10
-506.07212395018962
 20
214.3511673251291
 30
0.0
 11
-503.67226690395125
 21
235.38520849510201
 31
0.0
  0
CIRCLE
  8
0
  6
CONTINUOUS
 62
               3
  5
196
 10
-578.67226690395125
 20
425.88520849510155
 30
0.0
 40
55.499999999999865
  0
CIRCLE
  8
0
  6
CONTINUOUS
 62
               3
  5
197
 10
-578.67226690395125
 20
425.88520849510155
 30
0.0
 40
51.249999999999865
  0
ARC
  8
0
  6
CONTINUOUS
 62
               3
  5
198
 10
-578.67226690395125
 20
425.88520849510155
 30
0.0
 40
57.499999999999865
 50
224.99999999987045
 51
314.99999999981867
  0
LINE
  8
0
  6
CONTINUOUS
 62
               3
  5
199
 10
-619.33090682217767
 20
385.2265685768752
 30
0.0
 11
-620.95725241890682
 21
383.6002229801461
 31
0.0
  0
LINE
  8
0
  6
CONTINUOUS
 62
               3
  5
19A
 10
-538.01362698572484
 20
385.2265685768752
 30
0.0
 11
-536.3872813889958
 21
383.6002229801461
 31
0.0
  0
CIRCLE
  8
0
  6
CONTINUOUS
 62
               3
  5
19B
 10
-578.67226690395125
 20
425.88520849510155
 30
0.0
 40
60.999999999999879
  0
CIRCLE
  8
0
  6
CONTINUOUS
 62
               3
  5
19C
 10
-578.67226690395125
 20
425.88520849510155
 30
0.0
 40
59.799999999999862
  0
LINE
  8
0
  6
CONTINUOUS
 62
               3
  5
19D
 10
-650.67226690395057
 20
482.92086224795435
 30
0.0
 11
-630.67226690395057
 21
482.92086224795435
 31
0.0
  0
LINE
  8
0
  6
CONTINUOUS
 62
               3
  5
19E
 10
-526.67226690394898
 20
482.92086224795071
 30
0.0
 11
-506.6722669039508
 21
482.92086224795435
 31
0.0
  0
LINE
  8
0
  6
CONTINUOUS
 62
               3
  5
19F
 10
-636.6722669039508
 20
86.385208495101267
 30
0.0
 11
-636.6722669039508
 21
-4.6147915048987898
 31
0.0
  0
LINE
  8
0
  6
CONTINUOUS
 62
               3
  5
1A0
 10
-636.6722669039508
 20
86.385208495101836
 30
0.0
 11
-520.67226690395057
 21
86.385208495101267
 31
0.0
  0
LINE
  8
0
  6
CONTINUOUS
 62
               3
  5
1A1
 10
-633.67226690395125
 20
-105.61479150489834
 30
0.0
 11
-523.67226690395114
 21
-105.61479150489834
 31
0.0
  0
LINE
  8
0
  6
CONTINUOUS
 62
               3
  5
1A2
 10
-635.67226690395125
 20
-103.61479150489834
 30
0.0
 11
-635.67226690395125
 21
-5.614791504898335
 31
0.0
  0
LINE
  8
0
  6
CONTINUOUS
 62
               3
  5
1A3
 10
-635.67226690395125
 20
-5.614791504898335
 30
0.0
 11
-636.6722669039508
 21
-4.6147915048987898
 31
0.0
  0
CIRCLE
  8
0
  6
CONTINUOUS
 62
               3
  5
1A4
 10
-578.67226690395125
 20
425.88520849510155
 30
0.0
 40
70.0
  0
LINE
  8
0
  6
CONTINUOUS
 62
               3
  5
1A5
 10
-521.67226690395114
 20
-103.61479150489834
 30
0.0
 11
-521.67226690395114
 21
-5.614791504898335
 31
0.0
  0
LINE
  8
0
  6
CONTINUOUS
 62
               3
  5
1A6
 10
-521.67226690395114
 20
-5.614791504898335
 30
0.0
 11
-520.67226690395159
 21
-4.6147915048987898
 31
0.0
  0
LINE
  8
0
  6
CONTINUOUS
 62
               3
  5
1A7
 10
-520.67226690395159
 20
86.385208495101267
 30
0.0
 11
-520.67226690395159
 21
-4.6147915048987898
 31
0.0
  0
LINE
  8
0
  6
CONTINUOUS
 62
               3
  5
1A8
 10
296.32773309604875
 20
579.38520849510155
 30
0.0
 11
146.32773309604875
 21
579.38520849510155
 31
0.0
  0
LINE
  8
0
  6
CONTINUOUS
 62
               3
  5
1A9
 10
309.82773309604897
 20
569.38520849510155
 30
0.0
 11
309.82773309604897
 21
562.38520849510189
 31
0.0
  0
LINE
  8
0
  6
CONTINUOUS
 62
               3
  5
1AA
 10
309.82773309604897
 20
569.38520849510155
 30
0.0
 11
296.32773309604875
 21
579.38520849510155
 31
0.0
  0
ARC
  8
0
  6
CONTINUOUS
 62
               3
  5
1AB
 10
298.32773309604863
 20
557.80263280014617
 30
0.0
 40
4.9999999999999991
 50
113.57817847811482
 51
179.99999999986184
  0
LINE
  8
0
  6
CONTINUOUS
 62
               3
  5
1AC
 10
309.82773309604897
 20
562.38520849510189
 30
0.0
 11
132.82773309604852
 21
562.38520849510189
 31
0.0
  0
ARC
  8
0
  6
CONTINUOUS
 62
               3
  5
1AD
 10
276.32773309604875
 20
472.38520849510155
 30
0.0
 40
19.999999999999996
 50
0.0
 51
31.788330617027448
  0
LINE
  8
0
  6
CONTINUOUS
 62
               3
  5
1AE
 10
293.32773309604863
 20
557.80263280014617
 30
0.0
 11
293.32773309604863
 21
482.92086224795435
 31
0.0
  0
ARC
  8
0
  6
CONTINUOUS
 62
               3
  5
1AF
 10
166.32773309604875
 20
472.38520849510155
 30
0.0
 40
19.999999999999996
 50
148.21166938283463
 51
179.9999999998621
  0
LINE
  8
0
  6
CONTINUOUS
 62
               3
  5
1B0
 10
149.32773309604886
 20
482.92086224795435
 30
0.0
 11
149.32773309604886
 21
557.80263280014617
 31
0.0
  0
LINE
  8
0
  6
CONTINUOUS
 62
               3
  5
1B1
 10
279.32773309604886
 20
86.385208495101324
 30
0.0
 11
296.32773309604875
 21
235.38520849510166
 31
0.0
  0
LINE
  8
0
  6
CONTINUOUS
 62
               3
  5
1B2
 10
163.32773309604863
 20
86.385208495101324
 30
0.0
 11
146.32773309604875
 21
235.38520849510166
 31
0.0
  0
LINE
  8
0
  6
CONTINUOUS
 62
               3
  5
1B3
 10
296.32773309604875
 20
348.38520849510155
 30
0.0
 11
296.32773309604875
 21
235.38520849510166
 31
0.0
  0
LINE
  8
0
  6
CONTINUOUS
 62
               3
  5
1B4
 10
241.32773309604875
 20
562.38520849510189
 30
0.0
 11
241.32773309604875
 21
579.38520849510155
 31
0.0
  0
LINE
  8
0
  6
CONTINUOUS
 62
               3
  5
1B5
 10
201.32773309604875
 20
579.38520849510155
 30
0.0
 11
201.32773309604875
 21
562.38520849510189
 31
0.0
  0
LINE
  8
0
  6
CONTINUOUS
 62
               3
  5
1B6
 10
241.32773309604875
 20
569.38520849510155
 30
0.0
 11
201.32773309604875
 21
569.38520849510155
 31
0.0
  0
LINE
  8
0
  6
CONTINUOUS
 62
               3
  5
1B7
 10
293.61189457005355
 20
579.38520849510155
 30
0.0
 11
293.61189457005355
 21
562.38520849510189
 31
0.0
  0
LINE
  8
0
  6
CONTINUOUS
 62
               3
  5
1B8
 10
307.53823129667398
 20
569.38520849510155
 30
0.0
 11
307.53823129667398
 21
562.38520849510189
 31
0.0
  0
LINE
  8
0
  6
CONTINUOUS
 62
               3
  5
1B9
 10
309.82773309604897
 20
569.38520849510155
 30
0.0
 11
307.53823129667398
 21
569.38520849510155
 31
0.0
  0
LINE
  8
0
  6
CONTINUOUS
 62
               3
  5
1BA
 10
307.53823129667398
 20
569.38520849510155
 30
0.0
 11
293.61189457005355
 21
579.38520849510155
 31
0.0
  0
LINE
  8
0
  6
CONTINUOUS
 62
               3
  5
1BB
 10
132.82773309604852
 20
569.38520849510155
 30
0.0
 11
132.82773309604852
 21
562.38520849510189
 31
0.0
  0
LINE
  8
0
  6
CONTINUOUS
 62
               3
  5
1BC
 10
132.82773309604852
 20
569.38520849510155
 30
0.0
 11
146.32773309604875
 21
579.38520849510155
 31
0.0
  0
ARC
  8
0
  6
CONTINUOUS
 62
               3
  5
1BD
 10
144.32773309604886
 20
557.80263280014617
 30
0.0
 40
4.9999999999999991
 50
0.0
 51
66.421821521746878
  0
LINE
  8
0
  6
CONTINUOUS
 62
               3
  5
1BE
 10
149.04357162204394
 20
579.38520849510155
 30
0.0
 11
149.04357162204394
 21
562.38520849510189
 31
0.0
  0
LINE
  8
0
  6
CONTINUOUS
 62
               3
  5
1BF
 10
135.11723489542351
 20
569.38520849510155
 30
0.0
 11
135.11723489542351
 21
562.38520849510189
 31
0.0
  0
LINE
  8
0
  6
CONTINUOUS
 62
               3
  5
1C0
 10
132.82773309604852
 20
569.38520849510155
 30
0.0
 11
135.11723489542351
 21
569.38520849510155
 31
0.0
  0
LINE
  8
0
  6
CONTINUOUS
 62
               3
  5
1C1
 10
135.11723489542351
 20
569.38520849510155
 30
0.0
 11
149.04357162204394
 21
579.38520849510155
 31
0.0
  0
LINE
  8
0
  6
CONTINUOUS
 62
               3
  5
1C2
 10
293.32773309604863
 20
482.92086224795435
 30
0.0
 11
233.05473309604895
 21
482.92086224795435
 31
0.0
  0
LINE
  8
0
  6
CONTINUOUS
 62
               3
  5
1C3
 10
209.60073309604854
 20
482.92086224795435
 30
0.0
 11
149.32773309604886
 21
482.92086224795435
 31
0.0
  0
ARC
  8
0
  6
CONTINUOUS
 62
               3
  5
1C4
 10
296.32773309604875
 20
350.88520849510155
 30
0.0
 40
2.4999999999999996
 50
269.99999999979229
 51
449.99999999965507
  0
LINE
  8
0
  6
CONTINUOUS
 62
               3
  5
1C5
 10
146.32773309604875
 20
353.38520849510155
 30
0.0
 11
213.11073309604853
 21
353.38520849510155
 31
0.0
  0
LINE
  8
0
  6
CONTINUOUS
 62
               3
  5
1C6
 10
229.54473309604839
 20
353.38520849510155
 30
0.0
 11
296.32773309604875
 21
353.38520849510155
 31
0.0
  0
LINE
  8
0
  6
CONTINUOUS
 62
               3
  5
1C7
 10
146.32773309604875
 20
348.38520849510155
 30
0.0
 11
213.26608856263351
 21
348.38520849510155
 31
0.0
  0
LINE
  8
0
  6
CONTINUOUS
 62
               3
  5
1C8
 10
229.54473309604839
 20
348.38520849510155
 30
0.0
 11
296.32773309604875
 21
348.38520849510155
 31
0.0
  0
LINE
  8
0
  6
CONTINUOUS
 62
               3
  5
1C9
 10
296.32773309604875
 20
235.38520849510166
 30
0.0
 11
229.54473309604839
 21
235.38520849510166
 31
0.0
  0
LINE
  8
0
  6
CONTINUOUS
 62
               3
  5
1CA
 10
213.11073309604853
 20
235.38520849510166
 30
0.0
 11
146.32773309604875
 21
235.38520849510166
 31
0.0
  0
LINE
  8
0
  6
CONTINUOUS
 62
               3
  5
1CB
 10
296.32773309604875
 20
472.38520849510155
 30
0.0
 11
296.32773309604875
 21
353.38520849510155
 31
0.0
  0
ARC
  8
0
  6
CONTINUOUS
 62
               3
  5
1CC
 10
146.32773309604875
 20
350.88520849510155
 30
0.0
 40
2.4999999999999996
 50
89.999999999930751
 51
269.99999999979229
  0
LINE
  8
0
  6
CONTINUOUS
 62
               3
  5
1CD
 10
146.32773309604875
 20
235.38520849510166
 30
0.0
 11
146.32773309604875
 21
348.38520849510155
 31
0.0
  0
LINE
  8
0
  6
CONTINUOUS
 62
               3
  5
1CE
 10
146.32773309604875
 20
353.38520849510155
 30
0.0
 11
146.32773309604875
 21
472.38520849510155
 31
0.0
  0
LINE
  8
0
  6
CONTINUOUS
 62
               3
  5
1CF
 10
163.32773309604841
 20
-4.6147915048987898
 30
0.0
 11
163.32773309604863
 21
86.385208495101324
 31
0.0
  0
LINE
  8
0
  6
CONTINUOUS
 62
               3
  5
1D0
 10
279.32773309604886
 20
86.385208495101324
 30
0.0
 11
279.3277330960492
 21
-4.614791504898335
 31
0.0
  0
LINE
  8
0
  6
CONTINUOUS
 62
               3
  5
1D1
 10
279.32773309604886
 20
86.385208495101892
 30
0.0
 11
163.32773309604863
 21
86.385208495101324
 31
0.0
  0
LINE
  8
0
  6
CONTINUOUS
 62
               3
  5
1D2
 10
166.32773309604875
 20
-105.61479150489834
 30
0.0
 11
276.32773309604886
 21
-105.61479150489834
 31
0.0
  0
LINE
  8
0
  6
CONTINUOUS
 62
               3
  5
1D3
 10
164.32773309604875
 20
-103.61479150489834
 30
0.0
 11
164.32773309604875
 21
-5.614791504898335
 31
0.0
  0
LINE
  8
0
  6
CONTINUOUS
 62
               3
  5
1D4
 10
164.32773309604875
 20
-5.614791504898335
 30
0.0
 11
163.3277330960492
 21
-4.6147915048987898
 31
0.0
  0
LINE
  8
0
  6
CONTINUOUS
 62
               3
  5
1D5
 10
278.32773309604886
 20
-103.61479150489834
 30
0.0
 11
278.32773309604886
 21
-5.614791504898335
 31
0.0
  0
LINE
  8
0
  6
CONTINUOUS
 62
               3
  5
1D6
 10
278.32773309604886
 20
-5.614791504898335
 30
0.0
 11
279.32773309604841
 21
-4.6147915048987898
 31
0.0
  0
CIRCLE
  8
0
  6
CONTINUOUS
 62
               3
  5
1D7
 10
-178.67226690395123
 20
914.38520849510155
 30
0.0
 40
75.0
  0
CIRCLE
  8
0
  6
CONTINUOUS
 62
               3
  5
1D8
 10
-178.67226690395123
 20
914.38520849510155
 30
0.0
 40
52.5
  0
LINE
  8
0
  6
CONTINUOUS
 62
               3
  5
1D9
 10
-264.88276510457649
 20
934.38520849510155
 30
0.0
 11
-250.9564283779566
 21
934.38520849510155
 31
0.0
  0
LINE
  8
0
  6
CONTINUOUS
 62
               3
  5
1DA
 10
-250.9564283779566
 20
894.38520849510155
 30
0.0
 11
-264.88276510457649
 21
894.38520849510155
 31
0.0
  0
ARC
  8
0
  6
CONTINUOUS
 62
               3
  5
1DB
 10
-178.67226690395123
 20
914.38520849510155
 30
0.0
 40
88.5
 50
166.9389758850715
 51
193.06102411465255
  0
LINE
  8
0
  6
CONTINUOUS
 62
               3
  5
1DC
 10
-198.67226690395123
 20
828.17471029447665
 30
0.0
 11
-198.67226690395123
 21
842.10104702109652
 31
0.0
  0
LINE
  8
0
  6
CONTINUOUS
 62
               3
  5
1DD
 10
-158.67226690395123
 20
842.10104702109652
 30
0.0
 11
-158.67226690395123
 21
828.17471029447665
 31
0.0
  0
ARC
  8
0
  6
CONTINUOUS
 62
               3
  5
1DE
 10
-178.67226690395123
 20
914.38520849510155
 30
0.0
 40
88.5
 50
256.93897588500266
 51
283.06102411458357
  0
LINE
  8
0
  6
CONTINUOUS
 62
               3
  5
1DF
 10
-92.461768703326584
 20
894.38520849510155
 30
0.0
 11
-106.38810542994699
 21
894.38520849510155
 31
0.0
  0
LINE
  8
0
  6
CONTINUOUS
 62
               3
  5
1E0
 10
-106.38810542994699
 20
934.38520849510155
 30
0.0
 11
-92.461768703326584
 21
934.38520849510155
 31
0.0
  0
ARC
  8
0
  6
CONTINUOUS
 62
               3
  5
1E1
 10
-178.67226690395123
 20
914.38520849510155
 30
0.0
 40
88.5
 50
346.93897588493354
 51
373.06102411451457
  0
LINE
  8
0
  6
CONTINUOUS
 62
               3
  5
1E2
 10
-158.67226690395123
 20
1000.5957066957271
 30
0.0
 11
-158.67226690395123
 21
986.66936996910658
 31
0.0
  0
LINE
  8
0
  6
CONTINUOUS
 62
               3
  5
1E3
 10
-198.67226690395123
 20
986.66936996910658
 30
0.0
 11
-198.67226690395123
 21
1000.5957066957271
 31
0.0
  0
ARC
  8
0
  6
CONTINUOUS
 62
               3
  5
1E4
 10
-178.67226690395123
 20
914.38520849510155
 30
0.0
 40
88.5
 50
76.938975885140508
 51
103.06102411472156
  0
LINE
  8
0
  6
CONTINUOUS
 62
               3
  5
1E5
 10
-226.34039042481228
 20
892.3852084951011
 30
0.0
 11
-131.0041433830913
 21
892.3852084951011
 31
0.0
  0
ARC
  8
0
  6
CONTINUOUS
 62
               3
  5
1E6
 10
-166.1686552545701
 20
923.09160612272058
 30
0.0
 40
54.763804151667173
 50
141.38591763672954
 51
145.15009542084266
  0
ARC
  8
0
  6
CONTINUOUS
 62
               3
  5
1E7
 10
-178.67226690395123
 20
914.38520849510155
 30
0.0
 40
51.5
 50
334.71098847320116
 51
410.95932736332543
  0
ARC
  8
0
  6
CONTINUOUS
 62
               3
  5
1E8
 10
-178.67226690395123
 20
914.38520849510155
 30
0.0
 40
51.5
 50
129.04067263626098
 51
205.28901152638485
  0
ARC
  8
0
  6
CONTINUOUS
 62
               3
  5
1E9
 10
-178.67226690395123
 20
914.38520849510155
 30
0.0
 40
77.5
 50
14.955248316631865
 51
75.044751683299168
  0
ARC
  8
0
  6
CONTINUOUS
 62
               3
  5
1EA
 10
-178.67226690395123
 20
914.38520849510155
 30
0.0
 40
77.5
 50
284.95524831642501
 51
345.0447516830921
  0
LINE
  8
0
  6
CONTINUOUS
 62
               3
  5
1EB
 10
-211.11067007056883
 20
954.38520849510132
 30
0.0
 11
-178.67226690395123
 21
954.38520849510132
 31
0.0
  0
LINE
  8
0
  6
CONTINUOUS
 62
               3
  5
1EC
 10
-178.67226690395123
 20
954.38520849510132
 30
0.0
 11
-144.66859063211254
 21
954.38520849510132
 31
0.0
  0
LINE
  8
0
  6
CONTINUOUS
 62
               3
  5
1ED
 10
-315.65601053670997
 20
984.38520849510121
 30
0.0
 11
-315.65601053670997
 21
844.38464081024813
 31
0.0
  0
LINE
  8
0
  6
CONTINUOUS
 62
               3
  5
1EE
 10
-318.67226690395125
 20
982.05676462106533
 30
0.0
 11
-317.98445441074585
 21
982.05676462106533
 31
0.0
  0
LINE
  8
0
  6
CONTINUOUS
 62
               3
  5
1EF
 10
-315.65601053670997
 20
984.38520849510121
 30
0.0
 11
-317.98445441074585
 21
982.05676462106533
 31
0.0
  0
LINE
  8
0
  6
CONTINUOUS
 62
               3
  5
1F0
 10
-318.67226690395125
 20
984.38520849510121
 30
0.0
 11
-321.17226690395125
 21
984.38520849510121
 31
0.0
  0
ARC
  8
0
  6
CONTINUOUS
 62
               3
  5
1F1
 10
-321.17226690395125
 20
981.88520849510121
 30
0.0
 40
2.5
 50
89.999999999948997
 51
179.99999999989538
  0
LINE
  8
0
  6
CONTINUOUS
 62
               3
  5
1F2
 10
-318.67226690395125
 20
846.71365236913709
 30
0.0
 11
-317.98445441074585
 21
846.71365236913709
 31
0.0
  0
LINE
  8
0
  6
CONTINUOUS
 62
               3
  5
1F3
 10
-315.65601053670997
 20
844.38520849510121
 30
0.0
 11
-317.98445441074585
 21
846.71365236913709
 31
0.0
  0
LINE
  8
0
  6
CONTINUOUS
 62
               3
  5
1F4
 10
-318.67226690395125
 20
844.38520849510155
 30
0.0
 11
-321.17226690395125
 21
844.38520849510155
 31
0.0
  0
ARC
  8
0
  6
CONTINUOUS
 62
               3
  5
1F5
 10
-321.17226690395125
 20
846.88520849510155
 30
0.0
 40
2.5
 50
179.99999999989669
 51
269.99999999984499
  0
LINE
  8
0
  6
CONTINUOUS
 62
               3
  5
1F6
 10
-323.67226690395125
 20
981.88520849510121
 30
0.0
 11
-323.67226690395125
 21
846.88520849510155
 31
0.0
  0
LINE
  8
0
  6
CONTINUOUS
 62
               3
  5
1F7
 10
-318.67226690395125
 20
844.38520849510155
 30
0.0
 11
-318.67226690395125
 21
984.38520849510121
 31
0.0
  0
LINE
  8
0
  6
CONTINUOUS
 62
               3
  5
1F8
 10
-317.98445441074585
 20
982.05676462106533
 30
0.0
 11
-317.98445441074585
 21
846.71365236913709
 31
0.0
  0
LINE
  8
0
  6
CONTINUOUS
 62
               3
  5
1F9
 10
-315.67226690395114
 20
844.38520849510121
 30
0.0
 11
-198.67226690395123
 21
840.29947846456525
 31
0.0
  0
LINE
  8
0
  6
CONTINUOUS
 62
               3
  5
1FA
 10
-315.65601053670997
 20
984.38520849510121
 30
0.0
 11
-198.67226690395123
 21
988.47037084078249
 31
0.0
  0
LINE
  8
0
  6
CONTINUOUS
 62
               3
  5
1FB
 10
-233.67226690395123
 20
-105.61479150489845
 30
0.0
 11
-235.67226690395123
 21
-103.61479150489845
 31
0.0
  0
LINE
  8
0
  6
CONTINUOUS
 62
               3
  5
1FC
 10
-123.67226690395115
 20
-105.61479150489845
 30
0.0
 11
-121.67226690395115
 21
-103.61479150489845
 31
0.0
  0
LINE
  8
0
  6
CONTINUOUS
 62
               3
  5
1FD
 10
166.32773309604875
 20
-105.61479150489834
 30
0.0
 11
164.32773309604875
 21
-103.61479150489834
 31
0.0
  0
LINE
  8
0
  6
CONTINUOUS
 62
               3
  5
1FE
 10
276.32773309604886
 20
-105.61479150489834
 30
0.0
 11
278.32773309604886
 21
-103.61479150489834
 31
0.0
  0
LINE
  8
0
  6
CONTINUOUS
 62
               3
  5
1FF
 10
-633.67226690395125
 20
-105.61479150489834
 30
0.0
 11
-635.67226690395125
 21
-103.61479150489834
 31
0.0
  0
LINE
  8
0
  6
CONTINUOUS
 62
               3
  5
200
 10
-523.67226690395114
 20
-105.61479150489834
 30
0.0
 11
-521.67226690395114
 21
-103.61479150489834
 31
0.0
  0
LINE
  8
0
  6
CONTINUOUS
 62
               3
  5
201
 10
-610.71228090637089
 20
465.88520849510155
 30
0.0
 11
-546.63225281648988
 21
465.88520849510155
 31
0.0
  0
CIRCLE
  8
0
  6
CONTINUOUS
 62
               3
  5
202
 10
-178.67226690395123
 20
914.38520849510155
 30
0.0
 40
59.0
  0
LINE
  8
0
  6
DASHED2
 62
               3
  5
203
 10
-230.17226690395145
 20
-105.61479150489845
 30
0.0
 11
-230.17226690395145
 21
-25.614791504898449
 31
0.0
  0
LINE
  8
0
  6
DASHED2
 62
               3
  5
204
 10
-127.17226690395158
 20
-105.61479150489845
 30
0.0
 11
-127.17226690395158
 21
-25.614791504898449
 31
0.0
  0
LINE
  8
0
  6
DASHED2
 62
               3
  5
205
 10
-630.17226690395148
 20
-105.61479150489834
 30
0.0
 11
-630.17226690395148
 21
-25.614791504898335
 31
0.0
  0
LINE
  8
0
  6
DASHED2
 62
               3
  5
206
 10
-527.17226690395159
 20
-105.61479150489834
 30
0.0
 11
-527.17226690395159
 21
-25.614791504898335
 31
0.0
  0
LINE
  8
0
  6
DASHED2
 62
               3
  5
207
 10
169.82773309604852
 20
-105.61479150489834
 30
0.0
 11
169.82773309604852
 21
-25.614791504898335
 31
0.0
  0
LINE
  8
0
  6
DASHED2
 62
               3
  5
208
 10
272.82773309604841
 20
-105.61479150489834
 30
0.0
 11
272.82773309604841
 21
-25.614791504898335
 31
0.0
  0
LINE
  8
0
  6
CONTINUOUS
 62
               4
  5
209
 10
-101.67226690395134
 20
482.92086224795435
 30
0.0
 11
-106.67226690395134
 21
487.92086224795435
 31
0.0
  0
LINE
  8
0
  6
CONTINUOUS
 62
               4
  5
20A
 10
-101.67226690395134
 20
349.23218489798467
 30
0.0
 11
-101.67226690395134
 21
235.2716402648465
 31
0.0
  0
LINE
  8
0
  6
CONTINUOUS
 62
               4
  5
20B
 10
-101.67226690395134
 20
235.2716402648465
 30
0.0
 11
-118.40049130360238
 21
88.656984095450412
 31
0.0
  0
ARC
  8
0
  6
CONTINUOUS
 62
               4
  5
20C
 10
-124.17226690395135
 20
472.38520849510155
 30
0.0
 40
19.999999999999996
 50
0.0
 51
31.788330617027409
  0
LINE
  8
0
  6
CONTINUOUS
 62
               4
  5
20D
 10
-107.17226690395088
 20
482.92086224795435
 30
0.0
 11
-107.17226690395088
 21
487.92086224795491
 31
0.0
  0
LINE
  8
0
  6
CONTINUOUS
 62
               4
  5
20E
 10
-106.67226690395134
 20
487.92086224795435
 30
0.0
 11
-107.17226690395088
 21
487.92086224795435
 31
0.0
  0
LINE
  8
0
  6
CONTINUOUS
 62
               4
  5
20F
 10
-101.92226690395111
 20
482.67086224795435
 30
0.0
 11
-107.17226690395088
 21
487.92086224795435
 31
0.0
  0
LINE
  8
0
  6
CONTINUOUS
 62
               4
  5
210
 10
-101.92226690395111
 20
482.67086224795435
 30
0.0
 11
-101.67226690395134
 21
482.92086224795435
 31
0.0
  0
LINE
  8
0
  6
CONTINUOUS
 62
               4
  5
211
 10
-104.17226690395134
 20
348.23218489798444
 30
0.0
 11
-104.17226690395134
 21
235.41360055266603
 31
0.0
  0
LINE
  8
0
  6
CONTINUOUS
 62
               4
  5
212
 10
-101.92226690395111
 20
348.9468277908486
 30
0.0
 11
-101.92226690395111
 21
235.28583629362845
 31
0.0
  0
LINE
  8
0
  6
CONTINUOUS
 62
               4
  5
213
 10
-104.17226690395134
 20
235.41360055266603
 30
0.0
 11
-121.17550177030078
 21
86.38520849510121
 31
0.0
  0
LINE
  8
0
  6
CONTINUOUS
 62
               4
  5
214
 10
-104.17550177030145
 20
235.38520849510166
 30
0.0
 11
-101.67226690395134
 21
235.2716402648465
 31
0.0
  0
LINE
  8
0
  6
CONTINUOUS
 62
               4
  5
215
 10
-101.92226690395111
 20
235.28583629362845
 30
0.0
 11
-118.67799235027245
 21
88.429806535415423
 31
0.0
  0
LINE
  8
0
  6
CONTINUOUS
 62
               4
  5
216
 10
-101.67226690395134
 20
482.92086224795435
 30
0.0
 11
-101.67226690395134
 21
352.23218489798455
 31
0.0
  0
LINE
  8
0
  6
CONTINUOUS
 62
               4
  5
217
 10
-101.92226690395111
 20
482.67086224795435
 30
0.0
 11
-101.92226690395111
 21
352.51754200512005
 31
0.0
  0
LINE
  8
0
  6
CONTINUOUS
 62
               4
  5
218
 10
-104.17226690395134
 20
472.53823209221866
 30
0.0
 11
-104.17226690395134
 21
353.38520849510155
 31
0.0
  0
LINE
  8
0
  6
CONTINUOUS
 62
               4
  5
219
 10
-120.53113431744531
 20
181.60069943890187
 30
0.0
 11
-244.18426690395174
 21
285.35799738615469
 31
0.0
  0
ARC
  8
0
  6
CONTINUOUS
 62
               4
  5
21A
 10
-1092.9445870044908
 20
-859.2004197407939
 30
0.0
 40
1424.9238755783815
 50
50.189956146228056
 51
53.440796050690921
  0
ARC
  8
0
  6
CONTINUOUS
 62
               4
  5
21B
 10
-115.09287806691826
 20
306.15786740994781
 30
0.0
 40
130.75634311527989
 50
189.15312334015906
 51
212.7691831125899
  0
ARC
  8
0
  6
CONTINUOUS
 62
               4
  5
21C
 10
-117.30824140440016
 20
316.29188816118813
 30
0.0
 40
134.72974192119386
 50
216.90649751117132
 51
268.62928723390132
  0
ARC
  8
0
  6
CONTINUOUS
 62
               4
  5
21D
 10
-912.30261500245956
 20
-642.86146241590745
 30
0.0
 40
1143.0835201141012
 50
46.158732653390111
 51
50.202696616617857
  0
LINE
  8
0
  6
CONTINUOUS
 62
               4
  5
21E
 10
-120.67226690395113
 20
86.385208495101892
 30
0.0
 11
-118.40049130360238
 21
88.656984095450412
 31
0.0
  0
LINE
  8
0
  6
CONTINUOUS
 62
               4
  5
21F
 10
-121.17550177030078
 20
86.38520849510121
 30
0.0
 11
-118.40049130360238
 21
88.656984095450412
 31
0.0
  0
LINE
  8
0
  6
CONTINUOUS
 62
               4
  5
220
 10
-235.67226690395123
 20
-5.6147915048984487
 30
0.0
 11
-121.67226690395115
 21
-5.6147915048984487
 31
0.0
  0
LINE
  8
0
  6
CONTINUOUS
 62
               4
  5
221
 10
-236.67226690395077
 20
-4.6147915048989034
 30
0.0
 11
-120.67226690395084
 21
-4.6147915048984487
 31
0.0
  0
ARC
  8
0
  6
CONTINUOUS
 62
               4
  5
222
 10
-857.60149575307548
 20
113.71281008363917
 30
0.0
 40
359.11818398045398
 50
13.306177675720029
 51
28.552443501596613
  0
ARC
  8
0
  6
CONTINUOUS
 62
               4
  5
223
 10
-579.00345337394481
 20
221.95948598620839
 30
0.0
 40
73.327111796148202
 50
342.62945642104523
 51
419.83689160529798
  0
LINE
  8
0
  6
CONTINUOUS
 62
               4
  5
224
 10
-635.67226690395125
 20
-5.614791504898335
 30
0.0
 11
-521.67226690395114
 21
-5.614791504898335
 31
0.0
  0
LINE
  8
0
  6
CONTINUOUS
 62
               4
  5
225
 10
-636.6722669039508
 20
-4.6147915048987898
 30
0.0
 11
-520.6722669039508
 21
-4.614791504898335
 31
0.0
  0
ARC
  8
0
  6
CONTINUOUS
 62
               4
  5
226
 10
195.54376728408261
 20
472.38520849510155
 30
0.0
 40
17.566965811965957
 50
0.0
 51
36.851448659202589
  0
LINE
  8
0
  6
CONTINUOUS
 62
               4
  5
227
 10
233.05473309604895
 20
487.92086224795435
 30
0.0
 11
209.60073309604854
 21
487.92086224795435
 31
0.0
  0
ARC
  8
0
  6
CONTINUOUS
 62
               4
  5
228
 10
247.11169890801432
 20
472.38520849510155
 30
0.0
 40
17.566965811965957
 50
143.14855134065945
 51
179.99999999986204
  0
LINE
  8
0
  6
CONTINUOUS
 62
               4
  5
229
 10
209.60073309604854
 20
482.92086224795435
 30
0.0
 11
209.60073309604854
 21
487.92086224795435
 31
0.0
  0
LINE
  8
0
  6
CONTINUOUS
 62
               4
  5
22A
 10
233.05473309604895
 20
482.92086224795435
 30
0.0
 11
233.05473309604895
 21
487.92086224795435
 31
0.0
  0
LINE
  8
0
  6
CONTINUOUS
 62
               4
  5
22B
 10
209.60073309604854
 20
487.92086224795435
 30
0.0
 11
215.32773309604852
 21
482.92086224795435
 31
0.0
  0
LINE
  8
0
  6
CONTINUOUS
 62
               4
  5
22C
 10
227.32773309604841
 20
482.92086224795435
 30
0.0
 11
233.05473309604895
 21
487.92086224795435
 31
0.0
  0
LINE
  8
0
  6
CONTINUOUS
 62
               4
  5
22D
 10
215.32773309604852
 20
482.92086224795435
 30
0.0
 11
227.32773309604841
 21
482.92086224795435
 31
0.0
  0
LINE
  8
0
  6
CONTINUOUS
 62
               4
  5
22E
 10
227.32773309604841
 20
352.38520849510166
 30
0.0
 11
215.32773309604852
 21
352.38520849510166
 31
0.0
  0
ARC
  8
0
  6
CONTINUOUS
 62
               4
  5
22F
 10
213.26608856263351
 20
350.97112864663495
 30
0.0
 40
2.4999999999999996
 50
34.446185822118181
 51
93.562780573722691
  0
ARC
  8
0
  6
CONTINUOUS
 62
               4
  5
230
 10
229.38937762946398
 20
350.97112864663495
 30
0.0
 40
2.4999999999999996
 50
86.437219426138569
 51
145.5538141777445
  0
LINE
  8
0
  6
CONTINUOUS
 62
               4
  5
231
 10
227.32773309604841
 20
349.38520849510178
 30
0.0
 11
215.32773309604852
 21
349.38520849510178
 31
0.0
  0
ARC
  8
0
  6
CONTINUOUS
 62
               4
  5
232
 10
213.26608856263351
 20
350.79928834356815
 30
0.0
 40
2.4999999999999996
 50
266.43721942599979
 51
325.55381417760617
  0
ARC
  8
0
  6
CONTINUOUS
 62
               4
  5
233
 10
229.38937762946398
 20
350.79928834356815
 30
0.0
 40
2.4999999999999996
 50
214.44618582198009
 51
273.56278057358526
  0
LINE
  8
0
  6
CONTINUOUS
 62
               4
  5
234
 10
213.11073309604853
 20
348.38520849510155
 30
0.0
 11
213.11073309604853
 21
86.385208495101324
 31
0.0
  0
LINE
  8
0
  6
CONTINUOUS
 62
               4
  5
235
 10
229.54473309604839
 20
348.29928834356815
 30
0.0
 11
229.54473309604839
 21
86.385208495101324
 31
0.0
  0
LINE
  8
0
  6
CONTINUOUS
 62
               4
  5
236
 10
215.32773309604852
 20
349.38520849510178
 30
0.0
 11
215.32773309604852
 21
88.656984095450298
 31
0.0
  0
LINE
  8
0
  6
CONTINUOUS
 62
               4
  5
237
 10
227.32773309604841
 20
88.656984095450298
 30
0.0
 11
227.32773309604841
 21
349.38520849510178
 31
0.0
  0
LINE
  8
0
  6
CONTINUOUS
 62
               4
  5
238
 10
229.54473309604839
 20
235.38520849510166
 30
0.0
 11
213.11073309604853
 21
235.38520849510166
 31
0.0
  0
LINE
  8
0
  6
CONTINUOUS
 62
               4
  5
239
 10
213.11073309604853
 20
472.38520849510155
 30
0.0
 11
213.11073309604853
 21
353.38520849510155
 31
0.0
  0
LINE
  8
0
  6
CONTINUOUS
 62
               4
  5
23A
 10
229.54473309604839
 20
472.38520849510155
 30
0.0
 11
229.54473309604839
 21
353.38520849510155
 31
0.0
  0
LINE
  8
0
  6
CONTINUOUS
 62
               4
  5
23B
 10
227.32773309604841
 20
352.38520849510166
 30
0.0
 11
227.32773309604841
 21
482.92086224795435
 31
0.0
  0
LINE
  8
0
  6
CONTINUOUS
 62
               4
  5
23C
 10
215.32773309604852
 20
482.92086224795435
 30
0.0
 11
215.32773309604852
 21
352.38520849510166
 31
0.0
  0
ARC
  8
0
  6
CONTINUOUS
 62
               4
  5
23D
 10
206.34966014952101
 20
231.08795884152005
 30
0.0
 40
59.149634972654262
 50
186.49999999985687
 51
236.78754046650647
  0
ARC
  8
0
  6
CONTINUOUS
 62
               4
  5
23E
 10
227.25465262674265
 20
242.93697594027174
 30
0.0
 40
81.261593956721953
 50
186.49999999985687
 51
229.0079245643665
  0
ARC
  8
0
  6
CONTINUOUS
 62
               4
  5
23F
 10
82.009024272553461
 20
158.59945711557702
 30
0.0
 40
204.24864340422488
 50
353.49999999972903
 51
373.43680216719139
  0
ARC
  8
0
  6
CONTINUOUS
 62
               4
  5
240
 10
119.70003404061447
 20
160.88387418498473
 30
0.0
 40
167.18634723772169
 50
351.25933879866568
 51
375.67746336825519
  0
LINE
  8
0
  6
CONTINUOUS
 62
               4
  5
241
 10
215.32773309604852
 20
88.656984095450298
 30
0.0
 11
227.32773309604841
 21
88.656984095450298
 31
0.0
  0
LINE
  8
0
  6
CONTINUOUS
 62
               4
  5
242
 10
213.11073309604853
 20
86.385208495101324
 30
0.0
 11
215.32773309604852
 21
88.656984095450298
 31
0.0
  0
LINE
  8
0
  6
CONTINUOUS
 62
               4
  5
243
 10
227.32773309604841
 20
88.656984095450298
 30
0.0
 11
229.54473309604839
 21
86.385208495101324
 31
0.0
  0
LINE
  8
0
  6
CONTINUOUS
 62
               4
  5
244
 10
164.32773309604875
 20
-5.614791504898335
 30
0.0
 11
278.32773309604886
 21
-5.614791504898335
 31
0.0
  0
LINE
  8
0
  6
CONTINUOUS
 62
               4
  5
245
 10
163.3277330960492
 20
-4.6147915048987898
 30
0.0
 11
279.3277330960492
 21
-4.614791504898335
 31
0.0
  0
LINE
  8
0
  6
DASHED2
 62
               4
  5
246
 10
-235.67226690395111
 20
514.38520849510155
 30
0.0
 11
-121.67226690395135
 21
514.38520849510155
 31
0.0
  0
LINE
  8
0
  6
DASHED2
 62
               4
  5
247
 10
-635.67226690395114
 20
514.38520849510155
 30
0.0
 11
-521.67226690395137
 21
514.38520849510155
 31
0.0
  0
LINE
  8
0
  6
DASHED2
 62
               4
  5
248
 10
164.32773309604886
 20
514.38520849510155
 30
0.0
 11
278.32773309604863
 21
514.38520849510155
 31
0.0
  0
LINE
  8
0
  6
DASHDOT
 62
               4
  5
249
 10
-178.67226690395123
 20
599.38520849510155
 30
0.0
 11
-178.6722669039512
 21
-148.61479150489845
 31
0.0
  0
LINE
  8
0
  6
DASHDOT
 62
               4
  5
24A
 10
-336.41322216291212
 20
425.88520849510155
 30
0.0
 11
-253.67226690395108
 21
425.88520849510155
 31
0.0
  0
LINE
  8
0
  6
DASHDOT
 62
               4
  5
24B
 10
-578.67226690395125
 20
599.38520849510155
 30
0.0
 11
-578.67226690395114
 21
-148.61479150489834
 31
0.0
  0
LINE
  8
0
  6
DASHDOT
 62
               4
  5
24C
 10
-654.17226690395125
 20
425.88520849510155
 30
0.0
 11
-503.17226690395125
 21
425.88520849510155
 31
0.0
  0
LINE
  8
0
  6
DASHDOT
 62
               4
  5
24D
 10
221.32773309604875
 20
599.38520849510155
 30
0.0
 11
221.32773309604886
 21
-148.61479150489834
 31
0.0
  0
LINE
  8
0
  6
DASHDOT
 62
               4
  5
24E
 10
-178.67226690395123
 20
1022.8852084951016
 30
0.0
 11
-178.67226690395123
 21
805.88520849510155
 31
0.0
  0
LINE
  8
0
  6
DASHDOT
 62
               4
  5
24F
 10
-340.67226690395114
 20
914.38520849510155
 30
0.0
 11
-70.172266903950998
 21
914.38520849510155
 31
0.0
  0
POINT
  8
0
  6
CONTINUOUS
 62
               5
  5
250
 10
-580.5659162639339
 20
-101.31002342611509
 30
0.0
  0
POINT
  8
0
  6
CONTINUOUS
 62
               5
  5
251
 10
219.4340837360661
 20
-101.31002342611498
 30
0.0
  0
ENDSEC
  0
EOF
