  0
SECTION
  2
HEADER
  9
$ACADVER
  1
AC1009
  9
$INSBASE
 10
0.0
 20
0.0
 30
0.0
  9
$EXTMIN
 10
-716.03999999999974
 20
-585.37
 30
0.0
  9
$EXTMAX
 10
716.04000000000019
 20
733.87
 30
0.0
  9
$LIMMIN
 10
-760.79249999999979
 20
-626.59625000000005
  9
$LIMMAX
 10
760.79250000000025
 20
775.09625000000005
  9
$ORTHOMODE
 70
               0
  9
$REGENMODE
 70
               1
  9
$FILLMODE
 70
               1
  9
$QTEXTMODE
 70
               0
  9
$MIRRTEXT
 70
               1
  9
$DRAGMODE
 70
               2
  9
$LTSCALE
 40
1.0
  9
$OSMODE
 70
               0
  9
$ATTMODE
 70
               1
  9
$TEXTSIZE
 40
0.2
  9
$TRACEWID
 40
0.05
  9
$TEXTSTYLE
  7
STANDARD
  9
$CLAYER
  8
0
  9
$CELTYPE
  6
CONTINUOUS
  9
$CECOLOR
 62
             256
  9
$DIMSCALE
 40
1.0
  9
$DIMASZ
 40
0.18
  9
$DIMEXO
 40
0.0625
  9
$DIMDLI
 40
0.38
  9
$DIMRND
 40
0.0
  9
$DIMDLE
 40
0.0
  9
$DIMEXE
 40
0.18
  9
$DIMTP
 40
0.0
  9
$DIMTM
 40
0.0
  9
$DIMTXT
 40
0.18
  9
$DIMCEN
 40
0.09
  9
$DIMTSZ
 40
0.0
  9
$DIMTOL
 70
               0
  9
$DIMLIM
 70
               0
  9
$DIMTIH
 70
               1
  9
$DIMTOH
 70
               1
  9
$DIMSE1
 70
               0
  9
$DIMSE2
 70
               0
  9
$DIMTAD
 70
               0
  9
$DIMZIN
 70
               0
  9
$DIMBLK
  1

  9
$DIMASO
 70
               1
  9
$DIMSHO
 70
               1
  9
$DIMPOST
  1

  9
$DIMAPOST
  1

  9
$DIMALT
 70
               0
  9
$DIMALTD
 70
               2
  9
$DIMALTF
 40
25.399999999999999
  9
$DIMLFAC
 40
1.0
  9
$DIMTOFL
 70
               0
  9
$DIMTVP
 40
0.0
  9
$DIMTIX
 70
               0
  9
$DIMSOXD
 70
               0
  9
$DIMSAH
 70
               0
  9
$DIMBLK1
  1

  9
$DIMBLK2
  1

  9
$DIMSTYLE
  2
STANDARD
  9
$DIMCLRD
 70
               0
  9
$DIMCLRE
 70
               0
  9
$DIMCLRT
 70
               0
  9
$DIMTFAC
 40
1.0
  9
$DIMGAP
 40
0.09
  9
$LUNITS
 70
               2
  9
$LUPREC
 70
               4
  9
$AXISMODE
 70
               0
  9
$AXISUNIT
 10
0.0
 20
0.0
  9
$SKETCHINC
 40
0.1
  9
$FILLETRAD
 40
0.0
  9
$AUNITS
 70
               0
  9
$AUPREC
 70
               0
  9
$MENU
  1
acad
  9
$ELEVATION
 40
0.0
  9
$PELEVATION
 40
0.0
  9
$THICKNESS
 40
0.0
  9
$LIMCHECK
 70
               0
  9
$BLIPMODE
 70
               1
  9
$CHAMFERA
 40
0.0
  9
$CHAMFERB
 40
0.0
  9
$SKPOLY
 70
               0
  9
$TDCREATE
 40
0.000000000
  9
$TDUPDATE
 40
0.000000000
  9
$TDINDWG
 40
0.0000000000
  9
$TDUSRTIMER
 40
0.0000000000
  9
$USRTIMER
 70
               1
  9
$ANGBASE
 50
0.0
  9
$ANGDIR
 70
               0
  9
$PDMODE
 70
               0
  9
$PDSIZE
 40
1.0
  9
$PLINEWID
 40
0.0
  9
$COORDS
 70
               1
  9
$SPLFRAME
 70
               0
  9
$SPLINETYPE
 70
               6
  9
$SPLINESEGS
 70
               8
  9
$ATTDIA
 70
               0
  9
$ATTREQ
 70
               1
  9
$HANDLING
 70
               1
  9
$HANDSEED
  5
250
  9
$SURFTAB1
 70
               6
  9
$SURFTAB2
 70
               6
  9
$SURFTYPE
 70
               6
  9
$SURFU
 70
               6
  9
$SURFV
 70
               6
  9
$UCSNAME
  2

  9
$UCSORG
 10
0.0
 20
0.0
 30
0.0
  9
$UCSXDIR
 10
1.0
 20
0.0
 30
0.0
  9
$UCSYDIR
 10
0.0
 20
1.0
 30
0.0
  9
$PUCSNAME
  2

  9
$PUCSORG
 10
0.0
 20
0.0
 30
0.0
  9
$PUCSXDIR
 10
1.0
 20
0.0
 30
0.0
  9
$PUCSYDIR
 10
0.0
 20
1.0
 30
0.0
  9
$USERI1
 70
               0
  9
$USERI2
 70
               0
  9
$USERI3
 70
               0
  9
$USERI4
 70
               0
  9
$USERI5
 70
               0
  9
$USERR1
 40
0.0
  9
$USERR2
 40
0.0
  9
$USERR3
 40
0.0
  9
$USERR4
 40
0.0
  9
$USERR5
 40
0.0
  9
$WORLDVIEW
 70
               1
  9
$SHADEDGE
 70
               3
  9
$SHADEDIF
 70
              70
  9
$TILEMODE
 70
               1
  9
$MAXACTVP
 70
              16
  9
$PINSBASE
 10
0.0
 20
0.0
 30
0.0
  9
$PLIMCHECK
 70
               0
  9
$PEXTMIN
 10
1.0000000000000000E+20
 20
1.0000000000000000E+20
 30
1.0000000000000000E+20
  9
$PEXTMAX
 10
-1.0000000000000000E+20
 20
-1.0000000000000000E+20
 30
-1.0000000000000000E+20
  9
$PLIMMIN
 10
0.0
 20
0.0
  9
$PLIMMAX
 10
12.0
 20
9.0
  9
$UNITMODE
 70
               0
  9
$VISRETAIN
 70
               0
  9
$PLINEGEN
 70
               1
  9
$PSLTSCALE
 70
               0
  9
$TREEDEPTH
 70
            3020
  9
$DWGCODEPAGE
  3
dos932
  0
ENDSEC
  0
SECTION
  2
TABLES
  0
TABLE
  2
VPORT
 70
               1
  0
VPORT
  2
*ACTIVE
 70
               0
 10
0.0
 20
0.0
 11
1.0
 21
1.0
 12
0.0000000000002274
 22
74.25
 13
0.0
 23
0.0
 14
1.0
 24
1.0
 15
0.0
 25
0.0
 16
0.0
 26
0.0
 36
1.0
 17
0.0
 27
0.0
 37
0.0
 40
1401.6925000000001
 41
1.0855340953882537
 42
50.0
 43
0.0
 44
0.0
 50
0.0
 51
0.0
 71
               0
 72
             100
 73
               1
 74
               1
 75
               0
 76
               0
 77
               0
 78
               0
  0
ENDTAB
  0
TABLE
  2
LTYPE
 70
              26
  0
LTYPE
  2
CONTINUOUS
 70
               0
  3
Solid line
 72
              65
 73
               0
 40
0.0
  0
LTYPE
  2
HIDDENX2
 70
               0
  3
CADPAC FUSION LINETYPE
 72
              65
 73
               2
 40
80.0
 49
60.0
 49
-20.0
  0
LTYPE
  2
HIDDEN
 70
               0
  3
CADPAC FUSION LINETYPE
 72
              65
 73
               2
 40
60.0
 49
40.0
 49
-20.0
  0
LTYPE
  2
HIDDEN2
 70
               0
  3
CADPAC FUSION LINETYPE
 72
              65
 73
               2
 40
50.0
 49
30.0
 49
-20.0
  0
LTYPE
  2
DASHED
 70
               0
  3
CADPAC FUSION LINETYPE
 72
              65
 73
               2
 40
60.0
 49
40.0
 49
-20.0
  0
LTYPE
  2
DASHED2
 70
               0
  3
CADPAC FUSION LINETYPE
 72
              65
 73
               2
 40
45.0
 49
30.0
 49
-15.0
  0
LTYPE
  2
DASHEDX2
 70
               0
  3
CADPAC FUSION LINETYPE
 72
              65
 73
               2
 40
90.0
 49
60.0
 49
-30.0
  0
LTYPE
  2
DOTX2
 70
               0
  3
CADPAC FUSION LINETYPE
 72
              65
 73
               2
 40
25.0
 49
0.0
 49
-25.0
  0
LTYPE
  2
DOT
 70
               0
  3
CADPAC FUSION LINETYPE
 72
              65
 73
               2
 40
20.0
 49
0.0
 49
-20.0
  0
LTYPE
  2
DOTS
 70
               0
  3
CADPAC FUSION LINETYPE
 72
              65
 73
               2
 40
20.0
 49
0.0
 49
-20.0
  0
LTYPE
  2
DOT2
 70
               0
  3
CADPAC FUSION LINETYPE
 72
              65
 73
               2
 40
15.0
 49
0.0
 49
-15.0
  0
LTYPE
  2
CENTERX2
 70
               0
  3
CADPAC FUSION LINETYPE
 72
              65
 73
               4
 40
120.0
 49
50.0
 49
-25.0
 49
20.0
 49
-25.0
  0
LTYPE
  2
CENTER
 70
               0
  3
CADPAC FUSION LINETYPE
 72
              65
 73
               4
 40
92.0
 49
40.0
 49
-20.0
 49
12.0
 49
-20.0
  0
LTYPE
  2
CENTER2
 70
               0
  3
CADPAC FUSION LINETYPE
 72
              65
 73
               4
 40
64.0
 49
30.0
 49
-15.0
 49
4.0
 49
-15.0
  0
LTYPE
  2
DASHDOTX2
 70
               0
  3
CADPAC FUSION LINETYPE
 72
              65
 73
               4
 40
100.0
 49
50.0
 49
-25.0
 49
0.0
 49
-25.0
  0
LTYPE
  2
DASHDOT
 70
               0
  3
CADPAC FUSION LINETYPE
 72
              65
 73
               4
 40
80.0
 49
40.0
 49
-20.0
 49
0.0
 49
-20.0
  0
LTYPE
  2
DASHDOT2
 70
               0
  3
CADPAC FUSION LINETYPE
 72
              65
 73
               4
 40
60.0
 49
30.0
 49
-15.0
 49
0.0
 49
-15.0
  0
LTYPE
  2
DIVIDEX2
 70
               0
  3
CADPAC FUSION LINETYPE
 72
              65
 73
               6
 40
125.0
 49
50.0
 49
-25.0
 49
0.0
 49
-25.0
 49
0.0
 49
-25.0
  0
LTYPE
  2
DIVIDE
 70
               0
  3
CADPAC FUSION LINETYPE
 72
              65
 73
               6
 40
100.0
 49
40.0
 49
-20.0
 49
0.0
 49
-20.0
 49
0.0
 49
-20.0
  0
LTYPE
  2
DIVIDE2
 70
               0
  3
CADPAC FUSION LINETYPE
 72
              65
 73
               6
 40
75.0
 49
30.0
 49
-15.0
 49
0.0
 49
-15.0
 49
0.0
 49
-15.0
  0
LTYPE
  2
BORDERX2
 70
               0
  3
CADPAC FUSION LINETYPE
 72
              65
 73
               6
 40
175.0
 49
50.0
 49
-25.0
 49
50.0
 49
-25.0
 49
0.0
 49
-25.0
  0
LTYPE
  2
BORDER
 70
               0
  3
CADPAC FUSION LINETYPE
 72
              65
 73
               6
 40
140.0
 49
40.0
 49
-20.0
 49
40.0
 49
-20.0
 49
0.0
 49
-20.0
  0
LTYPE
  2
BORDER2
 70
               0
  3
CADPAC FUSION LINETYPE
 72
              65
 73
               6
 40
105.0
 49
30.0
 49
-15.0
 49
30.0
 49
-15.0
 49
0.0
 49
-15.0
  0
LTYPE
  2
PHANTOMX2
 70
               0
  3
CADPAC FUSION LINETYPE
 72
              65
 73
               6
 40
150.0
 49
50.0
 49
-20.0
 49
20.0
 49
-20.0
 49
20.0
 49
-20.0
  0
LTYPE
  2
PHANTOM
 70
               0
  3
CADPAC FUSION LINETYPE
 72
              65
 73
               6
 40
124.0
 49
40.0
 49
-20.0
 49
12.0
 49
-20.0
 49
12.0
 49
-20.0
  0
LTYPE
  2
PHANTOM2
 70
               0
  3
CADPAC FUSION LINETYPE
 72
              65
 73
               6
 40
106.0
 49
30.0
 49
-20.0
 49
8.0
 49
-20.0
 49
8.0
 49
-20.0
  0
ENDTAB
  0
TABLE
  2
LAYER
 70
             256
  0
LAYER
  2
0
 70
               0
 62
               7
  6
CONTINUOUS
  0
LAYER
  2
LAYER001
 70
               0
 62
               7
  6
CONTINUOUS
  0
LAYER
  2
LAYER002
 70
               0
 62
               7
  6
CONTINUOUS
  0
LAYER
  2
LAYER003
 70
               0
 62
               7
  6
CONTINUOUS
  0
LAYER
  2
LAYER004
 70
               0
 62
               7
  6
CONTINUOUS
  0
LAYER
  2
LAYER005
 70
               0
 62
               7
  6
CONTINUOUS
  0
LAYER
  2
LAYER006
 70
               0
 62
               7
  6
CONTINUOUS
  0
LAYER
  2
LAYER007
 70
               0
 62
               7
  6
CONTINUOUS
  0
LAYER
  2
LAYER008
 70
               0
 62
               7
  6
CONTINUOUS
  0
LAYER
  2
LAYER009
 70
               0
 62
               7
  6
CONTINUOUS
  0
LAYER
  2
LAYER010
 70
               0
 62
               7
  6
CONTINUOUS
  0
LAYER
  2
LAYER011
 70
               0
 62
               7
  6
CONTINUOUS
  0
LAYER
  2
LAYER012
 70
               0
 62
               7
  6
CONTINUOUS
  0
LAYER
  2
LAYER013
 70
               0
 62
               7
  6
CONTINUOUS
  0
LAYER
  2
LAYER014
 70
               0
 62
               7
  6
CONTINUOUS
  0
LAYER
  2
LAYER015
 70
               0
 62
               7
  6
CONTINUOUS
  0
LAYER
  2
LAYER016
 70
               0
 62
               7
  6
CONTINUOUS
  0
LAYER
  2
LAYER017
 70
               0
 62
               7
  6
CONTINUOUS
  0
LAYER
  2
LAYER018
 70
               0
 62
               7
  6
CONTINUOUS
  0
LAYER
  2
LAYER019
 70
               0
 62
               7
  6
CONTINUOUS
  0
LAYER
  2
LAYER020
 70
               0
 62
               7
  6
CONTINUOUS
  0
LAYER
  2
LAYER021
 70
               0
 62
               7
  6
CONTINUOUS
  0
LAYER
  2
LAYER022
 70
               0
 62
               7
  6
CONTINUOUS
  0
LAYER
  2
LAYER023
 70
               0
 62
               7
  6
CONTINUOUS
  0
LAYER
  2
LAYER024
 70
               0
 62
               7
  6
CONTINUOUS
  0
LAYER
  2
LAYER025
 70
               0
 62
               7
  6
CONTINUOUS
  0
LAYER
  2
LAYER026
 70
               0
 62
               7
  6
CONTINUOUS
  0
LAYER
  2
LAYER027
 70
               0
 62
               7
  6
CONTINUOUS
  0
LAYER
  2
LAYER028
 70
               0
 62
               7
  6
CONTINUOUS
  0
LAYER
  2
LAYER029
 70
               0
 62
               7
  6
CONTINUOUS
  0
LAYER
  2
LAYER030
 70
               0
 62
               7
  6
CONTINUOUS
  0
LAYER
  2
LAYER031
 70
               0
 62
               7
  6
CONTINUOUS
  0
LAYER
  2
LAYER032
 70
               0
 62
               7
  6
CONTINUOUS
  0
LAYER
  2
LAYER033
 70
               0
 62
               7
  6
CONTINUOUS
  0
LAYER
  2
LAYER034
 70
               0
 62
               7
  6
CONTINUOUS
  0
LAYER
  2
LAYER035
 70
               0
 62
               7
  6
CONTINUOUS
  0
LAYER
  2
LAYER036
 70
               0
 62
               7
  6
CONTINUOUS
  0
LAYER
  2
LAYER037
 70
               0
 62
               7
  6
CONTINUOUS
  0
LAYER
  2
LAYER038
 70
               0
 62
               7
  6
CONTINUOUS
  0
LAYER
  2
LAYER039
 70
               0
 62
               7
  6
CONTINUOUS
  0
LAYER
  2
LAYER040
 70
               0
 62
               7
  6
CONTINUOUS
  0
LAYER
  2
LAYER041
 70
               0
 62
               7
  6
CONTINUOUS
  0
LAYER
  2
LAYER042
 70
               0
 62
               7
  6
CONTINUOUS
  0
LAYER
  2
LAYER043
 70
               0
 62
               7
  6
CONTINUOUS
  0
LAYER
  2
LAYER044
 70
               0
 62
               7
  6
CONTINUOUS
  0
LAYER
  2
LAYER045
 70
               0
 62
               7
  6
CONTINUOUS
  0
LAYER
  2
LAYER046
 70
               0
 62
               7
  6
CONTINUOUS
  0
LAYER
  2
LAYER047
 70
               0
 62
               7
  6
CONTINUOUS
  0
LAYER
  2
LAYER048
 70
               0
 62
               7
  6
CONTINUOUS
  0
LAYER
  2
LAYER049
 70
               0
 62
               7
  6
CONTINUOUS
  0
LAYER
  2
LAYER050
 70
               0
 62
               7
  6
CONTINUOUS
  0
LAYER
  2
LAYER051
 70
               0
 62
               7
  6
CONTINUOUS
  0
LAYER
  2
LAYER052
 70
               0
 62
               7
  6
CONTINUOUS
  0
LAYER
  2
LAYER053
 70
               0
 62
               7
  6
CONTINUOUS
  0
LAYER
  2
LAYER054
 70
               0
 62
               7
  6
CONTINUOUS
  0
LAYER
  2
LAYER055
 70
               0
 62
               7
  6
CONTINUOUS
  0
LAYER
  2
LAYER056
 70
               0
 62
               7
  6
CONTINUOUS
  0
LAYER
  2
LAYER057
 70
               0
 62
               7
  6
CONTINUOUS
  0
LAYER
  2
LAYER058
 70
               0
 62
               7
  6
CONTINUOUS
  0
LAYER
  2
LAYER059
 70
               0
 62
               7
  6
CONTINUOUS
  0
LAYER
  2
LAYER060
 70
               0
 62
               7
  6
CONTINUOUS
  0
LAYER
  2
LAYER061
 70
               0
 62
               7
  6
CONTINUOUS
  0
LAYER
  2
LAYER062
 70
               0
 62
               7
  6
CONTINUOUS
  0
LAYER
  2
LAYER063
 70
               0
 62
               7
  6
CONTINUOUS
  0
LAYER
  2
LAYER064
 70
               0
 62
               7
  6
CONTINUOUS
  0
LAYER
  2
LAYER065
 70
               0
 62
               7
  6
CONTINUOUS
  0
LAYER
  2
LAYER066
 70
               0
 62
               7
  6
CONTINUOUS
  0
LAYER
  2
LAYER067
 70
               0
 62
               7
  6
CONTINUOUS
  0
LAYER
  2
LAYER068
 70
               0
 62
               7
  6
CONTINUOUS
  0
LAYER
  2
LAYER069
 70
               0
 62
               7
  6
CONTINUOUS
  0
LAYER
  2
LAYER070
 70
               0
 62
               7
  6
CONTINUOUS
  0
LAYER
  2
LAYER071
 70
               0
 62
               7
  6
CONTINUOUS
  0
LAYER
  2
LAYER072
 70
               0
 62
               7
  6
CONTINUOUS
  0
LAYER
  2
LAYER073
 70
               0
 62
               7
  6
CONTINUOUS
  0
LAYER
  2
LAYER074
 70
               0
 62
               7
  6
CONTINUOUS
  0
LAYER
  2
LAYER075
 70
               0
 62
               7
  6
CONTINUOUS
  0
LAYER
  2
LAYER076
 70
               0
 62
               7
  6
CONTINUOUS
  0
LAYER
  2
LAYER077
 70
               0
 62
               7
  6
CONTINUOUS
  0
LAYER
  2
LAYER078
 70
               0
 62
               7
  6
CONTINUOUS
  0
LAYER
  2
LAYER079
 70
               0
 62
               7
  6
CONTINUOUS
  0
LAYER
  2
LAYER080
 70
               0
 62
               7
  6
CONTINUOUS
  0
LAYER
  2
LAYER081
 70
               0
 62
               7
  6
CONTINUOUS
  0
LAYER
  2
LAYER082
 70
               0
 62
               7
  6
CONTINUOUS
  0
LAYER
  2
LAYER083
 70
               0
 62
               7
  6
CONTINUOUS
  0
LAYER
  2
LAYER084
 70
               0
 62
               7
  6
CONTINUOUS
  0
LAYER
  2
LAYER085
 70
               0
 62
               7
  6
CONTINUOUS
  0
LAYER
  2
LAYER086
 70
               0
 62
               7
  6
CONTINUOUS
  0
LAYER
  2
LAYER087
 70
               0
 62
               7
  6
CONTINUOUS
  0
LAYER
  2
LAYER088
 70
               0
 62
               7
  6
CONTINUOUS
  0
LAYER
  2
LAYER089
 70
               0
 62
               7
  6
CONTINUOUS
  0
LAYER
  2
LAYER090
 70
               0
 62
               7
  6
CONTINUOUS
  0
LAYER
  2
LAYER091
 70
               0
 62
               7
  6
CONTINUOUS
  0
LAYER
  2
LAYER092
 70
               0
 62
               7
  6
CONTINUOUS
  0
LAYER
  2
LAYER093
 70
               0
 62
               7
  6
CONTINUOUS
  0
LAYER
  2
LAYER094
 70
               0
 62
               7
  6
CONTINUOUS
  0
LAYER
  2
LAYER095
 70
               0
 62
               7
  6
CONTINUOUS
  0
LAYER
  2
LAYER096
 70
               0
 62
               7
  6
CONTINUOUS
  0
LAYER
  2
LAYER097
 70
               0
 62
               7
  6
CONTINUOUS
  0
LAYER
  2
LAYER098
 70
               0
 62
               7
  6
CONTINUOUS
  0
LAYER
  2
LAYER099
 70
               0
 62
               7
  6
CONTINUOUS
  0
LAYER
  2
LAYER100
 70
               0
 62
               7
  6
CONTINUOUS
  0
LAYER
  2
LAYER101
 70
               0
 62
               7
  6
CONTINUOUS
  0
LAYER
  2
LAYER102
 70
               0
 62
               7
  6
CONTINUOUS
  0
LAYER
  2
LAYER103
 70
               0
 62
               7
  6
CONTINUOUS
  0
LAYER
  2
LAYER104
 70
               0
 62
               7
  6
CONTINUOUS
  0
LAYER
  2
LAYER105
 70
               0
 62
               7
  6
CONTINUOUS
  0
LAYER
  2
LAYER106
 70
               0
 62
               7
  6
CONTINUOUS
  0
LAYER
  2
LAYER107
 70
               0
 62
               7
  6
CONTINUOUS
  0
LAYER
  2
LAYER108
 70
               0
 62
               7
  6
CONTINUOUS
  0
LAYER
  2
LAYER109
 70
               0
 62
               7
  6
CONTINUOUS
  0
LAYER
  2
LAYER110
 70
               0
 62
               7
  6
CONTINUOUS
  0
LAYER
  2
LAYER111
 70
               0
 62
               7
  6
CONTINUOUS
  0
LAYER
  2
LAYER112
 70
               0
 62
               7
  6
CONTINUOUS
  0
LAYER
  2
LAYER113
 70
               0
 62
               7
  6
CONTINUOUS
  0
LAYER
  2
LAYER114
 70
               0
 62
               7
  6
CONTINUOUS
  0
LAYER
  2
LAYER115
 70
               0
 62
               7
  6
CONTINUOUS
  0
LAYER
  2
LAYER116
 70
               0
 62
               7
  6
CONTINUOUS
  0
LAYER
  2
LAYER117
 70
               0
 62
               7
  6
CONTINUOUS
  0
LAYER
  2
LAYER118
 70
               0
 62
               7
  6
CONTINUOUS
  0
LAYER
  2
LAYER119
 70
               0
 62
               7
  6
CONTINUOUS
  0
LAYER
  2
LAYER120
 70
               0
 62
               7
  6
CONTINUOUS
  0
LAYER
  2
LAYER121
 70
               0
 62
               7
  6
CONTINUOUS
  0
LAYER
  2
LAYER122
 70
               0
 62
               7
  6
CONTINUOUS
  0
LAYER
  2
LAYER123
 70
               0
 62
               7
  6
CONTINUOUS
  0
LAYER
  2
LAYER124
 70
               0
 62
               7
  6
CONTINUOUS
  0
LAYER
  2
LAYER125
 70
               0
 62
               7
  6
CONTINUOUS
  0
LAYER
  2
LAYER126
 70
               0
 62
               7
  6
CONTINUOUS
  0
LAYER
  2
LAYER127
 70
               0
 62
               7
  6
CONTINUOUS
  0
LAYER
  2
LAYER128
 70
               0
 62
               7
  6
CONTINUOUS
  0
LAYER
  2
LAYER129
 70
               0
 62
               7
  6
CONTINUOUS
  0
LAYER
  2
LAYER130
 70
               0
 62
               7
  6
CONTINUOUS
  0
LAYER
  2
LAYER131
 70
               0
 62
               7
  6
CONTINUOUS
  0
LAYER
  2
LAYER132
 70
               0
 62
               7
  6
CONTINUOUS
  0
LAYER
  2
LAYER133
 70
               0
 62
               7
  6
CONTINUOUS
  0
LAYER
  2
LAYER134
 70
               0
 62
               7
  6
CONTINUOUS
  0
LAYER
  2
LAYER135
 70
               0
 62
               7
  6
CONTINUOUS
  0
LAYER
  2
LAYER136
 70
               0
 62
               7
  6
CONTINUOUS
  0
LAYER
  2
LAYER137
 70
               0
 62
               7
  6
CONTINUOUS
  0
LAYER
  2
LAYER138
 70
               0
 62
               7
  6
CONTINUOUS
  0
LAYER
  2
LAYER139
 70
               0
 62
               7
  6
CONTINUOUS
  0
LAYER
  2
LAYER140
 70
               0
 62
               7
  6
CONTINUOUS
  0
LAYER
  2
LAYER141
 70
               0
 62
               7
  6
CONTINUOUS
  0
LAYER
  2
LAYER142
 70
               0
 62
               7
  6
CONTINUOUS
  0
LAYER
  2
LAYER143
 70
               0
 62
               7
  6
CONTINUOUS
  0
LAYER
  2
LAYER144
 70
               0
 62
               7
  6
CONTINUOUS
  0
LAYER
  2
LAYER145
 70
               0
 62
               7
  6
CONTINUOUS
  0
LAYER
  2
LAYER146
 70
               0
 62
               7
  6
CONTINUOUS
  0
LAYER
  2
LAYER147
 70
               0
 62
               7
  6
CONTINUOUS
  0
LAYER
  2
LAYER148
 70
               0
 62
               7
  6
CONTINUOUS
  0
LAYER
  2
LAYER149
 70
               0
 62
               7
  6
CONTINUOUS
  0
LAYER
  2
LAYER150
 70
               0
 62
               7
  6
CONTINUOUS
  0
LAYER
  2
LAYER151
 70
               0
 62
               7
  6
CONTINUOUS
  0
LAYER
  2
LAYER152
 70
               0
 62
               7
  6
CONTINUOUS
  0
LAYER
  2
LAYER153
 70
               0
 62
               7
  6
CONTINUOUS
  0
LAYER
  2
LAYER154
 70
               0
 62
               7
  6
CONTINUOUS
  0
LAYER
  2
LAYER155
 70
               0
 62
               7
  6
CONTINUOUS
  0
LAYER
  2
LAYER156
 70
               0
 62
               7
  6
CONTINUOUS
  0
LAYER
  2
LAYER157
 70
               0
 62
               7
  6
CONTINUOUS
  0
LAYER
  2
LAYER158
 70
               0
 62
               7
  6
CONTINUOUS
  0
LAYER
  2
LAYER159
 70
               0
 62
               7
  6
CONTINUOUS
  0
LAYER
  2
LAYER160
 70
               0
 62
               7
  6
CONTINUOUS
  0
LAYER
  2
LAYER161
 70
               0
 62
               7
  6
CONTINUOUS
  0
LAYER
  2
LAYER162
 70
               0
 62
               7
  6
CONTINUOUS
  0
LAYER
  2
LAYER163
 70
               0
 62
               7
  6
CONTINUOUS
  0
LAYER
  2
LAYER164
 70
               0
 62
               7
  6
CONTINUOUS
  0
LAYER
  2
LAYER165
 70
               0
 62
               7
  6
CONTINUOUS
  0
LAYER
  2
LAYER166
 70
               0
 62
               7
  6
CONTINUOUS
  0
LAYER
  2
LAYER167
 70
               0
 62
               7
  6
CONTINUOUS
  0
LAYER
  2
LAYER168
 70
               0
 62
               7
  6
CONTINUOUS
  0
LAYER
  2
LAYER169
 70
               0
 62
               7
  6
CONTINUOUS
  0
LAYER
  2
LAYER170
 70
               0
 62
               7
  6
CONTINUOUS
  0
LAYER
  2
LAYER171
 70
               0
 62
               7
  6
CONTINUOUS
  0
LAYER
  2
LAYER172
 70
               0
 62
               7
  6
CONTINUOUS
  0
LAYER
  2
LAYER173
 70
               0
 62
               7
  6
CONTINUOUS
  0
LAYER
  2
LAYER174
 70
               0
 62
               7
  6
CONTINUOUS
  0
LAYER
  2
LAYER175
 70
               0
 62
               7
  6
CONTINUOUS
  0
LAYER
  2
LAYER176
 70
               0
 62
               7
  6
CONTINUOUS
  0
LAYER
  2
LAYER177
 70
               0
 62
               7
  6
CONTINUOUS
  0
LAYER
  2
LAYER178
 70
               0
 62
               7
  6
CONTINUOUS
  0
LAYER
  2
LAYER179
 70
               0
 62
               7
  6
CONTINUOUS
  0
LAYER
  2
LAYER180
 70
               0
 62
               7
  6
CONTINUOUS
  0
LAYER
  2
LAYER181
 70
               0
 62
               7
  6
CONTINUOUS
  0
LAYER
  2
LAYER182
 70
               0
 62
               7
  6
CONTINUOUS
  0
LAYER
  2
LAYER183
 70
               0
 62
               7
  6
CONTINUOUS
  0
LAYER
  2
LAYER184
 70
               0
 62
               7
  6
CONTINUOUS
  0
LAYER
  2
LAYER185
 70
               0
 62
               7
  6
CONTINUOUS
  0
LAYER
  2
LAYER186
 70
               0
 62
               7
  6
CONTINUOUS
  0
LAYER
  2
LAYER187
 70
               0
 62
               7
  6
CONTINUOUS
  0
LAYER
  2
LAYER188
 70
               0
 62
               7
  6
CONTINUOUS
  0
LAYER
  2
LAYER189
 70
               0
 62
               7
  6
CONTINUOUS
  0
LAYER
  2
LAYER190
 70
               0
 62
               7
  6
CONTINUOUS
  0
LAYER
  2
LAYER191
 70
               0
 62
               7
  6
CONTINUOUS
  0
LAYER
  2
LAYER192
 70
               0
 62
               7
  6
CONTINUOUS
  0
LAYER
  2
LAYER193
 70
               0
 62
               7
  6
CONTINUOUS
  0
LAYER
  2
LAYER194
 70
               0
 62
               7
  6
CONTINUOUS
  0
LAYER
  2
LAYER195
 70
               0
 62
               7
  6
CONTINUOUS
  0
LAYER
  2
LAYER196
 70
               0
 62
               7
  6
CONTINUOUS
  0
LAYER
  2
LAYER197
 70
               0
 62
               7
  6
CONTINUOUS
  0
LAYER
  2
LAYER198
 70
               0
 62
               7
  6
CONTINUOUS
  0
LAYER
  2
LAYER199
 70
               0
 62
               7
  6
CONTINUOUS
  0
LAYER
  2
LAYER200
 70
               0
 62
               7
  6
CONTINUOUS
  0
LAYER
  2
LAYER201
 70
               0
 62
               7
  6
CONTINUOUS
  0
LAYER
  2
LAYER202
 70
               0
 62
               7
  6
CONTINUOUS
  0
LAYER
  2
LAYER203
 70
               0
 62
               7
  6
CONTINUOUS
  0
LAYER
  2
LAYER204
 70
               0
 62
               7
  6
CONTINUOUS
  0
LAYER
  2
LAYER205
 70
               0
 62
               7
  6
CONTINUOUS
  0
LAYER
  2
LAYER206
 70
               0
 62
               7
  6
CONTINUOUS
  0
LAYER
  2
LAYER207
 70
               0
 62
               7
  6
CONTINUOUS
  0
LAYER
  2
LAYER208
 70
               0
 62
               7
  6
CONTINUOUS
  0
LAYER
  2
LAYER209
 70
               0
 62
               7
  6
CONTINUOUS
  0
LAYER
  2
LAYER210
 70
               0
 62
               7
  6
CONTINUOUS
  0
LAYER
  2
LAYER211
 70
               0
 62
               7
  6
CONTINUOUS
  0
LAYER
  2
LAYER212
 70
               0
 62
               7
  6
CONTINUOUS
  0
LAYER
  2
LAYER213
 70
               0
 62
               7
  6
CONTINUOUS
  0
LAYER
  2
LAYER214
 70
               0
 62
               7
  6
CONTINUOUS
  0
LAYER
  2
LAYER215
 70
               0
 62
               7
  6
CONTINUOUS
  0
LAYER
  2
LAYER216
 70
               0
 62
               7
  6
CONTINUOUS
  0
LAYER
  2
LAYER217
 70
               0
 62
               7
  6
CONTINUOUS
  0
LAYER
  2
LAYER218
 70
               0
 62
               7
  6
CONTINUOUS
  0
LAYER
  2
LAYER219
 70
               0
 62
               7
  6
CONTINUOUS
  0
LAYER
  2
LAYER220
 70
               0
 62
               7
  6
CONTINUOUS
  0
LAYER
  2
LAYER221
 70
               0
 62
               7
  6
CONTINUOUS
  0
LAYER
  2
LAYER222
 70
               0
 62
               7
  6
CONTINUOUS
  0
LAYER
  2
LAYER223
 70
               0
 62
               7
  6
CONTINUOUS
  0
LAYER
  2
LAYER224
 70
               0
 62
               7
  6
CONTINUOUS
  0
LAYER
  2
LAYER225
 70
               0
 62
               7
  6
CONTINUOUS
  0
LAYER
  2
LAYER226
 70
               0
 62
               7
  6
CONTINUOUS
  0
LAYER
  2
LAYER227
 70
               0
 62
               7
  6
CONTINUOUS
  0
LAYER
  2
LAYER228
 70
               0
 62
               7
  6
CONTINUOUS
  0
LAYER
  2
LAYER229
 70
               0
 62
               7
  6
CONTINUOUS
  0
LAYER
  2
LAYER230
 70
               0
 62
               7
  6
CONTINUOUS
  0
LAYER
  2
LAYER231
 70
               0
 62
               7
  6
CONTINUOUS
  0
LAYER
  2
LAYER232
 70
               0
 62
               7
  6
CONTINUOUS
  0
LAYER
  2
LAYER233
 70
               0
 62
               7
  6
CONTINUOUS
  0
LAYER
  2
LAYER234
 70
               0
 62
               7
  6
CONTINUOUS
  0
LAYER
  2
LAYER235
 70
               0
 62
               7
  6
CONTINUOUS
  0
LAYER
  2
LAYER236
 70
               0
 62
               7
  6
CONTINUOUS
  0
LAYER
  2
LAYER237
 70
               0
 62
               7
  6
CONTINUOUS
  0
LAYER
  2
LAYER238
 70
               0
 62
               7
  6
CONTINUOUS
  0
LAYER
  2
LAYER239
 70
               0
 62
               7
  6
CONTINUOUS
  0
LAYER
  2
LAYER240
 70
               0
 62
               7
  6
CONTINUOUS
  0
LAYER
  2
LAYER241
 70
               0
 62
               7
  6
CONTINUOUS
  0
LAYER
  2
LAYER242
 70
               0
 62
               7
  6
CONTINUOUS
  0
LAYER
  2
LAYER243
 70
               0
 62
               7
  6
CONTINUOUS
  0
LAYER
  2
LAYER244
 70
               0
 62
               7
  6
CONTINUOUS
  0
LAYER
  2
LAYER245
 70
               0
 62
               7
  6
CONTINUOUS
  0
LAYER
  2
LAYER246
 70
               0
 62
               7
  6
CONTINUOUS
  0
LAYER
  2
LAYER247
 70
               0
 62
               7
  6
CONTINUOUS
  0
LAYER
  2
LAYER248
 70
               0
 62
               7
  6
CONTINUOUS
  0
LAYER
  2
LAYER249
 70
               0
 62
               7
  6
CONTINUOUS
  0
LAYER
  2
LAYER250
 70
               0
 62
               7
  6
CONTINUOUS
  0
LAYER
  2
LAYER251
 70
               0
 62
               7
  6
CONTINUOUS
  0
LAYER
  2
LAYER252
 70
               0
 62
               7
  6
CONTINUOUS
  0
LAYER
  2
LAYER253
 70
               0
 62
               7
  6
CONTINUOUS
  0
LAYER
  2
LAYER254
 70
               0
 62
               7
  6
CONTINUOUS
  0
LAYER
  2
LAYER255
 70
               0
 62
               7
  6
CONTINUOUS
  0
ENDTAB
  0
TABLE
  2
STYLE
 70
               1
  0
STYLE
  2
STANDARD
 70
               0
 40
0.0
 41
1.0
 50
0.0
 71
               0
 42
0.0
  3
txt
  4

  0
ENDTAB
  0
TABLE
  2
VIEW
 70
               0
  0
VIEW
  2
QQQQ
 70
               0
 40
1401.6925000000001
 10
0.0000000000002274
 20
74.25
 41
1521.585
 11
0.0
 21
0.0
 31
1.0
 12
100.0
 22
100.0
 32
0.0
 42
50.0
 43
0.0
 44
0.0
 50
0.0
 71
               0
  0
ENDTAB
  0
TABLE
  2
UCS
 70
               0
  0
ENDTAB
  0
TABLE
  2
APPID
 70
               1
  0
APPID
  2
ACAD
 70
               0
  0
ENDTAB
  0
TABLE
  2
DIMSTYLE
 70
               1
  0
DIMSTYLE
  2
STANDARD
 70
               0
  3

  4

  5

  6

  7

 40
1.0
 41
0.18
 42
0.0625
 43
0.38
 44
0.18
 45
0.0
 46
0.0
 47
0.0
 48
0.0
140
0.18
141
0.09
142
0.0
143
25.399999999999999
144
1.0
145
0.0
146
1.0
147
0.09
 71
               0
 72
               0
 73
               1
 74
               1
 75
               0
 76
               0
 77
               0
 78
               0
170
               0
171
               2
172
               0
173
               0
174
               0
175
               0
176
               0
177
               0
178
               0
  0
ENDTAB
  0
ENDSEC
  0
SECTION
  2
BLOCKS
  0
ENDSEC
  0
SECTION
  2
ENTITIES
  0
CIRCLE
  8
0
  6
CONTINUOUS
 62
               3
  5
136
 10
0.0
 20
600.0
 30
0.0
 40
75.0
  0
CIRCLE
  8
0
  6
CONTINUOUS
 62
               3
  5
137
 10
0.0
 20
600.0
 30
0.0
 40
52.5
  0
LINE
  8
0
  6
CONTINUOUS
 62
               3
  5
138
 10
-86.210498200625238
 20
620.0
 30
0.0
 11
-72.284161474005373
 21
620.0
 31
0.0
  0
LINE
  8
0
  6
CONTINUOUS
 62
               3
  5
139
 10
-72.284161474005373
 20
580.0
 30
0.0
 11
-86.210498200625238
 21
580.0
 31
0.0
  0
ARC
  8
0
  6
CONTINUOUS
 62
               3
  5
13A
 10
0.0
 20
600.0
 30
0.0
 40
88.5
 50
166.93897588513528
 51
193.06102411472631
  0
LINE
  8
0
  6
CONTINUOUS
 62
               3
  5
13B
 10
-20.000000000000004
 20
513.7895017993751
 30
0.0
 11
-20.000000000000004
 21
527.71583852599497
 31
0.0
  0
LINE
  8
0
  6
CONTINUOUS
 62
               3
  5
13C
 10
20.0
 20
527.71583852599497
 30
0.0
 11
20.0
 21
513.7895017993751
 31
0.0
  0
ARC
  8
0
  6
CONTINUOUS
 62
               3
  5
13D
 10
0.0
 20
600.0
 30
0.0
 40
88.5
 50
256.93897588510077
 51
283.06102411469175
  0
LINE
  8
0
  6
CONTINUOUS
 62
               3
  5
13E
 10
86.210498200624656
 20
580.0
 30
0.0
 11
72.284161474004236
 21
580.0
 31
0.0
  0
LINE
  8
0
  6
CONTINUOUS
 62
               3
  5
13F
 10
72.284161474004236
 20
620.0
 30
0.0
 11
86.210498200624656
 21
620.0
 31
0.0
  0
ARC
  8
0
  6
CONTINUOUS
 62
               3
  5
140
 10
0.0
 20
600.0
 30
0.0
 40
88.5
 50
346.9389758850661
 51
373.06102411465713
  0
LINE
  8
0
  6
CONTINUOUS
 62
               3
  5
141
 10
20.0
 20
686.21049820062558
 30
0.0
 11
20.0
 21
672.28416147400503
 31
0.0
  0
LINE
  8
0
  6
CONTINUOUS
 62
               3
  5
142
 10
-20.000000000000004
 20
672.28416147400503
 30
0.0
 11
-20.000000000000004
 21
686.21049820062558
 31
0.0
  0
ARC
  8
0
  6
CONTINUOUS
 62
               3
  5
143
 10
0.0
 20
600.0
 30
0.0
 40
88.5
 50
76.938975885169896
 51
103.06102411476094
  0
LINE
  8
0
  6
CONTINUOUS
 62
               3
  5
144
 10
-47.668123520861059
 20
577.99999999999955
 30
0.0
 11
47.668123520859922
 21
577.99999999999955
 31
0.0
  0
ARC
  8
0
  6
CONTINUOUS
 62
               3
  5
145
 10
12.503611649381128
 20
608.70639762761903
 30
0.0
 40
54.763804151667173
 50
141.3859176367836
 51
145.15009542089808
  0
ARC
  8
0
  6
CONTINUOUS
 62
               3
  5
146
 10
0.0
 20
600.0
 30
0.0
 40
51.5
 50
334.71098847332905
 51
410.9593273634826
  0
ARC
  8
0
  6
CONTINUOUS
 62
               3
  5
147
 10
0.0
 20
600.0
 30
0.0
 40
51.5
 50
129.04067263631032
 51
205.28901152646336
  0
ARC
  8
0
  6
CONTINUOUS
 62
               3
  5
148
 10
0.0
 20
600.0
 30
0.0
 40
77.5
 50
104.955248316603
 51
128.57288309098388
  0
ARC
  8
0
  6
CONTINUOUS
 62
               3
  5
149
 10
0.0
 20
600.0
 30
0.0
 40
77.5
 50
14.955248316637585
 51
75.044751683327831
  0
ARC
  8
0
  6
CONTINUOUS
 62
               3
  5
14A
 10
0.0
 20
600.0
 30
0.0
 40
77.5
 50
284.95524831653381
 51
345.04475168322404
  0
LINE
  8
0
  6
CONTINUOUS
 62
               3
  5
14B
 10
-140.0
 20
545.0
 30
0.0
 11
-139.32844387403577
 21
545.0
 31
0.0
  0
LINE
  8
0
  6
CONTINUOUS
 62
               3
  5
14C
 10
-136.82844387403532
 20
542.5
 30
0.0
 11
-139.32844387403577
 21
545.0
 31
0.0
  0
LINE
  8
0
  6
CONTINUOUS
 62
               3
  5
14D
 10
-140.0
 20
655.0
 30
0.0
 11
-139.32844387403577
 21
655.0
 31
0.0
  0
LINE
  8
0
  6
CONTINUOUS
 62
               3
  5
14E
 10
-136.82844387403577
 20
657.5
 30
0.0
 11
-139.32844387403577
 21
655.0
 31
0.0
  0
LINE
  8
0
  6
CONTINUOUS
 62
               3
  5
14F
 10
-139.32844387403577
 20
655.0
 30
0.0
 11
-139.32844387403577
 21
545.0
 31
0.0
  0
LINE
  8
0
  6
CONTINUOUS
 62
               3
  5
150
 10
-45.490335786377912
 20
660.6895970183416
 30
0.0
 11
-136.82844387403577
 21
657.5
 31
0.0
  0
LINE
  8
0
  6
CONTINUOUS
 62
               3
  5
151
 10
-45.490335786378594
 20
539.31040298165885
 30
0.0
 11
-136.82844387403526
 21
542.5
 31
0.0
  0
LINE
  8
0
  6
CONTINUOUS
 62
               3
  5
152
 10
-145.0
 20
654.82844387403588
 30
0.0
 11
-145.0
 21
544.89999999999998
 31
0.0
  0
LINE
  8
0
  6
CONTINUOUS
 62
               3
  5
153
 10
-140.0
 20
542.39999999999998
 30
0.0
 11
-140.0
 21
657.60000000000002
 31
0.0
  0
LINE
  8
0
  6
CONTINUOUS
 62
               3
  5
154
 10
-140.0
 20
657.60000000000002
 30
0.0
 11
-142.5
 21
657.60000000000002
 31
0.0
  0
LINE
  8
0
  6
CONTINUOUS
 62
               3
  5
155
 10
-140.0
 20
542.39999999999998
 30
0.0
 11
-142.5
 21
542.39999999999998
 31
0.0
  0
ARC
  8
0
  6
CONTINUOUS
 62
               3
  5
156
 10
-142.5
 20
544.89999999999998
 30
0.0
 40
2.5
 50
179.99999999993088
 51
269.99999999989649
  0
ARC
  8
0
  6
CONTINUOUS
 62
               3
  5
157
 10
-142.5
 20
655.10000000000002
 30
0.0
 40
2.5
 50
89.999999999965596
 51
179.99999999993088
  0
LINE
  8
0
  6
CONTINUOUS
 62
               3
  5
158
 10
-32.438403166617604
 20
639.99999999999977
 30
0.0
 11
0.0
 21
639.99999999999977
 31
0.0
  0
LINE
  8
0
  6
CONTINUOUS
 62
               3
  5
159
 10
0.0
 20
639.99999999999977
 30
0.0
 11
34.003676271838685
 21
639.99999999999977
 31
0.0
  0
ARC
  8
0
  6
CONTINUOUS
 62
               3
  5
15A
 10
0.0
 20
600.0
 30
0.0
 40
77.5
 50
231.42711690887714
 51
255.04475168325865
  0
LINE
  8
0
  6
CONTINUOUS
 62
               3
  5
15B
 10
-136.82844387403532
 20
542.5
 30
0.0
 11
-136.82844387403577
 21
657.5
 31
0.0
  0
ARC
  8
0
  6
CONTINUOUS
 62
               3
  5
15C
 10
-45.66483326989043
 20
665.68655115343711
 30
0.0
 40
5.0
 50
271.99999999989558
 51
304.80675787031055
  0
ARC
  8
0
  6
CONTINUOUS
 62
               3
  5
15D
 10
-45.664833269891083
 20
534.31344884656335
 30
0.0
 40
5.0
 50
55.19324212955059
 51
87.999999999966377
  0
LINE
  8
0
  6
CONTINUOUS
 62
               3
  5
15E
 10
-75.0
 20
65.0
 30
0.0
 11
75.0
 21
65.0
 31
0.0
  0
LINE
  8
0
  6
CONTINUOUS
 62
               3
  5
15F
 10
-88.500000000000227
 20
55.0
 30
0.0
 11
-88.500000000000227
 21
48.000000000000341
 31
0.0
  0
LINE
  8
0
  6
CONTINUOUS
 62
               3
  5
160
 10
-88.500000000000227
 20
55.0
 30
0.0
 11
-75.0
 21
65.0
 31
0.0
  0
ARC
  8
0
  6
CONTINUOUS
 62
               3
  5
161
 10
-76.999999999999886
 20
43.417424305044619
 30
0.0
 40
4.9999999999999991
 50
0.0
 51
66.4218215217725
  0
LINE
  8
0
  6
CONTINUOUS
 62
               3
  5
162
 10
-88.500000000000227
 20
48.000000000000341
 30
0.0
 11
88.499999999999659
 21
48.000000000000341
 31
0.0
  0
ARC
  8
0
  6
CONTINUOUS
 62
               3
  5
163
 10
-55.0
 20
-42.0
 30
0.0
 40
19.999999999999996
 50
148.21166938289122
 51
167.2698198616232
  0
LINE
  8
0
  6
CONTINUOUS
 62
               3
  5
164
 10
-71.999999999999886
 20
43.417424305044619
 30
0.0
 11
-71.999999999999886
 21
-31.464346247147205
 31
0.0
  0
LINE
  8
0
  6
CONTINUOUS
 62
               3
  5
165
 10
71.999999999999886
 20
-26.464346247146636
 30
0.0
 11
71.999999999999886
 21
43.417424305044619
 31
0.0
  0
LINE
  8
0
  6
CONTINUOUS
 62
               3
  5
166
 10
-58.000000000000114
 20
-428.00000000000028
 30
0.0
 11
-75.0
 21
-278.99999999999983
 31
0.0
  0
LINE
  8
0
  6
CONTINUOUS
 62
               3
  5
167
 10
58.000000000000107
 20
-438.9999999999992
 30
0.0
 11
58.000000000000107
 21
-428.00000000000028
 31
0.0
  0
LINE
  8
0
  6
CONTINUOUS
 62
               3
  5
168
 10
-74.999999999999986
 20
-179.80722333221911
 30
0.0
 11
-75.0
 21
-278.99999999999983
 31
0.0
  0
LINE
  8
0
  6
CONTINUOUS
 62
               3
  5
169
 10
-58.000000000000114
 20
-428.00000000000028
 30
0.0
 11
-58.000000000000114
 21
-439.0
 31
0.0
  0
LINE
  8
0
  6
CONTINUOUS
 62
               3
  5
16A
 10
-71.999999999999886
 20
-31.464346247147205
 30
0.0
 11
71.500000000000341
 21
-31.464346247147205
 31
0.0
  0
LINE
  8
0
  6
CONTINUOUS
 62
               3
  5
16B
 10
-20.000000000000004
 20
48.000000000000341
 30
0.0
 11
-20.000000000000004
 21
65.0
 31
0.0
  0
LINE
  8
0
  6
CONTINUOUS
 62
               3
  5
16C
 10
20.0
 20
65.0
 30
0.0
 11
20.0
 21
48.000000000000341
 31
0.0
  0
LINE
  8
0
  6
CONTINUOUS
 62
               3
  5
16D
 10
-20.000000000000004
 20
55.0
 30
0.0
 11
20.0
 21
55.0
 31
0.0
  0
LINE
  8
0
  6
CONTINUOUS
 62
               3
  5
16E
 10
-72.284161474005373
 20
65.0
 30
0.0
 11
-72.284161474005373
 21
48.000000000000341
 31
0.0
  0
LINE
  8
0
  6
CONTINUOUS
 62
               3
  5
16F
 10
-86.210498200625238
 20
55.0
 30
0.0
 11
-86.210498200625238
 21
48.000000000000341
 31
0.0
  0
LINE
  8
0
  6
CONTINUOUS
 62
               3
  5
170
 10
-88.500000000000227
 20
55.0
 30
0.0
 11
-86.210498200625238
 21
55.0
 31
0.0
  0
LINE
  8
0
  6
CONTINUOUS
 62
               3
  5
171
 10
-86.210498200625238
 20
55.0
 30
0.0
 11
-72.284161474005373
 21
65.0
 31
0.0
  0
LINE
  8
0
  6
CONTINUOUS
 62
               3
  5
172
 10
88.499999999999659
 20
55.0
 30
0.0
 11
88.499999999999659
 21
48.000000000000341
 31
0.0
  0
LINE
  8
0
  6
CONTINUOUS
 62
               3
  5
173
 10
88.499999999999659
 20
55.0
 30
0.0
 11
75.0
 21
65.0
 31
0.0
  0
ARC
  8
0
  6
CONTINUOUS
 62
               3
  5
174
 10
76.999999999999886
 20
43.417424305044619
 30
0.0
 40
4.9999999999999991
 50
113.57817847815815
 51
179.99999999993057
  0
LINE
  8
0
  6
CONTINUOUS
 62
               3
  5
175
 10
72.284161474004236
 20
65.0
 30
0.0
 11
72.284161474004236
 21
48.000000000000341
 31
0.0
  0
LINE
  8
0
  6
CONTINUOUS
 62
               3
  5
176
 10
86.210498200625238
 20
55.0
 30
0.0
 11
86.210498200625238
 21
48.000000000000341
 31
0.0
  0
LINE
  8
0
  6
CONTINUOUS
 62
               3
  5
177
 10
88.499999999999659
 20
55.0
 30
0.0
 11
86.210498200625238
 21
55.0
 31
0.0
  0
LINE
  8
0
  6
CONTINUOUS
 62
               3
  5
178
 10
86.210498200625238
 20
55.0
 30
0.0
 11
72.284161474004236
 21
65.0
 31
0.0
  0
LINE
  8
0
  6
CONTINUOUS
 62
               3
  5
179
 10
-58.000000000000114
 20
-427.99999999999972
 30
0.0
 11
58.000000000000107
 21
-428.00000000000028
 31
0.0
  0
ARC
  8
0
  6
CONTINUOUS
 62
               3
  5
17A
 10
-65.0
 20
-163.5
 30
0.0
 40
2.4999999999999996
 50
89.999999999965354
 51
269.99999999989632
  0
ARC
  8
0
  6
CONTINUOUS
 62
               3
  5
17B
 10
75.0
 20
-163.5
 30
0.0
 40
2.4999999999999996
 50
269.99999999989649
 51
449.99999999982703
  0
LINE
  8
0
  6
CONTINUOUS
 62
               3
  5
17C
 10
-75.0
 20
-278.99999999999983
 30
0.0
 11
-46.36810779205689
 21
-278.99999999999983
 31
0.0
  0
LINE
  8
0
  6
CONTINUOUS
 62
               3
  5
17D
 10
-1.9728332801508941
 20
-278.99999999999983
 30
0.0
 11
74.496765133649774
 21
-278.99999999999983
 31
0.0
  0
LINE
  8
0
  6
CONTINUOUS
 62
               3
  5
17E
 10
-65.0
 20
-161.0
 30
0.0
 11
75.0
 21
-161.0
 31
0.0
  0
LINE
  8
0
  6
CONTINUOUS
 62
               3
  5
17F
 10
-65.0
 20
-166.0
 30
0.0
 11
75.0
 21
-166.0
 31
0.0
  0
LINE
  8
0
  6
CONTINUOUS
 62
               3
  5
180
 10
-140.0
 20
-156.0
 30
0.0
 11
-139.3284438740356
 21
-156.0
 31
0.0
  0
LINE
  8
0
  6
CONTINUOUS
 62
               3
  5
181
 10
-136.82844387403554
 20
-158.49999999999926
 30
0.0
 11
-139.3284438740356
 21
-156.0
 31
0.0
  0
LINE
  8
0
  6
CONTINUOUS
 62
               3
  5
182
 10
-136.8284438740348
 20
-158.5
 30
0.0
 11
-94.663333617757388
 21
-159.97243809585405
 31
0.0
  0
LINE
  8
0
  6
CONTINUOUS
 62
               3
  5
183
 10
-76.464466094067504
 20
-176.271689426286
 30
0.0
 11
-91.302297195337246
 21
-161.43385832501673
 31
0.0
  0
ARC
  8
0
  6
CONTINUOUS
 62
               3
  5
184
 10
-79.999999999999986
 20
-179.80722333221911
 30
0.0
 40
4.9999999999999991
 50
0.0
 51
44.999999999981824
  0
LINE
  8
0
  6
CONTINUOUS
 62
               3
  5
185
 10
-140.0
 20
-46.000000000000114
 30
0.0
 11
-139.3284438740356
 21
-46.000000000000114
 31
0.0
  0
LINE
  8
0
  6
CONTINUOUS
 62
               3
  5
186
 10
-136.82844387403554
 20
-43.499999999999915
 30
0.0
 11
-139.3284438740356
 21
-46.000000000000114
 31
0.0
  0
LINE
  8
0
  6
CONTINUOUS
 62
               3
  5
187
 10
-136.8284438740356
 20
-43.499999999999943
 30
0.0
 11
-79.210967671861312
 21
-41.487953394847693
 31
0.0
  0
LINE
  8
0
  6
CONTINUOUS
 62
               3
  5
188
 10
-139.3284438740356
 20
-46.000000000000114
 30
0.0
 11
-139.3284438740356
 21
-156.0
 31
0.0
  0
LINE
  8
0
  6
CONTINUOUS
 62
               3
  5
189
 10
-140.0
 20
-158.59999999999999
 30
0.0
 11
-140.0
 21
-43.400000000000006
 31
0.0
  0
LINE
  8
0
  6
CONTINUOUS
 62
               3
  5
18A
 10
-140.0
 20
-43.400000000000006
 30
0.0
 11
-142.5
 21
-43.400000000000006
 31
0.0
  0
ARC
  8
0
  6
CONTINUOUS
 62
               3
  5
18B
 10
-142.5
 20
-45.900000000000006
 30
0.0
 40
2.5
 50
89.999999999965596
 51
179.99999999993057
  0
LINE
  8
0
  6
CONTINUOUS
 62
               3
  5
18C
 10
-145.0
 20
-45.900000000000006
 30
0.0
 11
-145.0
 21
-156.09999999999999
 31
0.0
  0
LINE
  8
0
  6
CONTINUOUS
 62
               3
  5
18D
 10
-140.0
 20
-158.59999999999999
 30
0.0
 11
-142.5
 21
-158.59999999999999
 31
0.0
  0
ARC
  8
0
  6
CONTINUOUS
 62
               3
  5
18E
 10
-142.5
 20
-156.09999999999999
 30
0.0
 40
2.5
 50
179.99999999993057
 51
269.99999999989649
  0
LINE
  8
0
  6
CONTINUOUS
 62
               3
  5
18F
 10
-136.82844387403554
 20
-43.499999999999915
 30
0.0
 11
-136.8284438740348
 21
-158.5
 31
0.0
  0
ARC
  8
0
  6
CONTINUOUS
 62
               3
  5
190
 10
-94.837831101269927
 20
-164.9693922309495
 30
0.0
 40
5.0
 50
44.999999999983494
 51
87.999999999965766
  0
ARC
  8
0
  6
CONTINUOUS
 62
               3
  5
191
 10
-79.385465155373808
 20
-36.490999259752243
 30
0.0
 40
5.0
 50
271.99999999989535
 51
347.26981986155278
  0
LINE
  8
0
  6
CONTINUOUS
 62
               3
  5
192
 10
-56.5
 20
-540.0
 30
0.0
 11
56.499999999999993
 21
-540.0
 31
0.0
  0
LINE
  8
0
  6
CONTINUOUS
 62
               3
  5
193
 10
-56.5
 20
-540.0
 30
0.0
 11
-56.5
 21
-440.0
 31
0.0
  0
LINE
  8
0
  6
CONTINUOUS
 62
               3
  5
194
 10
56.499999999999993
 20
-540.0
 30
0.0
 11
56.499999999999993
 21
-440.0
 31
0.0
  0
LINE
  8
0
  6
CONTINUOUS
 62
               3
  5
195
 10
-56.5
 20
-440.0
 30
0.0
 11
-58.000000000000398
 21
-438.4999999999996
 31
0.0
  0
LINE
  8
0
  6
CONTINUOUS
 62
               3
  5
196
 10
56.499999999999993
 20
-440.0
 30
0.0
 11
58.000000000000107
 21
-438.49999999999989
 31
0.0
  0
LINE
  8
0
  6
CONTINUOUS
 62
               3
  5
197
 10
-674.99999999999955
 20
65.0
 30
0.0
 11
-525.0
 21
65.0
 31
0.0
  0
LINE
  8
0
  6
CONTINUOUS
 62
               3
  5
198
 10
-688.49999999999977
 20
55.0
 30
0.0
 11
-688.49999999999977
 21
48.000000000000341
 31
0.0
  0
LINE
  8
0
  6
CONTINUOUS
 62
               3
  5
199
 10
-688.49999999999977
 20
55.0
 30
0.0
 11
-674.99999999999955
 21
65.0
 31
0.0
  0
ARC
  8
0
  6
CONTINUOUS
 62
               3
  5
19A
 10
-676.99999999999932
 20
43.417424305044619
 30
0.0
 40
4.9999999999999991
 50
0.0
 51
66.4218215217725
  0
LINE
  8
0
  6
CONTINUOUS
 62
               3
  5
19B
 10
-688.49999999999977
 20
48.000000000000341
 30
0.0
 11
-511.49999999999983
 21
48.000000000000341
 31
0.0
  0
ARC
  8
0
  6
CONTINUOUS
 62
               3
  5
19C
 10
-654.99999999999955
 20
-42.0
 30
0.0
 40
19.999999999999996
 50
148.21166938289124
 51
179.99999999993088
  0
LINE
  8
0
  6
CONTINUOUS
 62
               3
  5
19D
 10
-671.99999999999932
 20
43.417424305044619
 30
0.0
 11
-671.99999999999932
 21
-31.464346247147205
 31
0.0
  0
ARC
  8
0
  6
CONTINUOUS
 62
               3
  5
19E
 10
-545.0
 20
-42.0
 30
0.0
 40
19.999999999999996
 50
0.0
 51
31.788330617039573
  0
LINE
  8
0
  6
CONTINUOUS
 62
               3
  5
19F
 10
-527.99999999999955
 20
-31.464346247147205
 30
0.0
 11
-527.99999999999955
 21
43.417424305044619
 31
0.0
  0
LINE
  8
0
  6
CONTINUOUS
 62
               3
  5
1A0
 10
-657.99999999999955
 20
-428.00000000000028
 30
0.0
 11
-674.99999999999955
 21
-278.99999999999983
 31
0.0
  0
LINE
  8
0
  6
CONTINUOUS
 62
               3
  5
1A1
 10
-541.99999999999932
 20
-438.49999999999915
 30
0.0
 11
-541.99999999999932
 21
-428.00000000000028
 31
0.0
  0
LINE
  8
0
  6
CONTINUOUS
 62
               3
  5
1A2
 10
-674.99999999999955
 20
-166.0
 30
0.0
 11
-674.99999999999955
 21
-278.99999999999983
 31
0.0
  0
LINE
  8
0
  6
CONTINUOUS
 62
               3
  5
1A3
 10
-657.99999999999955
 20
-428.00000000000028
 30
0.0
 11
-657.99999999999955
 21
-438.4999999999996
 31
0.0
  0
LINE
  8
0
  6
CONTINUOUS
 62
               3
  5
1A4
 10
-671.99999999999932
 20
-31.464346247147205
 30
0.0
 11
-527.99999999999955
 21
-31.464346247147205
 31
0.0
  0
LINE
  8
0
  6
CONTINUOUS
 62
               3
  5
1A5
 10
-619.99999999999955
 20
48.000000000000341
 30
0.0
 11
-619.99999999999955
 21
65.0
 31
0.0
  0
LINE
  8
0
  6
CONTINUOUS
 62
               3
  5
1A6
 10
-580.0
 20
65.0
 30
0.0
 11
-580.0
 21
48.000000000000341
 31
0.0
  0
LINE
  8
0
  6
CONTINUOUS
 62
               3
  5
1A7
 10
-619.99999999999955
 20
55.0
 30
0.0
 11
-580.0
 21
55.0
 31
0.0
  0
LINE
  8
0
  6
CONTINUOUS
 62
               3
  5
1A8
 10
-672.28416147400367
 20
65.0
 30
0.0
 11
-672.28416147400367
 21
48.000000000000341
 31
0.0
  0
LINE
  8
0
  6
CONTINUOUS
 62
               3
  5
1A9
 10
-686.21049820062467
 20
55.0
 30
0.0
 11
-686.21049820062467
 21
48.000000000000341
 31
0.0
  0
LINE
  8
0
  6
CONTINUOUS
 62
               3
  5
1AA
 10
-688.49999999999977
 20
55.0
 30
0.0
 11
-686.21049820062467
 21
55.0
 31
0.0
  0
LINE
  8
0
  6
CONTINUOUS
 62
               3
  5
1AB
 10
-686.21049820062467
 20
55.0
 30
0.0
 11
-672.28416147400367
 21
65.0
 31
0.0
  0
LINE
  8
0
  6
CONTINUOUS
 62
               3
  5
1AC
 10
-511.49999999999983
 20
55.0
 30
0.0
 11
-511.49999999999983
 21
48.000000000000341
 31
0.0
  0
LINE
  8
0
  6
CONTINUOUS
 62
               3
  5
1AD
 10
-511.49999999999983
 20
55.0
 30
0.0
 11
-525.0
 21
65.0
 31
0.0
  0
ARC
  8
0
  6
CONTINUOUS
 62
               3
  5
1AE
 10
-522.99999999999955
 20
43.417424305044619
 30
0.0
 40
4.9999999999999991
 50
113.57817847815815
 51
179.99999999993057
  0
LINE
  8
0
  6
CONTINUOUS
 62
               3
  5
1AF
 10
-527.71583852599474
 20
65.0
 30
0.0
 11
-527.71583852599474
 21
48.000000000000341
 31
0.0
  0
LINE
  8
0
  6
CONTINUOUS
 62
               3
  5
1B0
 10
-513.78950179937419
 20
55.0
 30
0.0
 11
-513.78950179937419
 21
48.000000000000341
 31
0.0
  0
LINE
  8
0
  6
CONTINUOUS
 62
               3
  5
1B1
 10
-511.49999999999983
 20
55.0
 30
0.0
 11
-513.78950179937419
 21
55.0
 31
0.0
  0
LINE
  8
0
  6
CONTINUOUS
 62
               3
  5
1B2
 10
-513.78950179937419
 20
55.0
 30
0.0
 11
-527.71583852599474
 21
65.0
 31
0.0
  0
LINE
  8
0
  6
CONTINUOUS
 62
               3
  5
1B3
 10
-657.99999999999955
 20
-427.99999999999972
 30
0.0
 11
-541.99999999999932
 21
-428.00000000000028
 31
0.0
  0
ARC
  8
0
  6
CONTINUOUS
 62
               3
  5
1B4
 10
-674.99999999999955
 20
-163.5
 30
0.0
 40
2.4999999999999996
 50
89.999999999965283
 51
269.99999999989649
  0
LINE
  8
0
  6
CONTINUOUS
 62
               3
  5
1B5
 10
-674.99999999999955
 20
-42.0
 30
0.0
 11
-674.99999999999955
 21
-161.0
 31
0.0
  0
LINE
  8
0
  6
CONTINUOUS
 62
               3
  5
1B6
 10
-674.99999999999955
 20
-278.99999999999983
 30
0.0
 11
-541.05099999999948
 21
-278.99999999999955
 31
0.0
  0
LINE
  8
0
  6
CONTINUOUS
 62
               3
  5
1B7
 10
-528.2436334564602
 20
-278.99999999999955
 30
0.0
 11
-525.0
 21
-278.99999999999955
 31
0.0
  0
ARC
  8
0
  6
CONTINUOUS
 62
               3
  5
1B8
 10
-622.49999999999955
 20
-163.5
 30
0.0
 40
2.4999999999999996
 50
269.99999999989626
 51
449.99999999982691
  0
ARC
  8
0
  6
CONTINUOUS
 62
               3
  5
1B9
 10
-577.49999999999955
 20
-163.5
 30
0.0
 40
2.4999999999999996
 50
89.999999999965439
 51
269.99999999989626
  0
LINE
  8
0
  6
CONTINUOUS
 62
               3
  5
1BA
 10
-674.99999999999955
 20
-166.0
 30
0.0
 11
-622.49999999999955
 21
-166.0
 31
0.0
  0
LINE
  8
0
  6
CONTINUOUS
 62
               3
  5
1BB
 10
-577.49999999999955
 20
-166.0
 30
0.0
 11
-525.00000000000068
 21
-166.0
 31
0.0
  0
LINE
  8
0
  6
CONTINUOUS
 62
               3
  5
1BC
 10
-674.99999999999955
 20
-161.0
 30
0.0
 11
-622.49999999999955
 21
-161.0
 31
0.0
  0
LINE
  8
0
  6
CONTINUOUS
 62
               3
  5
1BD
 10
-577.49999999999955
 20
-161.0
 30
0.0
 11
-525.00000000000068
 21
-161.0
 31
0.0
  0
LINE
  8
0
  6
CONTINUOUS
 62
               3
  5
1BE
 10
-573.2126429075206
 20
-73.000000000000114
 30
0.0
 11
-626.78735709247951
 21
-73.000000000000114
 31
0.0
  0
CIRCLE
  8
0
  6
CONTINUOUS
 62
               3
  5
1BF
 10
-600.0
 20
-101.0
 30
0.0
 40
48.5
  0
CIRCLE
  8
0
  6
CONTINUOUS
 62
               3
  5
1C0
 10
-600.0
 20
-101.0
 30
0.0
 40
38.75
  0
CIRCLE
  8
0
  6
CONTINUOUS
 62
               3
  5
1C1
 10
-600.0
 20
-101.0
 30
0.0
 40
47.299999999999997
  0
LINE
  8
0
  6
CONTINUOUS
 62
               3
  5
1C2
 10
-631.81980515339467
 20
-132.81980515339455
 30
0.0
 11
-633.44615075012371
 21
-134.44615075012371
 31
0.0
  0
LINE
  8
0
  6
CONTINUOUS
 62
               3
  5
1C3
 10
-568.18019484660545
 20
-132.81980515339455
 30
0.0
 11
-566.55384924987629
 21
-134.44615075012359
 31
0.0
  0
ARC
  8
0
  6
CONTINUOUS
 62
               3
  5
1C4
 10
-600.0
 20
-101.0
 30
0.0
 40
45.0
 50
224.99999999991346
 51
314.99999999987898
  0
CIRCLE
  8
0
  6
CONTINUOUS
 62
               3
  5
1C5
 10
-600.0
 20
-101.0
 30
0.0
 40
43.0
  0
ARC
  8
0
  6
CONTINUOUS
 62
               3
  5
1C6
 10
-525.00000000000068
 20
-163.5
 30
0.0
 40
2.4999999999999996
 50
269.99999999989649
 51
449.99999999982703
  0
LINE
  8
0
  6
CONTINUOUS
 62
               3
  5
1C7
 10
-525.0
 20
-278.99999999999983
 30
0.0
 11
-525.00000000000068
 21
-166.0
 31
0.0
  0
LINE
  8
0
  6
CONTINUOUS
 62
               3
  5
1C8
 10
-525.00000000000068
 20
-161.0
 30
0.0
 11
-525.0
 21
-42.0
 31
0.0
  0
CIRCLE
  8
0
  6
CONTINUOUS
 62
               3
  5
1C9
 10
-600.0
 20
-101.0
 30
0.0
 40
57.600000000000001
  0
LINE
  8
0
  6
CONTINUOUS
 62
               3
  5
1CA
 10
-541.99999999999932
 20
-428.00000000000028
 30
0.0
 11
-529.45190901929891
 21
-318.01967316915028
 31
0.0
  0
LINE
  8
0
  6
CONTINUOUS
 62
               3
  5
1CB
 10
-527.39985704623848
 20
-300.03404116997245
 30
0.0
 11
-525.0
 21
-278.99999999999955
 31
0.0
  0
LINE
  8
0
  6
CONTINUOUS
 62
               3
  5
1CC
 10
-656.5
 20
-540.0
 30
0.0
 11
-543.5
 21
-540.0
 31
0.0
  0
LINE
  8
0
  6
CONTINUOUS
 62
               3
  5
1CD
 10
-656.5
 20
-540.0
 30
0.0
 11
-656.5
 21
-440.0
 31
0.0
  0
LINE
  8
0
  6
CONTINUOUS
 62
               3
  5
1CE
 10
-543.5
 20
-540.0
 30
0.0
 11
-543.5
 21
-440.0
 31
0.0
  0
LINE
  8
0
  6
CONTINUOUS
 62
               3
  5
1CF
 10
-656.5
 20
-440.0
 30
0.0
 11
-658.00000000000045
 21
-438.4999999999996
 31
0.0
  0
LINE
  8
0
  6
CONTINUOUS
 62
               3
  5
1D0
 10
-543.5
 20
-440.0
 30
0.0
 11
-542.0
 21
-438.49999999999989
 31
0.0
  0
LINE
  8
0
  6
CONTINUOUS
 62
               3
  5
1D1
 10
675.0
 20
65.0
 30
0.0
 11
525.0
 21
65.0
 31
0.0
  0
LINE
  8
0
  6
CONTINUOUS
 62
               3
  5
1D2
 10
688.50000000000023
 20
55.0
 30
0.0
 11
688.50000000000023
 21
48.000000000000341
 31
0.0
  0
LINE
  8
0
  6
CONTINUOUS
 62
               3
  5
1D3
 10
688.50000000000023
 20
55.0
 30
0.0
 11
675.0
 21
65.0
 31
0.0
  0
ARC
  8
0
  6
CONTINUOUS
 62
               3
  5
1D4
 10
676.99999999999989
 20
43.417424305044619
 30
0.0
 40
4.9999999999999991
 50
113.57817847815815
 51
179.99999999993057
  0
LINE
  8
0
  6
CONTINUOUS
 62
               3
  5
1D5
 10
688.50000000000023
 20
48.000000000000341
 30
0.0
 11
511.49999999999977
 21
48.000000000000341
 31
0.0
  0
ARC
  8
0
  6
CONTINUOUS
 62
               3
  5
1D6
 10
655.0
 20
-42.000000000000028
 30
0.0
 40
19.999999999999996
 50
0.0
 51
31.788330617039573
  0
LINE
  8
0
  6
CONTINUOUS
 62
               3
  5
1D7
 10
671.99999999999989
 20
43.417424305044619
 30
0.0
 11
671.99999999999989
 21
-31.464346247147233
 31
0.0
  0
ARC
  8
0
  6
CONTINUOUS
 62
               3
  5
1D8
 10
545.0
 20
-42.000000000000028
 30
0.0
 40
19.999999999999996
 50
148.21166938289124
 51
179.99999999993088
  0
LINE
  8
0
  6
CONTINUOUS
 62
               3
  5
1D9
 10
528.00000000000011
 20
-31.464346247147233
 30
0.0
 11
528.00000000000011
 21
43.417424305044619
 31
0.0
  0
LINE
  8
0
  6
CONTINUOUS
 62
               3
  5
1DA
 10
658.00000000000011
 20
-428.00000000000023
 30
0.0
 11
675.0
 21
-278.99999999999989
 31
0.0
  0
LINE
  8
0
  6
CONTINUOUS
 62
               3
  5
1DB
 10
541.99999999999989
 20
-428.00000000000023
 30
0.0
 11
525.0
 21
-278.99999999999989
 31
0.0
  0
LINE
  8
0
  6
CONTINUOUS
 62
               3
  5
1DC
 10
541.99999999999955
 20
-438.49999999999955
 30
0.0
 11
541.99999999999989
 21
-428.00000000000023
 31
0.0
  0
LINE
  8
0
  6
CONTINUOUS
 62
               3
  5
1DD
 10
675.0
 20
-166.0
 30
0.0
 11
675.0
 21
-278.99999999999989
 31
0.0
  0
LINE
  8
0
  6
CONTINUOUS
 62
               3
  5
1DE
 10
658.00000000000011
 20
-428.00000000000023
 30
0.0
 11
658.00000000000011
 21
-438.49999999999909
 31
0.0
  0
LINE
  8
0
  6
CONTINUOUS
 62
               3
  5
1DF
 10
620.0
 20
48.000000000000341
 30
0.0
 11
620.0
 21
65.0
 31
0.0
  0
LINE
  8
0
  6
CONTINUOUS
 62
               3
  5
1E0
 10
580.0
 20
65.0
 30
0.0
 11
580.0
 21
48.000000000000341
 31
0.0
  0
LINE
  8
0
  6
CONTINUOUS
 62
               3
  5
1E1
 10
620.0
 20
55.0
 30
0.0
 11
580.0
 21
55.0
 31
0.0
  0
LINE
  8
0
  6
CONTINUOUS
 62
               3
  5
1E2
 10
672.2841614740048
 20
65.0
 30
0.0
 11
672.2841614740048
 21
48.000000000000341
 31
0.0
  0
LINE
  8
0
  6
CONTINUOUS
 62
               3
  5
1E3
 10
686.21049820062524
 20
55.0
 30
0.0
 11
686.21049820062524
 21
48.000000000000341
 31
0.0
  0
LINE
  8
0
  6
CONTINUOUS
 62
               3
  5
1E4
 10
688.50000000000023
 20
55.0
 30
0.0
 11
686.21049820062524
 21
55.0
 31
0.0
  0
LINE
  8
0
  6
CONTINUOUS
 62
               3
  5
1E5
 10
686.21049820062524
 20
55.0
 30
0.0
 11
672.2841614740048
 21
65.0
 31
0.0
  0
LINE
  8
0
  6
CONTINUOUS
 62
               3
  5
1E6
 10
511.49999999999977
 20
55.0
 30
0.0
 11
511.49999999999977
 21
48.000000000000341
 31
0.0
  0
LINE
  8
0
  6
CONTINUOUS
 62
               3
  5
1E7
 10
511.49999999999977
 20
55.0
 30
0.0
 11
525.0
 21
65.0
 31
0.0
  0
ARC
  8
0
  6
CONTINUOUS
 62
               3
  5
1E8
 10
523.00000000000011
 20
43.417424305044619
 30
0.0
 40
4.9999999999999991
 50
0.0
 51
66.4218215217725
  0
LINE
  8
0
  6
CONTINUOUS
 62
               3
  5
1E9
 10
527.7158385259952
 20
65.0
 30
0.0
 11
527.7158385259952
 21
48.000000000000341
 31
0.0
  0
LINE
  8
0
  6
CONTINUOUS
 62
               3
  5
1EA
 10
513.78950179937476
 20
55.0
 30
0.0
 11
513.78950179937476
 21
48.000000000000341
 31
0.0
  0
LINE
  8
0
  6
CONTINUOUS
 62
               3
  5
1EB
 10
511.49999999999977
 20
55.0
 30
0.0
 11
513.78950179937476
 21
55.0
 31
0.0
  0
LINE
  8
0
  6
CONTINUOUS
 62
               3
  5
1EC
 10
513.78950179937476
 20
55.0
 30
0.0
 11
527.7158385259952
 21
65.0
 31
0.0
  0
LINE
  8
0
  6
CONTINUOUS
 62
               3
  5
1ED
 10
658.00000000000011
 20
-427.99999999999966
 30
0.0
 11
541.99999999999989
 21
-428.00000000000023
 31
0.0
  0
LINE
  8
0
  6
CONTINUOUS
 62
               3
  5
1EE
 10
671.99999999999989
 20
-31.464346247147233
 30
0.0
 11
611.7270000000002
 21
-31.464346247147233
 31
0.0
  0
LINE
  8
0
  6
CONTINUOUS
 62
               3
  5
1EF
 10
588.2729999999998
 20
-31.464346247147233
 30
0.0
 11
528.00000000000011
 21
-31.464346247147233
 31
0.0
  0
ARC
  8
0
  6
CONTINUOUS
 62
               3
  5
1F0
 10
675.0
 20
-163.5
 30
0.0
 40
2.4999999999999996
 50
269.99999999989649
 51
449.99999999982703
  0
LINE
  8
0
  6
CONTINUOUS
 62
               3
  5
1F1
 10
525.0
 20
-161.0
 30
0.0
 11
591.78299999999979
 21
-161.0
 31
0.0
  0
LINE
  8
0
  6
CONTINUOUS
 62
               3
  5
1F2
 10
608.21699999999964
 20
-161.0
 30
0.0
 11
675.0
 21
-161.0
 31
0.0
  0
LINE
  8
0
  6
CONTINUOUS
 62
               3
  5
1F3
 10
525.0
 20
-166.0
 30
0.0
 11
591.93835546658477
 21
-166.0
 31
0.0
  0
LINE
  8
0
  6
CONTINUOUS
 62
               3
  5
1F4
 10
608.21699999999964
 20
-166.0
 30
0.0
 11
675.0
 21
-166.0
 31
0.0
  0
LINE
  8
0
  6
CONTINUOUS
 62
               3
  5
1F5
 10
675.0
 20
-278.99999999999989
 30
0.0
 11
608.21699999999964
 21
-278.99999999999989
 31
0.0
  0
LINE
  8
0
  6
CONTINUOUS
 62
               3
  5
1F6
 10
591.78299999999979
 20
-278.99999999999989
 30
0.0
 11
525.0
 21
-278.99999999999989
 31
0.0
  0
LINE
  8
0
  6
CONTINUOUS
 62
               3
  5
1F7
 10
675.0
 20
-42.000000000000028
 30
0.0
 11
675.0
 21
-161.0
 31
0.0
  0
ARC
  8
0
  6
CONTINUOUS
 62
               3
  5
1F8
 10
525.0
 20
-163.5
 30
0.0
 40
2.4999999999999996
 50
89.999999999965283
 51
269.99999999989649
  0
LINE
  8
0
  6
CONTINUOUS
 62
               3
  5
1F9
 10
525.0
 20
-278.99999999999989
 30
0.0
 11
525.0
 21
-166.0
 31
0.0
  0
LINE
  8
0
  6
CONTINUOUS
 62
               3
  5
1FA
 10
525.0
 20
-161.0
 30
0.0
 11
525.0
 21
-42.000000000000028
 31
0.0
  0
LINE
  8
0
  6
CONTINUOUS
 62
               3
  5
1FB
 10
543.5
 20
-540.0
 30
0.0
 11
656.5
 21
-540.0
 31
0.0
  0
LINE
  8
0
  6
CONTINUOUS
 62
               3
  5
1FC
 10
543.5
 20
-540.0
 30
0.0
 11
543.5
 21
-440.0
 31
0.0
  0
LINE
  8
0
  6
CONTINUOUS
 62
               3
  5
1FD
 10
656.5
 20
-540.0
 30
0.0
 11
656.5
 21
-440.0
 31
0.0
  0
LINE
  8
0
  6
CONTINUOUS
 62
               3
  5
1FE
 10
543.5
 20
-440.0
 30
0.0
 11
541.99999999999955
 21
-438.49999999999955
 31
0.0
  0
LINE
  8
0
  6
CONTINUOUS
 62
               3
  5
1FF
 10
656.5
 20
-440.0
 30
0.0
 11
658.00000000000011
 21
-438.49999999999983
 31
0.0
  0
CIRCLE
  8
0
  6
CONTINUOUS
 62
               3
  5
200
 10
0.0
 20
600.0
 30
0.0
 40
59.0
  0
LINE
  8
0
  6
DASHED2
 62
               3
  5
201
 10
-51.500000000000227
 20
-540.0
 30
0.0
 11
-51.500000000000227
 21
-460.0
 31
0.0
  0
LINE
  8
0
  6
DASHED2
 62
               3
  5
202
 10
51.499999999999652
 20
-540.0
 30
0.0
 11
51.499999999999652
 21
-460.0
 31
0.0
  0
LINE
  8
0
  6
DASHED2
 62
               3
  5
203
 10
-651.50000000000023
 20
-540.0
 30
0.0
 11
-651.50000000000023
 21
-460.0
 31
0.0
  0
LINE
  8
0
  6
DASHED2
 62
               3
  5
204
 10
-548.50000000000045
 20
-540.0
 30
0.0
 11
-548.50000000000045
 21
-460.0
 31
0.0
  0
LINE
  8
0
  6
DASHED2
 62
               3
  5
205
 10
548.49999999999977
 20
-540.0
 30
0.0
 11
548.49999999999977
 21
-460.0
 31
0.0
  0
LINE
  8
0
  6
DASHED2
 62
               3
  5
206
 10
651.49999999999966
 20
-540.0
 30
0.0
 11
651.49999999999966
 21
-460.0
 31
0.0
  0
LINE
  8
0
  6
DASHDOT
 62
               4
  5
207
 10
0.0
 20
708.5
 30
0.0
 11
0.0
 21
491.5
 31
0.0
  0
LINE
  8
0
  6
DASHDOT
 62
               4
  5
208
 10
-161.99999999999989
 20
600.0
 30
0.0
 11
108.50000000000023
 21
600.0
 31
0.0
  0
LINE
  8
0
  6
DASHDOT
 62
               4
  5
209
 10
0.0
 20
85.0
 30
0.0
 11
0.0
 21
-560.0
 31
0.0
  0
LINE
  8
0
  6
DASHDOT
 62
               4
  5
20A
 10
-161.99999999999989
 20
-101.0
 30
0.0
 11
-61.999999999999872
 21
-101.0
 31
0.0
  0
LINE
  8
0
  6
DASHDOT
 62
               4
  5
20B
 10
-531.47477522477539
 20
-101.0
 30
0.0
 11
-668.1755744255745
 21
-101.0
 31
0.0
  0
LINE
  8
0
  6
DASHDOT
 62
               4
  5
20C
 10
-600.0
 20
85.0
 30
0.0
 11
-600.0
 21
-560.0
 31
0.0
  0
LINE
  8
0
  6
DASHDOT
 62
               4
  5
20D
 10
600.0
 20
85.0
 30
0.0
 11
600.0
 21
-560.0
 31
0.0
  0
LINE
  8
0
  6
CONTINUOUS
 62
               4
  5
20E
 10
76.999999999999886
 20
-31.464346247147205
 30
0.0
 11
71.999999999999886
 21
-26.464346247147205
 31
0.0
  0
LINE
  8
0
  6
CONTINUOUS
 62
               4
  5
20F
 10
76.999999999999886
 20
-165.15302359711688
 30
0.0
 11
76.999999999999886
 21
-279.11356823025505
 31
0.0
  0
LINE
  8
0
  6
CONTINUOUS
 62
               4
  5
210
 10
76.999999999999886
 20
-279.11356823025505
 30
0.0
 11
60.271775600348853
 21
-425.72822439965125
 31
0.0
  0
LINE
  8
0
  6
CONTINUOUS
 62
               4
  5
211
 10
58.000000000000107
 20
-427.99999999999972
 30
0.0
 11
60.271775600348853
 21
-425.72822439965125
 31
0.0
  0
ARC
  8
0
  6
CONTINUOUS
 62
               4
  5
212
 10
54.499999999999879
 20
-42.0
 30
0.0
 40
19.999999999999996
 50
0.0
 51
31.788330617039573
  0
LINE
  8
0
  6
CONTINUOUS
 62
               4
  5
213
 10
71.500000000000341
 20
-31.464346247147205
 30
0.0
 11
71.500000000000341
 21
-26.464346247146636
 31
0.0
  0
LINE
  8
0
  6
CONTINUOUS
 62
               4
  5
214
 10
71.999999999999886
 20
-26.464346247147205
 30
0.0
 11
71.500000000000341
 21
-26.464346247147205
 31
0.0
  0
LINE
  8
0
  6
CONTINUOUS
 62
               4
  5
215
 10
76.750000000000114
 20
-31.714346247147205
 30
0.0
 11
71.500000000000341
 21
-26.464346247147205
 31
0.0
  0
LINE
  8
0
  6
CONTINUOUS
 62
               4
  5
216
 10
76.750000000000114
 20
-31.714346247147205
 30
0.0
 11
76.999999999999886
 21
-31.464346247147205
 31
0.0
  0
LINE
  8
0
  6
CONTINUOUS
 62
               4
  5
217
 10
74.499999999999886
 20
-166.15302359711711
 30
0.0
 11
74.499999999999886
 21
-278.97160794243553
 31
0.0
  0
LINE
  8
0
  6
CONTINUOUS
 62
               4
  5
218
 10
76.750000000000114
 20
-165.43838070425295
 30
0.0
 11
76.750000000000114
 21
-279.09937220147305
 31
0.0
  0
LINE
  8
0
  6
CONTINUOUS
 62
               4
  5
219
 10
74.499999999999886
 20
-278.97160794243553
 30
0.0
 11
57.496765133650449
 21
-428.00000000000028
 31
0.0
  0
LINE
  8
0
  6
CONTINUOUS
 62
               4
  5
21A
 10
74.496765133649774
 20
-278.99999999999983
 30
0.0
 11
76.999999999999886
 21
-279.11356823025505
 31
0.0
  0
LINE
  8
0
  6
CONTINUOUS
 62
               4
  5
21B
 10
76.750000000000114
 20
-279.09937220147305
 30
0.0
 11
59.994274553678785
 21
-425.95540195968613
 31
0.0
  0
LINE
  8
0
  6
CONTINUOUS
 62
               4
  5
21C
 10
57.496765133650449
 20
-428.00000000000028
 30
0.0
 11
60.271775600348853
 21
-425.72822439965125
 31
0.0
  0
LINE
  8
0
  6
CONTINUOUS
 62
               4
  5
21D
 10
76.999999999999886
 20
-31.464346247147205
 30
0.0
 11
76.999999999999886
 21
-162.153023597117
 31
0.0
  0
LINE
  8
0
  6
CONTINUOUS
 62
               4
  5
21E
 10
76.750000000000114
 20
-31.714346247147205
 30
0.0
 11
76.750000000000114
 21
-161.8676664899815
 31
0.0
  0
LINE
  8
0
  6
CONTINUOUS
 62
               4
  5
21F
 10
74.499999999999886
 20
-41.846976402882888
 30
0.0
 11
74.499999999999886
 21
-161.0
 31
0.0
  0
LINE
  8
0
  6
CONTINUOUS
 62
               4
  5
220
 10
58.141132586505925
 20
-332.78450905619968
 30
0.0
 11
-65.512000000000512
 21
-229.0272111089468
 31
0.0
  0
ARC
  8
0
  6
CONTINUOUS
 62
               4
  5
221
 10
-914.27232010053956
 20
-1373.5856282358955
 30
0.0
 40
1424.9238755783815
 50
50.189956146247241
 51
53.440796050711342
  0
ARC
  8
0
  6
CONTINUOUS
 62
               4
  5
222
 10
63.579388837032973
 20
-208.22734108515374
 30
0.0
 40
130.75634311527989
 50
189.15312334023136
 51
212.76918311267124
  0
ARC
  8
0
  6
CONTINUOUS
 62
               4
  5
223
 10
61.364025499551069
 20
-198.09332033391343
 30
0.0
 40
134.72974192119386
 50
216.90649751125426
 51
268.62928723400398
  0
ARC
  8
0
  6
CONTINUOUS
 62
               4
  5
224
 10
-733.63034809850831
 20
-1157.2466709110088
 30
0.0
 40
1143.0835201141012
 50
46.15873265340776
 51
50.202696616637041
  0
LINE
  8
0
  6
CONTINUOUS
 62
               4
  5
225
 10
-56.5
 20
-440.0
 30
0.0
 11
56.499999999999993
 21
-440.0
 31
0.0
  0
LINE
  8
0
  6
CONTINUOUS
 62
               4
  5
226
 10
-58.000000000000398
 20
-438.4999999999996
 30
0.0
 11
57.999999999999538
 21
-438.49999999999915
 31
0.0
  0
ARC
  8
0
  6
CONTINUOUS
 62
               4
  5
227
 10
-878.92922884912423
 20
-400.67239841146238
 30
0.0
 40
359.11818398045398
 50
13.30617767572512
 51
28.552443501607524
  0
ARC
  8
0
  6
CONTINUOUS
 62
               4
  5
228
 10
-600.33118646999355
 20
-292.42572250889316
 30
0.0
 40
73.327111796148202
 50
342.6294564211762
 51
419.83689160545839
  0
LINE
  8
0
  6
CONTINUOUS
 62
               4
  5
229
 10
-656.5
 20
-440.0
 30
0.0
 11
-543.5
 21
-440.0
 31
0.0
  0
LINE
  8
0
  6
CONTINUOUS
 62
               4
  5
22A
 10
-658.00000000000045
 20
-438.4999999999996
 30
0.0
 11
-542.00000000000045
 21
-438.49999999999915
 31
0.0
  0
ARC
  8
0
  6
CONTINUOUS
 62
               4
  5
22B
 10
574.21603418803386
 20
-42.000000000000028
 30
0.0
 40
17.566965811965957
 50
0.0
 51
36.851448659216757
  0
LINE
  8
0
  6
CONTINUOUS
 62
               4
  5
22C
 10
611.7270000000002
 20
-26.464346247147233
 30
0.0
 11
588.2729999999998
 21
-26.464346247147233
 31
0.0
  0
ARC
  8
0
  6
CONTINUOUS
 62
               4
  5
22D
 10
625.78396581196557
 20
-42.000000000000028
 30
0.0
 40
17.566965811965957
 50
143.14855134071405
 51
179.99999999993082
  0
LINE
  8
0
  6
CONTINUOUS
 62
               4
  5
22E
 10
588.2729999999998
 20
-31.464346247147233
 30
0.0
 11
588.2729999999998
 21
-26.464346247147233
 31
0.0
  0
LINE
  8
0
  6
CONTINUOUS
 62
               4
  5
22F
 10
611.7270000000002
 20
-31.464346247147233
 30
0.0
 11
611.7270000000002
 21
-26.464346247147233
 31
0.0
  0
LINE
  8
0
  6
CONTINUOUS
 62
               4
  5
230
 10
588.2729999999998
 20
-26.464346247147233
 30
0.0
 11
593.99999999999977
 21
-31.464346247147233
 31
0.0
  0
LINE
  8
0
  6
CONTINUOUS
 62
               4
  5
231
 10
605.99999999999966
 20
-31.464346247147233
 30
0.0
 11
611.7270000000002
 21
-26.464346247147233
 31
0.0
  0
LINE
  8
0
  6
CONTINUOUS
 62
               4
  5
232
 10
593.99999999999977
 20
-31.464346247147233
 30
0.0
 11
605.99999999999966
 21
-31.464346247147233
 31
0.0
  0
LINE
  8
0
  6
CONTINUOUS
 62
               4
  5
233
 10
605.99999999999966
 20
-161.99999999999989
 30
0.0
 11
593.99999999999977
 21
-161.99999999999989
 31
0.0
  0
ARC
  8
0
  6
CONTINUOUS
 62
               4
  5
234
 10
591.93835546658477
 20
-163.4140798484666
 30
0.0
 40
2.4999999999999996
 50
34.446185822131049
 51
93.562780573759412
  0
ARC
  8
0
  6
CONTINUOUS
 62
               4
  5
235
 10
608.06164453341523
 20
-163.4140798484666
 30
0.0
 40
2.4999999999999996
 50
86.437219426171424
 51
145.55381417779947
  0
LINE
  8
0
  6
CONTINUOUS
 62
               4
  5
236
 10
605.99999999999966
 20
-164.99999999999977
 30
0.0
 11
593.99999999999977
 21
-164.99999999999977
 31
0.0
  0
ARC
  8
0
  6
CONTINUOUS
 62
               4
  5
237
 10
591.93835546658477
 20
-163.5859201515334
 30
0.0
 40
2.4999999999999996
 50
266.43721942610216
 51
325.55381417773032
  0
ARC
  8
0
  6
CONTINUOUS
 62
               4
  5
238
 10
608.06164453341523
 20
-163.5859201515334
 30
0.0
 40
2.4999999999999996
 50
214.44618582206192
 51
273.56278057369019
  0
LINE
  8
0
  6
CONTINUOUS
 62
               4
  5
239
 10
591.78299999999979
 20
-166.0
 30
0.0
 11
591.78299999999979
 21
-428.00000000000023
 31
0.0
  0
LINE
  8
0
  6
CONTINUOUS
 62
               4
  5
23A
 10
608.21699999999964
 20
-166.0859201515334
 30
0.0
 11
608.21699999999964
 21
-428.00000000000023
 31
0.0
  0
LINE
  8
0
  6
CONTINUOUS
 62
               4
  5
23B
 10
593.99999999999977
 20
-164.99999999999977
 30
0.0
 11
593.99999999999977
 21
-425.72822439965125
 31
0.0
  0
LINE
  8
0
  6
CONTINUOUS
 62
               4
  5
23C
 10
605.99999999999966
 20
-425.72822439965125
 30
0.0
 11
605.99999999999966
 21
-164.99999999999977
 31
0.0
  0
LINE
  8
0
  6
CONTINUOUS
 62
               4
  5
23D
 10
608.21699999999964
 20
-278.99999999999989
 30
0.0
 11
591.78299999999979
 21
-278.99999999999989
 31
0.0
  0
LINE
  8
0
  6
CONTINUOUS
 62
               4
  5
23E
 10
593.99999999999977
 20
-425.72822439965125
 30
0.0
 11
605.99999999999966
 21
-425.72822439965125
 31
0.0
  0
LINE
  8
0
  6
CONTINUOUS
 62
               4
  5
23F
 10
591.78299999999979
 20
-428.00000000000023
 30
0.0
 11
593.99999999999977
 21
-425.72822439965125
 31
0.0
  0
LINE
  8
0
  6
CONTINUOUS
 62
               4
  5
240
 10
605.99999999999966
 20
-425.72822439965125
 30
0.0
 11
608.21699999999964
 21
-428.00000000000023
 31
0.0
  0
LINE
  8
0
  6
CONTINUOUS
 62
               4
  5
241
 10
591.78299999999979
 20
-42.000000000000028
 30
0.0
 11
591.78299999999979
 21
-161.0
 31
0.0
  0
LINE
  8
0
  6
CONTINUOUS
 62
               4
  5
242
 10
608.21699999999964
 20
-42.000000000000028
 30
0.0
 11
608.21699999999964
 21
-161.0
 31
0.0
  0
LINE
  8
0
  6
CONTINUOUS
 62
               4
  5
243
 10
605.99999999999966
 20
-161.99999999999989
 30
0.0
 11
605.99999999999966
 21
-31.464346247147233
 31
0.0
  0
LINE
  8
0
  6
CONTINUOUS
 62
               4
  5
244
 10
593.99999999999977
 20
-31.464346247147233
 30
0.0
 11
593.99999999999977
 21
-161.99999999999989
 31
0.0
  0
ARC
  8
0
  6
CONTINUOUS
 62
               4
  5
245
 10
585.02192705347227
 20
-283.2972496535815
 30
0.0
 40
59.149634972654262
 50
186.49999999992821
 51
236.78754046659694
  0
ARC
  8
0
  6
CONTINUOUS
 62
               4
  5
246
 10
605.92691953069391
 20
-271.44823255482981
 30
0.0
 40
81.261593956721953
 50
186.49999999992821
 51
229.00792456445404
  0
ARC
  8
0
  6
CONTINUOUS
 62
               4
  5
247
 10
460.68129117650471
 20
-355.78575137952453
 30
0.0
 40
204.24864340422488
 50
353.49999999986409
 51
373.43680216733406
  0
ARC
  8
0
  6
CONTINUOUS
 62
               4
  5
248
 10
498.37230094456572
 20
-353.50133431011682
 30
0.0
 40
167.18634723772169
 50
351.25933879879983
 51
375.67746336839878
  0
LINE
  8
0
  6
CONTINUOUS
 62
               4
  5
249
 10
543.5
 20
-440.0
 30
0.0
 11
656.5
 21
-440.0
 31
0.0
  0
LINE
  8
0
  6
CONTINUOUS
 62
               4
  5
24A
 10
541.99999999999955
 20
-438.49999999999955
 30
0.0
 11
657.99999999999955
 21
-438.49999999999909
 31
0.0
  0
LINE
  8
0
  6
DASHED2
 62
               4
  5
24B
 10
-56.999999999999886
 20
0.0
 30
0.0
 11
56.999999999999879
 21
0.0
 31
0.0
  0
LINE
  8
0
  6
DASHED2
 62
               4
  5
24C
 10
-657.0
 20
0.0
 30
0.0
 11
-543.00000000000023
 21
0.0
 31
0.0
  0
LINE
  8
0
  6
DASHED2
 62
               4
  5
24D
 10
543.00000000000011
 20
0.0
 30
0.0
 11
656.99999999999989
 21
0.0
 31
0.0
  0
ENDSEC
  0
EOF
