  0
SECTION
  2
HEADER
  9
$ACADVER
  1
AC1009
  9
$INSBASE
 10
0.0
 20
0.0
 30
0.0
  9
$EXTMIN
 10
-487.25554455445456
 20
-477.4344554455443
 30
0.0
  9
$EXTMAX
 10
560.75554455445524
 20
517.71168316831677
 30
0.0
  9
$LIMMIN
 10
-520.00589108910799
 20
-508.53277227722748
  9
$LIMMAX
 10
593.50589108910867
 20
548.80999999999995
  9
$ORTHOMODE
 70
               0
  9
$REGENMODE
 70
               1
  9
$FILLMODE
 70
               1
  9
$QTEXTMODE
 70
               0
  9
$MIRRTEXT
 70
               1
  9
$DRAGMODE
 70
               2
  9
$LTSCALE
 40
1.0
  9
$OSMODE
 70
               0
  9
$ATTMODE
 70
               1
  9
$TEXTSIZE
 40
0.2
  9
$TRACEWID
 40
0.05
  9
$TEXTSTYLE
  7
STANDARD
  9
$CLAYER
  8
0
  9
$CELTYPE
  6
CONTINUOUS
  9
$CECOLOR
 62
             256
  9
$DIMSCALE
 40
1.0
  9
$DIMASZ
 40
0.18
  9
$DIMEXO
 40
0.0625
  9
$DIMDLI
 40
0.38
  9
$DIMRND
 40
0.0
  9
$DIMDLE
 40
0.0
  9
$DIMEXE
 40
0.18
  9
$DIMTP
 40
0.0
  9
$DIMTM
 40
0.0
  9
$DIMTXT
 40
0.18
  9
$DIMCEN
 40
0.09
  9
$DIMTSZ
 40
0.0
  9
$DIMTOL
 70
               0
  9
$DIMLIM
 70
               0
  9
$DIMTIH
 70
               1
  9
$DIMTOH
 70
               1
  9
$DIMSE1
 70
               0
  9
$DIMSE2
 70
               0
  9
$DIMTAD
 70
               0
  9
$DIMZIN
 70
               0
  9
$DIMBLK
  1

  9
$DIMASO
 70
               1
  9
$DIMSHO
 70
               1
  9
$DIMPOST
  1

  9
$DIMAPOST
  1

  9
$DIMALT
 70
               0
  9
$DIMALTD
 70
               2
  9
$DIMALTF
 40
25.399999999999999
  9
$DIMLFAC
 40
1.0
  9
$DIMTOFL
 70
               0
  9
$DIMTVP
 40
0.0
  9
$DIMTIX
 70
               0
  9
$DIMSOXD
 70
               0
  9
$DIMSAH
 70
               0
  9
$DIMBLK1
  1

  9
$DIMBLK2
  1

  9
$DIMSTYLE
  2
STANDARD
  9
$DIMCLRD
 70
               0
  9
$DIMCLRE
 70
               0
  9
$DIMCLRT
 70
               0
  9
$DIMTFAC
 40
1.0
  9
$DIMGAP
 40
0.09
  9
$LUNITS
 70
               2
  9
$LUPREC
 70
               4
  9
$AXISMODE
 70
               0
  9
$AXISUNIT
 10
0.0
 20
0.0
  9
$SKETCHINC
 40
0.1
  9
$FILLETRAD
 40
0.0
  9
$AUNITS
 70
               0
  9
$AUPREC
 70
               0
  9
$MENU
  1
acad
  9
$ELEVATION
 40
0.0
  9
$PELEVATION
 40
0.0
  9
$THICKNESS
 40
0.0
  9
$LIMCHECK
 70
               0
  9
$BLIPMODE
 70
               1
  9
$CHAMFERA
 40
0.0
  9
$CHAMFERB
 40
0.0
  9
$SKPOLY
 70
               0
  9
$TDCREATE
 40
0.000000000
  9
$TDUPDATE
 40
0.000000000
  9
$TDINDWG
 40
0.0000000000
  9
$TDUSRTIMER
 40
0.0000000000
  9
$USRTIMER
 70
               1
  9
$ANGBASE
 50
0.0
  9
$ANGDIR
 70
               0
  9
$PDMODE
 70
               0
  9
$PDSIZE
 40
1.0
  9
$PLINEWID
 40
0.0
  9
$COORDS
 70
               1
  9
$SPLFRAME
 70
               0
  9
$SPLINETYPE
 70
               6
  9
$SPLINESEGS
 70
               8
  9
$ATTDIA
 70
               0
  9
$ATTREQ
 70
               1
  9
$HANDLING
 70
               1
  9
$HANDSEED
  5
251
  9
$SURFTAB1
 70
               6
  9
$SURFTAB2
 70
               6
  9
$SURFTYPE
 70
               6
  9
$SURFU
 70
               6
  9
$SURFV
 70
               6
  9
$UCSNAME
  2

  9
$UCSORG
 10
0.0
 20
0.0
 30
0.0
  9
$UCSXDIR
 10
1.0
 20
0.0
 30
0.0
  9
$UCSYDIR
 10
0.0
 20
1.0
 30
0.0
  9
$PUCSNAME
  2

  9
$PUCSORG
 10
0.0
 20
0.0
 30
0.0
  9
$PUCSXDIR
 10
1.0
 20
0.0
 30
0.0
  9
$PUCSYDIR
 10
0.0
 20
1.0
 30
0.0
  9
$USERI1
 70
               0
  9
$USERI2
 70
               0
  9
$USERI3
 70
               0
  9
$USERI4
 70
               0
  9
$USERI5
 70
               0
  9
$USERR1
 40
0.0
  9
$USERR2
 40
0.0
  9
$USERR3
 40
0.0
  9
$USERR4
 40
0.0
  9
$USERR5
 40
0.0
  9
$WORLDVIEW
 70
               1
  9
$SHADEDGE
 70
               3
  9
$SHADEDIF
 70
              70
  9
$TILEMODE
 70
               1
  9
$MAXACTVP
 70
              16
  9
$PINSBASE
 10
0.0
 20
0.0
 30
0.0
  9
$PLIMCHECK
 70
               0
  9
$PEXTMIN
 10
1.0000000000000000E+20
 20
1.0000000000000000E+20
 30
1.0000000000000000E+20
  9
$PEXTMAX
 10
-1.0000000000000000E+20
 20
-1.0000000000000000E+20
 30
-1.0000000000000000E+20
  9
$PLIMMIN
 10
0.0
 20
0.0
  9
$PLIMMAX
 10
12.0
 20
9.0
  9
$UNITMODE
 70
               0
  9
$VISRETAIN
 70
               0
  9
$PLINEGEN
 70
               1
  9
$PSLTSCALE
 70
               0
  9
$TREEDEPTH
 70
            3020
  9
$DWGCODEPAGE
  3
dos932
  0
ENDSEC
  0
SECTION
  2
TABLES
  0
TABLE
  2
VPORT
 70
               1
  0
VPORT
  2
*ACTIVE
 70
               0
 10
0.0
 20
0.0
 11
1.0
 21
1.0
 12
36.750000000000341
 22
20.138613861386233
 13
0.0
 23
0.0
 14
1.0
 24
1.0
 15
0.0
 25
0.0
 16
0.0
 26
0.0
 36
1.0
 17
0.0
 27
0.0
 37
0.0
 40
1057.3427722772274
 41
1.0531228012085585
 42
50.0
 43
0.0
 44
0.0
 50
0.0
 51
0.0
 71
               0
 72
             100
 73
               1
 74
               1
 75
               0
 76
               0
 77
               0
 78
               0
  0
ENDTAB
  0
TABLE
  2
LTYPE
 70
              26
  0
LTYPE
  2
CONTINUOUS
 70
               0
  3
Solid line
 72
              65
 73
               0
 40
0.0
  0
LTYPE
  2
HIDDENX2
 70
               0
  3
CADPAC FUSION LINETYPE
 72
              65
 73
               2
 40
58.240000000000002
 49
43.68
 49
-14.56
  0
LTYPE
  2
HIDDEN
 70
               0
  3
CADPAC FUSION LINETYPE
 72
              65
 73
               2
 40
43.68
 49
29.120000000000001
 49
-14.56
  0
LTYPE
  2
HIDDEN2
 70
               0
  3
CADPAC FUSION LINETYPE
 72
              65
 73
               2
 40
36.399999999999999
 49
21.84
 49
-14.56
  0
LTYPE
  2
DASHED
 70
               0
  3
CADPAC FUSION LINETYPE
 72
              65
 73
               2
 40
43.68
 49
29.120000000000001
 49
-14.56
  0
LTYPE
  2
DASHED2
 70
               0
  3
CADPAC FUSION LINETYPE
 72
              65
 73
               2
 40
32.759999999999998
 49
21.84
 49
-10.92
  0
LTYPE
  2
DASHEDX2
 70
               0
  3
CADPAC FUSION LINETYPE
 72
              65
 73
               2
 40
65.519999999999996
 49
43.68
 49
-21.84
  0
LTYPE
  2
DOTX2
 70
               0
  3
CADPAC FUSION LINETYPE
 72
              65
 73
               2
 40
18.199999999999999
 49
0.0
 49
-18.199999999999999
  0
LTYPE
  2
DOT
 70
               0
  3
CADPAC FUSION LINETYPE
 72
              65
 73
               2
 40
14.56
 49
0.0
 49
-14.56
  0
LTYPE
  2
DOTS
 70
               0
  3
CADPAC FUSION LINETYPE
 72
              65
 73
               2
 40
14.56
 49
0.0
 49
-14.56
  0
LTYPE
  2
DOT2
 70
               0
  3
CADPAC FUSION LINETYPE
 72
              65
 73
               2
 40
10.92
 49
0.0
 49
-10.92
  0
LTYPE
  2
CENTERX2
 70
               0
  3
CADPAC FUSION LINETYPE
 72
              65
 73
               4
 40
87.359999999999985
 49
36.399999999999999
 49
-18.199999999999999
 49
14.56
 49
-18.199999999999999
  0
LTYPE
  2
CENTER
 70
               0
  3
CADPAC FUSION LINETYPE
 72
              65
 73
               4
 40
66.975999999999999
 49
29.120000000000001
 49
-14.56
 49
8.7360000000000007
 49
-14.56
  0
LTYPE
  2
CENTER2
 70
               0
  3
CADPAC FUSION LINETYPE
 72
              65
 73
               4
 40
46.591999999999999
 49
21.84
 49
-10.92
 49
2.9120000000000004
 49
-10.92
  0
LTYPE
  2
DASHDOTX2
 70
               0
  3
CADPAC FUSION LINETYPE
 72
              65
 73
               4
 40
72.799999999999997
 49
36.399999999999999
 49
-18.199999999999999
 49
0.0
 49
-18.199999999999999
  0
LTYPE
  2
DASHDOT
 70
               0
  3
CADPAC FUSION LINETYPE
 72
              65
 73
               4
 40
58.240000000000002
 49
29.120000000000001
 49
-14.56
 49
0.0
 49
-14.56
  0
LTYPE
  2
DASHDOT2
 70
               0
  3
CADPAC FUSION LINETYPE
 72
              65
 73
               4
 40
43.68
 49
21.84
 49
-10.92
 49
0.0
 49
-10.92
  0
LTYPE
  2
DIVIDEX2
 70
               0
  3
CADPAC FUSION LINETYPE
 72
              65
 73
               6
 40
91.0
 49
36.399999999999999
 49
-18.199999999999999
 49
0.0
 49
-18.199999999999999
 49
0.0
 49
-18.199999999999999
  0
LTYPE
  2
DIVIDE
 70
               0
  3
CADPAC FUSION LINETYPE
 72
              65
 73
               6
 40
72.799999999999997
 49
29.120000000000001
 49
-14.56
 49
0.0
 49
-14.56
 49
0.0
 49
-14.56
  0
LTYPE
  2
DIVIDE2
 70
               0
  3
CADPAC FUSION LINETYPE
 72
              65
 73
               6
 40
54.600000000000001
 49
21.84
 49
-10.92
 49
0.0
 49
-10.92
 49
0.0
 49
-10.92
  0
LTYPE
  2
BORDERX2
 70
               0
  3
CADPAC FUSION LINETYPE
 72
              65
 73
               6
 40
127.39999999999999
 49
36.399999999999999
 49
-18.199999999999999
 49
36.399999999999999
 49
-18.199999999999999
 49
0.0
 49
-18.199999999999999
  0
LTYPE
  2
BORDER
 70
               0
  3
CADPAC FUSION LINETYPE
 72
              65
 73
               6
 40
101.92
 49
29.120000000000001
 49
-14.56
 49
29.120000000000001
 49
-14.56
 49
0.0
 49
-14.56
  0
LTYPE
  2
BORDER2
 70
               0
  3
CADPAC FUSION LINETYPE
 72
              65
 73
               6
 40
76.439999999999998
 49
21.84
 49
-10.92
 49
21.84
 49
-10.92
 49
0.0
 49
-10.92
  0
LTYPE
  2
PHANTOMX2
 70
               0
  3
CADPAC FUSION LINETYPE
 72
              65
 73
               6
 40
109.2
 49
36.399999999999999
 49
-14.56
 49
14.56
 49
-14.56
 49
14.56
 49
-14.56
  0
LTYPE
  2
PHANTOM
 70
               0
  3
CADPAC FUSION LINETYPE
 72
              65
 73
               6
 40
90.271999999999991
 49
29.120000000000001
 49
-14.56
 49
8.7360000000000007
 49
-14.56
 49
8.7360000000000007
 49
-14.56
  0
LTYPE
  2
PHANTOM2
 70
               0
  3
CADPAC FUSION LINETYPE
 72
              65
 73
               6
 40
77.168000000000006
 49
21.84
 49
-14.56
 49
5.8240000000000007
 49
-14.56
 49
5.8240000000000007
 49
-14.56
  0
ENDTAB
  0
TABLE
  2
LAYER
 70
             256
  0
LAYER
  2
0
 70
               0
 62
               7
  6
CONTINUOUS
  0
LAYER
  2
LAYER001
 70
               0
 62
               7
  6
CONTINUOUS
  0
LAYER
  2
LAYER002
 70
               0
 62
               7
  6
CONTINUOUS
  0
LAYER
  2
LAYER003
 70
               0
 62
               7
  6
CONTINUOUS
  0
LAYER
  2
LAYER004
 70
               0
 62
               7
  6
CONTINUOUS
  0
LAYER
  2
LAYER005
 70
               0
 62
               7
  6
CONTINUOUS
  0
LAYER
  2
LAYER006
 70
               0
 62
               7
  6
CONTINUOUS
  0
LAYER
  2
LAYER007
 70
               0
 62
               7
  6
CONTINUOUS
  0
LAYER
  2
LAYER008
 70
               0
 62
               7
  6
CONTINUOUS
  0
LAYER
  2
LAYER009
 70
               0
 62
               7
  6
CONTINUOUS
  0
LAYER
  2
LAYER010
 70
               0
 62
               7
  6
CONTINUOUS
  0
LAYER
  2
LAYER011
 70
               0
 62
               7
  6
CONTINUOUS
  0
LAYER
  2
LAYER012
 70
               0
 62
               7
  6
CONTINUOUS
  0
LAYER
  2
LAYER013
 70
               0
 62
               7
  6
CONTINUOUS
  0
LAYER
  2
LAYER014
 70
               0
 62
               7
  6
CONTINUOUS
  0
LAYER
  2
LAYER015
 70
               0
 62
               7
  6
CONTINUOUS
  0
LAYER
  2
LAYER016
 70
               0
 62
               7
  6
CONTINUOUS
  0
LAYER
  2
LAYER017
 70
               0
 62
               7
  6
CONTINUOUS
  0
LAYER
  2
LAYER018
 70
               0
 62
               7
  6
CONTINUOUS
  0
LAYER
  2
LAYER019
 70
               0
 62
               7
  6
CONTINUOUS
  0
LAYER
  2
LAYER020
 70
               0
 62
               7
  6
CONTINUOUS
  0
LAYER
  2
LAYER021
 70
               0
 62
               7
  6
CONTINUOUS
  0
LAYER
  2
LAYER022
 70
               0
 62
               7
  6
CONTINUOUS
  0
LAYER
  2
LAYER023
 70
               0
 62
               7
  6
CONTINUOUS
  0
LAYER
  2
LAYER024
 70
               0
 62
               7
  6
CONTINUOUS
  0
LAYER
  2
LAYER025
 70
               0
 62
               7
  6
CONTINUOUS
  0
LAYER
  2
LAYER026
 70
               0
 62
               7
  6
CONTINUOUS
  0
LAYER
  2
LAYER027
 70
               0
 62
               7
  6
CONTINUOUS
  0
LAYER
  2
LAYER028
 70
               0
 62
               7
  6
CONTINUOUS
  0
LAYER
  2
LAYER029
 70
               0
 62
               7
  6
CONTINUOUS
  0
LAYER
  2
LAYER030
 70
               0
 62
               7
  6
CONTINUOUS
  0
LAYER
  2
LAYER031
 70
               0
 62
               7
  6
CONTINUOUS
  0
LAYER
  2
LAYER032
 70
               0
 62
               7
  6
CONTINUOUS
  0
LAYER
  2
LAYER033
 70
               0
 62
               7
  6
CONTINUOUS
  0
LAYER
  2
LAYER034
 70
               0
 62
               7
  6
CONTINUOUS
  0
LAYER
  2
LAYER035
 70
               0
 62
               7
  6
CONTINUOUS
  0
LAYER
  2
LAYER036
 70
               0
 62
               7
  6
CONTINUOUS
  0
LAYER
  2
LAYER037
 70
               0
 62
               7
  6
CONTINUOUS
  0
LAYER
  2
LAYER038
 70
               0
 62
               7
  6
CONTINUOUS
  0
LAYER
  2
LAYER039
 70
               0
 62
               7
  6
CONTINUOUS
  0
LAYER
  2
LAYER040
 70
               0
 62
               7
  6
CONTINUOUS
  0
LAYER
  2
LAYER041
 70
               0
 62
               7
  6
CONTINUOUS
  0
LAYER
  2
LAYER042
 70
               0
 62
               7
  6
CONTINUOUS
  0
LAYER
  2
LAYER043
 70
               0
 62
               7
  6
CONTINUOUS
  0
LAYER
  2
LAYER044
 70
               0
 62
               7
  6
CONTINUOUS
  0
LAYER
  2
LAYER045
 70
               0
 62
               7
  6
CONTINUOUS
  0
LAYER
  2
LAYER046
 70
               0
 62
               7
  6
CONTINUOUS
  0
LAYER
  2
LAYER047
 70
               0
 62
               7
  6
CONTINUOUS
  0
LAYER
  2
LAYER048
 70
               0
 62
               7
  6
CONTINUOUS
  0
LAYER
  2
LAYER049
 70
               0
 62
               7
  6
CONTINUOUS
  0
LAYER
  2
LAYER050
 70
               0
 62
               7
  6
CONTINUOUS
  0
LAYER
  2
LAYER051
 70
               0
 62
               7
  6
CONTINUOUS
  0
LAYER
  2
LAYER052
 70
               0
 62
               7
  6
CONTINUOUS
  0
LAYER
  2
LAYER053
 70
               0
 62
               7
  6
CONTINUOUS
  0
LAYER
  2
LAYER054
 70
               0
 62
               7
  6
CONTINUOUS
  0
LAYER
  2
LAYER055
 70
               0
 62
               7
  6
CONTINUOUS
  0
LAYER
  2
LAYER056
 70
               0
 62
               7
  6
CONTINUOUS
  0
LAYER
  2
LAYER057
 70
               0
 62
               7
  6
CONTINUOUS
  0
LAYER
  2
LAYER058
 70
               0
 62
               7
  6
CONTINUOUS
  0
LAYER
  2
LAYER059
 70
               0
 62
               7
  6
CONTINUOUS
  0
LAYER
  2
LAYER060
 70
               0
 62
               7
  6
CONTINUOUS
  0
LAYER
  2
LAYER061
 70
               0
 62
               7
  6
CONTINUOUS
  0
LAYER
  2
LAYER062
 70
               0
 62
               7
  6
CONTINUOUS
  0
LAYER
  2
LAYER063
 70
               0
 62
               7
  6
CONTINUOUS
  0
LAYER
  2
LAYER064
 70
               0
 62
               7
  6
CONTINUOUS
  0
LAYER
  2
LAYER065
 70
               0
 62
               7
  6
CONTINUOUS
  0
LAYER
  2
LAYER066
 70
               0
 62
               7
  6
CONTINUOUS
  0
LAYER
  2
LAYER067
 70
               0
 62
               7
  6
CONTINUOUS
  0
LAYER
  2
LAYER068
 70
               0
 62
               7
  6
CONTINUOUS
  0
LAYER
  2
LAYER069
 70
               0
 62
               7
  6
CONTINUOUS
  0
LAYER
  2
LAYER070
 70
               0
 62
               7
  6
CONTINUOUS
  0
LAYER
  2
LAYER071
 70
               0
 62
               7
  6
CONTINUOUS
  0
LAYER
  2
LAYER072
 70
               0
 62
               7
  6
CONTINUOUS
  0
LAYER
  2
LAYER073
 70
               0
 62
               7
  6
CONTINUOUS
  0
LAYER
  2
LAYER074
 70
               0
 62
               7
  6
CONTINUOUS
  0
LAYER
  2
LAYER075
 70
               0
 62
               7
  6
CONTINUOUS
  0
LAYER
  2
LAYER076
 70
               0
 62
               7
  6
CONTINUOUS
  0
LAYER
  2
LAYER077
 70
               0
 62
               7
  6
CONTINUOUS
  0
LAYER
  2
LAYER078
 70
               0
 62
               7
  6
CONTINUOUS
  0
LAYER
  2
LAYER079
 70
               0
 62
               7
  6
CONTINUOUS
  0
LAYER
  2
LAYER080
 70
               0
 62
               7
  6
CONTINUOUS
  0
LAYER
  2
LAYER081
 70
               0
 62
               7
  6
CONTINUOUS
  0
LAYER
  2
LAYER082
 70
               0
 62
               7
  6
CONTINUOUS
  0
LAYER
  2
LAYER083
 70
               0
 62
               7
  6
CONTINUOUS
  0
LAYER
  2
LAYER084
 70
               0
 62
               7
  6
CONTINUOUS
  0
LAYER
  2
LAYER085
 70
               0
 62
               7
  6
CONTINUOUS
  0
LAYER
  2
LAYER086
 70
               0
 62
               7
  6
CONTINUOUS
  0
LAYER
  2
LAYER087
 70
               0
 62
               7
  6
CONTINUOUS
  0
LAYER
  2
LAYER088
 70
               0
 62
               7
  6
CONTINUOUS
  0
LAYER
  2
LAYER089
 70
               0
 62
               7
  6
CONTINUOUS
  0
LAYER
  2
LAYER090
 70
               0
 62
               7
  6
CONTINUOUS
  0
LAYER
  2
LAYER091
 70
               0
 62
               7
  6
CONTINUOUS
  0
LAYER
  2
LAYER092
 70
               0
 62
               7
  6
CONTINUOUS
  0
LAYER
  2
LAYER093
 70
               0
 62
               7
  6
CONTINUOUS
  0
LAYER
  2
LAYER094
 70
               0
 62
               7
  6
CONTINUOUS
  0
LAYER
  2
LAYER095
 70
               0
 62
               7
  6
CONTINUOUS
  0
LAYER
  2
LAYER096
 70
               0
 62
               7
  6
CONTINUOUS
  0
LAYER
  2
LAYER097
 70
               0
 62
               7
  6
CONTINUOUS
  0
LAYER
  2
LAYER098
 70
               0
 62
               7
  6
CONTINUOUS
  0
LAYER
  2
LAYER099
 70
               0
 62
               7
  6
CONTINUOUS
  0
LAYER
  2
LAYER100
 70
               0
 62
               7
  6
CONTINUOUS
  0
LAYER
  2
LAYER101
 70
               0
 62
               7
  6
CONTINUOUS
  0
LAYER
  2
LAYER102
 70
               0
 62
               7
  6
CONTINUOUS
  0
LAYER
  2
LAYER103
 70
               0
 62
               7
  6
CONTINUOUS
  0
LAYER
  2
LAYER104
 70
               0
 62
               7
  6
CONTINUOUS
  0
LAYER
  2
LAYER105
 70
               0
 62
               7
  6
CONTINUOUS
  0
LAYER
  2
LAYER106
 70
               0
 62
               7
  6
CONTINUOUS
  0
LAYER
  2
LAYER107
 70
               0
 62
               7
  6
CONTINUOUS
  0
LAYER
  2
LAYER108
 70
               0
 62
               7
  6
CONTINUOUS
  0
LAYER
  2
LAYER109
 70
               0
 62
               7
  6
CONTINUOUS
  0
LAYER
  2
LAYER110
 70
               0
 62
               7
  6
CONTINUOUS
  0
LAYER
  2
LAYER111
 70
               0
 62
               7
  6
CONTINUOUS
  0
LAYER
  2
LAYER112
 70
               0
 62
               7
  6
CONTINUOUS
  0
LAYER
  2
LAYER113
 70
               0
 62
               7
  6
CONTINUOUS
  0
LAYER
  2
LAYER114
 70
               0
 62
               7
  6
CONTINUOUS
  0
LAYER
  2
LAYER115
 70
               0
 62
               7
  6
CONTINUOUS
  0
LAYER
  2
LAYER116
 70
               0
 62
               7
  6
CONTINUOUS
  0
LAYER
  2
LAYER117
 70
               0
 62
               7
  6
CONTINUOUS
  0
LAYER
  2
LAYER118
 70
               0
 62
               7
  6
CONTINUOUS
  0
LAYER
  2
LAYER119
 70
               0
 62
               7
  6
CONTINUOUS
  0
LAYER
  2
LAYER120
 70
               0
 62
               7
  6
CONTINUOUS
  0
LAYER
  2
LAYER121
 70
               0
 62
               7
  6
CONTINUOUS
  0
LAYER
  2
LAYER122
 70
               0
 62
               7
  6
CONTINUOUS
  0
LAYER
  2
LAYER123
 70
               0
 62
               7
  6
CONTINUOUS
  0
LAYER
  2
LAYER124
 70
               0
 62
               7
  6
CONTINUOUS
  0
LAYER
  2
LAYER125
 70
               0
 62
               7
  6
CONTINUOUS
  0
LAYER
  2
LAYER126
 70
               0
 62
               7
  6
CONTINUOUS
  0
LAYER
  2
LAYER127
 70
               0
 62
               7
  6
CONTINUOUS
  0
LAYER
  2
LAYER128
 70
               0
 62
               7
  6
CONTINUOUS
  0
LAYER
  2
LAYER129
 70
               0
 62
               7
  6
CONTINUOUS
  0
LAYER
  2
LAYER130
 70
               0
 62
               7
  6
CONTINUOUS
  0
LAYER
  2
LAYER131
 70
               0
 62
               7
  6
CONTINUOUS
  0
LAYER
  2
LAYER132
 70
               0
 62
               7
  6
CONTINUOUS
  0
LAYER
  2
LAYER133
 70
               0
 62
               7
  6
CONTINUOUS
  0
LAYER
  2
LAYER134
 70
               0
 62
               7
  6
CONTINUOUS
  0
LAYER
  2
LAYER135
 70
               0
 62
               7
  6
CONTINUOUS
  0
LAYER
  2
LAYER136
 70
               0
 62
               7
  6
CONTINUOUS
  0
LAYER
  2
LAYER137
 70
               0
 62
               7
  6
CONTINUOUS
  0
LAYER
  2
LAYER138
 70
               0
 62
               7
  6
CONTINUOUS
  0
LAYER
  2
LAYER139
 70
               0
 62
               7
  6
CONTINUOUS
  0
LAYER
  2
LAYER140
 70
               0
 62
               7
  6
CONTINUOUS
  0
LAYER
  2
LAYER141
 70
               0
 62
               7
  6
CONTINUOUS
  0
LAYER
  2
LAYER142
 70
               0
 62
               7
  6
CONTINUOUS
  0
LAYER
  2
LAYER143
 70
               0
 62
               7
  6
CONTINUOUS
  0
LAYER
  2
LAYER144
 70
               0
 62
               7
  6
CONTINUOUS
  0
LAYER
  2
LAYER145
 70
               0
 62
               7
  6
CONTINUOUS
  0
LAYER
  2
LAYER146
 70
               0
 62
               7
  6
CONTINUOUS
  0
LAYER
  2
LAYER147
 70
               0
 62
               7
  6
CONTINUOUS
  0
LAYER
  2
LAYER148
 70
               0
 62
               7
  6
CONTINUOUS
  0
LAYER
  2
LAYER149
 70
               0
 62
               7
  6
CONTINUOUS
  0
LAYER
  2
LAYER150
 70
               0
 62
               7
  6
CONTINUOUS
  0
LAYER
  2
LAYER151
 70
               0
 62
               7
  6
CONTINUOUS
  0
LAYER
  2
LAYER152
 70
               0
 62
               7
  6
CONTINUOUS
  0
LAYER
  2
LAYER153
 70
               0
 62
               7
  6
CONTINUOUS
  0
LAYER
  2
LAYER154
 70
               0
 62
               7
  6
CONTINUOUS
  0
LAYER
  2
LAYER155
 70
               0
 62
               7
  6
CONTINUOUS
  0
LAYER
  2
LAYER156
 70
               0
 62
               7
  6
CONTINUOUS
  0
LAYER
  2
LAYER157
 70
               0
 62
               7
  6
CONTINUOUS
  0
LAYER
  2
LAYER158
 70
               0
 62
               7
  6
CONTINUOUS
  0
LAYER
  2
LAYER159
 70
               0
 62
               7
  6
CONTINUOUS
  0
LAYER
  2
LAYER160
 70
               0
 62
               7
  6
CONTINUOUS
  0
LAYER
  2
LAYER161
 70
               0
 62
               7
  6
CONTINUOUS
  0
LAYER
  2
LAYER162
 70
               0
 62
               7
  6
CONTINUOUS
  0
LAYER
  2
LAYER163
 70
               0
 62
               7
  6
CONTINUOUS
  0
LAYER
  2
LAYER164
 70
               0
 62
               7
  6
CONTINUOUS
  0
LAYER
  2
LAYER165
 70
               0
 62
               7
  6
CONTINUOUS
  0
LAYER
  2
LAYER166
 70
               0
 62
               7
  6
CONTINUOUS
  0
LAYER
  2
LAYER167
 70
               0
 62
               7
  6
CONTINUOUS
  0
LAYER
  2
LAYER168
 70
               0
 62
               7
  6
CONTINUOUS
  0
LAYER
  2
LAYER169
 70
               0
 62
               7
  6
CONTINUOUS
  0
LAYER
  2
LAYER170
 70
               0
 62
               7
  6
CONTINUOUS
  0
LAYER
  2
LAYER171
 70
               0
 62
               7
  6
CONTINUOUS
  0
LAYER
  2
LAYER172
 70
               0
 62
               7
  6
CONTINUOUS
  0
LAYER
  2
LAYER173
 70
               0
 62
               7
  6
CONTINUOUS
  0
LAYER
  2
LAYER174
 70
               0
 62
               7
  6
CONTINUOUS
  0
LAYER
  2
LAYER175
 70
               0
 62
               7
  6
CONTINUOUS
  0
LAYER
  2
LAYER176
 70
               0
 62
               7
  6
CONTINUOUS
  0
LAYER
  2
LAYER177
 70
               0
 62
               7
  6
CONTINUOUS
  0
LAYER
  2
LAYER178
 70
               0
 62
               7
  6
CONTINUOUS
  0
LAYER
  2
LAYER179
 70
               0
 62
               7
  6
CONTINUOUS
  0
LAYER
  2
LAYER180
 70
               0
 62
               7
  6
CONTINUOUS
  0
LAYER
  2
LAYER181
 70
               0
 62
               7
  6
CONTINUOUS
  0
LAYER
  2
LAYER182
 70
               0
 62
               7
  6
CONTINUOUS
  0
LAYER
  2
LAYER183
 70
               0
 62
               7
  6
CONTINUOUS
  0
LAYER
  2
LAYER184
 70
               0
 62
               7
  6
CONTINUOUS
  0
LAYER
  2
LAYER185
 70
               0
 62
               7
  6
CONTINUOUS
  0
LAYER
  2
LAYER186
 70
               0
 62
               7
  6
CONTINUOUS
  0
LAYER
  2
LAYER187
 70
               0
 62
               7
  6
CONTINUOUS
  0
LAYER
  2
LAYER188
 70
               0
 62
               7
  6
CONTINUOUS
  0
LAYER
  2
LAYER189
 70
               0
 62
               7
  6
CONTINUOUS
  0
LAYER
  2
LAYER190
 70
               0
 62
               7
  6
CONTINUOUS
  0
LAYER
  2
LAYER191
 70
               0
 62
               7
  6
CONTINUOUS
  0
LAYER
  2
LAYER192
 70
               0
 62
               7
  6
CONTINUOUS
  0
LAYER
  2
LAYER193
 70
               0
 62
               7
  6
CONTINUOUS
  0
LAYER
  2
LAYER194
 70
               0
 62
               7
  6
CONTINUOUS
  0
LAYER
  2
LAYER195
 70
               0
 62
               7
  6
CONTINUOUS
  0
LAYER
  2
LAYER196
 70
               0
 62
               7
  6
CONTINUOUS
  0
LAYER
  2
LAYER197
 70
               0
 62
               7
  6
CONTINUOUS
  0
LAYER
  2
LAYER198
 70
               0
 62
               7
  6
CONTINUOUS
  0
LAYER
  2
LAYER199
 70
               0
 62
               7
  6
CONTINUOUS
  0
LAYER
  2
LAYER200
 70
               0
 62
               7
  6
CONTINUOUS
  0
LAYER
  2
LAYER201
 70
               0
 62
               7
  6
CONTINUOUS
  0
LAYER
  2
LAYER202
 70
               0
 62
               7
  6
CONTINUOUS
  0
LAYER
  2
LAYER203
 70
               0
 62
               7
  6
CONTINUOUS
  0
LAYER
  2
LAYER204
 70
               0
 62
               7
  6
CONTINUOUS
  0
LAYER
  2
LAYER205
 70
               0
 62
               7
  6
CONTINUOUS
  0
LAYER
  2
LAYER206
 70
               0
 62
               7
  6
CONTINUOUS
  0
LAYER
  2
LAYER207
 70
               0
 62
               7
  6
CONTINUOUS
  0
LAYER
  2
LAYER208
 70
               0
 62
               7
  6
CONTINUOUS
  0
LAYER
  2
LAYER209
 70
               0
 62
               7
  6
CONTINUOUS
  0
LAYER
  2
LAYER210
 70
               0
 62
               7
  6
CONTINUOUS
  0
LAYER
  2
LAYER211
 70
               0
 62
               7
  6
CONTINUOUS
  0
LAYER
  2
LAYER212
 70
               0
 62
               7
  6
CONTINUOUS
  0
LAYER
  2
LAYER213
 70
               0
 62
               7
  6
CONTINUOUS
  0
LAYER
  2
LAYER214
 70
               0
 62
               7
  6
CONTINUOUS
  0
LAYER
  2
LAYER215
 70
               0
 62
               7
  6
CONTINUOUS
  0
LAYER
  2
LAYER216
 70
               0
 62
               7
  6
CONTINUOUS
  0
LAYER
  2
LAYER217
 70
               0
 62
               7
  6
CONTINUOUS
  0
LAYER
  2
LAYER218
 70
               0
 62
               7
  6
CONTINUOUS
  0
LAYER
  2
LAYER219
 70
               0
 62
               7
  6
CONTINUOUS
  0
LAYER
  2
LAYER220
 70
               0
 62
               7
  6
CONTINUOUS
  0
LAYER
  2
LAYER221
 70
               0
 62
               7
  6
CONTINUOUS
  0
LAYER
  2
LAYER222
 70
               0
 62
               7
  6
CONTINUOUS
  0
LAYER
  2
LAYER223
 70
               0
 62
               7
  6
CONTINUOUS
  0
LAYER
  2
LAYER224
 70
               0
 62
               7
  6
CONTINUOUS
  0
LAYER
  2
LAYER225
 70
               0
 62
               7
  6
CONTINUOUS
  0
LAYER
  2
LAYER226
 70
               0
 62
               7
  6
CONTINUOUS
  0
LAYER
  2
LAYER227
 70
               0
 62
               7
  6
CONTINUOUS
  0
LAYER
  2
LAYER228
 70
               0
 62
               7
  6
CONTINUOUS
  0
LAYER
  2
LAYER229
 70
               0
 62
               7
  6
CONTINUOUS
  0
LAYER
  2
LAYER230
 70
               0
 62
               7
  6
CONTINUOUS
  0
LAYER
  2
LAYER231
 70
               0
 62
               7
  6
CONTINUOUS
  0
LAYER
  2
LAYER232
 70
               0
 62
               7
  6
CONTINUOUS
  0
LAYER
  2
LAYER233
 70
               0
 62
               7
  6
CONTINUOUS
  0
LAYER
  2
LAYER234
 70
               0
 62
               7
  6
CONTINUOUS
  0
LAYER
  2
LAYER235
 70
               0
 62
               7
  6
CONTINUOUS
  0
LAYER
  2
LAYER236
 70
               0
 62
               7
  6
CONTINUOUS
  0
LAYER
  2
LAYER237
 70
               0
 62
               7
  6
CONTINUOUS
  0
LAYER
  2
LAYER238
 70
               0
 62
               7
  6
CONTINUOUS
  0
LAYER
  2
LAYER239
 70
               0
 62
               7
  6
CONTINUOUS
  0
LAYER
  2
LAYER240
 70
               0
 62
               7
  6
CONTINUOUS
  0
LAYER
  2
LAYER241
 70
               0
 62
               7
  6
CONTINUOUS
  0
LAYER
  2
LAYER242
 70
               0
 62
               7
  6
CONTINUOUS
  0
LAYER
  2
LAYER243
 70
               0
 62
               7
  6
CONTINUOUS
  0
LAYER
  2
LAYER244
 70
               0
 62
               7
  6
CONTINUOUS
  0
LAYER
  2
LAYER245
 70
               0
 62
               7
  6
CONTINUOUS
  0
LAYER
  2
LAYER246
 70
               0
 62
               7
  6
CONTINUOUS
  0
LAYER
  2
LAYER247
 70
               0
 62
               7
  6
CONTINUOUS
  0
LAYER
  2
LAYER248
 70
               0
 62
               7
  6
CONTINUOUS
  0
LAYER
  2
LAYER249
 70
               0
 62
               7
  6
CONTINUOUS
  0
LAYER
  2
LAYER250
 70
               0
 62
               7
  6
CONTINUOUS
  0
LAYER
  2
LAYER251
 70
               0
 62
               7
  6
CONTINUOUS
  0
LAYER
  2
LAYER252
 70
               0
 62
               7
  6
CONTINUOUS
  0
LAYER
  2
LAYER253
 70
               0
 62
               7
  6
CONTINUOUS
  0
LAYER
  2
LAYER254
 70
               0
 62
               7
  6
CONTINUOUS
  0
LAYER
  2
LAYER255
 70
               0
 62
               7
  6
CONTINUOUS
  0
ENDTAB
  0
TABLE
  2
STYLE
 70
               1
  0
STYLE
  2
STANDARD
 70
               0
 40
0.0
 41
1.0
 50
0.0
 71
               0
 42
0.0
  3
txt
  4

  0
ENDTAB
  0
TABLE
  2
VIEW
 70
               0
  0
VIEW
  2
QQQQ
 70
               0
 40
1057.3427722772274
 10
36.750000000000341
 20
20.138613861386233
 41
1113.5117821782167
 11
0.0
 21
0.0
 31
1.0
 12
100.0
 22
100.0
 32
0.0
 42
50.0
 43
0.0
 44
0.0
 50
0.0
 71
               0
  0
ENDTAB
  0
TABLE
  2
UCS
 70
               0
  0
ENDTAB
  0
TABLE
  2
APPID
 70
               1
  0
APPID
  2
ACAD
 70
               0
  0
ENDTAB
  0
TABLE
  2
DIMSTYLE
 70
               1
  0
DIMSTYLE
  2
STANDARD
 70
               0
  3

  4

  5

  6

  7

 40
1.0
 41
0.18
 42
0.0625
 43
0.38
 44
0.18
 45
0.0
 46
0.0
 47
0.0
 48
0.0
140
0.18
141
0.09
142
0.0
143
25.399999999999999
144
1.0
145
0.0
146
1.0
147
0.09
 71
               0
 72
               0
 73
               1
 74
               1
 75
               0
 76
               0
 77
               0
 78
               0
170
               0
171
               2
172
               0
173
               0
174
               0
175
               0
176
               0
177
               0
178
               0
  0
ENDTAB
  0
ENDSEC
  0
SECTION
  2
BLOCKS
  0
ENDSEC
  0
SECTION
  2
ENTITIES
  0
LINE
  8
0
  6
CONTINUOUS
 62
               3
  5
136
 10
-38.249999999999879
 20
167.37623762376239
 30
0.0
 11
111.75000000000011
 21
167.37623762376239
 31
0.0
  0
LINE
  8
0
  6
CONTINUOUS
 62
               3
  5
137
 10
-51.750000000000107
 20
157.37623762376239
 30
0.0
 11
-51.750000000000107
 21
150.37623762376273
 31
0.0
  0
LINE
  8
0
  6
CONTINUOUS
 62
               3
  5
138
 10
-51.750000000000107
 20
157.37623762376239
 30
0.0
 11
-38.249999999999879
 21
167.37623762376239
 31
0.0
  0
ARC
  8
0
  6
CONTINUOUS
 62
               3
  5
139
 10
-40.249999999999766
 20
145.79366192880701
 30
0.0
 40
4.9999999999999991
 50
0.0
 51
66.4218215217725
  0
LINE
  8
0
  6
CONTINUOUS
 62
               3
  5
13A
 10
-51.750000000000107
 20
150.37623762376273
 30
0.0
 11
125.24999999999977
 21
150.37623762376273
 31
0.0
  0
LINE
  8
0
  6
CONTINUOUS
 62
               3
  5
13B
 10
-35.249999999999766
 20
145.79366192880701
 30
0.0
 11
-35.249999999999766
 21
70.911891376615188
 31
0.0
  0
LINE
  8
0
  6
CONTINUOUS
 62
               3
  5
13C
 10
108.75
 20
75.911891376615756
 30
0.0
 11
108.75
 21
145.79366192880701
 31
0.0
  0
LINE
  8
0
  6
CONTINUOUS
 62
               3
  5
13D
 10
-21.249999999999993
 20
-325.62376237623789
 30
0.0
 11
-38.249999999999879
 21
-176.62376237623744
 31
0.0
  0
LINE
  8
0
  6
CONTINUOUS
 62
               3
  5
13E
 10
94.750000000000227
 20
-336.12376237623675
 30
0.0
 11
94.750000000000227
 21
-325.62376237623789
 31
0.0
  0
LINE
  8
0
  6
CONTINUOUS
 62
               3
  5
13F
 10
-38.249999999999879
 20
-75.009429582492459
 30
0.0
 11
-38.249999999999879
 21
-176.62376237623744
 31
0.0
  0
LINE
  8
0
  6
CONTINUOUS
 62
               3
  5
140
 10
-21.249999999999993
 20
-325.62376237623789
 30
0.0
 11
-21.249999999999993
 21
-336.12376237623721
 31
0.0
  0
LINE
  8
0
  6
CONTINUOUS
 62
               3
  5
141
 10
-35.249999999999766
 20
70.911891376615188
 30
0.0
 11
108.25000000000045
 21
70.911891376615188
 31
0.0
  0
LINE
  8
0
  6
CONTINUOUS
 62
               3
  5
142
 10
16.750000000000117
 20
150.37623762376273
 30
0.0
 11
16.750000000000117
 21
167.37623762376239
 31
0.0
  0
LINE
  8
0
  6
CONTINUOUS
 62
               3
  5
143
 10
56.750000000000121
 20
167.37623762376239
 30
0.0
 11
56.750000000000121
 21
150.37623762376273
 31
0.0
  0
LINE
  8
0
  6
CONTINUOUS
 62
               3
  5
144
 10
16.750000000000117
 20
157.37623762376239
 30
0.0
 11
56.750000000000121
 21
157.37623762376239
 31
0.0
  0
LINE
  8
0
  6
CONTINUOUS
 62
               3
  5
145
 10
-35.534161474005252
 20
167.37623762376239
 30
0.0
 11
-35.534161474005252
 21
150.37623762376273
 31
0.0
  0
LINE
  8
0
  6
CONTINUOUS
 62
               3
  5
146
 10
-49.460498200625118
 20
157.37623762376239
 30
0.0
 11
-49.460498200625118
 21
150.37623762376273
 31
0.0
  0
LINE
  8
0
  6
CONTINUOUS
 62
               3
  5
147
 10
-51.750000000000107
 20
157.37623762376239
 30
0.0
 11
-49.460498200625118
 21
157.37623762376239
 31
0.0
  0
LINE
  8
0
  6
CONTINUOUS
 62
               3
  5
148
 10
-49.460498200625118
 20
157.37623762376239
 30
0.0
 11
-35.534161474005252
 21
167.37623762376239
 31
0.0
  0
LINE
  8
0
  6
CONTINUOUS
 62
               3
  5
149
 10
125.24999999999977
 20
157.37623762376239
 30
0.0
 11
125.24999999999977
 21
150.37623762376273
 31
0.0
  0
LINE
  8
0
  6
CONTINUOUS
 62
               3
  5
14A
 10
125.24999999999977
 20
157.37623762376239
 30
0.0
 11
111.75000000000011
 21
167.37623762376239
 31
0.0
  0
ARC
  8
0
  6
CONTINUOUS
 62
               3
  5
14B
 10
113.75
 20
145.79366192880701
 30
0.0
 40
4.9999999999999991
 50
113.57817847815815
 51
179.99999999993057
  0
LINE
  8
0
  6
CONTINUOUS
 62
               3
  5
14C
 10
109.03416147400435
 20
167.37623762376239
 30
0.0
 11
109.03416147400435
 21
150.37623762376273
 31
0.0
  0
LINE
  8
0
  6
CONTINUOUS
 62
               3
  5
14D
 10
122.96049820062535
 20
157.37623762376239
 30
0.0
 11
122.96049820062535
 21
150.37623762376273
 31
0.0
  0
LINE
  8
0
  6
CONTINUOUS
 62
               3
  5
14E
 10
125.24999999999977
 20
157.37623762376239
 30
0.0
 11
122.96049820062535
 21
157.37623762376239
 31
0.0
  0
LINE
  8
0
  6
CONTINUOUS
 62
               3
  5
14F
 10
122.96049820062535
 20
157.37623762376239
 30
0.0
 11
109.03416147400435
 21
167.37623762376239
 31
0.0
  0
LINE
  8
0
  6
CONTINUOUS
 62
               3
  5
150
 10
-21.249999999999993
 20
-325.62376237623732
 30
0.0
 11
94.750000000000227
 21
-325.62376237623789
 31
0.0
  0
ARC
  8
0
  6
CONTINUOUS
 62
               3
  5
151
 10
-28.249999999999879
 20
-61.123762376237607
 30
0.0
 40
2.4999999999999996
 50
89.999999999965354
 51
269.99999999989632
  0
ARC
  8
0
  6
CONTINUOUS
 62
               3
  5
152
 10
111.75000000000011
 20
-61.123762376237607
 30
0.0
 40
2.4999999999999996
 50
269.99999999989649
 51
449.99999999982703
  0
LINE
  8
0
  6
CONTINUOUS
 62
               3
  5
153
 10
-38.249999999999879
 20
-176.62376237623744
 30
0.0
 11
-9.6181077920567688
 21
-176.62376237623744
 31
0.0
  0
LINE
  8
0
  6
CONTINUOUS
 62
               3
  5
154
 10
34.777166719849227
 20
-176.62376237623744
 30
0.0
 11
111.24676513364989
 21
-176.62376237623744
 31
0.0
  0
LINE
  8
0
  6
CONTINUOUS
 62
               3
  5
155
 10
-28.249999999999879
 20
-58.623762376237607
 30
0.0
 11
111.75000000000011
 21
-58.623762376237607
 31
0.0
  0
LINE
  8
0
  6
CONTINUOUS
 62
               3
  5
156
 10
-28.249999999999879
 20
-63.623762376237607
 30
0.0
 11
111.75000000000011
 21
-63.623762376237607
 31
0.0
  0
ARC
  8
0
  6
CONTINUOUS
 62
               3
  5
157
 10
-18.249999999999879
 20
60.376237623762393
 30
0.0
 40
19.999999999999996
 50
148.21166938289122
 51
179.99999999993088
  0
LINE
  8
0
  6
CONTINUOUS
 62
               3
  5
158
 10
-38.249999999999879
 20
60.376237623762393
 30
0.0
 11
-38.249999999999879
 21
35.619769206286719
 31
0.0
  0
LINE
  8
0
  6
CONTINUOUS
 62
               3
  5
159
 10
-19.749999999999879
 20
-437.62376237623761
 30
0.0
 11
93.250000000000114
 21
-437.62376237623761
 31
0.0
  0
LINE
  8
0
  6
CONTINUOUS
 62
               3
  5
15A
 10
-19.749999999999879
 20
-437.62376237623761
 30
0.0
 11
-19.749999999999879
 21
-337.62376237623761
 31
0.0
  0
LINE
  8
0
  6
CONTINUOUS
 62
               3
  5
15B
 10
93.250000000000114
 20
-437.62376237623761
 30
0.0
 11
93.250000000000114
 21
-337.62376237623761
 31
0.0
  0
LINE
  8
0
  6
CONTINUOUS
 62
               3
  5
15C
 10
-19.749999999999879
 20
-337.62376237623761
 30
0.0
 11
-21.250000000000277
 21
-336.12376237623721
 31
0.0
  0
LINE
  8
0
  6
CONTINUOUS
 62
               3
  5
15D
 10
93.250000000000114
 20
-337.62376237623761
 30
0.0
 11
94.750000000000227
 21
-336.12376237623744
 31
0.0
  0
LINE
  8
0
  6
CONTINUOUS
 62
               3
  5
15E
 10
-50.229796001556871
 20
-60.958565769069708
 30
0.0
 11
-39.714466094067099
 21
-71.473895676559764
 31
0.0
  0
LINE
  8
0
  6
CONTINUOUS
 62
               3
  5
15F
 10
-103.24999999999989
 20
26.147793749727185
 30
0.0
 11
-102.57844387403546
 21
26.12623762376262
 31
0.0
  0
LINE
  8
0
  6
CONTINUOUS
 62
               3
  5
160
 10
-103.24999999999989
 20
-55.395318502202173
 30
0.0
 11
-102.57844387403546
 21
-55.373762376237607
 31
0.0
  0
LINE
  8
0
  6
CONTINUOUS
 62
               3
  5
161
 10
-100.07844387403492
 20
28.626237623762393
 30
0.0
 11
-102.57844387403546
 21
26.12623762376262
 31
0.0
  0
LINE
  8
0
  6
CONTINUOUS
 62
               3
  5
162
 10
-100.07844387403517
 20
-57.873762376237607
 30
0.0
 11
-102.57844387403546
 21
-55.373762376237607
 31
0.0
  0
LINE
  8
0
  6
CONTINUOUS
 62
               3
  5
163
 10
-102.57844387403546
 20
26.12623762376262
 30
0.0
 11
-102.57844387403546
 21
-55.373762376237607
 31
0.0
  0
LINE
  8
0
  6
CONTINUOUS
 62
               3
  5
164
 10
-108.24999999999989
 20
25.976237623762387
 30
0.0
 11
-108.24999999999989
 21
-55.223762376237602
 31
0.0
  0
LINE
  8
0
  6
CONTINUOUS
 62
               3
  5
165
 10
-103.24999999999989
 20
-57.723762376237602
 30
0.0
 11
-103.24999999999989
 21
28.476237623762387
 31
0.0
  0
LINE
  8
0
  6
CONTINUOUS
 62
               3
  5
166
 10
-103.24999999999989
 20
28.476237623762387
 30
0.0
 11
-105.74999999999989
 21
28.476237623762387
 31
0.0
  0
LINE
  8
0
  6
CONTINUOUS
 62
               3
  5
167
 10
-103.24999999999989
 20
-57.723762376237602
 30
0.0
 11
-105.74999999999989
 21
-57.723762376237602
 31
0.0
  0
ARC
  8
0
  6
CONTINUOUS
 62
               3
  5
168
 10
-105.74999999999989
 20
-55.223762376237602
 30
0.0
 40
2.5
 50
179.99999999993057
 51
269.99999999989649
  0
ARC
  8
0
  6
CONTINUOUS
 62
               3
  5
169
 10
-105.74999999999989
 20
25.976237623762387
 30
0.0
 40
2.5
 50
89.999999999965596
 51
179.99999999993057
  0
LINE
  8
0
  6
CONTINUOUS
 62
               3
  5
16A
 10
-100.07844387403492
 20
28.626237623762393
 30
0.0
 11
-100.07844387403517
 21
-57.873762376237636
 31
0.0
  0
LINE
  8
0
  6
CONTINUOUS
 62
               3
  5
16B
 10
-53.590832423977169
 20
-59.497145539906953
 30
0.0
 11
-100.0784438740352
 21
-57.873762376237607
 31
0.0
  0
LINE
  8
0
  6
CONTINUOUS
 62
               3
  5
16C
 10
-43.075502516487326
 20
30.616824199261515
 30
0.0
 11
-100.07844387403489
 21
28.626237623762421
 31
0.0
  0
ARC
  8
0
  6
CONTINUOUS
 62
               3
  5
16D
 10
-53.765329907489651
 20
-64.494099675002417
 30
0.0
 40
5.0
 50
44.999999999982116
 51
87.999999999966505
  0
ARC
  8
0
  6
CONTINUOUS
 62
               3
  5
16E
 10
-43.249999999999879
 20
-75.009429582492459
 30
0.0
 40
5.0
 50
0.0
 51
44.999999999982116
  0
ARC
  8
0
  6
CONTINUOUS
 62
               3
  5
16F
 10
-43.249999999999879
 20
35.613778334356994
 30
0.0
 40
5.0
 50
271.99999999989598
 51
359.99999999986176
  0
LINE
  8
0
  6
CONTINUOUS
 62
               3
  5
170
 10
-453.60148514851375
 20
166.70297029702994
 30
0.0
 11
-303.60148514851431
 21
166.70297029702994
 31
0.0
  0
LINE
  8
0
  6
CONTINUOUS
 62
               3
  5
171
 10
-467.10148514851397
 20
156.70297029702994
 30
0.0
 11
-467.10148514851397
 21
149.70297029703028
 31
0.0
  0
LINE
  8
0
  6
CONTINUOUS
 62
               3
  5
172
 10
-467.10148514851397
 20
156.70297029702994
 30
0.0
 11
-453.60148514851375
 21
166.70297029702994
 31
0.0
  0
ARC
  8
0
  6
CONTINUOUS
 62
               3
  5
173
 10
-455.60148514851363
 20
145.12039460207455
 30
0.0
 40
4.9999999999999991
 50
0.0
 51
66.4218215217725
  0
LINE
  8
0
  6
CONTINUOUS
 62
               3
  5
174
 10
-467.10148514851397
 20
149.70297029703028
 30
0.0
 11
-290.10148514851409
 21
149.70297029703028
 31
0.0
  0
ARC
  8
0
  6
CONTINUOUS
 62
               3
  5
175
 10
-433.60148514851375
 20
59.702970297029935
 30
0.0
 40
19.999999999999996
 50
148.21166938289124
 51
179.99999999993088
  0
LINE
  8
0
  6
CONTINUOUS
 62
               3
  5
176
 10
-450.60148514851363
 20
145.12039460207455
 30
0.0
 11
-450.60148514851363
 21
70.238624049882731
 31
0.0
  0
ARC
  8
0
  6
CONTINUOUS
 62
               3
  5
177
 10
-323.60148514851431
 20
59.702970297029935
 30
0.0
 40
19.999999999999996
 50
0.0
 51
31.788330617039573
  0
LINE
  8
0
  6
CONTINUOUS
 62
               3
  5
178
 10
-306.60148514851386
 20
70.238624049882731
 30
0.0
 11
-306.60148514851386
 21
145.12039460207455
 31
0.0
  0
LINE
  8
0
  6
CONTINUOUS
 62
               3
  5
179
 10
-436.60148514851386
 20
-326.29702970297035
 30
0.0
 11
-453.60148514851375
 21
-177.29702970296989
 31
0.0
  0
LINE
  8
0
  6
CONTINUOUS
 62
               3
  5
17A
 10
-320.60148514851363
 20
-336.79702970296921
 30
0.0
 11
-320.60148514851363
 21
-326.29702970297035
 31
0.0
  0
LINE
  8
0
  6
CONTINUOUS
 62
               3
  5
17B
 10
-453.60148514851375
 20
-64.297029702970065
 30
0.0
 11
-453.60148514851375
 21
-177.29702970296989
 31
0.0
  0
LINE
  8
0
  6
CONTINUOUS
 62
               3
  5
17C
 10
-436.60148514851386
 20
-326.29702970297035
 30
0.0
 11
-436.60148514851386
 21
-336.79702970296967
 31
0.0
  0
LINE
  8
0
  6
CONTINUOUS
 62
               3
  5
17D
 10
-450.60148514851363
 20
70.238624049882731
 30
0.0
 11
-306.60148514851386
 21
70.238624049882731
 31
0.0
  0
LINE
  8
0
  6
CONTINUOUS
 62
               3
  5
17E
 10
-398.60148514851375
 20
149.70297029703028
 30
0.0
 11
-398.60148514851375
 21
166.70297029702994
 31
0.0
  0
LINE
  8
0
  6
CONTINUOUS
 62
               3
  5
17F
 10
-358.60148514851431
 20
166.70297029702994
 30
0.0
 11
-358.60148514851431
 21
149.70297029703028
 31
0.0
  0
LINE
  8
0
  6
CONTINUOUS
 62
               3
  5
180
 10
-398.60148514851375
 20
156.70297029702994
 30
0.0
 11
-358.60148514851431
 21
156.70297029702994
 31
0.0
  0
LINE
  8
0
  6
CONTINUOUS
 62
               3
  5
181
 10
-450.88564662251798
 20
166.70297029702994
 30
0.0
 11
-450.88564662251798
 21
149.70297029703028
 31
0.0
  0
LINE
  8
0
  6
CONTINUOUS
 62
               3
  5
182
 10
-464.81198334913898
 20
156.70297029702994
 30
0.0
 11
-464.81198334913898
 21
149.70297029703028
 31
0.0
  0
LINE
  8
0
  6
CONTINUOUS
 62
               3
  5
183
 10
-467.10148514851397
 20
156.70297029702994
 30
0.0
 11
-464.81198334913898
 21
156.70297029702994
 31
0.0
  0
LINE
  8
0
  6
CONTINUOUS
 62
               3
  5
184
 10
-464.81198334913898
 20
156.70297029702994
 30
0.0
 11
-450.88564662251798
 21
166.70297029702994
 31
0.0
  0
LINE
  8
0
  6
CONTINUOUS
 62
               3
  5
185
 10
-290.10148514851409
 20
156.70297029702994
 30
0.0
 11
-290.10148514851409
 21
149.70297029703028
 31
0.0
  0
LINE
  8
0
  6
CONTINUOUS
 62
               3
  5
186
 10
-290.10148514851409
 20
156.70297029702994
 30
0.0
 11
-303.60148514851431
 21
166.70297029702994
 31
0.0
  0
ARC
  8
0
  6
CONTINUOUS
 62
               3
  5
187
 10
-301.60148514851386
 20
145.12039460207455
 30
0.0
 40
4.9999999999999991
 50
113.57817847815815
 51
179.99999999993057
  0
LINE
  8
0
  6
CONTINUOUS
 62
               3
  5
188
 10
-306.31732367450894
 20
166.70297029702994
 30
0.0
 11
-306.31732367450894
 21
149.70297029703028
 31
0.0
  0
LINE
  8
0
  6
CONTINUOUS
 62
               3
  5
189
 10
-292.39098694788851
 20
156.70297029702994
 30
0.0
 11
-292.39098694788851
 21
149.70297029703028
 31
0.0
  0
LINE
  8
0
  6
CONTINUOUS
 62
               3
  5
18A
 10
-290.10148514851409
 20
156.70297029702994
 30
0.0
 11
-292.39098694788851
 21
156.70297029702994
 31
0.0
  0
LINE
  8
0
  6
CONTINUOUS
 62
               3
  5
18B
 10
-292.39098694788851
 20
156.70297029702994
 30
0.0
 11
-306.31732367450894
 21
166.70297029702994
 31
0.0
  0
LINE
  8
0
  6
CONTINUOUS
 62
               3
  5
18C
 10
-436.60148514851386
 20
-326.29702970296978
 30
0.0
 11
-320.60148514851363
 21
-326.29702970297035
 31
0.0
  0
ARC
  8
0
  6
CONTINUOUS
 62
               3
  5
18D
 10
-453.60148514851375
 20
-61.797029702970065
 30
0.0
 40
2.4999999999999996
 50
89.999999999965283
 51
269.99999999989649
  0
LINE
  8
0
  6
CONTINUOUS
 62
               3
  5
18E
 10
-453.60148514851375
 20
59.702970297029935
 30
0.0
 11
-453.60148514851375
 21
-59.297029702970065
 31
0.0
  0
LINE
  8
0
  6
CONTINUOUS
 62
               3
  5
18F
 10
-453.60148514851375
 20
-177.29702970296989
 30
0.0
 11
-319.65248514851368
 21
-177.29702970296961
 31
0.0
  0
LINE
  8
0
  6
CONTINUOUS
 62
               3
  5
190
 10
-306.84511860497452
 20
-177.29702970296961
 30
0.0
 11
-303.60148514851431
 21
-177.29702970296961
 31
0.0
  0
ARC
  8
0
  6
CONTINUOUS
 62
               3
  5
191
 10
-401.10148514851375
 20
-61.797029702970065
 30
0.0
 40
2.4999999999999996
 50
269.99999999989626
 51
449.99999999982691
  0
ARC
  8
0
  6
CONTINUOUS
 62
               3
  5
192
 10
-356.10148514851375
 20
-61.797029702970065
 30
0.0
 40
2.4999999999999996
 50
89.999999999965439
 51
269.99999999989626
  0
LINE
  8
0
  6
CONTINUOUS
 62
               3
  5
193
 10
-453.60148514851375
 20
-64.297029702970065
 30
0.0
 11
-401.10148514851375
 21
-64.297029702970065
 31
0.0
  0
LINE
  8
0
  6
CONTINUOUS
 62
               3
  5
194
 10
-356.10148514851375
 20
-64.297029702970065
 30
0.0
 11
-303.60148514851488
 21
-64.297029702970065
 31
0.0
  0
LINE
  8
0
  6
CONTINUOUS
 62
               3
  5
195
 10
-453.60148514851375
 20
-59.297029702970065
 30
0.0
 11
-401.10148514851375
 21
-59.297029702970065
 31
0.0
  0
LINE
  8
0
  6
CONTINUOUS
 62
               3
  5
196
 10
-356.10148514851375
 20
-59.297029702970065
 30
0.0
 11
-303.60148514851488
 21
-59.297029702970065
 31
0.0
  0
ARC
  8
0
  6
CONTINUOUS
 62
               3
  5
197
 10
-303.60148514851488
 20
-61.797029702970065
 30
0.0
 40
2.4999999999999996
 50
269.99999999989649
 51
449.99999999982703
  0
LINE
  8
0
  6
CONTINUOUS
 62
               3
  5
198
 10
-303.60148514851431
 20
-177.29702970296989
 30
0.0
 11
-303.60148514851488
 21
-64.297029702970065
 31
0.0
  0
LINE
  8
0
  6
CONTINUOUS
 62
               3
  5
199
 10
-303.60148514851488
 20
-59.297029702970065
 30
0.0
 11
-303.60148514851431
 21
59.702970297029935
 31
0.0
  0
LINE
  8
0
  6
CONTINUOUS
 62
               3
  5
19A
 10
-320.60148514851363
 20
-326.29702970297035
 30
0.0
 11
-308.05339416781317
 21
-216.31670287212035
 31
0.0
  0
LINE
  8
0
  6
CONTINUOUS
 62
               3
  5
19B
 10
-306.00134219475274
 20
-198.33107087294252
 30
0.0
 11
-303.60148514851431
 21
-177.29702970296961
 31
0.0
  0
LINE
  8
0
  6
CONTINUOUS
 62
               3
  5
19C
 10
-395.22225528710942
 20
2.7029702970298217
 30
0.0
 11
-361.98071500992035
 21
2.7029702970298217
 31
0.0
  0
CIRCLE
  8
0
  6
CONTINUOUS
 62
               3
  5
19D
 10
-378.60148514851488
 20
-15.297029702970292
 30
0.0
 40
34.100000000000001
  0
CIRCLE
  8
0
  6
CONTINUOUS
 62
               3
  5
19E
 10
-378.60148514851488
 20
-15.297029702970292
 30
0.0
 40
28.649999999999999
  0
CIRCLE
  8
0
  6
CONTINUOUS
 62
               3
  5
19F
 10
-378.60148514851488
 20
-15.297029702970292
 30
0.0
 40
33.0
  0
CIRCLE
  8
0
  6
CONTINUOUS
 62
               3
  5
1A0
 10
-378.60148514851488
 20
-15.297029702970292
 30
0.0
 40
24.5
  0
LINE
  8
0
  6
CONTINUOUS
 62
               3
  5
1A1
 10
-400.1682419747047
 20
-36.863786529159768
 30
0.0
 11
-401.93600892767046
 21
-38.63155348212689
 31
0.0
  0
LINE
  8
0
  6
CONTINUOUS
 62
               3
  5
1A2
 10
-357.03472832232529
 20
-36.863786529159768
 30
0.0
 11
-355.26696136935891
 21
-38.631553482126435
 31
0.0
  0
ARC
  8
0
  6
CONTINUOUS
 62
               3
  5
1A3
 10
-378.601485148515
 20
-15.297029702970065
 30
0.0
 40
30.5
 50
224.99999999991346
 51
314.99999999987898
  0
CIRCLE
  8
0
  6
CONTINUOUS
 62
               3
  5
1A4
 10
-378.60148514851488
 20
-15.297029702970292
 30
0.0
 40
43.100000000000001
  0
LINE
  8
0
  6
CONTINUOUS
 62
               3
  5
1A5
 10
-435.10148514851431
 20
-438.29702970297006
 30
0.0
 11
-322.10148514851431
 21
-438.29702970297006
 31
0.0
  0
LINE
  8
0
  6
CONTINUOUS
 62
               3
  5
1A6
 10
-435.10148514851431
 20
-438.29702970297006
 30
0.0
 11
-435.10148514851431
 21
-338.29702970297006
 31
0.0
  0
LINE
  8
0
  6
CONTINUOUS
 62
               3
  5
1A7
 10
-322.10148514851431
 20
-438.29702970297006
 30
0.0
 11
-322.10148514851431
 21
-338.29702970297006
 31
0.0
  0
LINE
  8
0
  6
CONTINUOUS
 62
               3
  5
1A8
 10
-435.10148514851431
 20
-338.29702970297006
 30
0.0
 11
-436.60148514851471
 21
-336.79702970296967
 31
0.0
  0
LINE
  8
0
  6
CONTINUOUS
 62
               3
  5
1A9
 10
-322.10148514851431
 20
-338.29702970297006
 30
0.0
 11
-320.6014851485142
 21
-336.79702970296989
 31
0.0
  0
LINE
  8
0
  6
CONTINUOUS
 62
               3
  5
1AA
 10
527.10148514851448
 20
166.70297029702994
 30
0.0
 11
377.10148514851454
 21
166.70297029702994
 31
0.0
  0
LINE
  8
0
  6
CONTINUOUS
 62
               3
  5
1AB
 10
540.60148514851471
 20
156.70297029702994
 30
0.0
 11
540.60148514851471
 21
149.70297029703028
 31
0.0
  0
LINE
  8
0
  6
CONTINUOUS
 62
               3
  5
1AC
 10
540.60148514851471
 20
156.70297029702994
 30
0.0
 11
527.10148514851448
 21
166.70297029702994
 31
0.0
  0
ARC
  8
0
  6
CONTINUOUS
 62
               3
  5
1AD
 10
529.10148514851448
 20
145.12039460207455
 30
0.0
 40
4.9999999999999991
 50
113.57817847815815
 51
179.99999999993057
  0
LINE
  8
0
  6
CONTINUOUS
 62
               3
  5
1AE
 10
540.60148514851471
 20
149.70297029703028
 30
0.0
 11
363.60148514851431
 21
149.70297029703028
 31
0.0
  0
ARC
  8
0
  6
CONTINUOUS
 62
               3
  5
1AF
 10
507.10148514851454
 20
59.702970297029907
 30
0.0
 40
19.999999999999996
 50
0.0
 51
31.788330617039573
  0
LINE
  8
0
  6
CONTINUOUS
 62
               3
  5
1B0
 10
524.10148514851448
 20
145.12039460207455
 30
0.0
 11
524.10148514851448
 21
70.238624049882702
 31
0.0
  0
ARC
  8
0
  6
CONTINUOUS
 62
               3
  5
1B1
 10
397.10148514851454
 20
59.702970297029907
 30
0.0
 40
19.999999999999996
 50
148.21166938289124
 51
179.99999999993088
  0
LINE
  8
0
  6
CONTINUOUS
 62
               3
  5
1B2
 10
380.10148514851466
 20
70.238624049882702
 30
0.0
 11
380.10148514851466
 21
145.12039460207455
 31
0.0
  0
LINE
  8
0
  6
CONTINUOUS
 62
               3
  5
1B3
 10
510.10148514851466
 20
-326.29702970297035
 30
0.0
 11
527.10148514851448
 21
-177.29702970296992
 31
0.0
  0
LINE
  8
0
  6
CONTINUOUS
 62
               3
  5
1B4
 10
394.10148514851443
 20
-326.29702970297035
 30
0.0
 11
377.10148514851454
 21
-177.29702970296992
 31
0.0
  0
LINE
  8
0
  6
CONTINUOUS
 62
               3
  5
1B5
 10
394.10148514851414
 20
-336.79702970296967
 30
0.0
 11
394.10148514851443
 21
-326.29702970297035
 31
0.0
  0
LINE
  8
0
  6
CONTINUOUS
 62
               3
  5
1B6
 10
527.10148514851448
 20
-64.297029702970065
 30
0.0
 11
527.10148514851448
 21
-177.29702970296992
 31
0.0
  0
LINE
  8
0
  6
CONTINUOUS
 62
               3
  5
1B7
 10
510.10148514851466
 20
-326.29702970297035
 30
0.0
 11
510.10148514851466
 21
-336.79702970296921
 31
0.0
  0
LINE
  8
0
  6
CONTINUOUS
 62
               3
  5
1B8
 10
472.10148514851454
 20
149.70297029703028
 30
0.0
 11
472.10148514851454
 21
166.70297029702994
 31
0.0
  0
LINE
  8
0
  6
CONTINUOUS
 62
               3
  5
1B9
 10
432.10148514851454
 20
166.70297029702994
 30
0.0
 11
432.10148514851454
 21
149.70297029703028
 31
0.0
  0
LINE
  8
0
  6
CONTINUOUS
 62
               3
  5
1BA
 10
472.10148514851454
 20
156.70297029702994
 30
0.0
 11
432.10148514851454
 21
156.70297029702994
 31
0.0
  0
LINE
  8
0
  6
CONTINUOUS
 62
               3
  5
1BB
 10
524.38564662251929
 20
166.70297029702994
 30
0.0
 11
524.38564662251929
 21
149.70297029703028
 31
0.0
  0
LINE
  8
0
  6
CONTINUOUS
 62
               3
  5
1BC
 10
538.31198334913984
 20
156.70297029702994
 30
0.0
 11
538.31198334913984
 21
149.70297029703028
 31
0.0
  0
LINE
  8
0
  6
CONTINUOUS
 62
               3
  5
1BD
 10
540.60148514851471
 20
156.70297029702994
 30
0.0
 11
538.31198334913984
 21
156.70297029702994
 31
0.0
  0
LINE
  8
0
  6
CONTINUOUS
 62
               3
  5
1BE
 10
538.31198334913984
 20
156.70297029702994
 30
0.0
 11
524.38564662251929
 21
166.70297029702994
 31
0.0
  0
LINE
  8
0
  6
CONTINUOUS
 62
               3
  5
1BF
 10
363.60148514851431
 20
156.70297029702994
 30
0.0
 11
363.60148514851431
 21
149.70297029703028
 31
0.0
  0
LINE
  8
0
  6
CONTINUOUS
 62
               3
  5
1C0
 10
363.60148514851431
 20
156.70297029702994
 30
0.0
 11
377.10148514851454
 21
166.70297029702994
 31
0.0
  0
ARC
  8
0
  6
CONTINUOUS
 62
               3
  5
1C1
 10
375.10148514851466
 20
145.12039460207455
 30
0.0
 40
4.9999999999999991
 50
0.0
 51
66.4218215217725
  0
LINE
  8
0
  6
CONTINUOUS
 62
               3
  5
1C2
 10
379.81732367450974
 20
166.70297029702994
 30
0.0
 11
379.81732367450974
 21
149.70297029703028
 31
0.0
  0
LINE
  8
0
  6
CONTINUOUS
 62
               3
  5
1C3
 10
365.8909869478893
 20
156.70297029702994
 30
0.0
 11
365.8909869478893
 21
149.70297029703028
 31
0.0
  0
LINE
  8
0
  6
CONTINUOUS
 62
               3
  5
1C4
 10
363.60148514851431
 20
156.70297029702994
 30
0.0
 11
365.8909869478893
 21
156.70297029702994
 31
0.0
  0
LINE
  8
0
  6
CONTINUOUS
 62
               3
  5
1C5
 10
365.8909869478893
 20
156.70297029702994
 30
0.0
 11
379.81732367450974
 21
166.70297029702994
 31
0.0
  0
LINE
  8
0
  6
CONTINUOUS
 62
               3
  5
1C6
 10
510.10148514851466
 20
-326.29702970296978
 30
0.0
 11
394.10148514851443
 21
-326.29702970297035
 31
0.0
  0
LINE
  8
0
  6
CONTINUOUS
 62
               3
  5
1C7
 10
524.10148514851448
 20
70.238624049882702
 30
0.0
 11
463.82848514851474
 21
70.238624049882702
 31
0.0
  0
LINE
  8
0
  6
CONTINUOUS
 62
               3
  5
1C8
 10
440.37448514851434
 20
70.238624049882702
 30
0.0
 11
380.10148514851466
 21
70.238624049882702
 31
0.0
  0
ARC
  8
0
  6
CONTINUOUS
 62
               3
  5
1C9
 10
527.10148514851448
 20
-61.797029702970065
 30
0.0
 40
2.4999999999999996
 50
269.99999999989649
 51
449.99999999982703
  0
LINE
  8
0
  6
CONTINUOUS
 62
               3
  5
1CA
 10
377.10148514851454
 20
-59.297029702970065
 30
0.0
 11
443.88448514851433
 21
-59.297029702970065
 31
0.0
  0
LINE
  8
0
  6
CONTINUOUS
 62
               3
  5
1CB
 10
460.31848514851418
 20
-59.297029702970065
 30
0.0
 11
527.10148514851448
 21
-59.297029702970065
 31
0.0
  0
LINE
  8
0
  6
CONTINUOUS
 62
               3
  5
1CC
 10
377.10148514851454
 20
-64.297029702970065
 30
0.0
 11
444.03984061509931
 21
-64.297029702970065
 31
0.0
  0
LINE
  8
0
  6
CONTINUOUS
 62
               3
  5
1CD
 10
460.31848514851418
 20
-64.297029702970065
 30
0.0
 11
527.10148514851448
 21
-64.297029702970065
 31
0.0
  0
LINE
  8
0
  6
CONTINUOUS
 62
               3
  5
1CE
 10
527.10148514851448
 20
-177.29702970296992
 30
0.0
 11
460.31848514851418
 21
-177.29702970296992
 31
0.0
  0
LINE
  8
0
  6
CONTINUOUS
 62
               3
  5
1CF
 10
443.88448514851433
 20
-177.29702970296992
 30
0.0
 11
377.10148514851454
 21
-177.29702970296992
 31
0.0
  0
LINE
  8
0
  6
CONTINUOUS
 62
               3
  5
1D0
 10
527.10148514851448
 20
59.702970297029907
 30
0.0
 11
527.10148514851448
 21
-59.297029702970065
 31
0.0
  0
ARC
  8
0
  6
CONTINUOUS
 62
               3
  5
1D1
 10
377.10148514851454
 20
-61.797029702970065
 30
0.0
 40
2.4999999999999996
 50
89.999999999965283
 51
269.99999999989649
  0
LINE
  8
0
  6
CONTINUOUS
 62
               3
  5
1D2
 10
377.10148514851454
 20
-177.29702970296992
 30
0.0
 11
377.10148514851454
 21
-64.297029702970065
 31
0.0
  0
LINE
  8
0
  6
CONTINUOUS
 62
               3
  5
1D3
 10
377.10148514851454
 20
-59.297029702970065
 30
0.0
 11
377.10148514851454
 21
59.702970297029907
 31
0.0
  0
LINE
  8
0
  6
CONTINUOUS
 62
               3
  5
1D4
 10
395.60148514851454
 20
-438.29702970297006
 30
0.0
 11
508.60148514851454
 21
-438.29702970297006
 31
0.0
  0
LINE
  8
0
  6
CONTINUOUS
 62
               3
  5
1D5
 10
395.60148514851454
 20
-438.29702970297006
 30
0.0
 11
395.60148514851454
 21
-338.29702970297001
 31
0.0
  0
LINE
  8
0
  6
CONTINUOUS
 62
               3
  5
1D6
 10
508.60148514851454
 20
-438.29702970297006
 30
0.0
 11
508.60148514851454
 21
-338.29702970297001
 31
0.0
  0
LINE
  8
0
  6
CONTINUOUS
 62
               3
  5
1D7
 10
508.60148514851454
 20
-338.29702970297001
 30
0.0
 11
510.10148514851466
 21
-336.79702970296989
 31
0.0
  0
LINE
  8
0
  6
CONTINUOUS
 62
               3
  5
1D8
 10
395.60148514851454
 20
-338.29702970297001
 30
0.0
 11
394.10148514851414
 21
-336.79702970296967
 31
0.0
  0
CIRCLE
  8
0
  6
CONTINUOUS
 62
               3
  5
1D9
 10
36.96782178217822
 20
390.07425742574253
 30
0.0
 40
75.0
  0
CIRCLE
  8
0
  6
CONTINUOUS
 62
               3
  5
1DA
 10
36.96782178217822
 20
390.07425742574253
 30
0.0
 40
52.5
  0
LINE
  8
0
  6
CONTINUOUS
 62
               3
  5
1DB
 10
-49.242676418447019
 20
410.07425742574253
 30
0.0
 11
-35.316339691827153
 21
410.07425742574253
 31
0.0
  0
LINE
  8
0
  6
CONTINUOUS
 62
               3
  5
1DC
 10
-35.316339691827153
 20
370.07425742574253
 30
0.0
 11
-49.242676418447019
 21
370.07425742574253
 31
0.0
  0
ARC
  8
0
  6
CONTINUOUS
 62
               3
  5
1DD
 10
36.96782178217822
 20
390.07425742574253
 30
0.0
 40
88.5
 50
166.93897588513528
 51
193.06102411472631
  0
LINE
  8
0
  6
CONTINUOUS
 62
               3
  5
1DE
 10
16.967821782178216
 20
303.86375922511763
 30
0.0
 11
16.967821782178216
 21
317.7900959517375
 31
0.0
  0
LINE
  8
0
  6
CONTINUOUS
 62
               3
  5
1DF
 10
56.96782178217822
 20
317.7900959517375
 30
0.0
 11
56.96782178217822
 21
303.86375922511763
 31
0.0
  0
ARC
  8
0
  6
CONTINUOUS
 62
               3
  5
1E0
 10
36.96782178217822
 20
390.07425742574253
 30
0.0
 40
88.5
 50
256.93897588510077
 51
283.06102411469175
  0
LINE
  8
0
  6
CONTINUOUS
 62
               3
  5
1E1
 10
123.17831998280288
 20
370.07425742574253
 30
0.0
 11
109.25198325618246
 21
370.07425742574253
 31
0.0
  0
LINE
  8
0
  6
CONTINUOUS
 62
               3
  5
1E2
 10
109.25198325618246
 20
410.07425742574253
 30
0.0
 11
123.17831998280288
 21
410.07425742574253
 31
0.0
  0
ARC
  8
0
  6
CONTINUOUS
 62
               3
  5
1E3
 10
36.96782178217822
 20
390.07425742574253
 30
0.0
 40
88.5
 50
346.9389758850661
 51
373.06102411465713
  0
LINE
  8
0
  6
CONTINUOUS
 62
               3
  5
1E4
 10
56.96782178217822
 20
476.28475562636811
 30
0.0
 11
56.96782178217822
 21
462.35841889974756
 31
0.0
  0
LINE
  8
0
  6
CONTINUOUS
 62
               3
  5
1E5
 10
16.967821782178216
 20
462.35841889974756
 30
0.0
 11
16.967821782178216
 21
476.28475562636811
 31
0.0
  0
ARC
  8
0
  6
CONTINUOUS
 62
               3
  5
1E6
 10
36.96782178217822
 20
390.07425742574253
 30
0.0
 40
88.5
 50
76.938975885169896
 51
103.06102411476094
  0
LINE
  8
0
  6
CONTINUOUS
 62
               3
  5
1E7
 10
-10.700301738682839
 20
368.07425742574208
 30
0.0
 11
84.635945303038142
 21
368.07425742574208
 31
0.0
  0
ARC
  8
0
  6
CONTINUOUS
 62
               3
  5
1E8
 10
49.471433431559348
 20
398.78065505336156
 30
0.0
 40
54.763804151667173
 50
141.3859176367836
 51
145.15009542089808
  0
ARC
  8
0
  6
CONTINUOUS
 62
               3
  5
1E9
 10
36.96782178217822
 20
390.07425742574253
 30
0.0
 40
51.5
 50
334.71098847332905
 51
410.9593273634826
  0
ARC
  8
0
  6
CONTINUOUS
 62
               3
  5
1EA
 10
36.96782178217822
 20
390.07425742574253
 30
0.0
 40
51.5
 50
129.04067263631032
 51
205.28901152646336
  0
ARC
  8
0
  6
CONTINUOUS
 62
               3
  5
1EB
 10
36.96782178217822
 20
390.07425742574253
 30
0.0
 40
77.5
 50
104.955248316603
 51
143.73200187366569
  0
ARC
  8
0
  6
CONTINUOUS
 62
               3
  5
1EC
 10
36.96782178217822
 20
390.07425742574253
 30
0.0
 40
77.5
 50
14.955248316637585
 51
75.044751683327831
  0
ARC
  8
0
  6
CONTINUOUS
 62
               3
  5
1ED
 10
36.96782178217822
 20
390.07425742574253
 30
0.0
 40
77.5
 50
284.95524831653381
 51
345.04475168322404
  0
LINE
  8
0
  6
CONTINUOUS
 62
               3
  5
1EE
 10
4.5294186155606155
 20
430.0742574257423
 30
0.0
 11
36.96782178217822
 21
430.0742574257423
 31
0.0
  0
LINE
  8
0
  6
CONTINUOUS
 62
               3
  5
1EF
 10
36.96782178217822
 20
430.0742574257423
 30
0.0
 11
70.971498054016905
 21
430.0742574257423
 31
0.0
  0
ARC
  8
0
  6
CONTINUOUS
 62
               3
  5
1F0
 10
36.96782178217822
 20
390.07425742574253
 30
0.0
 40
77.5
 50
216.2679981261951
 51
255.04475168325865
  0
LINE
  8
0
  6
CONTINUOUS
 62
               3
  5
1F1
 10
-103.03217821782165
 20
430.84581355170735
 30
0.0
 11
-102.36062209185722
 21
430.82425742574276
 31
0.0
  0
LINE
  8
0
  6
CONTINUOUS
 62
               3
  5
1F2
 10
-103.03217821782165
 20
349.30270129977794
 30
0.0
 11
-102.36062209185722
 21
349.32425742574253
 31
0.0
  0
LINE
  8
0
  6
CONTINUOUS
 62
               3
  5
1F3
 10
-99.860622091856683
 20
433.32425742574253
 30
0.0
 11
-102.36062209185722
 21
430.82425742574276
 31
0.0
  0
LINE
  8
0
  6
CONTINUOUS
 62
               3
  5
1F4
 10
-99.860622091856939
 20
346.82425742574253
 30
0.0
 11
-102.36062209185722
 21
349.32425742574253
 31
0.0
  0
LINE
  8
0
  6
CONTINUOUS
 62
               3
  5
1F5
 10
-102.36062209185722
 20
430.82425742574276
 30
0.0
 11
-102.36062209185722
 21
349.32425742574253
 31
0.0
  0
LINE
  8
0
  6
CONTINUOUS
 62
               3
  5
1F6
 10
-108.03217821782165
 20
430.67425742574255
 30
0.0
 11
-108.03217821782165
 21
349.47425742574251
 31
0.0
  0
LINE
  8
0
  6
CONTINUOUS
 62
               3
  5
1F7
 10
-103.03217821782165
 20
346.97425742574251
 30
0.0
 11
-103.03217821782165
 21
433.17425742574255
 31
0.0
  0
LINE
  8
0
  6
CONTINUOUS
 62
               3
  5
1F8
 10
-103.03217821782165
 20
433.17425742574255
 30
0.0
 11
-105.53217821782165
 21
433.17425742574255
 31
0.0
  0
LINE
  8
0
  6
CONTINUOUS
 62
               3
  5
1F9
 10
-103.03217821782165
 20
346.97425742574251
 30
0.0
 11
-105.53217821782165
 21
346.97425742574251
 31
0.0
  0
ARC
  8
0
  6
CONTINUOUS
 62
               3
  5
1FA
 10
-105.53217821782165
 20
349.47425742574251
 30
0.0
 40
2.5
 50
179.99999999993088
 51
269.99999999989649
  0
ARC
  8
0
  6
CONTINUOUS
 62
               3
  5
1FB
 10
-105.53217821782165
 20
430.67425742574255
 30
0.0
 40
2.5
 50
89.999999999965596
 51
179.99999999993088
  0
LINE
  8
0
  6
CONTINUOUS
 62
               3
  5
1FC
 10
-24.596738813807619
 20
344.19598470673611
 30
0.0
 11
-99.860622091856968
 21
346.82425742574253
 31
0.0
  0
LINE
  8
0
  6
CONTINUOUS
 62
               3
  5
1FD
 10
-24.59673881380678
 20
435.95253014474991
 30
0.0
 11
-99.860622091856655
 21
433.32425742574253
 31
0.0
  0
LINE
  8
0
  6
CONTINUOUS
 62
               3
  5
1FE
 10
-99.860622091856683
 20
433.32425742574253
 30
0.0
 11
-99.860622091856939
 21
346.82425742574253
 31
0.0
  0
ARC
  8
0
  6
CONTINUOUS
 62
               3
  5
1FF
 10
-24.771236297319334
 20
440.94948427984536
 30
0.0
 40
5.0
 50
271.99999999989598
 51
320.51023765191246
  0
ARC
  8
0
  6
CONTINUOUS
 62
               3
  5
200
 10
-24.771236297320108
 20
339.19903057164061
 30
0.0
 40
5.0
 50
39.489762347948385
 51
87.99999999996642
  0
CIRCLE
  8
0
  6
CONTINUOUS
 62
               3
  5
201
 10
36.96782178217822
 20
390.07425742574253
 30
0.0
 40
59.0
  0
LINE
  8
0
  6
DASHED2
 62
               3
  5
202
 10
-14.750000000000107
 20
-437.62376237623761
 30
0.0
 11
-14.750000000000107
 21
-357.62376237623766
 31
0.0
  0
LINE
  8
0
  6
DASHED2
 62
               3
  5
203
 10
88.249999999999773
 20
-437.62376237623761
 30
0.0
 11
88.249999999999773
 21
-357.62376237623766
 31
0.0
  0
LINE
  8
0
  6
DASHED2
 62
               3
  5
204
 10
-430.10148514851454
 20
-438.29702970297006
 30
0.0
 11
-430.10148514851454
 21
-358.29702970297012
 31
0.0
  0
LINE
  8
0
  6
DASHED2
 62
               3
  5
205
 10
-327.10148514851466
 20
-438.29702970297006
 30
0.0
 11
-327.10148514851466
 21
-358.29702970297012
 31
0.0
  0
LINE
  8
0
  6
DASHED2
 62
               3
  5
206
 10
400.60148514851431
 20
-438.29702970297006
 30
0.0
 11
400.60148514851431
 21
-358.29702970297006
 31
0.0
  0
LINE
  8
0
  6
DASHED2
 62
               3
  5
207
 10
503.6014851485142
 20
-438.29702970297006
 30
0.0
 11
503.6014851485142
 21
-358.29702970297006
 31
0.0
  0
LINE
  8
0
  6
CONTINUOUS
 62
               4
  5
208
 10
113.75
 20
70.911891376615188
 30
0.0
 11
108.75
 21
75.911891376615188
 31
0.0
  0
LINE
  8
0
  6
CONTINUOUS
 62
               4
  5
209
 10
113.75
 20
-62.62376237623738
 30
0.0
 11
113.75
 21
-176.73733060649266
 31
0.0
  0
LINE
  8
0
  6
CONTINUOUS
 62
               4
  5
20A
 10
113.75
 20
-176.73733060649266
 30
0.0
 11
97.021775600348974
 21
-323.35198677588886
 31
0.0
  0
LINE
  8
0
  6
CONTINUOUS
 62
               4
  5
20B
 10
94.750000000000227
 20
-325.62376237623732
 30
0.0
 11
97.021775600348974
 21
-323.35198677588886
 31
0.0
  0
ARC
  8
0
  6
CONTINUOUS
 62
               4
  5
20C
 10
91.25
 20
60.376237623762393
 30
0.0
 40
19.999999999999996
 50
0.0
 51
31.788330617039573
  0
LINE
  8
0
  6
CONTINUOUS
 62
               4
  5
20D
 10
108.25000000000045
 20
70.911891376615188
 30
0.0
 11
108.25000000000045
 21
75.911891376615756
 31
0.0
  0
LINE
  8
0
  6
CONTINUOUS
 62
               4
  5
20E
 10
108.75
 20
75.911891376615188
 30
0.0
 11
108.25000000000045
 21
75.911891376615188
 31
0.0
  0
LINE
  8
0
  6
CONTINUOUS
 62
               4
  5
20F
 10
113.50000000000023
 20
70.661891376615188
 30
0.0
 11
108.25000000000045
 21
75.911891376615188
 31
0.0
  0
LINE
  8
0
  6
CONTINUOUS
 62
               4
  5
210
 10
113.50000000000023
 20
70.661891376615188
 30
0.0
 11
113.75
 21
70.911891376615188
 31
0.0
  0
LINE
  8
0
  6
CONTINUOUS
 62
               4
  5
211
 10
111.25
 20
-63.623762376237607
 30
0.0
 11
111.25
 21
-176.59537031867313
 31
0.0
  0
LINE
  8
0
  6
CONTINUOUS
 62
               4
  5
212
 10
113.50000000000023
 20
-62.909119483373445
 30
0.0
 11
113.50000000000023
 21
-176.72313457771065
 31
0.0
  0
LINE
  8
0
  6
CONTINUOUS
 62
               4
  5
213
 10
111.25
 20
-176.59537031867313
 30
0.0
 11
94.24676513365057
 21
-325.62376237623789
 31
0.0
  0
LINE
  8
0
  6
CONTINUOUS
 62
               4
  5
214
 10
111.24676513364989
 20
-176.62376237623744
 30
0.0
 11
113.75
 21
-176.73733060649266
 31
0.0
  0
LINE
  8
0
  6
CONTINUOUS
 62
               4
  5
215
 10
113.50000000000023
 20
-176.72313457771065
 30
0.0
 11
96.744274553678906
 21
-323.57916433592374
 31
0.0
  0
LINE
  8
0
  6
CONTINUOUS
 62
               4
  5
216
 10
94.24676513365057
 20
-325.62376237623789
 30
0.0
 11
97.021775600348974
 21
-323.35198677588886
 31
0.0
  0
LINE
  8
0
  6
CONTINUOUS
 62
               4
  5
217
 10
113.75
 20
70.911891376615188
 30
0.0
 11
113.75
 21
-59.623762376237494
 31
0.0
  0
LINE
  8
0
  6
CONTINUOUS
 62
               4
  5
218
 10
113.50000000000023
 20
70.661891376615188
 30
0.0
 11
113.50000000000023
 21
-59.338405269101997
 31
0.0
  0
LINE
  8
0
  6
CONTINUOUS
 62
               4
  5
219
 10
111.25
 20
60.376237623762393
 30
0.0
 11
111.25
 21
-58.623762376237607
 31
0.0
  0
LINE
  8
0
  6
CONTINUOUS
 62
               4
  5
21A
 10
94.891132586506046
 20
-230.40827143243729
 30
0.0
 11
-28.762000000000391
 21
-126.65097348518441
 31
0.0
  0
ARC
  8
0
  6
CONTINUOUS
 62
               4
  5
21B
 10
-877.52232010053945
 20
-1271.2093906121331
 30
0.0
 40
1424.9238755783815
 50
50.189956146247241
 51
53.440796050711342
  0
ARC
  8
0
  6
CONTINUOUS
 62
               4
  5
21C
 10
100.32938883703309
 20
-105.85110346139135
 30
0.0
 40
130.75634311527989
 50
189.15312334023136
 51
212.76918311267124
  0
ARC
  8
0
  6
CONTINUOUS
 62
               4
  5
21D
 10
98.11402549955119
 20
-95.717082710151033
 30
0.0
 40
134.72974192119386
 50
216.90649751125426
 51
268.62928723400398
  0
ARC
  8
0
  6
CONTINUOUS
 62
               4
  5
21E
 10
-696.88034809850819
 20
-1054.8704332872464
 30
0.0
 40
1143.0835201141012
 50
46.15873265340776
 51
50.202696616637041
  0
LINE
  8
0
  6
CONTINUOUS
 62
               4
  5
21F
 10
-19.749999999999879
 20
-337.62376237623761
 30
0.0
 11
93.250000000000114
 21
-337.62376237623761
 31
0.0
  0
LINE
  8
0
  6
CONTINUOUS
 62
               4
  5
220
 10
-21.250000000000277
 20
-336.12376237623721
 30
0.0
 11
94.749999999999659
 21
-336.12376237623675
 31
0.0
  0
ARC
  8
0
  6
CONTINUOUS
 62
               4
  5
221
 10
-657.53071399763849
 20
-298.96942811443245
 30
0.0
 40
359.11818398045398
 50
13.30617767572512
 51
28.552443501607524
  0
ARC
  8
0
  6
CONTINUOUS
 62
               4
  5
222
 10
-378.93267161850787
 20
-190.72275221186322
 30
0.0
 40
73.327111796148202
 50
342.6294564211762
 51
419.83689160545839
  0
LINE
  8
0
  6
CONTINUOUS
 62
               4
  5
223
 10
-435.10148514851431
 20
-338.29702970297006
 30
0.0
 11
-322.10148514851431
 21
-338.29702970297006
 31
0.0
  0
LINE
  8
0
  6
CONTINUOUS
 62
               4
  5
224
 10
-436.60148514851471
 20
-336.79702970296967
 30
0.0
 11
-320.60148514851477
 21
-336.79702970296921
 31
0.0
  0
ARC
  8
0
  6
CONTINUOUS
 62
               4
  5
225
 10
426.3175193365484
 20
59.702970297029907
 30
0.0
 40
17.566965811965957
 50
0.0
 51
36.851448659216757
  0
LINE
  8
0
  6
CONTINUOUS
 62
               4
  5
226
 10
463.82848514851474
 20
75.238624049882702
 30
0.0
 11
440.37448514851434
 21
75.238624049882702
 31
0.0
  0
ARC
  8
0
  6
CONTINUOUS
 62
               4
  5
227
 10
477.88545096048011
 20
59.702970297029907
 30
0.0
 40
17.566965811965957
 50
143.14855134071405
 51
179.99999999993082
  0
LINE
  8
0
  6
CONTINUOUS
 62
               4
  5
228
 10
440.37448514851434
 20
70.238624049882702
 30
0.0
 11
440.37448514851434
 21
75.238624049882702
 31
0.0
  0
LINE
  8
0
  6
CONTINUOUS
 62
               4
  5
229
 10
463.82848514851474
 20
70.238624049882702
 30
0.0
 11
463.82848514851474
 21
75.238624049882702
 31
0.0
  0
LINE
  8
0
  6
CONTINUOUS
 62
               4
  5
22A
 10
440.37448514851434
 20
75.238624049882702
 30
0.0
 11
446.10148514851431
 21
70.238624049882702
 31
0.0
  0
LINE
  8
0
  6
CONTINUOUS
 62
               4
  5
22B
 10
458.1014851485142
 20
70.238624049882702
 30
0.0
 11
463.82848514851474
 21
75.238624049882702
 31
0.0
  0
LINE
  8
0
  6
CONTINUOUS
 62
               4
  5
22C
 10
446.10148514851431
 20
70.238624049882702
 30
0.0
 11
458.1014851485142
 21
70.238624049882702
 31
0.0
  0
LINE
  8
0
  6
CONTINUOUS
 62
               4
  5
22D
 10
458.1014851485142
 20
-60.297029702969951
 30
0.0
 11
446.10148514851431
 21
-60.297029702969951
 31
0.0
  0
ARC
  8
0
  6
CONTINUOUS
 62
               4
  5
22E
 10
444.03984061509931
 20
-61.711109551436664
 30
0.0
 40
2.4999999999999996
 50
34.446185822131049
 51
93.562780573759412
  0
ARC
  8
0
  6
CONTINUOUS
 62
               4
  5
22F
 10
460.16312968192977
 20
-61.711109551436664
 30
0.0
 40
2.4999999999999996
 50
86.437219426171424
 51
145.55381417779947
  0
LINE
  8
0
  6
CONTINUOUS
 62
               4
  5
230
 10
458.1014851485142
 20
-63.297029702969837
 30
0.0
 11
446.10148514851431
 21
-63.297029702969837
 31
0.0
  0
ARC
  8
0
  6
CONTINUOUS
 62
               4
  5
231
 10
444.03984061509931
 20
-61.882949854503465
 30
0.0
 40
2.4999999999999996
 50
266.43721942610216
 51
325.55381417773032
  0
ARC
  8
0
  6
CONTINUOUS
 62
               4
  5
232
 10
460.16312968192977
 20
-61.882949854503465
 30
0.0
 40
2.4999999999999996
 50
214.44618582206192
 51
273.56278057369019
  0
LINE
  8
0
  6
CONTINUOUS
 62
               4
  5
233
 10
443.88448514851433
 20
-64.297029702970065
 30
0.0
 11
443.88448514851433
 21
-326.29702970297035
 31
0.0
  0
LINE
  8
0
  6
CONTINUOUS
 62
               4
  5
234
 10
460.31848514851418
 20
-64.382949854503465
 30
0.0
 11
460.31848514851418
 21
-326.29702970297035
 31
0.0
  0
LINE
  8
0
  6
CONTINUOUS
 62
               4
  5
235
 10
446.10148514851431
 20
-63.297029702969837
 30
0.0
 11
446.10148514851431
 21
-324.02525410262126
 31
0.0
  0
LINE
  8
0
  6
CONTINUOUS
 62
               4
  5
236
 10
458.1014851485142
 20
-324.02525410262126
 30
0.0
 11
458.1014851485142
 21
-63.297029702969837
 31
0.0
  0
LINE
  8
0
  6
CONTINUOUS
 62
               4
  5
237
 10
460.31848514851418
 20
-177.29702970296992
 30
0.0
 11
443.88448514851433
 21
-177.29702970296992
 31
0.0
  0
LINE
  8
0
  6
CONTINUOUS
 62
               4
  5
238
 10
446.10148514851431
 20
-324.02525410262126
 30
0.0
 11
458.1014851485142
 21
-324.02525410262126
 31
0.0
  0
LINE
  8
0
  6
CONTINUOUS
 62
               4
  5
239
 10
443.88448514851433
 20
-326.29702970297035
 30
0.0
 11
446.10148514851431
 21
-324.02525410262126
 31
0.0
  0
LINE
  8
0
  6
CONTINUOUS
 62
               4
  5
23A
 10
458.1014851485142
 20
-324.02525410262126
 30
0.0
 11
460.31848514851418
 21
-326.29702970297035
 31
0.0
  0
LINE
  8
0
  6
CONTINUOUS
 62
               4
  5
23B
 10
443.88448514851433
 20
59.702970297029907
 30
0.0
 11
443.88448514851433
 21
-59.297029702970065
 31
0.0
  0
LINE
  8
0
  6
CONTINUOUS
 62
               4
  5
23C
 10
460.31848514851418
 20
59.702970297029907
 30
0.0
 11
460.31848514851418
 21
-59.297029702970065
 31
0.0
  0
LINE
  8
0
  6
CONTINUOUS
 62
               4
  5
23D
 10
458.1014851485142
 20
-60.297029702969951
 30
0.0
 11
458.1014851485142
 21
70.238624049882702
 31
0.0
  0
LINE
  8
0
  6
CONTINUOUS
 62
               4
  5
23E
 10
446.10148514851431
 20
70.238624049882702
 30
0.0
 11
446.10148514851431
 21
-60.297029702969951
 31
0.0
  0
ARC
  8
0
  6
CONTINUOUS
 62
               4
  5
23F
 10
437.12341220198681
 20
-181.59427935655154
 30
0.0
 40
59.149634972654262
 50
186.49999999992821
 51
236.78754046659694
  0
ARC
  8
0
  6
CONTINUOUS
 62
               4
  5
240
 10
458.02840467920845
 20
-169.74526225779991
 30
0.0
 40
81.261593956721953
 50
186.49999999992821
 51
229.00792456445404
  0
ARC
  8
0
  6
CONTINUOUS
 62
               4
  5
241
 10
312.78277632501926
 20
-254.08278108249456
 30
0.0
 40
204.24864340422488
 50
353.49999999986409
 51
373.43680216733406
  0
ARC
  8
0
  6
CONTINUOUS
 62
               4
  5
242
 10
350.47378609308026
 20
-251.79836401308685
 30
0.0
 40
167.18634723772169
 50
351.25933879879983
 51
375.67746336839878
  0
LINE
  8
0
  6
CONTINUOUS
 62
               4
  5
243
 10
395.60148514851454
 20
-338.29702970297001
 30
0.0
 11
508.60148514851454
 21
-338.29702970297001
 31
0.0
  0
LINE
  8
0
  6
CONTINUOUS
 62
               4
  5
244
 10
394.10148514851414
 20
-336.79702970296967
 30
0.0
 11
510.10148514851409
 21
-336.79702970296921
 31
0.0
  0
LINE
  8
0
  6
DASHED2
 62
               4
  5
245
 10
-20.249999999999766
 20
102.37623762376239
 30
0.0
 11
93.75
 21
102.37623762376239
 31
0.0
  0
LINE
  8
0
  6
DASHED2
 62
               4
  5
246
 10
-435.6014851485142
 20
101.70297029702994
 30
0.0
 11
-321.60148514851443
 21
101.70297029702994
 31
0.0
  0
LINE
  8
0
  6
DASHED2
 62
               4
  5
247
 10
509.10148514851443
 20
101.70297029702994
 30
0.0
 11
395.10148514851466
 21
101.70297029702994
 31
0.0
  0
LINE
  8
0
  6
DASHDOT
 62
               4
  5
248
 10
36.750000000000121
 20
187.37623762376239
 30
0.0
 11
36.750000000000121
 21
-457.62376237623761
 31
0.0
  0
LINE
  8
0
  6
DASHDOT
 62
               4
  5
249
 10
-26.214249144725748
 20
-14.623762376237607
 30
0.0
 11
-125.24999999999977
 21
-14.623762376237607
 31
0.0
  0
LINE
  8
0
  6
DASHDOT
 62
               4
  5
24A
 10
-378.60148514851431
 20
186.70297029702994
 30
0.0
 11
-378.60148514851431
 21
-458.29702970297006
 31
0.0
  0
LINE
  8
0
  6
DASHDOT
 62
               4
  5
24B
 10
-313.88263419243287
 20
-15.297029702970065
 30
0.0
 11
-445.30036515613443
 21
-15.297029702970065
 31
0.0
  0
LINE
  8
0
  6
DASHDOT
 62
               4
  5
24C
 10
452.10148514851454
 20
186.70297029702994
 30
0.0
 11
452.10148514851454
 21
-458.29702970297006
 31
0.0
  0
LINE
  8
0
  6
DASHDOT
 62
               4
  5
24D
 10
36.96782178217822
 20
498.57425742574253
 30
0.0
 11
36.96782178217822
 21
281.57425742574253
 31
0.0
  0
LINE
  8
0
  6
DASHDOT
 62
               4
  5
24E
 10
-125.03217821782167
 20
390.07425742574253
 30
0.0
 11
145.46782178217845
 21
390.07425742574253
 31
0.0
  0
ENDSEC
  0
EOF
