  0
SECTION
  2
HEADER
  9
$ACADVER
  1
AC1009
  9
$INSBASE
 10
0.0
 20
0.0
 30
0.0
  9
$EXTMIN
 10
-716.62573046432613
 20
-1563.3358253300071
 30
0.0
  9
$EXTMAX
 10
745.91225368063385
 20
689.06540833980409
 30
0.0
  9
$LIMMIN
 10
-762.33004246885616
 20
-1633.7233638821888
  9
$LIMMAX
 10
791.61656568516389
 20
759.45294689198568
  9
$ORTHOMODE
 70
               0
  9
$REGENMODE
 70
               1
  9
$FILLMODE
 70
               1
  9
$QTEXTMODE
 70
               0
  9
$MIRRTEXT
 70
               1
  9
$DRAGMODE
 70
               2
  9
$LTSCALE
 40
1.0
  9
$OSMODE
 70
               0
  9
$ATTMODE
 70
               1
  9
$TEXTSIZE
 40
0.2
  9
$TRACEWID
 40
0.05
  9
$TEXTSTYLE
  7
STANDARD
  9
$CLAYER
  8
0
  9
$CELTYPE
  6
CONTINUOUS
  9
$CECOLOR
 62
             256
  9
$DIMSCALE
 40
1.0
  9
$DIMASZ
 40
0.18
  9
$DIMEXO
 40
0.0625
  9
$DIMDLI
 40
0.38
  9
$DIMRND
 40
0.0
  9
$DIMDLE
 40
0.0
  9
$DIMEXE
 40
0.18
  9
$DIMTP
 40
0.0
  9
$DIMTM
 40
0.0
  9
$DIMTXT
 40
0.18
  9
$DIMCEN
 40
0.09
  9
$DIMTSZ
 40
0.0
  9
$DIMTOL
 70
               0
  9
$DIMLIM
 70
               0
  9
$DIMTIH
 70
               1
  9
$DIMTOH
 70
               1
  9
$DIMSE1
 70
               0
  9
$DIMSE2
 70
               0
  9
$DIMTAD
 70
               0
  9
$DIMZIN
 70
               0
  9
$DIMBLK
  1

  9
$DIMASO
 70
               1
  9
$DIMSHO
 70
               1
  9
$DIMPOST
  1

  9
$DIMAPOST
  1

  9
$DIMALT
 70
               0
  9
$DIMALTD
 70
               2
  9
$DIMALTF
 40
25.399999999999999
  9
$DIMLFAC
 40
1.0
  9
$DIMTOFL
 70
               0
  9
$DIMTVP
 40
0.0
  9
$DIMTIX
 70
               0
  9
$DIMSOXD
 70
               0
  9
$DIMSAH
 70
               0
  9
$DIMBLK1
  1

  9
$DIMBLK2
  1

  9
$DIMSTYLE
  2
STANDARD
  9
$DIMCLRD
 70
               0
  9
$DIMCLRE
 70
               0
  9
$DIMCLRT
 70
               0
  9
$DIMTFAC
 40
1.0
  9
$DIMGAP
 40
0.09
  9
$LUNITS
 70
               2
  9
$LUPREC
 70
               4
  9
$AXISMODE
 70
               0
  9
$AXISUNIT
 10
0.0
 20
0.0
  9
$SKETCHINC
 40
0.1
  9
$FILLETRAD
 40
0.0
  9
$AUNITS
 70
               0
  9
$AUPREC
 70
               0
  9
$MENU
  1
acad
  9
$ELEVATION
 40
0.0
  9
$PELEVATION
 40
0.0
  9
$THICKNESS
 40
0.0
  9
$LIMCHECK
 70
               0
  9
$BLIPMODE
 70
               1
  9
$CHAMFERA
 40
0.0
  9
$CHAMFERB
 40
0.0
  9
$SKPOLY
 70
               0
  9
$TDCREATE
 40
0.000000000
  9
$TDUPDATE
 40
0.000000000
  9
$TDINDWG
 40
0.0000000000
  9
$TDUSRTIMER
 40
0.0000000000
  9
$USRTIMER
 70
               1
  9
$ANGBASE
 50
0.0
  9
$ANGDIR
 70
               0
  9
$PDMODE
 70
               0
  9
$PDSIZE
 40
1.0
  9
$PLINEWID
 40
0.0
  9
$COORDS
 70
               1
  9
$SPLFRAME
 70
               0
  9
$SPLINETYPE
 70
               6
  9
$SPLINESEGS
 70
               8
  9
$ATTDIA
 70
               0
  9
$ATTREQ
 70
               1
  9
$HANDLING
 70
               1
  9
$HANDSEED
  5
3A4
  9
$SURFTAB1
 70
               6
  9
$SURFTAB2
 70
               6
  9
$SURFTYPE
 70
               6
  9
$SURFU
 70
               6
  9
$SURFV
 70
               6
  9
$UCSNAME
  2

  9
$UCSORG
 10
0.0
 20
0.0
 30
0.0
  9
$UCSXDIR
 10
1.0
 20
0.0
 30
0.0
  9
$UCSYDIR
 10
0.0
 20
1.0
 30
0.0
  9
$PUCSNAME
  2

  9
$PUCSORG
 10
0.0
 20
0.0
 30
0.0
  9
$PUCSXDIR
 10
1.0
 20
0.0
 30
0.0
  9
$PUCSYDIR
 10
0.0
 20
1.0
 30
0.0
  9
$USERI1
 70
               0
  9
$USERI2
 70
               0
  9
$USERI3
 70
               0
  9
$USERI4
 70
               0
  9
$USERI5
 70
               0
  9
$USERR1
 40
0.0
  9
$USERR2
 40
0.0
  9
$USERR3
 40
0.0
  9
$USERR4
 40
0.0
  9
$USERR5
 40
0.0
  9
$WORLDVIEW
 70
               1
  9
$SHADEDGE
 70
               3
  9
$SHADEDIF
 70
              70
  9
$TILEMODE
 70
               1
  9
$MAXACTVP
 70
              16
  9
$PINSBASE
 10
0.0
 20
0.0
 30
0.0
  9
$PLIMCHECK
 70
               0
  9
$PEXTMIN
 10
1.0000000000000000E+20
 20
1.0000000000000000E+20
 30
1.0000000000000000E+20
  9
$PEXTMAX
 10
-1.0000000000000000E+20
 20
-1.0000000000000000E+20
 30
-1.0000000000000000E+20
  9
$PLIMMIN
 10
0.0
 20
0.0
  9
$PLIMMAX
 10
12.0
 20
9.0
  9
$UNITMODE
 70
               0
  9
$VISRETAIN
 70
               0
  9
$PLINEGEN
 70
               1
  9
$PSLTSCALE
 70
               0
  9
$TREEDEPTH
 70
            3020
  9
$DWGCODEPAGE
  3
dos932
  0
ENDSEC
  0
SECTION
  2
TABLES
  0
TABLE
  2
VPORT
 70
               1
  0
VPORT
  2
*ACTIVE
 70
               0
 10
0.0
 20
0.0
 11
1.0
 21
1.0
 12
14.643261608153864
 22
-437.13520849510155
 13
0.0
 23
0.0
 14
1.0
 24
1.0
 15
0.0
 25
0.0
 16
0.0
 26
0.0
 36
1.0
 17
0.0
 27
0.0
 37
0.0
 40
2393.1763107741745
 41
0.6493239136448454
 42
50.0
 43
0.0
 44
0.0
 50
0.0
 51
0.0
 71
               0
 72
             100
 73
               1
 74
               1
 75
               0
 76
               0
 77
               0
 78
               0
  0
ENDTAB
  0
TABLE
  2
LTYPE
 70
              26
  0
LTYPE
  2
CONTINUOUS
 70
               0
  3
Solid line
 72
              65
 73
               0
 40
0.0
  0
LTYPE
  2
HIDDENX2
 70
               0
  3
CADPAC FUSION LINETYPE
 72
              65
 73
               2
 40
47.560000000000002
 49
35.670000000000002
 49
-11.890000000000001
  0
LTYPE
  2
HIDDEN
 70
               0
  3
CADPAC FUSION LINETYPE
 72
              65
 73
               2
 40
35.670000000000002
 49
23.780000000000001
 49
-11.890000000000001
  0
LTYPE
  2
HIDDEN2
 70
               0
  3
CADPAC FUSION LINETYPE
 72
              65
 73
               2
 40
29.725000000000001
 49
17.835000000000001
 49
-11.890000000000001
  0
LTYPE
  2
DASHED
 70
               0
  3
CADPAC FUSION LINETYPE
 72
              65
 73
               2
 40
35.670000000000002
 49
23.780000000000001
 49
-11.890000000000001
  0
LTYPE
  2
DASHED2
 70
               0
  3
CADPAC FUSION LINETYPE
 72
              65
 73
               2
 40
26.752500000000001
 49
17.835000000000001
 49
-8.9175000000000004
  0
LTYPE
  2
DASHEDX2
 70
               0
  3
CADPAC FUSION LINETYPE
 72
              65
 73
               2
 40
53.505000000000003
 49
35.670000000000002
 49
-17.835000000000001
  0
LTYPE
  2
DOTX2
 70
               0
  3
CADPAC FUSION LINETYPE
 72
              65
 73
               2
 40
14.862500000000001
 49
0.0
 49
-14.862500000000001
  0
LTYPE
  2
DOT
 70
               0
  3
CADPAC FUSION LINETYPE
 72
              65
 73
               2
 40
11.890000000000001
 49
0.0
 49
-11.890000000000001
  0
LTYPE
  2
DOTS
 70
               0
  3
CADPAC FUSION LINETYPE
 72
              65
 73
               2
 40
11.890000000000001
 49
0.0
 49
-11.890000000000001
  0
LTYPE
  2
DOT2
 70
               0
  3
CADPAC FUSION LINETYPE
 72
              65
 73
               2
 40
8.9175000000000004
 49
0.0
 49
-8.9175000000000004
  0
LTYPE
  2
CENTERX2
 70
               0
  3
CADPAC FUSION LINETYPE
 72
              65
 73
               4
 40
71.340000000000003
 49
29.725000000000001
 49
-14.862500000000001
 49
11.890000000000001
 49
-14.862500000000001
  0
LTYPE
  2
CENTER
 70
               0
  3
CADPAC FUSION LINETYPE
 72
              65
 73
               4
 40
54.694000000000003
 49
23.780000000000001
 49
-11.890000000000001
 49
7.1340000000000003
 49
-11.890000000000001
  0
LTYPE
  2
CENTER2
 70
               0
  3
CADPAC FUSION LINETYPE
 72
              65
 73
               4
 40
38.048000000000002
 49
17.835000000000001
 49
-8.9175000000000004
 49
2.3780000000000001
 49
-8.9175000000000004
  0
LTYPE
  2
DASHDOTX2
 70
               0
  3
CADPAC FUSION LINETYPE
 72
              65
 73
               4
 40
59.450000000000003
 49
29.725000000000001
 49
-14.862500000000001
 49
0.0
 49
-14.862500000000001
  0
LTYPE
  2
DASHDOT
 70
               0
  3
CADPAC FUSION LINETYPE
 72
              65
 73
               4
 40
47.560000000000002
 49
23.780000000000001
 49
-11.890000000000001
 49
0.0
 49
-11.890000000000001
  0
LTYPE
  2
DASHDOT2
 70
               0
  3
CADPAC FUSION LINETYPE
 72
              65
 73
               4
 40
35.670000000000002
 49
17.835000000000001
 49
-8.9175000000000004
 49
0.0
 49
-8.9175000000000004
  0
LTYPE
  2
DIVIDEX2
 70
               0
  3
CADPAC FUSION LINETYPE
 72
              65
 73
               6
 40
74.3125
 49
29.725000000000001
 49
-14.862500000000001
 49
0.0
 49
-14.862500000000001
 49
0.0
 49
-14.862500000000001
  0
LTYPE
  2
DIVIDE
 70
               0
  3
CADPAC FUSION LINETYPE
 72
              65
 73
               6
 40
59.450000000000003
 49
23.780000000000001
 49
-11.890000000000001
 49
0.0
 49
-11.890000000000001
 49
0.0
 49
-11.890000000000001
  0
LTYPE
  2
DIVIDE2
 70
               0
  3
CADPAC FUSION LINETYPE
 72
              65
 73
               6
 40
44.587500000000006
 49
17.835000000000001
 49
-8.9175000000000004
 49
0.0
 49
-8.9175000000000004
 49
0.0
 49
-8.9175000000000004
  0
LTYPE
  2
BORDERX2
 70
               0
  3
CADPAC FUSION LINETYPE
 72
              65
 73
               6
 40
104.03750000000001
 49
29.725000000000001
 49
-14.862500000000001
 49
29.725000000000001
 49
-14.862500000000001
 49
0.0
 49
-14.862500000000001
  0
LTYPE
  2
BORDER
 70
               0
  3
CADPAC FUSION LINETYPE
 72
              65
 73
               6
 40
83.230000000000004
 49
23.780000000000001
 49
-11.890000000000001
 49
23.780000000000001
 49
-11.890000000000001
 49
0.0
 49
-11.890000000000001
  0
LTYPE
  2
BORDER2
 70
               0
  3
CADPAC FUSION LINETYPE
 72
              65
 73
               6
 40
62.422499999999999
 49
17.835000000000001
 49
-8.9175000000000004
 49
17.835000000000001
 49
-8.9175000000000004
 49
0.0
 49
-8.9175000000000004
  0
LTYPE
  2
PHANTOMX2
 70
               0
  3
CADPAC FUSION LINETYPE
 72
              65
 73
               6
 40
89.175000000000011
 49
29.725000000000001
 49
-11.890000000000001
 49
11.890000000000001
 49
-11.890000000000001
 49
11.890000000000001
 49
-11.890000000000001
  0
LTYPE
  2
PHANTOM
 70
               0
  3
CADPAC FUSION LINETYPE
 72
              65
 73
               6
 40
73.718000000000004
 49
23.780000000000001
 49
-11.890000000000001
 49
7.1340000000000003
 49
-11.890000000000001
 49
7.1340000000000003
 49
-11.890000000000001
  0
LTYPE
  2
PHANTOM2
 70
               0
  3
CADPAC FUSION LINETYPE
 72
              65
 73
               6
 40
63.017000000000003
 49
17.835000000000001
 49
-11.890000000000001
 49
4.7560000000000002
 49
-11.890000000000001
 49
4.7560000000000002
 49
-11.890000000000001
  0
ENDTAB
  0
TABLE
  2
LAYER
 70
             256
  0
LAYER
  2
0
 70
               0
 62
               7
  6
CONTINUOUS
  0
LAYER
  2
LAYER001
 70
               0
 62
               7
  6
CONTINUOUS
  0
LAYER
  2
LAYER002
 70
               0
 62
               7
  6
CONTINUOUS
  0
LAYER
  2
LAYER003
 70
               0
 62
               7
  6
CONTINUOUS
  0
LAYER
  2
LAYER004
 70
               0
 62
               7
  6
CONTINUOUS
  0
LAYER
  2
LAYER005
 70
               0
 62
               7
  6
CONTINUOUS
  0
LAYER
  2
LAYER006
 70
               0
 62
               7
  6
CONTINUOUS
  0
LAYER
  2
LAYER007
 70
               0
 62
               7
  6
CONTINUOUS
  0
LAYER
  2
LAYER008
 70
               0
 62
               7
  6
CONTINUOUS
  0
LAYER
  2
LAYER009
 70
               0
 62
               7
  6
CONTINUOUS
  0
LAYER
  2
LAYER010
 70
               0
 62
               7
  6
CONTINUOUS
  0
LAYER
  2
LAYER011
 70
               0
 62
               7
  6
CONTINUOUS
  0
LAYER
  2
LAYER012
 70
               0
 62
               7
  6
CONTINUOUS
  0
LAYER
  2
LAYER013
 70
               0
 62
               7
  6
CONTINUOUS
  0
LAYER
  2
LAYER014
 70
               0
 62
               7
  6
CONTINUOUS
  0
LAYER
  2
LAYER015
 70
               0
 62
               7
  6
CONTINUOUS
  0
LAYER
  2
LAYER016
 70
               0
 62
               7
  6
CONTINUOUS
  0
LAYER
  2
LAYER017
 70
               0
 62
               7
  6
CONTINUOUS
  0
LAYER
  2
LAYER018
 70
               0
 62
               7
  6
CONTINUOUS
  0
LAYER
  2
LAYER019
 70
               0
 62
               7
  6
CONTINUOUS
  0
LAYER
  2
LAYER020
 70
               0
 62
               7
  6
CONTINUOUS
  0
LAYER
  2
LAYER021
 70
               0
 62
               7
  6
CONTINUOUS
  0
LAYER
  2
LAYER022
 70
               0
 62
               7
  6
CONTINUOUS
  0
LAYER
  2
LAYER023
 70
               0
 62
               7
  6
CONTINUOUS
  0
LAYER
  2
LAYER024
 70
               0
 62
               7
  6
CONTINUOUS
  0
LAYER
  2
LAYER025
 70
               0
 62
               7
  6
CONTINUOUS
  0
LAYER
  2
LAYER026
 70
               0
 62
               7
  6
CONTINUOUS
  0
LAYER
  2
LAYER027
 70
               0
 62
               7
  6
CONTINUOUS
  0
LAYER
  2
LAYER028
 70
               0
 62
               7
  6
CONTINUOUS
  0
LAYER
  2
LAYER029
 70
               0
 62
               7
  6
CONTINUOUS
  0
LAYER
  2
LAYER030
 70
               0
 62
               7
  6
CONTINUOUS
  0
LAYER
  2
LAYER031
 70
               0
 62
               7
  6
CONTINUOUS
  0
LAYER
  2
LAYER032
 70
               0
 62
               7
  6
CONTINUOUS
  0
LAYER
  2
LAYER033
 70
               0
 62
               7
  6
CONTINUOUS
  0
LAYER
  2
LAYER034
 70
               0
 62
               7
  6
CONTINUOUS
  0
LAYER
  2
LAYER035
 70
               0
 62
               7
  6
CONTINUOUS
  0
LAYER
  2
LAYER036
 70
               0
 62
               7
  6
CONTINUOUS
  0
LAYER
  2
LAYER037
 70
               0
 62
               7
  6
CONTINUOUS
  0
LAYER
  2
LAYER038
 70
               0
 62
               7
  6
CONTINUOUS
  0
LAYER
  2
LAYER039
 70
               0
 62
               7
  6
CONTINUOUS
  0
LAYER
  2
LAYER040
 70
               0
 62
               7
  6
CONTINUOUS
  0
LAYER
  2
LAYER041
 70
               0
 62
               7
  6
CONTINUOUS
  0
LAYER
  2
LAYER042
 70
               0
 62
               7
  6
CONTINUOUS
  0
LAYER
  2
LAYER043
 70
               0
 62
               7
  6
CONTINUOUS
  0
LAYER
  2
LAYER044
 70
               0
 62
               7
  6
CONTINUOUS
  0
LAYER
  2
LAYER045
 70
               0
 62
               7
  6
CONTINUOUS
  0
LAYER
  2
LAYER046
 70
               0
 62
               7
  6
CONTINUOUS
  0
LAYER
  2
LAYER047
 70
               0
 62
               7
  6
CONTINUOUS
  0
LAYER
  2
LAYER048
 70
               0
 62
               7
  6
CONTINUOUS
  0
LAYER
  2
LAYER049
 70
               0
 62
               7
  6
CONTINUOUS
  0
LAYER
  2
LAYER050
 70
               0
 62
               7
  6
CONTINUOUS
  0
LAYER
  2
LAYER051
 70
               0
 62
               7
  6
CONTINUOUS
  0
LAYER
  2
LAYER052
 70
               0
 62
               7
  6
CONTINUOUS
  0
LAYER
  2
LAYER053
 70
               0
 62
               7
  6
CONTINUOUS
  0
LAYER
  2
LAYER054
 70
               0
 62
               7
  6
CONTINUOUS
  0
LAYER
  2
LAYER055
 70
               0
 62
               7
  6
CONTINUOUS
  0
LAYER
  2
LAYER056
 70
               0
 62
               7
  6
CONTINUOUS
  0
LAYER
  2
LAYER057
 70
               0
 62
               7
  6
CONTINUOUS
  0
LAYER
  2
LAYER058
 70
               0
 62
               7
  6
CONTINUOUS
  0
LAYER
  2
LAYER059
 70
               0
 62
               7
  6
CONTINUOUS
  0
LAYER
  2
LAYER060
 70
               0
 62
               7
  6
CONTINUOUS
  0
LAYER
  2
LAYER061
 70
               0
 62
               7
  6
CONTINUOUS
  0
LAYER
  2
LAYER062
 70
               0
 62
               7
  6
CONTINUOUS
  0
LAYER
  2
LAYER063
 70
               0
 62
               7
  6
CONTINUOUS
  0
LAYER
  2
LAYER064
 70
               0
 62
               7
  6
CONTINUOUS
  0
LAYER
  2
LAYER065
 70
               0
 62
               7
  6
CONTINUOUS
  0
LAYER
  2
LAYER066
 70
               0
 62
               7
  6
CONTINUOUS
  0
LAYER
  2
LAYER067
 70
               0
 62
               7
  6
CONTINUOUS
  0
LAYER
  2
LAYER068
 70
               0
 62
               7
  6
CONTINUOUS
  0
LAYER
  2
LAYER069
 70
               0
 62
               7
  6
CONTINUOUS
  0
LAYER
  2
LAYER070
 70
               0
 62
               7
  6
CONTINUOUS
  0
LAYER
  2
LAYER071
 70
               0
 62
               7
  6
CONTINUOUS
  0
LAYER
  2
LAYER072
 70
               0
 62
               7
  6
CONTINUOUS
  0
LAYER
  2
LAYER073
 70
               0
 62
               7
  6
CONTINUOUS
  0
LAYER
  2
LAYER074
 70
               0
 62
               7
  6
CONTINUOUS
  0
LAYER
  2
LAYER075
 70
               0
 62
               7
  6
CONTINUOUS
  0
LAYER
  2
LAYER076
 70
               0
 62
               7
  6
CONTINUOUS
  0
LAYER
  2
LAYER077
 70
               0
 62
               7
  6
CONTINUOUS
  0
LAYER
  2
LAYER078
 70
               0
 62
               7
  6
CONTINUOUS
  0
LAYER
  2
LAYER079
 70
               0
 62
               7
  6
CONTINUOUS
  0
LAYER
  2
LAYER080
 70
               0
 62
               7
  6
CONTINUOUS
  0
LAYER
  2
LAYER081
 70
               0
 62
               7
  6
CONTINUOUS
  0
LAYER
  2
LAYER082
 70
               0
 62
               7
  6
CONTINUOUS
  0
LAYER
  2
LAYER083
 70
               0
 62
               7
  6
CONTINUOUS
  0
LAYER
  2
LAYER084
 70
               0
 62
               7
  6
CONTINUOUS
  0
LAYER
  2
LAYER085
 70
               0
 62
               7
  6
CONTINUOUS
  0
LAYER
  2
LAYER086
 70
               0
 62
               7
  6
CONTINUOUS
  0
LAYER
  2
LAYER087
 70
               0
 62
               7
  6
CONTINUOUS
  0
LAYER
  2
LAYER088
 70
               0
 62
               7
  6
CONTINUOUS
  0
LAYER
  2
LAYER089
 70
               0
 62
               7
  6
CONTINUOUS
  0
LAYER
  2
LAYER090
 70
               0
 62
               7
  6
CONTINUOUS
  0
LAYER
  2
LAYER091
 70
               0
 62
               7
  6
CONTINUOUS
  0
LAYER
  2
LAYER092
 70
               0
 62
               7
  6
CONTINUOUS
  0
LAYER
  2
LAYER093
 70
               0
 62
               7
  6
CONTINUOUS
  0
LAYER
  2
LAYER094
 70
               0
 62
               7
  6
CONTINUOUS
  0
LAYER
  2
LAYER095
 70
               0
 62
               7
  6
CONTINUOUS
  0
LAYER
  2
LAYER096
 70
               0
 62
               7
  6
CONTINUOUS
  0
LAYER
  2
LAYER097
 70
               0
 62
               7
  6
CONTINUOUS
  0
LAYER
  2
LAYER098
 70
               0
 62
               7
  6
CONTINUOUS
  0
LAYER
  2
LAYER099
 70
               0
 62
               7
  6
CONTINUOUS
  0
LAYER
  2
LAYER100
 70
               0
 62
               7
  6
CONTINUOUS
  0
LAYER
  2
LAYER101
 70
               0
 62
               7
  6
CONTINUOUS
  0
LAYER
  2
LAYER102
 70
               0
 62
               7
  6
CONTINUOUS
  0
LAYER
  2
LAYER103
 70
               0
 62
               7
  6
CONTINUOUS
  0
LAYER
  2
LAYER104
 70
               0
 62
               7
  6
CONTINUOUS
  0
LAYER
  2
LAYER105
 70
               0
 62
               7
  6
CONTINUOUS
  0
LAYER
  2
LAYER106
 70
               0
 62
               7
  6
CONTINUOUS
  0
LAYER
  2
LAYER107
 70
               0
 62
               7
  6
CONTINUOUS
  0
LAYER
  2
LAYER108
 70
               0
 62
               7
  6
CONTINUOUS
  0
LAYER
  2
LAYER109
 70
               0
 62
               7
  6
CONTINUOUS
  0
LAYER
  2
LAYER110
 70
               0
 62
               7
  6
CONTINUOUS
  0
LAYER
  2
LAYER111
 70
               0
 62
               7
  6
CONTINUOUS
  0
LAYER
  2
LAYER112
 70
               0
 62
               7
  6
CONTINUOUS
  0
LAYER
  2
LAYER113
 70
               0
 62
               7
  6
CONTINUOUS
  0
LAYER
  2
LAYER114
 70
               0
 62
               7
  6
CONTINUOUS
  0
LAYER
  2
LAYER115
 70
               0
 62
               7
  6
CONTINUOUS
  0
LAYER
  2
LAYER116
 70
               0
 62
               7
  6
CONTINUOUS
  0
LAYER
  2
LAYER117
 70
               0
 62
               7
  6
CONTINUOUS
  0
LAYER
  2
LAYER118
 70
               0
 62
               7
  6
CONTINUOUS
  0
LAYER
  2
LAYER119
 70
               0
 62
               7
  6
CONTINUOUS
  0
LAYER
  2
LAYER120
 70
               0
 62
               7
  6
CONTINUOUS
  0
LAYER
  2
LAYER121
 70
               0
 62
               7
  6
CONTINUOUS
  0
LAYER
  2
LAYER122
 70
               0
 62
               7
  6
CONTINUOUS
  0
LAYER
  2
LAYER123
 70
               0
 62
               7
  6
CONTINUOUS
  0
LAYER
  2
LAYER124
 70
               0
 62
               7
  6
CONTINUOUS
  0
LAYER
  2
LAYER125
 70
               0
 62
               7
  6
CONTINUOUS
  0
LAYER
  2
LAYER126
 70
               0
 62
               7
  6
CONTINUOUS
  0
LAYER
  2
LAYER127
 70
               0
 62
               7
  6
CONTINUOUS
  0
LAYER
  2
LAYER128
 70
               0
 62
               7
  6
CONTINUOUS
  0
LAYER
  2
LAYER129
 70
               0
 62
               7
  6
CONTINUOUS
  0
LAYER
  2
LAYER130
 70
               0
 62
               7
  6
CONTINUOUS
  0
LAYER
  2
LAYER131
 70
               0
 62
               7
  6
CONTINUOUS
  0
LAYER
  2
LAYER132
 70
               0
 62
               7
  6
CONTINUOUS
  0
LAYER
  2
LAYER133
 70
               0
 62
               7
  6
CONTINUOUS
  0
LAYER
  2
LAYER134
 70
               0
 62
               7
  6
CONTINUOUS
  0
LAYER
  2
LAYER135
 70
               0
 62
               7
  6
CONTINUOUS
  0
LAYER
  2
LAYER136
 70
               0
 62
               7
  6
CONTINUOUS
  0
LAYER
  2
LAYER137
 70
               0
 62
               7
  6
CONTINUOUS
  0
LAYER
  2
LAYER138
 70
               0
 62
               7
  6
CONTINUOUS
  0
LAYER
  2
LAYER139
 70
               0
 62
               7
  6
CONTINUOUS
  0
LAYER
  2
LAYER140
 70
               0
 62
               7
  6
CONTINUOUS
  0
LAYER
  2
LAYER141
 70
               0
 62
               7
  6
CONTINUOUS
  0
LAYER
  2
LAYER142
 70
               0
 62
               7
  6
CONTINUOUS
  0
LAYER
  2
LAYER143
 70
               0
 62
               7
  6
CONTINUOUS
  0
LAYER
  2
LAYER144
 70
               0
 62
               7
  6
CONTINUOUS
  0
LAYER
  2
LAYER145
 70
               0
 62
               7
  6
CONTINUOUS
  0
LAYER
  2
LAYER146
 70
               0
 62
               7
  6
CONTINUOUS
  0
LAYER
  2
LAYER147
 70
               0
 62
               7
  6
CONTINUOUS
  0
LAYER
  2
LAYER148
 70
               0
 62
               7
  6
CONTINUOUS
  0
LAYER
  2
LAYER149
 70
               0
 62
               7
  6
CONTINUOUS
  0
LAYER
  2
LAYER150
 70
               0
 62
               7
  6
CONTINUOUS
  0
LAYER
  2
LAYER151
 70
               0
 62
               7
  6
CONTINUOUS
  0
LAYER
  2
LAYER152
 70
               0
 62
               7
  6
CONTINUOUS
  0
LAYER
  2
LAYER153
 70
               0
 62
               7
  6
CONTINUOUS
  0
LAYER
  2
LAYER154
 70
               0
 62
               7
  6
CONTINUOUS
  0
LAYER
  2
LAYER155
 70
               0
 62
               7
  6
CONTINUOUS
  0
LAYER
  2
LAYER156
 70
               0
 62
               7
  6
CONTINUOUS
  0
LAYER
  2
LAYER157
 70
               0
 62
               7
  6
CONTINUOUS
  0
LAYER
  2
LAYER158
 70
               0
 62
               7
  6
CONTINUOUS
  0
LAYER
  2
LAYER159
 70
               0
 62
               7
  6
CONTINUOUS
  0
LAYER
  2
LAYER160
 70
               0
 62
               7
  6
CONTINUOUS
  0
LAYER
  2
LAYER161
 70
               0
 62
               7
  6
CONTINUOUS
  0
LAYER
  2
LAYER162
 70
               0
 62
               7
  6
CONTINUOUS
  0
LAYER
  2
LAYER163
 70
               0
 62
               7
  6
CONTINUOUS
  0
LAYER
  2
LAYER164
 70
               0
 62
               7
  6
CONTINUOUS
  0
LAYER
  2
LAYER165
 70
               0
 62
               7
  6
CONTINUOUS
  0
LAYER
  2
LAYER166
 70
               0
 62
               7
  6
CONTINUOUS
  0
LAYER
  2
LAYER167
 70
               0
 62
               7
  6
CONTINUOUS
  0
LAYER
  2
LAYER168
 70
               0
 62
               7
  6
CONTINUOUS
  0
LAYER
  2
LAYER169
 70
               0
 62
               7
  6
CONTINUOUS
  0
LAYER
  2
LAYER170
 70
               0
 62
               7
  6
CONTINUOUS
  0
LAYER
  2
LAYER171
 70
               0
 62
               7
  6
CONTINUOUS
  0
LAYER
  2
LAYER172
 70
               0
 62
               7
  6
CONTINUOUS
  0
LAYER
  2
LAYER173
 70
               0
 62
               7
  6
CONTINUOUS
  0
LAYER
  2
LAYER174
 70
               0
 62
               7
  6
CONTINUOUS
  0
LAYER
  2
LAYER175
 70
               0
 62
               7
  6
CONTINUOUS
  0
LAYER
  2
LAYER176
 70
               0
 62
               7
  6
CONTINUOUS
  0
LAYER
  2
LAYER177
 70
               0
 62
               7
  6
CONTINUOUS
  0
LAYER
  2
LAYER178
 70
               0
 62
               7
  6
CONTINUOUS
  0
LAYER
  2
LAYER179
 70
               0
 62
               7
  6
CONTINUOUS
  0
LAYER
  2
LAYER180
 70
               0
 62
               7
  6
CONTINUOUS
  0
LAYER
  2
LAYER181
 70
               0
 62
               7
  6
CONTINUOUS
  0
LAYER
  2
LAYER182
 70
               0
 62
               7
  6
CONTINUOUS
  0
LAYER
  2
LAYER183
 70
               0
 62
               7
  6
CONTINUOUS
  0
LAYER
  2
LAYER184
 70
               0
 62
               7
  6
CONTINUOUS
  0
LAYER
  2
LAYER185
 70
               0
 62
               7
  6
CONTINUOUS
  0
LAYER
  2
LAYER186
 70
               0
 62
               7
  6
CONTINUOUS
  0
LAYER
  2
LAYER187
 70
               0
 62
               7
  6
CONTINUOUS
  0
LAYER
  2
LAYER188
 70
               0
 62
               7
  6
CONTINUOUS
  0
LAYER
  2
LAYER189
 70
               0
 62
               7
  6
CONTINUOUS
  0
LAYER
  2
LAYER190
 70
               0
 62
               7
  6
CONTINUOUS
  0
LAYER
  2
LAYER191
 70
               0
 62
               7
  6
CONTINUOUS
  0
LAYER
  2
LAYER192
 70
               0
 62
               7
  6
CONTINUOUS
  0
LAYER
  2
LAYER193
 70
               0
 62
               7
  6
CONTINUOUS
  0
LAYER
  2
LAYER194
 70
               0
 62
               7
  6
CONTINUOUS
  0
LAYER
  2
LAYER195
 70
               0
 62
               7
  6
CONTINUOUS
  0
LAYER
  2
LAYER196
 70
               0
 62
               7
  6
CONTINUOUS
  0
LAYER
  2
LAYER197
 70
               0
 62
               7
  6
CONTINUOUS
  0
LAYER
  2
LAYER198
 70
               0
 62
               7
  6
CONTINUOUS
  0
LAYER
  2
LAYER199
 70
               0
 62
               7
  6
CONTINUOUS
  0
LAYER
  2
LAYER200
 70
               0
 62
               7
  6
CONTINUOUS
  0
LAYER
  2
LAYER201
 70
               0
 62
               7
  6
CONTINUOUS
  0
LAYER
  2
LAYER202
 70
               0
 62
               7
  6
CONTINUOUS
  0
LAYER
  2
LAYER203
 70
               0
 62
               7
  6
CONTINUOUS
  0
LAYER
  2
LAYER204
 70
               0
 62
               7
  6
CONTINUOUS
  0
LAYER
  2
LAYER205
 70
               0
 62
               7
  6
CONTINUOUS
  0
LAYER
  2
LAYER206
 70
               0
 62
               7
  6
CONTINUOUS
  0
LAYER
  2
LAYER207
 70
               0
 62
               7
  6
CONTINUOUS
  0
LAYER
  2
LAYER208
 70
               0
 62
               7
  6
CONTINUOUS
  0
LAYER
  2
LAYER209
 70
               0
 62
               7
  6
CONTINUOUS
  0
LAYER
  2
LAYER210
 70
               0
 62
               7
  6
CONTINUOUS
  0
LAYER
  2
LAYER211
 70
               0
 62
               7
  6
CONTINUOUS
  0
LAYER
  2
LAYER212
 70
               0
 62
               7
  6
CONTINUOUS
  0
LAYER
  2
LAYER213
 70
               0
 62
               7
  6
CONTINUOUS
  0
LAYER
  2
LAYER214
 70
               0
 62
               7
  6
CONTINUOUS
  0
LAYER
  2
LAYER215
 70
               0
 62
               7
  6
CONTINUOUS
  0
LAYER
  2
LAYER216
 70
               0
 62
               7
  6
CONTINUOUS
  0
LAYER
  2
LAYER217
 70
               0
 62
               7
  6
CONTINUOUS
  0
LAYER
  2
LAYER218
 70
               0
 62
               7
  6
CONTINUOUS
  0
LAYER
  2
LAYER219
 70
               0
 62
               7
  6
CONTINUOUS
  0
LAYER
  2
LAYER220
 70
               0
 62
               7
  6
CONTINUOUS
  0
LAYER
  2
LAYER221
 70
               0
 62
               7
  6
CONTINUOUS
  0
LAYER
  2
LAYER222
 70
               0
 62
               7
  6
CONTINUOUS
  0
LAYER
  2
LAYER223
 70
               0
 62
               7
  6
CONTINUOUS
  0
LAYER
  2
LAYER224
 70
               0
 62
               7
  6
CONTINUOUS
  0
LAYER
  2
LAYER225
 70
               0
 62
               7
  6
CONTINUOUS
  0
LAYER
  2
LAYER226
 70
               0
 62
               7
  6
CONTINUOUS
  0
LAYER
  2
LAYER227
 70
               0
 62
               7
  6
CONTINUOUS
  0
LAYER
  2
LAYER228
 70
               0
 62
               7
  6
CONTINUOUS
  0
LAYER
  2
LAYER229
 70
               0
 62
               7
  6
CONTINUOUS
  0
LAYER
  2
LAYER230
 70
               0
 62
               7
  6
CONTINUOUS
  0
LAYER
  2
LAYER231
 70
               0
 62
               7
  6
CONTINUOUS
  0
LAYER
  2
LAYER232
 70
               0
 62
               7
  6
CONTINUOUS
  0
LAYER
  2
LAYER233
 70
               0
 62
               7
  6
CONTINUOUS
  0
LAYER
  2
LAYER234
 70
               0
 62
               7
  6
CONTINUOUS
  0
LAYER
  2
LAYER235
 70
               0
 62
               7
  6
CONTINUOUS
  0
LAYER
  2
LAYER236
 70
               0
 62
               7
  6
CONTINUOUS
  0
LAYER
  2
LAYER237
 70
               0
 62
               7
  6
CONTINUOUS
  0
LAYER
  2
LAYER238
 70
               0
 62
               7
  6
CONTINUOUS
  0
LAYER
  2
LAYER239
 70
               0
 62
               7
  6
CONTINUOUS
  0
LAYER
  2
LAYER240
 70
               0
 62
               7
  6
CONTINUOUS
  0
LAYER
  2
LAYER241
 70
               0
 62
               7
  6
CONTINUOUS
  0
LAYER
  2
LAYER242
 70
               0
 62
               7
  6
CONTINUOUS
  0
LAYER
  2
LAYER243
 70
               0
 62
               7
  6
CONTINUOUS
  0
LAYER
  2
LAYER244
 70
               0
 62
               7
  6
CONTINUOUS
  0
LAYER
  2
LAYER245
 70
               0
 62
               7
  6
CONTINUOUS
  0
LAYER
  2
LAYER246
 70
               0
 62
               7
  6
CONTINUOUS
  0
LAYER
  2
LAYER247
 70
               0
 62
               7
  6
CONTINUOUS
  0
LAYER
  2
LAYER248
 70
               0
 62
               7
  6
CONTINUOUS
  0
LAYER
  2
LAYER249
 70
               0
 62
               7
  6
CONTINUOUS
  0
LAYER
  2
LAYER250
 70
               0
 62
               7
  6
CONTINUOUS
  0
LAYER
  2
LAYER251
 70
               0
 62
               7
  6
CONTINUOUS
  0
LAYER
  2
LAYER252
 70
               0
 62
               7
  6
CONTINUOUS
  0
LAYER
  2
LAYER253
 70
               0
 62
               7
  6
CONTINUOUS
  0
LAYER
  2
LAYER254
 70
               0
 62
               7
  6
CONTINUOUS
  0
LAYER
  2
LAYER255
 70
               0
 62
               7
  6
CONTINUOUS
  0
ENDTAB
  0
TABLE
  2
STYLE
 70
               1
  0
STYLE
  2
STANDARD
 70
               0
 40
0.0
 41
0.8
 50
0.0
 71
               0
 42
40.0
  3
MS PGothic.ttf
  4

  0
ENDTAB
  0
TABLE
  2
VIEW
 70
               0
  0
VIEW
  2
QQQQ
 70
               0
 40
2393.1763107741745
 10
14.643261608153864
 20
-437.13520849510155
 41
1553.9466081540199
 11
0.0
 21
0.0
 31
1.0
 12
100.0
 22
100.0
 32
0.0
 42
50.0
 43
0.0
 44
0.0
 50
0.0
 71
               0
  0
ENDTAB
  0
TABLE
  2
UCS
 70
               0
  0
ENDTAB
  0
TABLE
  2
APPID
 70
               1
  0
APPID
  2
ACAD
 70
               0
  0
ENDTAB
  0
TABLE
  2
DIMSTYLE
 70
               1
  0
DIMSTYLE
  2
STANDARD
 70
               0
  3

  4

  5

  6

  7

 40
1.0
 41
0.18
 42
0.0625
 43
0.38
 44
0.18
 45
0.0
 46
0.0
 47
0.0
 48
0.0
140
0.18
141
0.09
142
0.0
143
25.399999999999999
144
1.0
145
0.0
146
1.0
147
0.09
 71
               0
 72
               0
 73
               1
 74
               1
 75
               0
 76
               0
 77
               0
 78
               0
170
               0
171
               2
172
               0
173
               0
174
               0
175
               0
176
               0
177
               0
178
               0
  0
ENDTAB
  0
ENDSEC
  0
SECTION
  2
BLOCKS
  0
ENDSEC
  0
SECTION
  2
ENTITIES
  0
CIRCLE
  8
0
  6
CONTINUOUS
 62
               3
  5
136
 10
-0.0000000000002842
 20
537.25
 30
0.0
 40
75.0
  0
CIRCLE
  8
0
  6
CONTINUOUS
 62
               3
  5
137
 10
-0.0000000000002842
 20
537.25
 30
0.0
 40
52.5
  0
LINE
  8
0
  6
CONTINUOUS
 62
               3
  5
138
 10
-86.210498200625523
 20
557.25
 30
0.0
 11
-72.284161474005657
 21
557.25
 31
0.0
  0
LINE
  8
0
  6
CONTINUOUS
 62
               3
  5
139
 10
-72.284161474005657
 20
517.25
 30
0.0
 11
-86.210498200625523
 21
517.25
 31
0.0
  0
ARC
  8
0
  6
CONTINUOUS
 62
               3
  5
13A
 10
-0.0000000000002842
 20
537.25
 30
0.0
 40
88.5
 50
166.93897588510336
 51
193.06102411468945
  0
LINE
  8
0
  6
CONTINUOUS
 62
               3
  5
13B
 10
-20.000000000000288
 20
451.0395017993751
 30
0.0
 11
-20.000000000000288
 21
464.96583852599497
 31
0.0
  0
LINE
  8
0
  6
CONTINUOUS
 62
               3
  5
13C
 10
19.999999999999716
 20
464.96583852599497
 30
0.0
 11
19.999999999999716
 21
451.0395017993751
 31
0.0
  0
ARC
  8
0
  6
CONTINUOUS
 62
               3
  5
13D
 10
-0.0000000000002842
 20
537.25
 30
0.0
 40
88.5
 50
256.93897588505172
 51
283.06102411463769
  0
LINE
  8
0
  6
CONTINUOUS
 62
               3
  5
13E
 10
86.210498200624372
 20
517.25
 30
0.0
 11
72.284161474003952
 21
517.25
 31
0.0
  0
LINE
  8
0
  6
CONTINUOUS
 62
               3
  5
13F
 10
72.284161474003952
 20
557.25
 30
0.0
 11
86.210498200624372
 21
557.25
 31
0.0
  0
ARC
  8
0
  6
CONTINUOUS
 62
               3
  5
140
 10
-0.0000000000002842
 20
537.25
 30
0.0
 40
88.5
 50
346.93897588499982
 51
373.06102411458585
  0
LINE
  8
0
  6
CONTINUOUS
 62
               3
  5
141
 10
19.999999999999716
 20
623.46049820062558
 30
0.0
 11
19.999999999999716
 21
609.53416147400503
 31
0.0
  0
LINE
  8
0
  6
CONTINUOUS
 62
               3
  5
142
 10
-20.000000000000288
 20
609.53416147400503
 30
0.0
 11
-20.000000000000288
 21
623.46049820062558
 31
0.0
  0
ARC
  8
0
  6
CONTINUOUS
 62
               3
  5
143
 10
-0.0000000000002842
 20
537.25
 30
0.0
 40
88.5
 50
76.938975885155202
 51
103.06102411474124
  0
LINE
  8
0
  6
CONTINUOUS
 62
               3
  5
144
 10
-47.668123520861343
 20
515.24999999999955
 30
0.0
 11
47.668123520859638
 21
515.24999999999955
 31
0.0
  0
ARC
  8
0
  6
CONTINUOUS
 62
               3
  5
145
 10
12.503611649380844
 20
545.95639762761903
 30
0.0
 40
54.763804151667173
 50
141.38591763675663
 51
145.15009542087034
  0
ARC
  8
0
  6
CONTINUOUS
 62
               3
  5
146
 10
-0.0000000000002842
 20
537.25
 30
0.0
 40
51.5
 50
334.71098847326505
 51
410.95932736340404
  0
ARC
  8
0
  6
CONTINUOUS
 62
               3
  5
147
 10
-0.0000000000002842
 20
537.25
 30
0.0
 40
51.5
 50
129.04067263628565
 51
205.28901152642416
  0
ARC
  8
0
  6
CONTINUOUS
 62
               3
  5
148
 10
-0.0000000000002842
 20
537.25
 30
0.0
 40
77.5
 50
104.95524831658297
 51
128.57288309095929
  0
ARC
  8
0
  6
CONTINUOUS
 62
               3
  5
149
 10
-0.0000000000002842
 20
537.25
 30
0.0
 40
77.5
 50
14.955248316634696
 51
75.044751683313507
  0
ARC
  8
0
  6
CONTINUOUS
 62
               3
  5
14A
 10
-0.0000000000002842
 20
537.25
 30
0.0
 40
77.5
 50
321.42711690878116
 51
345.04475168315804
  0
LINE
  8
0
  6
CONTINUOUS
 62
               3
  5
14B
 10
-140.00000000000028
 20
482.25
 30
0.0
 11
-139.32844387403605
 21
482.25
 31
0.0
  0
LINE
  8
0
  6
CONTINUOUS
 62
               3
  5
14C
 10
-136.8284438740356
 20
479.75
 30
0.0
 11
-139.32844387403605
 21
482.25
 31
0.0
  0
LINE
  8
0
  6
CONTINUOUS
 62
               3
  5
14D
 10
-140.00000000000028
 20
592.25
 30
0.0
 11
-139.32844387403605
 21
592.25
 31
0.0
  0
LINE
  8
0
  6
CONTINUOUS
 62
               3
  5
14E
 10
-136.82844387403605
 20
594.75
 30
0.0
 11
-139.32844387403605
 21
592.25
 31
0.0
  0
LINE
  8
0
  6
CONTINUOUS
 62
               3
  5
14F
 10
-139.32844387403605
 20
592.25
 30
0.0
 11
-139.32844387403605
 21
482.25
 31
0.0
  0
LINE
  8
0
  6
CONTINUOUS
 62
               3
  5
150
 10
-45.490335786378196
 20
597.9395970183416
 30
0.0
 11
-136.82844387403605
 21
594.75
 31
0.0
  0
LINE
  8
0
  6
CONTINUOUS
 62
               3
  5
151
 10
-64.836471716551358
 20
477.23598493503232
 30
0.0
 11
-136.82844387403554
 21
479.75
 31
0.0
  0
LINE
  8
0
  6
CONTINUOUS
 62
               3
  5
152
 10
-145.00000000000028
 20
592.07844387403588
 30
0.0
 11
-145.00000000000028
 21
482.14999999999998
 31
0.0
  0
LINE
  8
0
  6
CONTINUOUS
 62
               3
  5
153
 10
-140.00000000000028
 20
479.64999999999998
 30
0.0
 11
-140.00000000000028
 21
594.85000000000002
 31
0.0
  0
LINE
  8
0
  6
CONTINUOUS
 62
               3
  5
154
 10
-140.00000000000028
 20
594.85000000000002
 30
0.0
 11
-142.50000000000028
 21
594.85000000000002
 31
0.0
  0
LINE
  8
0
  6
CONTINUOUS
 62
               3
  5
155
 10
-140.00000000000028
 20
479.64999999999998
 30
0.0
 11
-142.50000000000028
 21
479.64999999999998
 31
0.0
  0
ARC
  8
0
  6
CONTINUOUS
 62
               3
  5
156
 10
-142.50000000000028
 20
482.14999999999998
 30
0.0
 40
2.5
 50
179.99999999989538
 51
269.99999999984499
  0
ARC
  8
0
  6
CONTINUOUS
 62
               3
  5
157
 10
-142.50000000000028
 20
592.35000000000002
 30
0.0
 40
2.5
 50
89.999999999948344
 51
179.99999999989538
  0
LINE
  8
0
  6
CONTINUOUS
 62
               3
  5
158
 10
-32.438403166617888
 20
577.24999999999977
 30
0.0
 11
-0.0000000000002842
 21
577.24999999999977
 31
0.0
  0
LINE
  8
0
  6
CONTINUOUS
 62
               3
  5
159
 10
-0.0000000000002842
 20
577.24999999999977
 30
0.0
 11
34.003676271838401
 21
577.24999999999977
 31
0.0
  0
LINE
  8
0
  6
CONTINUOUS
 62
               3
  5
15A
 10
-136.8284438740356
 20
479.75
 30
0.0
 11
-136.82844387403605
 21
594.75
 31
0.0
  0
ARC
  8
0
  6
CONTINUOUS
 62
               3
  5
15B
 10
-45.664833269890714
 20
602.93655115343711
 30
0.0
 40
5.0
 50
271.99999999984362
 51
304.80675787025228
  0
LINE
  8
0
  6
CONTINUOUS
 62
               3
  5
15C
 10
54.999999999999602
 20
397.25000000000011
 30
0.0
 11
54.999999999999602
 21
397.92155612596434
 31
0.0
  0
LINE
  8
0
  6
CONTINUOUS
 62
               3
  5
15D
 10
57.499999999999574
 20
400.4215561259648
 30
0.0
 11
54.999999999999602
 21
397.92155612596434
 31
0.0
  0
LINE
  8
0
  6
CONTINUOUS
 62
               3
  5
15E
 10
-55.000000000000391
 20
397.25000000000011
 30
0.0
 11
-55.000000000000391
 21
397.92155612596434
 31
0.0
  0
LINE
  8
0
  6
CONTINUOUS
 62
               3
  5
15F
 10
-57.500000000000391
 20
400.42155612596434
 30
0.0
 11
-55.000000000000391
 21
397.92155612596434
 31
0.0
  0
LINE
  8
0
  6
CONTINUOUS
 62
               3
  5
160
 10
-55.000000000000391
 20
397.92155612596434
 30
0.0
 11
54.999999999999602
 21
397.92155612596434
 31
0.0
  0
LINE
  8
0
  6
CONTINUOUS
 62
               3
  5
161
 10
-54.828443874036275
 20
392.25000000000011
 30
0.0
 11
55.099999999999611
 21
392.25000000000011
 31
0.0
  0
LINE
  8
0
  6
CONTINUOUS
 62
               3
  5
162
 10
57.599999999999611
 20
397.25000000000011
 30
0.0
 11
-57.600000000000392
 21
397.25000000000011
 31
0.0
  0
LINE
  8
0
  6
CONTINUOUS
 62
               3
  5
163
 10
-57.600000000000392
 20
397.25000000000011
 30
0.0
 11
-57.600000000000392
 21
394.75000000000011
 31
0.0
  0
LINE
  8
0
  6
CONTINUOUS
 62
               3
  5
164
 10
57.599999999999611
 20
397.25000000000011
 30
0.0
 11
57.599999999999611
 21
394.75000000000011
 31
0.0
  0
ARC
  8
0
  6
CONTINUOUS
 62
               3
  5
165
 10
55.099999999999611
 20
394.75000000000011
 30
0.0
 40
2.5
 50
269.99999999984453
 51
359.99999999979207
  0
ARC
  8
0
  6
CONTINUOUS
 62
               3
  5
166
 10
-55.100000000000392
 20
394.75000000000011
 30
0.0
 40
2.5
 50
179.99999999989669
 51
269.9999999998447
  0
LINE
  8
0
  6
CONTINUOUS
 62
               3
  5
167
 10
57.499999999999574
 20
400.4215561259648
 30
0.0
 11
-57.500000000000391
 21
400.42155612596434
 31
0.0
  0
LINE
  8
0
  6
CONTINUOUS
 62
               3
  5
168
 10
60.689597018340777
 20
491.75966421362148
 30
0.0
 11
57.499999999999602
 21
400.4215561259648
 31
0.0
  0
ARC
  8
0
  6
CONTINUOUS
 62
               3
  5
169
 10
65.68655115343627
 20
491.58516673010899
 30
0.0
 40
5.0
 50
145.19324212948848
 51
177.99999999989819
  0
LINE
  8
0
  6
CONTINUOUS
 62
               3
  5
16A
 10
-60.014015064968369
 20
472.41352828344907
 30
0.0
 11
-57.500000000000391
 21
400.42155612596434
 31
0.0
  0
ARC
  8
0
  6
CONTINUOUS
 62
               3
  5
16B
 10
-65.010969200063855
 20
472.23903079993681
 30
0.0
 40
5.0
 50
1.9999999999958242
 51
87.999999999949537
  0
LINE
  8
0
  6
CONTINUOUS
 62
               3
  5
16C
 10
-75.000000000000284
 20
2.25
 30
0.0
 11
74.999999999999716
 21
2.25
 31
0.0
  0
LINE
  8
0
  6
CONTINUOUS
 62
               3
  5
16D
 10
-88.500000000000512
 20
-7.75
 30
0.0
 11
-88.500000000000512
 21
-14.749999999999659
 31
0.0
  0
LINE
  8
0
  6
CONTINUOUS
 62
               3
  5
16E
 10
-88.500000000000512
 20
-7.75
 30
0.0
 11
-75.000000000000284
 21
2.25
 31
0.0
  0
ARC
  8
0
  6
CONTINUOUS
 62
               3
  5
16F
 10
-77.000000000000171
 20
-19.332575694955381
 30
0.0
 40
4.9999999999999991
 50
0.0
 51
66.421821521759824
  0
LINE
  8
0
  6
CONTINUOUS
 62
               3
  5
170
 10
-88.500000000000512
 20
-14.749999999999659
 30
0.0
 11
88.499999999999361
 21
-14.749999999999659
 31
0.0
  0
ARC
  8
0
  6
CONTINUOUS
 62
               3
  5
171
 10
-55.000000000000284
 20
-104.75
 30
0.0
 40
19.999999999999996
 50
148.21166938286291
 51
167.26981986159126
  0
LINE
  8
0
  6
CONTINUOUS
 62
               3
  5
172
 10
-72.000000000000171
 20
-19.332575694955381
 30
0.0
 11
-72.000000000000171
 21
-94.214346247147205
 31
0.0
  0
LINE
  8
0
  6
CONTINUOUS
 62
               3
  5
173
 10
71.999999999999602
 20
-89.214346247146636
 30
0.0
 11
71.999999999999602
 21
-19.332575694955381
 31
0.0
  0
LINE
  8
0
  6
CONTINUOUS
 62
               3
  5
174
 10
-58.000000000000398
 20
-490.75000000000028
 30
0.0
 11
-75.000000000000284
 21
-341.74999999999983
 31
0.0
  0
LINE
  8
0
  6
CONTINUOUS
 62
               3
  5
175
 10
-75.00000000000027
 20
-242.55722333221911
 30
0.0
 11
-75.000000000000284
 21
-341.74999999999983
 31
0.0
  0
LINE
  8
0
  6
CONTINUOUS
 62
               3
  5
176
 10
-72.000000000000171
 20
-94.214346247147205
 30
0.0
 11
71.500000000000057
 21
-94.214346247147205
 31
0.0
  0
LINE
  8
0
  6
CONTINUOUS
 62
               3
  5
177
 10
-20.000000000000288
 20
-14.749999999999659
 30
0.0
 11
-20.000000000000288
 21
2.25
 31
0.0
  0
LINE
  8
0
  6
CONTINUOUS
 62
               3
  5
178
 10
19.999999999999716
 20
2.25
 30
0.0
 11
19.999999999999716
 21
-14.749999999999659
 31
0.0
  0
LINE
  8
0
  6
CONTINUOUS
 62
               3
  5
179
 10
-20.000000000000288
 20
-7.75
 30
0.0
 11
19.999999999999716
 21
-7.75
 31
0.0
  0
LINE
  8
0
  6
CONTINUOUS
 62
               3
  5
17A
 10
-72.284161474005657
 20
2.25
 30
0.0
 11
-72.284161474005657
 21
-14.749999999999659
 31
0.0
  0
LINE
  8
0
  6
CONTINUOUS
 62
               3
  5
17B
 10
-86.210498200625523
 20
-7.75
 30
0.0
 11
-86.210498200625523
 21
-14.749999999999659
 31
0.0
  0
LINE
  8
0
  6
CONTINUOUS
 62
               3
  5
17C
 10
-88.500000000000512
 20
-7.75
 30
0.0
 11
-86.210498200625523
 21
-7.75
 31
0.0
  0
LINE
  8
0
  6
CONTINUOUS
 62
               3
  5
17D
 10
-86.210498200625523
 20
-7.75
 30
0.0
 11
-72.284161474005657
 21
2.25
 31
0.0
  0
LINE
  8
0
  6
CONTINUOUS
 62
               3
  5
17E
 10
88.499999999999361
 20
-7.75
 30
0.0
 11
88.499999999999361
 21
-14.749999999999659
 31
0.0
  0
LINE
  8
0
  6
CONTINUOUS
 62
               3
  5
17F
 10
88.499999999999361
 20
-7.75
 30
0.0
 11
74.999999999999716
 21
2.25
 31
0.0
  0
ARC
  8
0
  6
CONTINUOUS
 62
               3
  5
180
 10
76.999999999999602
 20
-19.332575694955381
 30
0.0
 40
4.9999999999999991
 50
113.57817847813641
 51
179.9999999998962
  0
LINE
  8
0
  6
CONTINUOUS
 62
               3
  5
181
 10
72.284161474003952
 20
2.25
 30
0.0
 11
72.284161474003952
 21
-14.749999999999659
 31
0.0
  0
LINE
  8
0
  6
CONTINUOUS
 62
               3
  5
182
 10
86.21049820062494
 20
-7.75
 30
0.0
 11
86.21049820062494
 21
-14.749999999999659
 31
0.0
  0
LINE
  8
0
  6
CONTINUOUS
 62
               3
  5
183
 10
88.499999999999361
 20
-7.75
 30
0.0
 11
86.21049820062494
 21
-7.75
 31
0.0
  0
LINE
  8
0
  6
CONTINUOUS
 62
               3
  5
184
 10
86.21049820062494
 20
-7.75
 30
0.0
 11
72.284161474003952
 21
2.25
 31
0.0
  0
ARC
  8
0
  6
CONTINUOUS
 62
               3
  5
185
 10
-65.000000000000284
 20
-226.25
 30
0.0
 40
2.4999999999999996
 50
89.999999999948017
 51
269.9999999998447
  0
ARC
  8
0
  6
CONTINUOUS
 62
               3
  5
186
 10
74.999999999999716
 20
-226.25
 30
0.0
 40
2.4999999999999996
 50
269.99999999984499
 51
449.99999999974102
  0
LINE
  8
0
  6
CONTINUOUS
 62
               3
  5
187
 10
-75.000000000000284
 20
-341.74999999999983
 30
0.0
 11
-46.368107792057174
 21
-341.74999999999983
 31
0.0
  0
LINE
  8
0
  6
CONTINUOUS
 62
               3
  5
188
 10
-1.9728332801511783
 20
-341.74999999999983
 30
0.0
 11
74.49676513364949
 21
-341.74999999999983
 31
0.0
  0
LINE
  8
0
  6
CONTINUOUS
 62
               3
  5
189
 10
-140.00000000000028
 20
-218.75
 30
0.0
 11
-139.32844387403588
 21
-218.75
 31
0.0
  0
LINE
  8
0
  6
CONTINUOUS
 62
               3
  5
18A
 10
-136.82844387403583
 20
-221.24999999999926
 30
0.0
 11
-139.32844387403588
 21
-218.75
 31
0.0
  0
LINE
  8
0
  6
CONTINUOUS
 62
               3
  5
18B
 10
-136.82844387403509
 20
-221.25
 30
0.0
 11
-94.663333617757672
 21
-222.72243809585405
 31
0.0
  0
LINE
  8
0
  6
CONTINUOUS
 62
               3
  5
18C
 10
-76.464466094067788
 20
-239.021689426286
 30
0.0
 11
-91.30229719533753
 21
-224.18385832501673
 31
0.0
  0
ARC
  8
0
  6
CONTINUOUS
 62
               3
  5
18D
 10
-80.00000000000027
 20
-242.55722333221911
 30
0.0
 40
4.9999999999999991
 50
0.0
 51
44.999999999973191
  0
LINE
  8
0
  6
CONTINUOUS
 62
               3
  5
18E
 10
-140.00000000000028
 20
-108.75000000000011
 30
0.0
 11
-139.32844387403588
 21
-108.75000000000011
 31
0.0
  0
LINE
  8
0
  6
CONTINUOUS
 62
               3
  5
18F
 10
-136.82844387403583
 20
-106.24999999999991
 30
0.0
 11
-139.32844387403588
 21
-108.75000000000011
 31
0.0
  0
LINE
  8
0
  6
CONTINUOUS
 62
               3
  5
190
 10
-136.82844387403588
 20
-106.24999999999994
 30
0.0
 11
-79.210967671861596
 21
-104.23795339484769
 31
0.0
  0
LINE
  8
0
  6
CONTINUOUS
 62
               3
  5
191
 10
-139.32844387403588
 20
-108.75000000000011
 30
0.0
 11
-139.32844387403588
 21
-218.75
 31
0.0
  0
LINE
  8
0
  6
CONTINUOUS
 62
               3
  5
192
 10
-140.00000000000028
 20
-221.34999999999999
 30
0.0
 11
-140.00000000000028
 21
-106.15000000000001
 31
0.0
  0
LINE
  8
0
  6
CONTINUOUS
 62
               3
  5
193
 10
-140.00000000000028
 20
-106.15000000000001
 30
0.0
 11
-142.50000000000028
 21
-106.15000000000001
 31
0.0
  0
ARC
  8
0
  6
CONTINUOUS
 62
               3
  5
194
 10
-142.50000000000028
 20
-108.65000000000001
 30
0.0
 40
2.5
 50
89.999999999948344
 51
179.9999999998962
  0
LINE
  8
0
  6
CONTINUOUS
 62
               3
  5
195
 10
-145.00000000000028
 20
-108.65000000000001
 30
0.0
 11
-145.00000000000028
 21
-218.84999999999999
 31
0.0
  0
LINE
  8
0
  6
CONTINUOUS
 62
               3
  5
196
 10
-140.00000000000028
 20
-221.34999999999999
 30
0.0
 11
-142.50000000000028
 21
-221.34999999999999
 31
0.0
  0
ARC
  8
0
  6
CONTINUOUS
 62
               3
  5
197
 10
-142.50000000000028
 20
-218.84999999999999
 30
0.0
 40
2.5
 50
179.99999999989603
 51
269.99999999984499
  0
LINE
  8
0
  6
CONTINUOUS
 62
               3
  5
198
 10
-136.82844387403583
 20
-106.24999999999991
 30
0.0
 11
-136.82844387403509
 21
-221.25
 31
0.0
  0
ARC
  8
0
  6
CONTINUOUS
 62
               3
  5
199
 10
-94.837831101270211
 20
-227.7193922309495
 30
0.0
 40
5.0
 50
44.999999999974911
 51
87.999999999948912
  0
ARC
  8
0
  6
CONTINUOUS
 62
               3
  5
19A
 10
-79.385465155374092
 20
-99.240999259752243
 30
0.0
 40
5.0
 50
271.99999999984334
 51
347.26981986148638
  0
LINE
  8
0
  6
CONTINUOUS
 62
               3
  5
19B
 10
26.787357092479169
 20
-135.75000000000011
 30
0.0
 11
-26.787357092479738
 21
-135.75000000000011
 31
0.0
  0
CIRCLE
  8
0
  6
CONTINUOUS
 62
               3
  5
19C
 10
-0.0000000000002842
 20
-163.75
 30
0.0
 40
48.5
  0
CIRCLE
  8
0
  6
CONTINUOUS
 62
               3
  5
19D
 10
-0.0000000000002842
 20
-163.75
 30
0.0
 40
38.75
  0
CIRCLE
  8
0
  6
CONTINUOUS
 62
               3
  5
19E
 10
-0.0000000000002842
 20
-163.75
 30
0.0
 40
47.299999999999997
  0
LINE
  8
0
  6
CONTINUOUS
 62
               3
  5
19F
 10
-31.819805153394896
 20
-195.56980515339455
 30
0.0
 11
-33.446150750123991
 21
-197.19615075012371
 31
0.0
  0
LINE
  8
0
  6
CONTINUOUS
 62
               3
  5
1A0
 10
31.819805153394384
 20
-195.56980515339455
 30
0.0
 11
33.446150750123479
 21
-197.19615075012359
 31
0.0
  0
ARC
  8
0
  6
CONTINUOUS
 62
               3
  5
1A1
 10
-0.0000000000002842
 20
-163.75
 30
0.0
 40
45.0
 50
224.99999999987045
 51
314.99999999981878
  0
CIRCLE
  8
0
  6
CONTINUOUS
 62
               3
  5
1A2
 10
-0.0000000000002842
 20
-163.75
 30
0.0
 40
43.0
  0
CIRCLE
  8
0
  6
CONTINUOUS
 62
               3
  5
1A3
 10
-0.0000000000002842
 20
-163.75
 30
0.0
 40
57.600000000000001
  0
ARC
  8
0
  6
CONTINUOUS
 62
               3
  5
1A4
 10
-22.499999999999716
 20
-226.25
 30
0.0
 40
2.4999999999999996
 50
269.9999999998447
 51
449.99999999974096
  0
ARC
  8
0
  6
CONTINUOUS
 62
               3
  5
1A5
 10
22.500000000000284
 20
-226.25
 30
0.0
 40
2.4999999999999996
 50
89.999999999948258
 51
269.99999999984453
  0
LINE
  8
0
  6
CONTINUOUS
 62
               3
  5
1A6
 10
-65.000000000000284
 20
-228.75
 30
0.0
 11
-22.499999999999716
 21
-228.75
 31
0.0
  0
LINE
  8
0
  6
CONTINUOUS
 62
               3
  5
1A7
 10
-65.000000000000284
 20
-223.75
 30
0.0
 11
-22.499999999999716
 21
-223.75
 31
0.0
  0
LINE
  8
0
  6
CONTINUOUS
 62
               3
  5
1A8
 10
22.500000000000284
 20
-223.75
 30
0.0
 11
74.999999999999716
 21
-223.75
 31
0.0
  0
LINE
  8
0
  6
CONTINUOUS
 62
               3
  5
1A9
 10
22.500000000000284
 20
-228.75
 30
0.0
 11
74.999999999999716
 21
-228.75
 31
0.0
  0
LINE
  8
0
  6
CONTINUOUS
 62
               3
  5
1AA
 10
-58.000000000000398
 20
-490.74999999999972
 30
0.0
 11
57.999999999999829
 21
-490.75000000000028
 31
0.0
  0
LINE
  8
0
  6
CONTINUOUS
 62
               3
  5
1AB
 10
-57.000000000000284
 20
-602.75
 30
0.0
 11
56.999999999999801
 21
-602.75
 31
0.0
  0
LINE
  8
0
  6
CONTINUOUS
 62
               3
  5
1AC
 10
-57.000000000000284
 20
-602.75
 30
0.0
 11
-57.000000000000284
 21
-502.75
 31
0.0
  0
LINE
  8
0
  6
CONTINUOUS
 62
               3
  5
1AD
 10
-57.000000000000284
 20
-502.75
 30
0.0
 11
-57.999999999999829
 21
-501.75000000000045
 31
0.0
  0
LINE
  8
0
  6
CONTINUOUS
 62
               3
  5
1AE
 10
56.999999999999801
 20
-602.75
 30
0.0
 11
56.999999999999773
 21
-502.75
 31
0.0
  0
LINE
  8
0
  6
CONTINUOUS
 62
               3
  5
1AF
 10
56.999999999999773
 20
-502.75
 30
0.0
 11
57.999999999999318
 21
-501.75000000000045
 31
0.0
  0
LINE
  8
0
  6
CONTINUOUS
 62
               3
  5
1B0
 10
57.999999999999829
 20
-501.7499999999992
 30
0.0
 11
57.999999999999829
 21
-490.75000000000028
 31
0.0
  0
LINE
  8
0
  6
CONTINUOUS
 62
               3
  5
1B1
 10
-58.000000000000398
 20
-490.75000000000028
 30
0.0
 11
-58.000000000000398
 21
-501.75
 31
0.0
  0
LINE
  8
0
  6
CONTINUOUS
 62
               3
  5
1B2
 10
-674.99999999999977
 20
2.25
 30
0.0
 11
-525.00000000000023
 21
2.25
 31
0.0
  0
LINE
  8
0
  6
CONTINUOUS
 62
               3
  5
1B3
 10
-688.5
 20
-7.75
 30
0.0
 11
-688.5
 21
-14.749999999999659
 31
0.0
  0
LINE
  8
0
  6
CONTINUOUS
 62
               3
  5
1B4
 10
-688.5
 20
-7.75
 30
0.0
 11
-674.99999999999977
 21
2.25
 31
0.0
  0
ARC
  8
0
  6
CONTINUOUS
 62
               3
  5
1B5
 10
-676.99999999999955
 20
-19.332575694955381
 30
0.0
 40
4.9999999999999991
 50
0.0
 51
66.421821521759668
  0
LINE
  8
0
  6
CONTINUOUS
 62
               3
  5
1B6
 10
-688.5
 20
-14.749999999999659
 30
0.0
 11
-511.50000000000006
 21
-14.749999999999659
 31
0.0
  0
ARC
  8
0
  6
CONTINUOUS
 62
               3
  5
1B7
 10
-654.99999999999977
 20
-104.75
 30
0.0
 40
19.999999999999996
 50
148.21166938286288
 51
179.99999999989649
  0
LINE
  8
0
  6
CONTINUOUS
 62
               3
  5
1B8
 10
-671.99999999999955
 20
-19.332575694955381
 30
0.0
 11
-671.99999999999955
 21
-94.214346247147205
 31
0.0
  0
LINE
  8
0
  6
CONTINUOUS
 62
               3
  5
1B9
 10
-527.99999999999977
 20
-94.214346247147205
 30
0.0
 11
-527.99999999999977
 21
-19.332575694955381
 31
0.0
  0
LINE
  8
0
  6
CONTINUOUS
 62
               3
  5
1BA
 10
-657.99999999999977
 20
-490.75000000000028
 30
0.0
 11
-674.99999999999977
 21
-341.74999999999983
 31
0.0
  0
LINE
  8
0
  6
CONTINUOUS
 62
               3
  5
1BB
 10
-674.99999999999977
 20
-228.75
 30
0.0
 11
-674.99999999999977
 21
-341.74999999999983
 31
0.0
  0
LINE
  8
0
  6
CONTINUOUS
 62
               3
  5
1BC
 10
-671.99999999999955
 20
-94.214346247147205
 30
0.0
 11
-527.99999999999977
 21
-94.214346247147205
 31
0.0
  0
LINE
  8
0
  6
CONTINUOUS
 62
               3
  5
1BD
 10
-619.99999999999977
 20
-14.749999999999659
 30
0.0
 11
-619.99999999999977
 21
2.25
 31
0.0
  0
LINE
  8
0
  6
CONTINUOUS
 62
               3
  5
1BE
 10
-580.00000000000023
 20
2.25
 30
0.0
 11
-580.00000000000023
 21
-14.749999999999659
 31
0.0
  0
LINE
  8
0
  6
CONTINUOUS
 62
               3
  5
1BF
 10
-619.99999999999977
 20
-7.75
 30
0.0
 11
-580.00000000000023
 21
-7.75
 31
0.0
  0
LINE
  8
0
  6
CONTINUOUS
 62
               3
  5
1C0
 10
-672.28416147400389
 20
2.25
 30
0.0
 11
-672.28416147400389
 21
-14.749999999999659
 31
0.0
  0
LINE
  8
0
  6
CONTINUOUS
 62
               3
  5
1C1
 10
-686.2104982006249
 20
-7.75
 30
0.0
 11
-686.2104982006249
 21
-14.749999999999659
 31
0.0
  0
LINE
  8
0
  6
CONTINUOUS
 62
               3
  5
1C2
 10
-688.5
 20
-7.75
 30
0.0
 11
-686.2104982006249
 21
-7.75
 31
0.0
  0
LINE
  8
0
  6
CONTINUOUS
 62
               3
  5
1C3
 10
-686.2104982006249
 20
-7.75
 30
0.0
 11
-672.28416147400389
 21
2.25
 31
0.0
  0
LINE
  8
0
  6
CONTINUOUS
 62
               3
  5
1C4
 10
-511.50000000000006
 20
-7.75
 30
0.0
 11
-511.50000000000006
 21
-14.749999999999659
 31
0.0
  0
LINE
  8
0
  6
CONTINUOUS
 62
               3
  5
1C5
 10
-511.50000000000006
 20
-7.75
 30
0.0
 11
-525.00000000000023
 21
2.25
 31
0.0
  0
ARC
  8
0
  6
CONTINUOUS
 62
               3
  5
1C6
 10
-522.99999999999977
 20
-19.332575694955381
 30
0.0
 40
4.9999999999999991
 50
113.57817847813625
 51
179.9999999998962
  0
LINE
  8
0
  6
CONTINUOUS
 62
               3
  5
1C7
 10
-527.71583852599497
 20
2.25
 30
0.0
 11
-527.71583852599497
 21
-14.749999999999659
 31
0.0
  0
LINE
  8
0
  6
CONTINUOUS
 62
               3
  5
1C8
 10
-513.78950179937442
 20
-7.75
 30
0.0
 11
-513.78950179937442
 21
-14.749999999999659
 31
0.0
  0
LINE
  8
0
  6
CONTINUOUS
 62
               3
  5
1C9
 10
-511.50000000000006
 20
-7.75
 30
0.0
 11
-513.78950179937442
 21
-7.75
 31
0.0
  0
LINE
  8
0
  6
CONTINUOUS
 62
               3
  5
1CA
 10
-513.78950179937442
 20
-7.75
 30
0.0
 11
-527.71583852599497
 21
2.25
 31
0.0
  0
ARC
  8
0
  6
CONTINUOUS
 62
               3
  5
1CB
 10
-674.99999999999977
 20
-226.25
 30
0.0
 40
2.4999999999999996
 50
89.99999999994769
 51
269.99999999984567
  0
LINE
  8
0
  6
CONTINUOUS
 62
               3
  5
1CC
 10
-674.99999999999977
 20
-104.75
 30
0.0
 11
-674.99999999999977
 21
-223.75
 31
0.0
  0
LINE
  8
0
  6
CONTINUOUS
 62
               3
  5
1CD
 10
-674.99999999999977
 20
-341.74999999999983
 30
0.0
 11
-541.0509999999997
 21
-341.74999999999955
 31
0.0
  0
LINE
  8
0
  6
CONTINUOUS
 62
               3
  5
1CE
 10
-528.24363345646043
 20
-341.74999999999955
 30
0.0
 11
-525.00000000000023
 21
-341.74999999999955
 31
0.0
  0
ARC
  8
0
  6
CONTINUOUS
 62
               3
  5
1CF
 10
-622.49999999999977
 20
-226.25
 30
0.0
 40
2.4999999999999996
 50
269.99999999984567
 51
449.99999999974102
  0
ARC
  8
0
  6
CONTINUOUS
 62
               3
  5
1D0
 10
-577.49999999999977
 20
-226.25
 30
0.0
 40
2.4999999999999996
 50
89.99999999994769
 51
269.99999999984567
  0
LINE
  8
0
  6
CONTINUOUS
 62
               3
  5
1D1
 10
-674.99999999999977
 20
-228.75
 30
0.0
 11
-622.49999999999977
 21
-228.75
 31
0.0
  0
LINE
  8
0
  6
CONTINUOUS
 62
               3
  5
1D2
 10
-674.99999999999977
 20
-223.75
 30
0.0
 11
-622.49999999999977
 21
-223.75
 31
0.0
  0
LINE
  8
0
  6
CONTINUOUS
 62
               3
  5
1D3
 10
-573.21264290752083
 20
-135.75000000000011
 30
0.0
 11
-626.78735709247962
 21
-135.75000000000011
 31
0.0
  0
CIRCLE
  8
0
  6
CONTINUOUS
 62
               3
  5
1D4
 10
-600.00000000000023
 20
-163.75
 30
0.0
 40
48.5
  0
CIRCLE
  8
0
  6
CONTINUOUS
 62
               3
  5
1D5
 10
-600.00000000000023
 20
-163.75
 30
0.0
 40
38.75
  0
CIRCLE
  8
0
  6
CONTINUOUS
 62
               3
  5
1D6
 10
-600.00000000000023
 20
-163.75
 30
0.0
 40
47.299999999999997
  0
LINE
  8
0
  6
CONTINUOUS
 62
               3
  5
1D7
 10
-631.81980515339478
 20
-195.56980515339455
 30
0.0
 11
-633.44615075012393
 21
-197.19615075012371
 31
0.0
  0
LINE
  8
0
  6
CONTINUOUS
 62
               3
  5
1D8
 10
-568.18019484660567
 20
-195.56980515339455
 30
0.0
 11
-566.55384924987652
 21
-197.19615075012359
 31
0.0
  0
ARC
  8
0
  6
CONTINUOUS
 62
               3
  5
1D9
 10
-600.00000000000023
 20
-163.75
 30
0.0
 40
45.0
 50
224.99999999987045
 51
314.99999999981878
  0
CIRCLE
  8
0
  6
CONTINUOUS
 62
               3
  5
1DA
 10
-600.00000000000023
 20
-163.75
 30
0.0
 40
43.0
  0
CIRCLE
  8
0
  6
CONTINUOUS
 62
               3
  5
1DB
 10
-600.00000000000023
 20
-163.75
 30
0.0
 40
57.600000000000001
  0
LINE
  8
0
  6
CONTINUOUS
 62
               3
  5
1DC
 10
-541.99999999999955
 20
-490.75000000000028
 30
0.0
 11
-529.45190901929914
 21
-380.76967316915028
 31
0.0
  0
LINE
  8
0
  6
CONTINUOUS
 62
               3
  5
1DD
 10
-527.39985704623859
 20
-362.78404116997245
 30
0.0
 11
-525.00000000000023
 21
-341.74999999999955
 31
0.0
  0
LINE
  8
0
  6
CONTINUOUS
 62
               3
  5
1DE
 10
-460.00000000000023
 20
-218.75
 30
0.0
 11
-460.67155612596463
 21
-218.75
 31
0.0
  0
LINE
  8
0
  6
CONTINUOUS
 62
               3
  5
1DF
 10
-463.17155612596468
 20
-221.24999999999926
 30
0.0
 11
-460.67155612596463
 21
-218.75
 31
0.0
  0
LINE
  8
0
  6
CONTINUOUS
 62
               3
  5
1E0
 10
-460.00000000000023
 20
-221.34999999999997
 30
0.0
 11
-457.50000000000023
 21
-221.34999999999997
 31
0.0
  0
ARC
  8
0
  6
CONTINUOUS
 62
               3
  5
1E1
 10
-457.50000000000023
 20
-218.84999999999997
 30
0.0
 40
2.5
 50
269.99999999984436
 51
359.99999999979269
  0
ARC
  8
0
  6
CONTINUOUS
 62
               3
  5
1E2
 10
-535.00000000000023
 20
-226.25
 30
0.0
 40
2.4999999999999996
 50
269.99999999984567
 51
449.99999999974102
  0
LINE
  8
0
  6
CONTINUOUS
 62
               3
  5
1E3
 10
-463.17155612596542
 20
-221.25
 30
0.0
 11
-505.33666638224287
 21
-222.72243809585405
 31
0.0
  0
LINE
  8
0
  6
CONTINUOUS
 62
               3
  5
1E4
 10
-523.53553390593265
 20
-239.021689426286
 30
0.0
 11
-508.69770280466298
 21
-224.18385832501673
 31
0.0
  0
ARC
  8
0
  6
CONTINUOUS
 62
               3
  5
1E5
 10
-520.00000000000023
 20
-242.55722333221911
 30
0.0
 40
4.9999999999999991
 50
134.99999999992301
 51
179.99999999989637
  0
ARC
  8
0
  6
CONTINUOUS
 62
               3
  5
1E6
 10
-505.16216889873033
 20
-227.7193922309495
 30
0.0
 40
5.0
 50
91.999999999947391
 51
134.99999999992187
  0
LINE
  8
0
  6
CONTINUOUS
 62
               3
  5
1E7
 10
-460.00000000000023
 20
-108.75000000000009
 30
0.0
 11
-460.67155612596463
 21
-108.75000000000009
 31
0.0
  0
LINE
  8
0
  6
CONTINUOUS
 62
               3
  5
1E8
 10
-463.17155612596468
 20
-106.24999999999989
 30
0.0
 11
-460.67155612596463
 21
-108.75000000000009
 31
0.0
  0
LINE
  8
0
  6
CONTINUOUS
 62
               3
  5
1E9
 10
-460.67155612596463
 20
-108.75000000000009
 30
0.0
 11
-460.67155612596463
 21
-218.75
 31
0.0
  0
LINE
  8
0
  6
CONTINUOUS
 62
               3
  5
1EA
 10
-460.00000000000023
 20
-221.34999999999997
 30
0.0
 11
-460.00000000000023
 21
-106.14999999999998
 31
0.0
  0
LINE
  8
0
  6
CONTINUOUS
 62
               3
  5
1EB
 10
-460.00000000000023
 20
-106.14999999999998
 30
0.0
 11
-457.50000000000023
 21
-106.14999999999998
 31
0.0
  0
ARC
  8
0
  6
CONTINUOUS
 62
               3
  5
1EC
 10
-457.50000000000023
 20
-108.64999999999998
 30
0.0
 40
2.5
 50
0.0
 51
89.999999999948997
  0
LINE
  8
0
  6
CONTINUOUS
 62
               3
  5
1ED
 10
-455.00000000000023
 20
-108.64999999999998
 30
0.0
 11
-455.00000000000023
 21
-218.84999999999997
 31
0.0
  0
LINE
  8
0
  6
CONTINUOUS
 62
               3
  5
1EE
 10
-463.17155612596468
 20
-106.24999999999989
 30
0.0
 11
-463.17155612596542
 21
-221.25
 31
0.0
  0
LINE
  8
0
  6
CONTINUOUS
 62
               3
  5
1EF
 10
-463.17155612596463
 20
-106.24999999999991
 30
0.0
 11
-520.789032328139
 21
-104.23795339484769
 31
0.0
  0
ARC
  8
0
  6
CONTINUOUS
 62
               3
  5
1F0
 10
-520.61453484462641
 20
-99.240999259752243
 30
0.0
 40
5.0
 50
192.73018013820302
 51
267.99999999984584
  0
ARC
  8
0
  6
CONTINUOUS
 62
               3
  5
1F1
 10
-545.00000000000023
 20
-104.75
 30
0.0
 40
19.999999999999996
 50
12.730180138305274
 51
31.78833061703353
  0
LINE
  8
0
  6
CONTINUOUS
 62
               3
  5
1F2
 10
-577.49999999999977
 20
-223.75
 30
0.0
 11
-535.00000000000023
 21
-223.75
 31
0.0
  0
LINE
  8
0
  6
CONTINUOUS
 62
               3
  5
1F3
 10
-577.49999999999977
 20
-228.75
 30
0.0
 11
-535.00000000000023
 21
-228.75
 31
0.0
  0
LINE
  8
0
  6
CONTINUOUS
 62
               3
  5
1F4
 10
-525.00000000000023
 20
-341.74999999999983
 30
0.0
 11
-525.00000000000068
 21
-242.55722333221914
 31
0.0
  0
LINE
  8
0
  6
CONTINUOUS
 62
               3
  5
1F5
 10
-657.99999999999977
 20
-490.74999999999972
 30
0.0
 11
-541.99999999999955
 21
-490.75000000000028
 31
0.0
  0
LINE
  8
0
  6
CONTINUOUS
 62
               3
  5
1F6
 10
-657.00000000000023
 20
-602.75
 30
0.0
 11
-543.00000000000023
 21
-602.75
 31
0.0
  0
LINE
  8
0
  6
CONTINUOUS
 62
               3
  5
1F7
 10
-657.00000000000023
 20
-602.75
 30
0.0
 11
-657.00000000000023
 21
-502.75
 31
0.0
  0
LINE
  8
0
  6
CONTINUOUS
 62
               3
  5
1F8
 10
-657.00000000000023
 20
-502.75
 30
0.0
 11
-657.99999999999977
 21
-501.75000000000045
 31
0.0
  0
LINE
  8
0
  6
CONTINUOUS
 62
               3
  5
1F9
 10
-543.00000000000023
 20
-602.75
 30
0.0
 11
-543.00000000000023
 21
-502.75
 31
0.0
  0
LINE
  8
0
  6
CONTINUOUS
 62
               3
  5
1FA
 10
-543.00000000000023
 20
-502.75
 30
0.0
 11
-542.00000000000068
 21
-501.75000000000045
 31
0.0
  0
LINE
  8
0
  6
CONTINUOUS
 62
               3
  5
1FB
 10
-542.00000000000023
 20
-501.7499999999992
 30
0.0
 11
-542.00000000000023
 21
-490.75000000000028
 31
0.0
  0
LINE
  8
0
  6
CONTINUOUS
 62
               3
  5
1FC
 10
-658.00000000000045
 20
-490.75000000000028
 30
0.0
 11
-658.00000000000045
 21
-501.75
 31
0.0
  0
LINE
  8
0
  6
CONTINUOUS
 62
               3
  5
1FD
 10
674.99999999999977
 20
2.25
 30
0.0
 11
524.99999999999977
 21
2.25
 31
0.0
  0
LINE
  8
0
  6
CONTINUOUS
 62
               3
  5
1FE
 10
688.5
 20
-7.75
 30
0.0
 11
688.5
 21
-14.749999999999659
 31
0.0
  0
LINE
  8
0
  6
CONTINUOUS
 62
               3
  5
1FF
 10
688.5
 20
-7.75
 30
0.0
 11
674.99999999999977
 21
2.25
 31
0.0
  0
ARC
  8
0
  6
CONTINUOUS
 62
               3
  5
200
 10
676.99999999999955
 20
-19.332575694955381
 30
0.0
 40
4.9999999999999991
 50
113.57817847813625
 51
179.9999999998962
  0
LINE
  8
0
  6
CONTINUOUS
 62
               3
  5
201
 10
688.5
 20
-14.749999999999659
 30
0.0
 11
511.49999999999949
 21
-14.749999999999659
 31
0.0
  0
ARC
  8
0
  6
CONTINUOUS
 62
               3
  5
202
 10
654.99999999999977
 20
-104.75000000000003
 30
0.0
 40
19.999999999999996
 50
0.0
 51
31.78833061703353
  0
LINE
  8
0
  6
CONTINUOUS
 62
               3
  5
203
 10
671.99999999999955
 20
-19.332575694955381
 30
0.0
 11
671.99999999999955
 21
-94.214346247147233
 31
0.0
  0
LINE
  8
0
  6
CONTINUOUS
 62
               3
  5
204
 10
527.99999999999977
 20
-94.214346247147233
 30
0.0
 11
527.99999999999977
 21
-19.332575694955381
 31
0.0
  0
LINE
  8
0
  6
CONTINUOUS
 62
               3
  5
205
 10
657.99999999999977
 20
-490.75000000000023
 30
0.0
 11
674.99999999999977
 21
-341.74999999999989
 31
0.0
  0
LINE
  8
0
  6
CONTINUOUS
 62
               3
  5
206
 10
541.99999999999955
 20
-490.75000000000023
 30
0.0
 11
524.99999999999977
 21
-341.74999999999989
 31
0.0
  0
LINE
  8
0
  6
CONTINUOUS
 62
               3
  5
207
 10
674.99999999999977
 20
-228.75
 30
0.0
 11
674.99999999999977
 21
-341.74999999999989
 31
0.0
  0
LINE
  8
0
  6
CONTINUOUS
 62
               3
  5
208
 10
619.99999999999977
 20
-14.749999999999659
 30
0.0
 11
619.99999999999977
 21
2.25
 31
0.0
  0
LINE
  8
0
  6
CONTINUOUS
 62
               3
  5
209
 10
579.99999999999977
 20
2.25
 30
0.0
 11
579.99999999999977
 21
-14.749999999999659
 31
0.0
  0
LINE
  8
0
  6
CONTINUOUS
 62
               3
  5
20A
 10
619.99999999999977
 20
-7.75
 30
0.0
 11
579.99999999999977
 21
-7.75
 31
0.0
  0
LINE
  8
0
  6
CONTINUOUS
 62
               3
  5
20B
 10
672.28416147400458
 20
2.25
 30
0.0
 11
672.28416147400458
 21
-14.749999999999659
 31
0.0
  0
LINE
  8
0
  6
CONTINUOUS
 62
               3
  5
20C
 10
686.2104982006249
 20
-7.75
 30
0.0
 11
686.2104982006249
 21
-14.749999999999659
 31
0.0
  0
LINE
  8
0
  6
CONTINUOUS
 62
               3
  5
20D
 10
688.5
 20
-7.75
 30
0.0
 11
686.2104982006249
 21
-7.75
 31
0.0
  0
LINE
  8
0
  6
CONTINUOUS
 62
               3
  5
20E
 10
686.2104982006249
 20
-7.75
 30
0.0
 11
672.28416147400458
 21
2.25
 31
0.0
  0
LINE
  8
0
  6
CONTINUOUS
 62
               3
  5
20F
 10
511.49999999999949
 20
-7.75
 30
0.0
 11
511.49999999999949
 21
-14.749999999999659
 31
0.0
  0
LINE
  8
0
  6
CONTINUOUS
 62
               3
  5
210
 10
511.49999999999949
 20
-7.75
 30
0.0
 11
524.99999999999977
 21
2.25
 31
0.0
  0
ARC
  8
0
  6
CONTINUOUS
 62
               3
  5
211
 10
522.99999999999977
 20
-19.332575694955381
 30
0.0
 40
4.9999999999999991
 50
0.0
 51
66.421821521759668
  0
LINE
  8
0
  6
CONTINUOUS
 62
               3
  5
212
 10
527.71583852599497
 20
2.25
 30
0.0
 11
527.71583852599497
 21
-14.749999999999659
 31
0.0
  0
LINE
  8
0
  6
CONTINUOUS
 62
               3
  5
213
 10
513.78950179937442
 20
-7.75
 30
0.0
 11
513.78950179937442
 21
-14.749999999999659
 31
0.0
  0
LINE
  8
0
  6
CONTINUOUS
 62
               3
  5
214
 10
511.49999999999949
 20
-7.75
 30
0.0
 11
513.78950179937442
 21
-7.75
 31
0.0
  0
LINE
  8
0
  6
CONTINUOUS
 62
               3
  5
215
 10
513.78950179937442
 20
-7.75
 30
0.0
 11
527.71583852599497
 21
2.25
 31
0.0
  0
LINE
  8
0
  6
CONTINUOUS
 62
               3
  5
216
 10
671.99999999999955
 20
-94.214346247147233
 30
0.0
 11
611.72699999999986
 21
-94.214346247147233
 31
0.0
  0
LINE
  8
0
  6
CONTINUOUS
 62
               3
  5
217
 10
588.27299999999946
 20
-94.214346247147233
 30
0.0
 11
527.99999999999977
 21
-94.214346247147233
 31
0.0
  0
ARC
  8
0
  6
CONTINUOUS
 62
               3
  5
218
 10
674.99999999999977
 20
-226.25
 30
0.0
 40
2.4999999999999996
 50
269.99999999984567
 51
449.99999999974102
  0
LINE
  8
0
  6
CONTINUOUS
 62
               3
  5
219
 10
608.21699999999942
 20
-223.75
 30
0.0
 11
674.99999999999977
 21
-223.75
 31
0.0
  0
LINE
  8
0
  6
CONTINUOUS
 62
               3
  5
21A
 10
608.21699999999942
 20
-228.75
 30
0.0
 11
674.99999999999977
 21
-228.75
 31
0.0
  0
LINE
  8
0
  6
CONTINUOUS
 62
               3
  5
21B
 10
674.99999999999977
 20
-341.74999999999989
 30
0.0
 11
608.21699999999942
 21
-341.74999999999989
 31
0.0
  0
LINE
  8
0
  6
CONTINUOUS
 62
               3
  5
21C
 10
591.78299999999945
 20
-341.74999999999989
 30
0.0
 11
524.99999999999977
 21
-341.74999999999989
 31
0.0
  0
LINE
  8
0
  6
CONTINUOUS
 62
               3
  5
21D
 10
674.99999999999977
 20
-104.75000000000003
 30
0.0
 11
674.99999999999977
 21
-223.75
 31
0.0
  0
LINE
  8
0
  6
CONTINUOUS
 62
               3
  5
21E
 10
459.99999999999972
 20
-218.75
 30
0.0
 11
460.67155612596412
 21
-218.75
 31
0.0
  0
LINE
  8
0
  6
CONTINUOUS
 62
               3
  5
21F
 10
463.17155612596417
 20
-221.24999999999926
 30
0.0
 11
460.67155612596412
 21
-218.75
 31
0.0
  0
LINE
  8
0
  6
CONTINUOUS
 62
               3
  5
220
 10
459.99999999999972
 20
-108.75000000000011
 30
0.0
 11
460.67155612596412
 21
-108.75000000000011
 31
0.0
  0
LINE
  8
0
  6
CONTINUOUS
 62
               3
  5
221
 10
463.17155612596417
 20
-106.24999999999991
 30
0.0
 11
460.67155612596412
 21
-108.75000000000011
 31
0.0
  0
LINE
  8
0
  6
CONTINUOUS
 62
               3
  5
222
 10
460.67155612596412
 20
-108.75000000000011
 30
0.0
 11
460.67155612596412
 21
-218.75
 31
0.0
  0
LINE
  8
0
  6
CONTINUOUS
 62
               3
  5
223
 10
459.99999999999972
 20
-221.34999999999999
 30
0.0
 11
459.99999999999972
 21
-106.15000000000001
 31
0.0
  0
LINE
  8
0
  6
CONTINUOUS
 62
               3
  5
224
 10
459.99999999999972
 20
-106.15000000000001
 30
0.0
 11
457.49999999999972
 21
-106.15000000000001
 31
0.0
  0
ARC
  8
0
  6
CONTINUOUS
 62
               3
  5
225
 10
457.49999999999972
 20
-108.65000000000001
 30
0.0
 40
2.5
 50
89.999999999948997
 51
179.9999999998962
  0
LINE
  8
0
  6
CONTINUOUS
 62
               3
  5
226
 10
454.99999999999972
 20
-108.65000000000001
 30
0.0
 11
454.99999999999972
 21
-218.84999999999999
 31
0.0
  0
LINE
  8
0
  6
CONTINUOUS
 62
               3
  5
227
 10
459.99999999999972
 20
-221.34999999999999
 30
0.0
 11
457.49999999999972
 21
-221.34999999999999
 31
0.0
  0
ARC
  8
0
  6
CONTINUOUS
 62
               3
  5
228
 10
457.49999999999972
 20
-218.84999999999999
 30
0.0
 40
2.5
 50
179.99999999989603
 51
269.99999999984436
  0
LINE
  8
0
  6
CONTINUOUS
 62
               3
  5
229
 10
463.17155612596417
 20
-106.24999999999991
 30
0.0
 11
463.17155612596491
 21
-221.25
 31
0.0
  0
ARC
  8
0
  6
CONTINUOUS
 62
               3
  5
22A
 10
534.99999999999977
 20
-226.25
 30
0.0
 40
2.4999999999999996
 50
89.99999999994769
 51
269.99999999984567
  0
LINE
  8
0
  6
CONTINUOUS
 62
               3
  5
22B
 10
463.17155612596491
 20
-221.25
 30
0.0
 11
505.33666638224236
 21
-222.72243809585405
 31
0.0
  0
LINE
  8
0
  6
CONTINUOUS
 62
               3
  5
22C
 10
523.5355339059322
 20
-239.021689426286
 30
0.0
 11
508.69770280466247
 21
-224.18385832501673
 31
0.0
  0
ARC
  8
0
  6
CONTINUOUS
 62
               3
  5
22D
 10
519.99999999999977
 20
-242.55722333221911
 30
0.0
 40
4.9999999999999991
 50
0.0
 51
44.999999999973426
  0
ARC
  8
0
  6
CONTINUOUS
 62
               3
  5
22E
 10
505.16216889872982
 20
-227.7193922309495
 30
0.0
 40
5.0
 50
44.999999999974797
 51
87.999999999949225
  0
ARC
  8
0
  6
CONTINUOUS
 62
               3
  5
22F
 10
544.99999999999977
 20
-104.75
 30
0.0
 40
19.999999999999996
 50
148.21166938286285
 51
167.26981986159126
  0
LINE
  8
0
  6
CONTINUOUS
 62
               3
  5
230
 10
463.17155612596412
 20
-106.24999999999994
 30
0.0
 11
520.78903232813832
 21
-104.23795339484769
 31
0.0
  0
ARC
  8
0
  6
CONTINUOUS
 62
               3
  5
231
 10
520.61453484462595
 20
-99.240999259752243
 30
0.0
 40
5.0
 50
271.99999999984402
 51
347.26981986148633
  0
LINE
  8
0
  6
CONTINUOUS
 62
               3
  5
232
 10
534.99999999999977
 20
-228.75
 30
0.0
 11
591.93835546658443
 21
-228.75
 31
0.0
  0
LINE
  8
0
  6
CONTINUOUS
 62
               3
  5
233
 10
534.99999999999977
 20
-223.75
 30
0.0
 11
591.78299999999945
 21
-223.75
 31
0.0
  0
LINE
  8
0
  6
CONTINUOUS
 62
               3
  5
234
 10
524.99999999999977
 20
-341.74999999999989
 30
0.0
 11
524.99999999999977
 21
-242.55722333221911
 31
0.0
  0
LINE
  8
0
  6
CONTINUOUS
 62
               3
  5
235
 10
657.99999999999977
 20
-490.74999999999966
 30
0.0
 11
541.99999999999955
 21
-490.75000000000023
 31
0.0
  0
LINE
  8
0
  6
CONTINUOUS
 62
               3
  5
236
 10
542.99999999999977
 20
-602.75
 30
0.0
 11
656.99999999999977
 21
-602.75
 31
0.0
  0
LINE
  8
0
  6
CONTINUOUS
 62
               3
  5
237
 10
542.99999999999977
 20
-602.75
 30
0.0
 11
542.99999999999977
 21
-502.75
 31
0.0
  0
LINE
  8
0
  6
CONTINUOUS
 62
               3
  5
238
 10
542.99999999999977
 20
-502.75
 30
0.0
 11
542.00000000000023
 21
-501.75000000000045
 31
0.0
  0
LINE
  8
0
  6
CONTINUOUS
 62
               3
  5
239
 10
656.99999999999977
 20
-602.75
 30
0.0
 11
656.99999999999977
 21
-502.75
 31
0.0
  0
LINE
  8
0
  6
CONTINUOUS
 62
               3
  5
23A
 10
656.99999999999977
 20
-502.75
 30
0.0
 11
657.99999999999932
 21
-501.75000000000045
 31
0.0
  0
LINE
  8
0
  6
CONTINUOUS
 62
               3
  5
23B
 10
657.99999999999977
 20
-501.7499999999992
 30
0.0
 11
657.99999999999977
 21
-490.75000000000028
 31
0.0
  0
LINE
  8
0
  6
CONTINUOUS
 62
               3
  5
23C
 10
541.99999999999955
 20
-490.75000000000028
 30
0.0
 11
541.99999999999955
 21
-501.75
 31
0.0
  0
CIRCLE
  8
0
  6
CONTINUOUS
 62
               3
  5
23D
 10
-0.0000000000002842
 20
537.25
 30
0.0
 40
59.0
  0
CIRCLE
  8
0
  6
CONTINUOUS
 62
               3
  5
23E
 10
609.2865232163075
 20
-966.71375990939941
 30
0.0
 40
75.0
  0
CIRCLE
  8
0
  6
CONTINUOUS
 62
               3
  5
23F
 10
609.2865232163075
 20
-966.71375990939941
 30
0.0
 40
52.5
  0
LINE
  8
0
  6
CONTINUOUS
 62
               3
  5
240
 10
523.07602501568226
 20
-946.71375990939941
 30
0.0
 11
537.00236174230224
 21
-946.71375990939941
 31
0.0
  0
LINE
  8
0
  6
CONTINUOUS
 62
               3
  5
241
 10
537.00236174230224
 20
-986.71375990939941
 30
0.0
 11
523.07602501568226
 21
-986.71375990939941
 31
0.0
  0
ARC
  8
0
  6
CONTINUOUS
 62
               3
  5
242
 10
609.2865232163075
 20
-966.71375990939941
 30
0.0
 40
88.5
 50
166.93897588510336
 51
193.06102411468945
  0
LINE
  8
0
  6
CONTINUOUS
 62
               3
  5
243
 10
589.2865232163075
 20
-1052.9242581100243
 30
0.0
 11
589.2865232163075
 21
-1038.9979213834044
 31
0.0
  0
LINE
  8
0
  6
CONTINUOUS
 62
               3
  5
244
 10
629.2865232163075
 20
-1038.9979213834044
 30
0.0
 11
629.2865232163075
 21
-1052.9242581100243
 31
0.0
  0
ARC
  8
0
  6
CONTINUOUS
 62
               3
  5
245
 10
609.2865232163075
 20
-966.71375990939941
 30
0.0
 40
88.5
 50
256.93897588505166
 51
283.06102411463769
  0
LINE
  8
0
  6
CONTINUOUS
 62
               3
  5
246
 10
695.49702141693217
 20
-986.71375990939941
 30
0.0
 11
681.57068469031185
 21
-986.71375990939941
 31
0.0
  0
LINE
  8
0
  6
CONTINUOUS
 62
               3
  5
247
 10
681.57068469031185
 20
-946.71375990939941
 30
0.0
 11
695.49702141693217
 21
-946.71375990939941
 31
0.0
  0
ARC
  8
0
  6
CONTINUOUS
 62
               3
  5
248
 10
609.2865232163075
 20
-966.71375990939941
 30
0.0
 40
88.5
 50
346.93897588499982
 51
373.06102411458585
  0
LINE
  8
0
  6
CONTINUOUS
 62
               3
  5
249
 10
629.2865232163075
 20
-880.50326170877383
 30
0.0
 11
629.2865232163075
 21
-894.42959843539438
 31
0.0
  0
LINE
  8
0
  6
CONTINUOUS
 62
               3
  5
24A
 10
589.2865232163075
 20
-894.42959843539438
 30
0.0
 11
589.2865232163075
 21
-880.50326170877383
 31
0.0
  0
ARC
  8
0
  6
CONTINUOUS
 62
               3
  5
24B
 10
609.2865232163075
 20
-966.71375990939941
 30
0.0
 40
88.5
 50
76.938975885155216
 51
103.06102411474124
  0
LINE
  8
0
  6
CONTINUOUS
 62
               3
  5
24C
 10
561.61839969544656
 20
-988.71375990939987
 30
0.0
 11
656.95464673716754
 21
-988.71375990939987
 31
0.0
  0
ARC
  8
0
  6
CONTINUOUS
 62
               3
  5
24D
 10
621.79013486568863
 20
-958.00736228178039
 30
0.0
 40
54.763804151667173
 50
141.3859176367566
 51
145.15009542087031
  0
ARC
  8
0
  6
CONTINUOUS
 62
               3
  5
24E
 10
609.2865232163075
 20
-966.71375990939941
 30
0.0
 40
51.5
 50
334.71098847326505
 51
410.95932736340404
  0
ARC
  8
0
  6
CONTINUOUS
 62
               3
  5
24F
 10
609.2865232163075
 20
-966.71375990939941
 30
0.0
 40
51.5
 50
129.04067263628559
 51
205.28901152642416
  0
ARC
  8
0
  6
CONTINUOUS
 62
               3
  5
250
 10
609.2865232163075
 20
-966.71375990939941
 30
0.0
 40
77.5
 50
104.95524831658298
 51
128.57288309095932
  0
ARC
  8
0
  6
CONTINUOUS
 62
               3
  5
251
 10
609.2865232163075
 20
-966.71375990939941
 30
0.0
 40
77.5
 50
14.9552483166347
 51
75.044751683313535
  0
ARC
  8
0
  6
CONTINUOUS
 62
               3
  5
252
 10
609.2865232163075
 20
-966.71375990939941
 30
0.0
 40
77.5
 50
321.42711690878122
 51
345.04475168315804
  0
LINE
  8
0
  6
CONTINUOUS
 62
               3
  5
253
 10
469.28652321630756
 20
-1021.7137599093994
 30
0.0
 11
469.95807934227179
 21
-1021.7137599093994
 31
0.0
  0
LINE
  8
0
  6
CONTINUOUS
 62
               3
  5
254
 10
472.45807934227224
 20
-1024.2137599093994
 30
0.0
 11
469.95807934227179
 21
-1021.7137599093994
 31
0.0
  0
LINE
  8
0
  6
CONTINUOUS
 62
               3
  5
255
 10
469.28652321630756
 20
-911.71375990939941
 30
0.0
 11
469.95807934227179
 21
-911.71375990939941
 31
0.0
  0
LINE
  8
0
  6
CONTINUOUS
 62
               3
  5
256
 10
472.45807934227179
 20
-909.21375990939941
 30
0.0
 11
469.95807934227179
 21
-911.71375990939941
 31
0.0
  0
LINE
  8
0
  6
CONTINUOUS
 62
               3
  5
257
 10
469.95807934227179
 20
-911.71375990939941
 30
0.0
 11
469.95807934227179
 21
-1021.7137599093994
 31
0.0
  0
LINE
  8
0
  6
CONTINUOUS
 62
               3
  5
258
 10
563.79618742992955
 20
-906.02416289105781
 30
0.0
 11
472.45807934227179
 21
-909.21375990939941
 31
0.0
  0
LINE
  8
0
  6
CONTINUOUS
 62
               3
  5
259
 10
544.45005149975657
 20
-1026.7277749743671
 30
0.0
 11
472.45807934227236
 21
-1024.2137599093994
 31
0.0
  0
LINE
  8
0
  6
CONTINUOUS
 62
               3
  5
25A
 10
464.28652321630756
 20
-911.88531603536353
 30
0.0
 11
464.28652321630756
 21
-1021.8137599093994
 31
0.0
  0
LINE
  8
0
  6
CONTINUOUS
 62
               3
  5
25B
 10
469.28652321630756
 20
-1024.3137599093993
 30
0.0
 11
469.28652321630756
 21
-909.11375990939939
 31
0.0
  0
LINE
  8
0
  6
CONTINUOUS
 62
               3
  5
25C
 10
469.28652321630756
 20
-909.11375990939939
 30
0.0
 11
466.78652321630756
 21
-909.11375990939939
 31
0.0
  0
LINE
  8
0
  6
CONTINUOUS
 62
               3
  5
25D
 10
469.28652321630756
 20
-1024.3137599093993
 30
0.0
 11
466.78652321630756
 21
-1024.3137599093993
 31
0.0
  0
ARC
  8
0
  6
CONTINUOUS
 62
               3
  5
25E
 10
466.78652321630756
 20
-1021.8137599093994
 30
0.0
 40
2.5
 50
179.99999999989538
 51
269.99999999984436
  0
ARC
  8
0
  6
CONTINUOUS
 62
               3
  5
25F
 10
466.78652321630756
 20
-911.61375990939939
 30
0.0
 40
2.5
 50
89.999999999948997
 51
179.99999999989538
  0
LINE
  8
0
  6
CONTINUOUS
 62
               3
  5
260
 10
576.84812004969001
 20
-926.71375990939964
 30
0.0
 11
609.2865232163075
 21
-926.71375990939964
 31
0.0
  0
LINE
  8
0
  6
CONTINUOUS
 62
               3
  5
261
 10
609.2865232163075
 20
-926.71375990939964
 30
0.0
 11
643.29019948814619
 21
-926.71375990939964
 31
0.0
  0
LINE
  8
0
  6
CONTINUOUS
 62
               3
  5
262
 10
472.45807934227224
 20
-1024.2137599093994
 30
0.0
 11
472.45807934227179
 21
-909.21375990939941
 31
0.0
  0
ARC
  8
0
  6
CONTINUOUS
 62
               3
  5
263
 10
563.62168994641718
 20
-901.02720875596231
 30
0.0
 40
5.0
 50
271.99999999984402
 51
304.806757870252
  0
LINE
  8
0
  6
CONTINUOUS
 62
               3
  5
264
 10
664.2865232163075
 20
-1106.7137599093994
 30
0.0
 11
664.2865232163075
 21
-1106.0422037834351
 31
0.0
  0
LINE
  8
0
  6
CONTINUOUS
 62
               3
  5
265
 10
666.7865232163075
 20
-1103.5422037834346
 30
0.0
 11
664.2865232163075
 21
-1106.0422037834351
 31
0.0
  0
LINE
  8
0
  6
CONTINUOUS
 62
               3
  5
266
 10
554.2865232163075
 20
-1106.7137599093994
 30
0.0
 11
554.2865232163075
 21
-1106.0422037834351
 31
0.0
  0
LINE
  8
0
  6
CONTINUOUS
 62
               3
  5
267
 10
551.7865232163075
 20
-1103.5422037834351
 30
0.0
 11
554.2865232163075
 21
-1106.0422037834351
 31
0.0
  0
LINE
  8
0
  6
CONTINUOUS
 62
               3
  5
268
 10
554.2865232163075
 20
-1106.0422037834351
 30
0.0
 11
664.2865232163075
 21
-1106.0422037834351
 31
0.0
  0
LINE
  8
0
  6
CONTINUOUS
 62
               3
  5
269
 10
554.45807934227162
 20
-1111.7137599093994
 30
0.0
 11
664.38652321630741
 21
-1111.7137599093994
 31
0.0
  0
LINE
  8
0
  6
CONTINUOUS
 62
               3
  5
26A
 10
666.88652321630741
 20
-1106.7137599093994
 30
0.0
 11
551.68652321630736
 21
-1106.7137599093994
 31
0.0
  0
LINE
  8
0
  6
CONTINUOUS
 62
               3
  5
26B
 10
551.68652321630736
 20
-1106.7137599093994
 30
0.0
 11
551.68652321630736
 21
-1109.2137599093994
 31
0.0
  0
LINE
  8
0
  6
CONTINUOUS
 62
               3
  5
26C
 10
666.88652321630741
 20
-1106.7137599093994
 30
0.0
 11
666.88652321630741
 21
-1109.2137599093994
 31
0.0
  0
ARC
  8
0
  6
CONTINUOUS
 62
               3
  5
26D
 10
664.38652321630741
 20
-1109.2137599093994
 30
0.0
 40
2.5
 50
269.99999999984567
 51
359.99999999979076
  0
ARC
  8
0
  6
CONTINUOUS
 62
               3
  5
26E
 10
554.18652321630736
 20
-1109.2137599093994
 30
0.0
 40
2.5
 50
179.99999999989538
 51
269.99999999984567
  0
LINE
  8
0
  6
CONTINUOUS
 62
               3
  5
26F
 10
666.7865232163075
 20
-1103.5422037834346
 30
0.0
 11
551.7865232163075
 21
-1103.5422037834351
 31
0.0
  0
LINE
  8
0
  6
CONTINUOUS
 62
               3
  5
270
 10
669.97612023464865
 20
-1012.2040956957779
 30
0.0
 11
666.7865232163075
 21
-1103.5422037834346
 31
0.0
  0
ARC
  8
0
  6
CONTINUOUS
 62
               3
  5
271
 10
674.97307436974404
 20
-1012.3785931792904
 30
0.0
 40
5.0
 50
145.19324212948862
 51
177.99999999989819
  0
LINE
  8
0
  6
CONTINUOUS
 62
               3
  5
272
 10
549.27250815133937
 20
-1031.5502316259503
 30
0.0
 11
551.7865232163075
 21
-1103.5422037834351
 31
0.0
  0
ARC
  8
0
  6
CONTINUOUS
 62
               3
  5
273
 10
544.27555401624397
 20
-1031.7247291094627
 30
0.0
 40
5.0
 50
1.9999999999958187
 51
87.99999999994921
  0
LINE
  8
0
  6
CONTINUOUS
 62
               3
  5
274
 10
534.2865232163075
 20
-1275.213193657984
 30
0.0
 11
684.2865232163075
 21
-1275.213193657984
 31
0.0
  0
LINE
  8
0
  6
CONTINUOUS
 62
               3
  5
275
 10
520.78652321630739
 20
-1285.213193657984
 30
0.0
 11
520.78652321630739
 21
-1292.2131936579835
 31
0.0
  0
LINE
  8
0
  6
CONTINUOUS
 62
               3
  5
276
 10
520.78652321630739
 20
-1285.213193657984
 30
0.0
 11
534.2865232163075
 21
-1275.213193657984
 31
0.0
  0
ARC
  8
0
  6
CONTINUOUS
 62
               3
  5
277
 10
532.28652321630773
 20
-1296.7957693529393
 30
0.0
 40
4.9999999999999991
 50
0.0
 51
66.421821521760023
  0
LINE
  8
0
  6
CONTINUOUS
 62
               3
  5
278
 10
520.78652321630739
 20
-1292.2131936579835
 30
0.0
 11
697.78652321630727
 21
-1292.2131936579835
 31
0.0
  0
ARC
  8
0
  6
CONTINUOUS
 62
               3
  5
279
 10
554.2865232163075
 20
-1382.213193657984
 30
0.0
 40
19.999999999999996
 50
148.21166938286279
 51
167.26981986159123
  0
LINE
  8
0
  6
CONTINUOUS
 62
               3
  5
27A
 10
537.28652321630773
 20
-1296.7957693529393
 30
0.0
 11
537.28652321630773
 21
-1371.6775399051312
 31
0.0
  0
LINE
  8
0
  6
CONTINUOUS
 62
               3
  5
27B
 10
681.2865232163075
 20
-1366.6775399051307
 30
0.0
 11
681.2865232163075
 21
-1296.7957693529393
 31
0.0
  0
LINE
  8
0
  6
CONTINUOUS
 62
               3
  5
27C
 10
537.28652321630773
 20
-1371.6775399051312
 30
0.0
 11
680.78652321630796
 21
-1371.6775399051312
 31
0.0
  0
LINE
  8
0
  6
CONTINUOUS
 62
               3
  5
27D
 10
589.2865232163075
 20
-1292.2131936579835
 30
0.0
 11
589.2865232163075
 21
-1275.213193657984
 31
0.0
  0
LINE
  8
0
  6
CONTINUOUS
 62
               3
  5
27E
 10
629.2865232163075
 20
-1275.213193657984
 30
0.0
 11
629.2865232163075
 21
-1292.2131936579835
 31
0.0
  0
LINE
  8
0
  6
CONTINUOUS
 62
               3
  5
27F
 10
589.2865232163075
 20
-1285.213193657984
 30
0.0
 11
629.2865232163075
 21
-1285.213193657984
 31
0.0
  0
LINE
  8
0
  6
CONTINUOUS
 62
               3
  5
280
 10
537.00236174230224
 20
-1275.213193657984
 30
0.0
 11
537.00236174230224
 21
-1292.2131936579835
 31
0.0
  0
LINE
  8
0
  6
CONTINUOUS
 62
               3
  5
281
 10
523.07602501568226
 20
-1285.213193657984
 30
0.0
 11
523.07602501568226
 21
-1292.2131936579835
 31
0.0
  0
LINE
  8
0
  6
CONTINUOUS
 62
               3
  5
282
 10
520.78652321630739
 20
-1285.213193657984
 30
0.0
 11
523.07602501568226
 21
-1285.213193657984
 31
0.0
  0
LINE
  8
0
  6
CONTINUOUS
 62
               3
  5
283
 10
523.07602501568226
 20
-1285.213193657984
 30
0.0
 11
537.00236174230224
 21
-1275.213193657984
 31
0.0
  0
LINE
  8
0
  6
CONTINUOUS
 62
               3
  5
284
 10
697.78652321630727
 20
-1285.213193657984
 30
0.0
 11
697.78652321630727
 21
-1292.2131936579835
 31
0.0
  0
LINE
  8
0
  6
CONTINUOUS
 62
               3
  5
285
 10
697.78652321630727
 20
-1285.213193657984
 30
0.0
 11
684.2865232163075
 21
-1275.213193657984
 31
0.0
  0
ARC
  8
0
  6
CONTINUOUS
 62
               3
  5
286
 10
686.2865232163075
 20
-1296.7957693529393
 30
0.0
 40
4.9999999999999991
 50
113.57817847813573
 51
179.99999999989538
  0
LINE
  8
0
  6
CONTINUOUS
 62
               3
  5
287
 10
681.57068469031185
 20
-1275.213193657984
 30
0.0
 11
681.57068469031185
 21
-1292.2131936579835
 31
0.0
  0
LINE
  8
0
  6
CONTINUOUS
 62
               3
  5
288
 10
695.49702141693285
 20
-1285.213193657984
 30
0.0
 11
695.49702141693285
 21
-1292.2131936579835
 31
0.0
  0
LINE
  8
0
  6
CONTINUOUS
 62
               3
  5
289
 10
697.78652321630727
 20
-1285.213193657984
 30
0.0
 11
695.49702141693285
 21
-1285.213193657984
 31
0.0
  0
LINE
  8
0
  6
CONTINUOUS
 62
               3
  5
28A
 10
695.49702141693285
 20
-1285.213193657984
 30
0.0
 11
681.57068469031185
 21
-1275.213193657984
 31
0.0
  0
ARC
  8
0
  6
CONTINUOUS
 62
               3
  5
28B
 10
544.2865232163075
 20
-1503.713193657984
 30
0.0
 40
2.4999999999999996
 50
89.99999999994769
 51
269.99999999984567
  0
ARC
  8
0
  6
CONTINUOUS
 62
               3
  5
28C
 10
684.2865232163075
 20
-1503.713193657984
 30
0.0
 40
2.4999999999999996
 50
269.99999999984567
 51
449.99999999974102
  0
LINE
  8
0
  6
CONTINUOUS
 62
               3
  5
28D
 10
469.28652321630756
 20
-1496.213193657984
 30
0.0
 11
469.9580793422719
 21
-1496.213193657984
 31
0.0
  0
LINE
  8
0
  6
CONTINUOUS
 62
               3
  5
28E
 10
472.45807934227201
 20
-1498.7131936579831
 30
0.0
 11
469.9580793422719
 21
-1496.213193657984
 31
0.0
  0
LINE
  8
0
  6
CONTINUOUS
 62
               3
  5
28F
 10
472.45807934227281
 20
-1498.713193657984
 30
0.0
 11
514.6231895985502
 21
-1500.1856317538382
 31
0.0
  0
LINE
  8
0
  6
CONTINUOUS
 62
               3
  5
290
 10
532.82205712224015
 20
-1516.4848830842698
 30
0.0
 11
517.98422602097025
 21
-1501.6470519830004
 31
0.0
  0
ARC
  8
0
  6
CONTINUOUS
 62
               3
  5
291
 10
529.2865232163075
 20
-1520.0204169902031
 30
0.0
 40
4.9999999999999991
 50
0.0
 51
44.999999999973191
  0
LINE
  8
0
  6
CONTINUOUS
 62
               3
  5
292
 10
469.28652321630756
 20
-1386.213193657984
 30
0.0
 11
469.9580793422719
 21
-1386.213193657984
 31
0.0
  0
LINE
  8
0
  6
CONTINUOUS
 62
               3
  5
293
 10
472.45807934227201
 20
-1383.713193657984
 30
0.0
 11
469.9580793422719
 21
-1386.213193657984
 31
0.0
  0
LINE
  8
0
  6
CONTINUOUS
 62
               3
  5
294
 10
472.4580793422719
 20
-1383.713193657984
 30
0.0
 11
530.07555554444627
 21
-1381.7011470528314
 31
0.0
  0
LINE
  8
0
  6
CONTINUOUS
 62
               3
  5
295
 10
469.9580793422719
 20
-1386.213193657984
 30
0.0
 11
469.9580793422719
 21
-1496.213193657984
 31
0.0
  0
LINE
  8
0
  6
CONTINUOUS
 62
               3
  5
296
 10
469.28652321630756
 20
-1498.8131936579839
 30
0.0
 11
469.28652321630756
 21
-1383.6131936579841
 31
0.0
  0
LINE
  8
0
  6
CONTINUOUS
 62
               3
  5
297
 10
469.28652321630756
 20
-1383.6131936579841
 30
0.0
 11
466.78652321630756
 21
-1383.6131936579841
 31
0.0
  0
ARC
  8
0
  6
CONTINUOUS
 62
               3
  5
298
 10
466.78652321630756
 20
-1386.1131936579841
 30
0.0
 40
2.5
 50
89.999999999948997
 51
179.99999999989538
  0
LINE
  8
0
  6
CONTINUOUS
 62
               3
  5
299
 10
464.28652321630756
 20
-1386.1131936579841
 30
0.0
 11
464.28652321630756
 21
-1496.3131936579839
 31
0.0
  0
LINE
  8
0
  6
CONTINUOUS
 62
               3
  5
29A
 10
469.28652321630756
 20
-1498.8131936579839
 30
0.0
 11
466.78652321630756
 21
-1498.8131936579839
 31
0.0
  0
ARC
  8
0
  6
CONTINUOUS
 62
               3
  5
29B
 10
466.78652321630756
 20
-1496.3131936579839
 30
0.0
 40
2.5
 50
179.99999999989538
 51
269.99999999984436
  0
LINE
  8
0
  6
CONTINUOUS
 62
               3
  5
29C
 10
472.45807934227201
 20
-1383.713193657984
 30
0.0
 11
472.45807934227281
 21
-1498.713193657984
 31
0.0
  0
ARC
  8
0
  6
CONTINUOUS
 62
               3
  5
29D
 10
514.4486921150376
 20
-1505.1825858889333
 30
0.0
 40
5.0
 50
44.999999999975948
 51
87.999999999949253
  0
ARC
  8
0
  6
CONTINUOUS
 62
               3
  5
29E
 10
529.90105806093368
 20
-1376.7041929177362
 30
0.0
 40
5.0
 50
271.99999999984408
 51
347.26981986148661
  0
CIRCLE
  8
0
  6
CONTINUOUS
 62
               3
  5
29F
 10
609.2865232163075
 20
-1441.213193657984
 30
0.0
 40
48.5
  0
CIRCLE
  8
0
  6
CONTINUOUS
 62
               3
  5
2A0
 10
609.2865232163075
 20
-1441.213193657984
 30
0.0
 40
47.299999999999997
  0
LINE
  8
0
  6
CONTINUOUS
 62
               3
  5
2A1
 10
577.46671806291295
 20
-1473.0329988113785
 30
0.0
 11
575.84037246618379
 21
-1474.6593444081077
 31
0.0
  0
LINE
  8
0
  6
CONTINUOUS
 62
               3
  5
2A2
 10
641.10632836970228
 20
-1473.0329988113785
 30
0.0
 11
642.73267396643121
 21
-1474.6593444081077
 31
0.0
  0
ARC
  8
0
  6
CONTINUOUS
 62
               3
  5
2A3
 10
609.2865232163075
 20
-1441.213193657984
 30
0.0
 40
45.0
 50
224.99999999987043
 51
314.99999999981884
  0
CIRCLE
  8
0
  6
CONTINUOUS
 62
               3
  5
2A4
 10
609.2865232163075
 20
-1441.213193657984
 30
0.0
 40
57.600000000000001
  0
ARC
  8
0
  6
CONTINUOUS
 62
               3
  5
2A5
 10
586.78652321630818
 20
-1503.713193657984
 30
0.0
 40
2.4999999999999996
 50
269.99999999984567
 51
449.99999999974102
  0
ARC
  8
0
  6
CONTINUOUS
 62
               3
  5
2A6
 10
631.78652321630818
 20
-1503.713193657984
 30
0.0
 40
2.4999999999999996
 50
89.99999999994769
 51
269.99999999984567
  0
LINE
  8
0
  6
CONTINUOUS
 62
               3
  5
2A7
 10
544.2865232163075
 20
-1506.213193657984
 30
0.0
 11
586.78652321630818
 21
-1506.213193657984
 31
0.0
  0
LINE
  8
0
  6
CONTINUOUS
 62
               3
  5
2A8
 10
544.2865232163075
 20
-1501.213193657984
 30
0.0
 11
586.78652321630818
 21
-1501.213193657984
 31
0.0
  0
LINE
  8
0
  6
CONTINUOUS
 62
               3
  5
2A9
 10
631.78652321630818
 20
-1501.213193657984
 30
0.0
 11
684.2865232163075
 21
-1501.213193657984
 31
0.0
  0
LINE
  8
0
  6
CONTINUOUS
 62
               3
  5
2AA
 10
631.78652321630818
 20
-1506.213193657984
 30
0.0
 11
684.2865232163075
 21
-1506.213193657984
 31
0.0
  0
CIRCLE
  8
0
  6
CONTINUOUS
 62
               3
  5
2AB
 10
609.2865232163075
 20
-966.71375990939941
 30
0.0
 40
59.0
  0
LINE
  8
0
  6
DASHED2
 62
               3
  5
2AC
 10
-51.500000000000512
 20
-602.75
 30
0.0
 11
-51.500000000000512
 21
-522.75
 31
0.0
  0
LINE
  8
0
  6
DASHED2
 62
               3
  5
2AD
 10
51.499999999999375
 20
-602.75
 30
0.0
 11
51.499999999999375
 21
-522.75
 31
0.0
  0
LINE
  8
0
  6
DASHED2
 62
               3
  5
2AE
 10
-651.50000000000045
 20
-602.75
 30
0.0
 11
-651.50000000000045
 21
-522.75
 31
0.0
  0
LINE
  8
0
  6
DASHED2
 62
               3
  5
2AF
 10
-548.50000000000068
 20
-602.75
 30
0.0
 11
-548.50000000000068
 21
-522.75
 31
0.0
  0
LINE
  8
0
  6
DASHED2
 62
               3
  5
2B0
 10
548.49999999999955
 20
-602.75
 30
0.0
 11
548.49999999999955
 21
-522.75
 31
0.0
  0
LINE
  8
0
  6
DASHED2
 62
               3
  5
2B1
 10
651.49999999999932
 20
-602.75
 30
0.0
 11
651.49999999999932
 21
-522.75
 31
0.0
  0
LINE
  8
0
  6
DASHDOT
 62
               4
  5
2B2
 10
-0.0000000000002842
 20
645.75
 30
0.0
 11
-0.0000000000002664
 21
375.20321320017365
 31
0.0
  0
LINE
  8
0
  6
DASHDOT
 62
               4
  5
2B3
 10
-162.00000000000017
 20
537.25
 30
0.0
 11
108.49999999999994
 21
537.25
 31
0.0
  0
LINE
  8
0
  6
DASHDOT
 62
               4
  5
2B4
 10
-0.0000000000002842
 20
22.25
 30
0.0
 11
-0.0000000000002416
 21
-645.75
 31
0.0
  0
LINE
  8
0
  6
DASHDOT
 62
               4
  5
2B5
 10
68.525224775224444
 20
-163.75
 30
0.0
 11
-161.72861329342854
 21
-163.74999999999997
 31
0.0
  0
LINE
  8
0
  6
DASHDOT
 62
               4
  5
2B6
 10
-600.00000000000023
 20
22.25
 30
0.0
 11
-600.00000000000023
 21
-645.75
 31
0.0
  0
LINE
  8
0
  6
DASHDOT
 62
               4
  5
2B7
 10
-436.02420933259799
 20
-163.75
 30
0.0
 11
-668.17557442557472
 21
-163.75
 31
0.0
  0
LINE
  8
0
  6
DASHDOT
 62
               4
  5
2B8
 10
599.99999999999977
 20
22.25
 30
0.0
 11
599.99999999999977
 21
-645.75
 31
0.0
  0
LINE
  8
0
  6
DASHDOT
 62
               4
  5
2B9
 10
527.49110023849562
 20
-163.74999999999997
 30
0.0
 11
438.27138670657149
 21
-163.74999999999997
 31
0.0
  0
LINE
  8
0
  6
DASHDOT
 62
               4
  5
2BA
 10
-392.13776905046899
 20
-1088.8981954811907
 30
0.0
 11
-392.13776905046888
 21
-959.89819548119044
 31
0.0
  0
LINE
  8
0
  6
DASHDOT
 62
               4
  5
2BB
 10
-450.13776905046899
 20
-1030.8981954811904
 30
0.0
 11
-334.13776905046899
 21
-1030.8981954811904
 31
0.0
  0
LINE
  8
0
  6
DASHDOT
 62
               4
  5
2BC
 10
-461.94094753457642
 20
-1024.3981954811904
 30
0.0
 11
-327.63776905046899
 21
-1024.3981954811904
 31
0.0
  0
LINE
  8
0
  6
DASHDOT
 62
               4
  5
2BD
 10
-268.2377690504689
 20
-1024.3981954811904
 30
0.0
 11
-169.63776905046899
 21
-1024.3981954811904
 31
0.0
  0
LINE
  8
0
  6
DASHDOT
 62
               4
  5
2BE
 10
-302.63776905046899
 20
-1030.8981954811904
 30
0.0
 11
-228.23776905046901
 21
-1030.8981954811904
 31
0.0
  0
LINE
  8
0
  6
DASHDOT
 62
               4
  5
2BF
 10
-516.03776905046891
 20
-1024.3981954811902
 30
0.0
 11
-614.63776905046905
 21
-1024.39819548119
 31
0.0
  0
LINE
  8
0
  6
DASHDOT
 62
               4
  5
2C0
 10
-481.63776905046899
 20
-1030.8981954811902
 30
0.0
 11
-556.03776905046891
 21
-1030.8981954811902
 31
0.0
  0
LINE
  8
0
  6
DASHDOT
 62
               4
  5
2C1
 10
-394.08372644623552
 20
-927.43031141215533
 30
0.0
 11
-394.08372644623552
 21
-794.43031141215533
 31
0.0
  0
LINE
  8
0
  6
DASHDOT
 62
               4
  5
2C2
 10
221.63392368588069
 20
-1024.3981954811904
 30
0.0
 11
320.23392368588082
 21
-1024.3981954811904
 31
0.0
  0
LINE
  8
0
  6
DASHDOT
 62
               4
  5
2C3
 10
196.63392368588069
 20
-1038.8981954811904
 30
0.0
 11
261.63392368588069
 21
-1038.8981954811904
 31
0.0
  0
LINE
  8
0
  6
DASHDOT
 62
               4
  5
2C4
 10
70.877907460637687
 20
-1038.8981954811904
 30
0.0
 11
170.87790746063791
 21
-1038.8981954811904
 31
0.0
  0
LINE
  8
0
  6
DASHDOT
 62
               4
  5
2C5
 10
120.87790746063769
 20
-1088.8981954811907
 30
0.0
 11
120.87790746063791
 21
-959.89819548119044
 31
0.0
  0
LINE
  8
0
  6
DASHDOT
 62
               4
  5
2C6
 10
56.377907460637687
 20
-1024.3981954811904
 30
0.0
 11
190.92191724058893
 21
-1024.3981954811904
 31
0.0
  0
LINE
  8
0
  6
DASHDOT
 62
               4
  5
2C7
 10
20.121891235394912
 20
-1024.3981954811904
 30
0.0
 11
-78.478108764605111
 21
-1024.3981954811904
 31
0.0
  0
LINE
  8
0
  6
DASHDOT
 62
               4
  5
2C8
 10
45.121891235394912
 20
-1038.8981954811904
 30
0.0
 11
-19.878108764605088
 21
-1038.8981954811904
 31
0.0
  0
LINE
  8
0
  6
DASHDOT
 62
               4
  5
2C9
 10
120.87790746063791
 20
-938.14217925594767
 30
0.0
 11
120.87790746063791
 21
-814.54217925594753
 31
0.0
  0
LINE
  8
0
  6
DASHDOT
 62
               4
  5
2CA
 10
609.2865232163075
 20
-858.21375990939941
 30
0.0
 11
609.2865232163075
 21
-1128.7605467092258
 31
0.0
  0
LINE
  8
0
  6
DASHDOT
 62
               4
  5
2CB
 10
447.28652321630767
 20
-966.71375990939941
 30
0.0
 11
717.78652321630773
 21
-966.71375990939941
 31
0.0
  0
LINE
  8
0
  6
DASHDOT
 62
               4
  5
2CC
 10
677.81174799153234
 20
-1441.213193657984
 30
0.0
 11
447.55790992287933
 21
-1441.213193657984
 31
0.0
  0
LINE
  8
0
  6
DASHDOT
 62
               4
  5
2CD
 10
609.2865232163075
 20
-1255.213193657984
 30
0.0
 11
609.2865232163075
 21
-1506.213193657984
 31
0.0
  0
LINE
  8
0
  6
DASHDOT
 62
               4
  5
2CE
 10
559.2865232163075
 20
-1455.713193657984
 30
0.0
 11
659.28652321630773
 21
-1455.713193657984
 31
0.0
  0
LINE
  8
0
  6
DASHDOT
 62
               4
  5
2CF
 10
609.2865232163075
 20
-1157.3137599093998
 30
0.0
 11
609.2865232163075
 21
-1033.7137599093994
 31
0.0
  0
LINE
  8
0
  6
DASHDOT
 62
               4
  5
2D0
 10
409.28652321630756
 20
-1447.713193657984
 30
0.0
 11
483.68652321630753
 21
-1447.713193657984
 31
0.0
  0
LINE
  8
0
  6
DASHDOT
 62
               4
  5
2D1
 10
409.28652321630778
 20
-966.71375990939919
 30
0.0
 11
542.28652321630773
 21
-966.71375990939919
 31
0.0
  0
LINE
  8
0
  6
CONTINUOUS
 62
               4
  5
2D2
 10
76.999999999999602
 20
-94.214346247147205
 30
0.0
 11
71.999999999999602
 21
-89.214346247147205
 31
0.0
  0
LINE
  8
0
  6
CONTINUOUS
 62
               4
  5
2D3
 10
76.999999999999602
 20
-227.90302359711688
 30
0.0
 11
76.999999999999602
 21
-341.86356823025505
 31
0.0
  0
LINE
  8
0
  6
CONTINUOUS
 62
               4
  5
2D4
 10
76.999999999999602
 20
-341.86356823025505
 30
0.0
 11
60.271775600348576
 21
-488.47822439965125
 31
0.0
  0
ARC
  8
0
  6
CONTINUOUS
 62
               4
  5
2D5
 10
54.499999999999602
 20
-104.75
 30
0.0
 40
19.999999999999996
 50
0.0
 51
31.788330617033505
  0
LINE
  8
0
  6
CONTINUOUS
 62
               4
  5
2D6
 10
71.500000000000057
 20
-94.214346247147205
 30
0.0
 11
71.500000000000057
 21
-89.214346247146636
 31
0.0
  0
LINE
  8
0
  6
CONTINUOUS
 62
               4
  5
2D7
 10
71.999999999999602
 20
-89.214346247147205
 30
0.0
 11
71.500000000000057
 21
-89.214346247147205
 31
0.0
  0
LINE
  8
0
  6
CONTINUOUS
 62
               4
  5
2D8
 10
76.749999999999829
 20
-94.464346247147205
 30
0.0
 11
71.500000000000057
 21
-89.214346247147205
 31
0.0
  0
LINE
  8
0
  6
CONTINUOUS
 62
               4
  5
2D9
 10
76.749999999999829
 20
-94.464346247147205
 30
0.0
 11
76.999999999999602
 21
-94.214346247147205
 31
0.0
  0
LINE
  8
0
  6
CONTINUOUS
 62
               4
  5
2DA
 10
74.499999999999602
 20
-228.90302359711711
 30
0.0
 11
74.499999999999602
 21
-341.72160794243553
 31
0.0
  0
LINE
  8
0
  6
CONTINUOUS
 62
               4
  5
2DB
 10
76.749999999999829
 20
-228.18838070425295
 30
0.0
 11
76.749999999999829
 21
-341.84937220147305
 31
0.0
  0
LINE
  8
0
  6
CONTINUOUS
 62
               4
  5
2DC
 10
74.499999999999602
 20
-341.72160794243553
 30
0.0
 11
57.496765133650172
 21
-490.75000000000028
 31
0.0
  0
LINE
  8
0
  6
CONTINUOUS
 62
               4
  5
2DD
 10
74.49676513364949
 20
-341.74999999999983
 30
0.0
 11
76.999999999999602
 21
-341.86356823025505
 31
0.0
  0
LINE
  8
0
  6
CONTINUOUS
 62
               4
  5
2DE
 10
76.749999999999829
 20
-341.84937220147305
 30
0.0
 11
59.994274553678508
 21
-488.70540195968613
 31
0.0
  0
LINE
  8
0
  6
CONTINUOUS
 62
               4
  5
2DF
 10
76.999999999999602
 20
-94.214346247147205
 30
0.0
 11
76.999999999999602
 21
-224.903023597117
 31
0.0
  0
LINE
  8
0
  6
CONTINUOUS
 62
               4
  5
2E0
 10
76.749999999999829
 20
-94.464346247147205
 30
0.0
 11
76.749999999999829
 21
-224.6176664899815
 31
0.0
  0
LINE
  8
0
  6
CONTINUOUS
 62
               4
  5
2E1
 10
74.499999999999602
 20
-104.59697640288289
 30
0.0
 11
74.499999999999602
 21
-223.75
 31
0.0
  0
LINE
  8
0
  6
CONTINUOUS
 62
               4
  5
2E2
 10
58.141132586505648
 20
-395.53450905619968
 30
0.0
 11
-65.512000000000796
 21
-291.7772111089468
 31
0.0
  0
ARC
  8
0
  6
CONTINUOUS
 62
               4
  5
2E3
 10
-914.2723201005399
 20
-1436.3356282358955
 30
0.0
 40
1424.9238755783815
 50
50.189956146237648
 51
53.440796050701131
  0
ARC
  8
0
  6
CONTINUOUS
 62
               4
  5
2E4
 10
63.579388837032695
 20
-270.97734108515374
 30
0.0
 40
130.75634311527989
 50
189.15312334019521
 51
212.7691831126306
  0
ARC
  8
0
  6
CONTINUOUS
 62
               4
  5
2E5
 10
61.364025499550792
 20
-260.84332033391343
 30
0.0
 40
134.72974192119386
 50
216.90649751121279
 51
268.62928723395265
  0
ARC
  8
0
  6
CONTINUOUS
 62
               4
  5
2E6
 10
-733.63034809850865
 20
-1219.9966709110088
 30
0.0
 40
1143.0835201141012
 50
46.158732653398935
 51
50.202696616627449
  0
LINE
  8
0
  6
CONTINUOUS
 62
               4
  5
2E7
 10
57.999999999999829
 20
-490.74999999999972
 30
0.0
 11
60.271775600348576
 21
-488.47822439965125
 31
0.0
  0
LINE
  8
0
  6
CONTINUOUS
 62
               4
  5
2E8
 10
57.496765133650172
 20
-490.75000000000028
 30
0.0
 11
60.271775600348576
 21
-488.47822439965125
 31
0.0
  0
LINE
  8
0
  6
CONTINUOUS
 62
               4
  5
2E9
 10
-57.000000000000284
 20
-502.75
 30
0.0
 11
56.999999999999801
 21
-502.75
 31
0.0
  0
LINE
  8
0
  6
CONTINUOUS
 62
               4
  5
2EA
 10
-57.999999999999829
 20
-501.75000000000045
 30
0.0
 11
58.000000000000114
 21
-501.75
 31
0.0
  0
ARC
  8
0
  6
CONTINUOUS
 62
               4
  5
2EB
 10
-878.92922884912446
 20
-463.42239841146238
 30
0.0
 40
359.11818398045398
 50
13.306177675722569
 51
28.552443501602074
  0
ARC
  8
0
  6
CONTINUOUS
 62
               4
  5
2EC
 10
-600.33118646999378
 20
-355.17572250889316
 30
0.0
 40
73.327111796148202
 50
342.62945642111072
 51
419.83689160537813
  0
LINE
  8
0
  6
CONTINUOUS
 62
               4
  5
2ED
 10
-657.00000000000023
 20
-502.75
 30
0.0
 11
-543.00000000000023
 21
-502.75
 31
0.0
  0
LINE
  8
0
  6
CONTINUOUS
 62
               4
  5
2EE
 10
-657.99999999999977
 20
-501.75000000000045
 30
0.0
 11
-541.99999999999977
 21
-501.75
 31
0.0
  0
ARC
  8
0
  6
CONTINUOUS
 62
               4
  5
2EF
 10
574.21603418803352
 20
-104.75000000000003
 30
0.0
 40
17.566965811965957
 50
0.0
 51
36.851448659209787
  0
LINE
  8
0
  6
CONTINUOUS
 62
               4
  5
2F0
 10
611.72699999999986
 20
-89.214346247147233
 30
0.0
 11
588.27299999999946
 21
-89.214346247147233
 31
0.0
  0
ARC
  8
0
  6
CONTINUOUS
 62
               4
  5
2F1
 10
625.78396581196534
 20
-104.75000000000003
 30
0.0
 40
17.566965811965957
 50
143.14855134068659
 51
179.99999999989643
  0
LINE
  8
0
  6
CONTINUOUS
 62
               4
  5
2F2
 10
588.27299999999946
 20
-94.214346247147233
 30
0.0
 11
588.27299999999946
 21
-89.214346247147233
 31
0.0
  0
LINE
  8
0
  6
CONTINUOUS
 62
               4
  5
2F3
 10
611.72699999999986
 20
-94.214346247147233
 30
0.0
 11
611.72699999999986
 21
-89.214346247147233
 31
0.0
  0
LINE
  8
0
  6
CONTINUOUS
 62
               4
  5
2F4
 10
588.27299999999946
 20
-89.214346247147233
 30
0.0
 11
593.99999999999955
 21
-94.214346247147233
 31
0.0
  0
LINE
  8
0
  6
CONTINUOUS
 62
               4
  5
2F5
 10
605.99999999999932
 20
-94.214346247147233
 30
0.0
 11
611.72699999999986
 21
-89.214346247147233
 31
0.0
  0
LINE
  8
0
  6
CONTINUOUS
 62
               4
  5
2F6
 10
593.99999999999955
 20
-94.214346247147233
 30
0.0
 11
605.99999999999932
 21
-94.214346247147233
 31
0.0
  0
LINE
  8
0
  6
CONTINUOUS
 62
               4
  5
2F7
 10
605.99999999999932
 20
-224.74999999999989
 30
0.0
 11
593.99999999999955
 21
-224.74999999999989
 31
0.0
  0
ARC
  8
0
  6
CONTINUOUS
 62
               4
  5
2F8
 10
591.93835546658443
 20
-226.1640798484666
 30
0.0
 40
2.4999999999999996
 50
34.446185822123951
 51
93.56278057374098
  0
ARC
  8
0
  6
CONTINUOUS
 62
               4
  5
2F9
 10
608.06164453341489
 20
-226.1640798484666
 30
0.0
 40
2.4999999999999996
 50
86.437219426154201
 51
145.55381417777139
  0
LINE
  8
0
  6
CONTINUOUS
 62
               4
  5
2FA
 10
605.99999999999932
 20
-227.74999999999977
 30
0.0
 11
593.99999999999955
 21
-227.74999999999977
 31
0.0
  0
ARC
  8
0
  6
CONTINUOUS
 62
               4
  5
2FB
 10
591.93835546658443
 20
-226.3359201515334
 30
0.0
 40
2.4999999999999996
 50
266.43721942605197
 51
325.55381417766819
  0
ARC
  8
0
  6
CONTINUOUS
 62
               4
  5
2FC
 10
608.06164453341489
 20
-226.3359201515334
 30
0.0
 40
2.4999999999999996
 50
214.44618582202128
 51
273.56278057363869
  0
LINE
  8
0
  6
CONTINUOUS
 62
               4
  5
2FD
 10
591.78299999999945
 20
-228.75
 30
0.0
 11
591.78299999999945
 21
-490.75000000000023
 31
0.0
  0
LINE
  8
0
  6
CONTINUOUS
 62
               4
  5
2FE
 10
608.21699999999942
 20
-228.8359201515334
 30
0.0
 11
608.21699999999942
 21
-490.75000000000023
 31
0.0
  0
LINE
  8
0
  6
CONTINUOUS
 62
               4
  5
2FF
 10
593.99999999999955
 20
-227.74999999999977
 30
0.0
 11
593.99999999999955
 21
-488.47822439965125
 31
0.0
  0
LINE
  8
0
  6
CONTINUOUS
 62
               4
  5
300
 10
605.99999999999932
 20
-488.47822439965125
 30
0.0
 11
605.99999999999932
 21
-227.74999999999977
 31
0.0
  0
LINE
  8
0
  6
CONTINUOUS
 62
               4
  5
301
 10
608.21699999999942
 20
-341.74999999999989
 30
0.0
 11
591.78299999999945
 21
-341.74999999999989
 31
0.0
  0
LINE
  8
0
  6
CONTINUOUS
 62
               4
  5
302
 10
591.78299999999945
 20
-104.75000000000003
 30
0.0
 11
591.78299999999945
 21
-223.75
 31
0.0
  0
LINE
  8
0
  6
CONTINUOUS
 62
               4
  5
303
 10
608.21699999999942
 20
-104.75000000000003
 30
0.0
 11
608.21699999999942
 21
-223.75
 31
0.0
  0
LINE
  8
0
  6
CONTINUOUS
 62
               4
  5
304
 10
605.99999999999932
 20
-224.74999999999989
 30
0.0
 11
605.99999999999932
 21
-94.214346247147233
 31
0.0
  0
LINE
  8
0
  6
CONTINUOUS
 62
               4
  5
305
 10
593.99999999999955
 20
-94.214346247147233
 30
0.0
 11
593.99999999999955
 21
-224.74999999999989
 31
0.0
  0
ARC
  8
0
  6
CONTINUOUS
 62
               4
  5
306
 10
585.02192705347193
 20
-346.0472496535815
 30
0.0
 40
59.149634972654262
 50
186.49999999989254
 51
236.78754046655175
  0
ARC
  8
0
  6
CONTINUOUS
 62
               4
  5
307
 10
605.92691953069357
 20
-334.19823255482981
 30
0.0
 40
81.261593956721953
 50
186.49999999989254
 51
229.00792456441022
  0
ARC
  8
0
  6
CONTINUOUS
 62
               4
  5
308
 10
460.68129117650443
 20
-418.53575137952453
 30
0.0
 40
204.24864340422488
 50
353.49999999979656
 51
373.43680216726273
  0
ARC
  8
0
  6
CONTINUOUS
 62
               4
  5
309
 10
498.37230094456544
 20
-416.25133431011682
 30
0.0
 40
167.18634723772169
 50
351.25933879873276
 51
375.67746336832698
  0
LINE
  8
0
  6
CONTINUOUS
 62
               4
  5
30A
 10
593.99999999999955
 20
-488.47822439965125
 30
0.0
 11
605.99999999999932
 21
-488.47822439965125
 31
0.0
  0
LINE
  8
0
  6
CONTINUOUS
 62
               4
  5
30B
 10
591.78299999999945
 20
-490.75000000000023
 30
0.0
 11
593.99999999999955
 21
-488.47822439965125
 31
0.0
  0
LINE
  8
0
  6
CONTINUOUS
 62
               4
  5
30C
 10
605.99999999999932
 20
-488.47822439965125
 30
0.0
 11
608.21699999999942
 21
-490.75000000000023
 31
0.0
  0
LINE
  8
0
  6
CONTINUOUS
 62
               4
  5
30D
 10
542.99999999999977
 20
-502.75
 30
0.0
 11
656.99999999999977
 21
-502.75
 31
0.0
  0
LINE
  8
0
  6
CONTINUOUS
 62
               4
  5
30E
 10
542.00000000000023
 20
-501.75000000000045
 30
0.0
 11
658.00000000000023
 21
-501.75
 31
0.0
  0
POINT
  8
0
  6
CONTINUOUS
 62
               4
  5
30F
 10
-247.03776905046897
 20
-979.89819548119044
 30
0.0
  0
POINT
  8
0
  6
CONTINUOUS
 62
               4
  5
310
 10
-537.23776905046896
 20
-979.89819548119021
 30
0.0
  0
POINT
  8
0
  6
CONTINUOUS
 62
               4
  5
311
 10
-349.58372644623552
 20
-871.83031141215542
 30
0.0
  0
POINT
  8
0
  6
CONTINUOUS
 62
               4
  5
312
 10
242.83392368588073
 20
-979.89819548119044
 30
0.0
  0
POINT
  8
0
  6
CONTINUOUS
 62
               4
  5
313
 10
-1.0781087646051333
 20
-979.89819548119044
 30
0.0
  0
POINT
  8
0
  6
CONTINUOUS
 62
               4
  5
314
 10
165.37790746063791
 20
-891.94217925594762
 30
0.0
  0
LINE
  8
0
  6
CONTINUOUS
 62
               4
  5
315
 10
686.2865232163075
 20
-1371.6775399051312
 30
0.0
 11
681.2865232163075
 21
-1366.6775399051312
 31
0.0
  0
ARC
  8
0
  6
CONTINUOUS
 62
               4
  5
316
 10
663.7865232163075
 20
-1382.213193657984
 30
0.0
 40
19.999999999999996
 50
0.0
 51
31.78833061703342
  0
LINE
  8
0
  6
CONTINUOUS
 62
               4
  5
317
 10
680.78652321630796
 20
-1371.6775399051312
 30
0.0
 11
680.78652321630796
 21
-1366.6775399051307
 31
0.0
  0
LINE
  8
0
  6
CONTINUOUS
 62
               4
  5
318
 10
681.2865232163075
 20
-1366.6775399051312
 30
0.0
 11
680.78652321630796
 21
-1366.6775399051312
 31
0.0
  0
LINE
  8
0
  6
CONTINUOUS
 62
               4
  5
319
 10
686.03652321630773
 20
-1371.9275399051312
 30
0.0
 11
680.78652321630796
 21
-1366.6775399051312
 31
0.0
  0
LINE
  8
0
  6
CONTINUOUS
 62
               4
  5
31A
 10
686.03652321630773
 20
-1371.9275399051312
 30
0.0
 11
686.2865232163075
 21
-1371.6775399051312
 31
0.0
  0
LINE
  8
0
  6
CONTINUOUS
 62
               4
  5
31B
 10
686.2865232163075
 20
-1371.6775399051312
 30
0.0
 11
686.2865232163075
 21
-1502.3662172551008
 31
0.0
  0
LINE
  8
0
  6
CONTINUOUS
 62
               4
  5
31C
 10
686.03652321630773
 20
-1371.9275399051312
 30
0.0
 11
686.03652321630773
 21
-1502.0808601479653
 31
0.0
  0
LINE
  8
0
  6
CONTINUOUS
 62
               4
  5
31D
 10
683.7865232163075
 20
-1382.0601700608668
 30
0.0
 11
683.7865232163075
 21
-1501.213193657984
 31
0.0
  0
POINT
  8
0
  6
CONTINUOUS
 62
               4
  5
31E
 10
653.7865232163075
 20
-1111.1137599093995
 30
0.0
  0
POINT
  8
0
  6
CONTINUOUS
 62
               4
  5
31F
 10
464.88652321630758
 20
-1396.713193657984
 30
0.0
  0
POINT
  8
0
  6
CONTINUOUS
 62
               4
  5
320
 10
464.88652321630769
 20
-1011.2137599093992
 30
0.0
  0
LINE
  8
0
  6
DASHED2
 62
               4
  5
321
 10
-57.000000000000171
 20
-62.75
 30
0.0
 11
56.999999999999602
 21
-62.75
 31
0.0
  0
LINE
  8
0
  6
DASHED2
 62
               4
  5
322
 10
-657.00000000000023
 20
-62.75
 30
0.0
 11
-543.00000000000045
 21
-62.75
 31
0.0
  0
LINE
  8
0
  6
DASHED2
 62
               4
  5
323
 10
542.99999999999977
 20
-62.75
 30
0.0
 11
656.99999999999955
 21
-62.75
 31
0.0
  0
LINE
  8
0
  6
DASHED2
 62
               4
  5
324
 10
552.28652321630773
 20
-1340.213193657984
 30
0.0
 11
666.2865232163075
 21
-1340.213193657984
 31
0.0
  0
POINT
  8
0
  6
CONTINUOUS
 62
               5
  5
325
 10
-392.13776905046899
 20
-1024.3981954811904
 30
0.0
  0
POINT
  8
0
  6
CONTINUOUS
 62
               5
  5
326
 10
-218.90769754050865
 20
-1025.6889895560794
 30
0.0
  0
POINT
  8
0
  6
CONTINUOUS
 62
               5
  5
327
 10
-565.36784056042927
 20
-1025.6889895560792
 30
0.0
  0
POINT
  8
0
  6
CONTINUOUS
 62
               5
  5
328
 10
-395.37452052112457
 20
-843.70023990219511
 30
0.0
  0
POINT
  8
0
  6
CONTINUOUS
 62
               5
  5
329
 10
493.0165947262679
 20
-1442.5039877328727
 30
0.0
  0
POINT
  8
0
  6
CONTINUOUS
 62
               5
  5
32A
 10
493.01659472626801
 20
-965.42296583451025
 30
0.0
  0
CIRCLE
  8
0
  6
CONTINUOUS
 62
               7
  5
32B
 10
-392.13776905046899
 20
-1030.8981954811904
 30
0.0
 40
38.0
  0
CIRCLE
  8
0
  6
CONTINUOUS
 62
               7
  5
32C
 10
-392.13776905046899
 20
-1030.8981954811904
 30
0.0
 40
33.5
  0
LINE
  8
0
  6
CONTINUOUS
 62
               7
  5
32D
 10
-247.63776905046899
 20
-979.89819548119044
 30
0.0
 11
-247.63776905046899
 21
-1068.892959360516
 31
0.0
  0
LINE
  8
0
  6
CONTINUOUS
 62
               7
  5
32E
 10
-247.03776905046897
 20
-979.89819548119044
 30
0.0
 11
-247.63776905046899
 21
-979.89819548119044
 31
0.0
  0
LINE
  8
0
  6
CONTINUOUS
 62
               7
  5
32F
 10
-282.63776905046899
 20
-1067.8981954811904
 30
0.0
 11
-282.63776905046899
 21
-993.89819548119044
 31
0.0
  0
LINE
  8
0
  6
CONTINUOUS
 62
               7
  5
330
 10
-189.63776905046899
 20
-1067.8981954811904
 30
0.0
 11
-189.63776905046899
 21
-980.89819548119044
 31
0.0
  0
LINE
  8
0
  6
CONTINUOUS
 62
               7
  5
331
 10
-247.63776905046899
 20
-979.89819548119044
 30
0.0
 11
-190.63776905046899
 21
-979.89819548119044
 31
0.0
  0
LINE
  8
0
  6
CONTINUOUS
 62
               7
  5
332
 10
-281.63776905046899
 20
-1068.8981954811904
 30
0.0
 11
-190.63776905046899
 21
-1068.8981954811904
 31
0.0
  0
LINE
  8
0
  6
CONTINUOUS
 62
               7
  5
333
 10
-190.63776905046899
 20
-979.89819548119044
 30
0.0
 11
-189.63776905046899
 21
-980.89819548119044
 31
0.0
  0
LINE
  8
0
  6
CONTINUOUS
 62
               7
  5
334
 10
-189.63776905046899
 20
-1067.8981954811904
 30
0.0
 11
-190.63776905046899
 21
-1068.8981954811904
 31
0.0
  0
LINE
  8
0
  6
CONTINUOUS
 62
               7
  5
335
 10
-281.63776905046899
 20
-992.89819548119044
 30
0.0
 11
-247.63776905046899
 21
-992.89819548119044
 31
0.0
  0
CIRCLE
  8
0
  6
CONTINUOUS
 62
               7
  5
336
 10
-392.13776905046899
 20
-1024.3981954811904
 30
0.0
 40
44.5
  0
LINE
  8
0
  6
CONTINUOUS
 62
               7
  5
337
 10
-281.63776905046899
 20
-992.89819548119044
 30
0.0
 11
-282.63776905046899
 21
-993.89819548119044
 31
0.0
  0
LINE
  8
0
  6
CONTINUOUS
 62
               7
  5
338
 10
-282.63776905046899
 20
-1067.8981954811904
 30
0.0
 11
-281.63776905046899
 21
-1068.8981954811904
 31
0.0
  0
LINE
  8
0
  6
CONTINUOUS
 62
               7
  5
339
 10
-536.63776905046882
 20
-979.89819548119021
 30
0.0
 11
-536.63776905046905
 21
-1068.8929593605158
 31
0.0
  0
LINE
  8
0
  6
CONTINUOUS
 62
               7
  5
33A
 10
-537.23776905046896
 20
-979.89819548119021
 30
0.0
 11
-536.63776905046882
 21
-979.89819548119021
 31
0.0
  0
LINE
  8
0
  6
CONTINUOUS
 62
               7
  5
33B
 10
-501.63776905046905
 20
-1067.8981954811902
 30
0.0
 11
-501.63776905046882
 21
-993.89819548119021
 31
0.0
  0
LINE
  8
0
  6
CONTINUOUS
 62
               7
  5
33C
 10
-594.63776905046905
 20
-1067.8981954811902
 30
0.0
 11
-594.63776905046882
 21
-980.89819548119021
 31
0.0
  0
LINE
  8
0
  6
CONTINUOUS
 62
               7
  5
33D
 10
-536.63776905046882
 20
-979.89819548119021
 30
0.0
 11
-593.63776905046882
 21
-979.89819548119021
 31
0.0
  0
LINE
  8
0
  6
CONTINUOUS
 62
               7
  5
33E
 10
-502.63776905046905
 20
-1068.8981954811902
 30
0.0
 11
-593.63776905046905
 21
-1068.8981954811902
 31
0.0
  0
LINE
  8
0
  6
CONTINUOUS
 62
               7
  5
33F
 10
-593.63776905046882
 20
-979.89819548119021
 30
0.0
 11
-594.63776905046882
 21
-980.89819548119021
 31
0.0
  0
LINE
  8
0
  6
CONTINUOUS
 62
               7
  5
340
 10
-594.63776905046905
 20
-1067.8981954811902
 30
0.0
 11
-593.63776905046905
 21
-1068.8981954811902
 31
0.0
  0
LINE
  8
0
  6
CONTINUOUS
 62
               7
  5
341
 10
-502.63776905046882
 20
-992.89819548119021
 30
0.0
 11
-536.63776905046882
 21
-992.89819548119021
 31
0.0
  0
LINE
  8
0
  6
CONTINUOUS
 62
               7
  5
342
 10
-502.63776905046882
 20
-992.89819548119021
 30
0.0
 11
-501.63776905046882
 21
-993.89819548119021
 31
0.0
  0
LINE
  8
0
  6
CONTINUOUS
 62
               7
  5
343
 10
-501.63776905046905
 20
-1067.8981954811902
 30
0.0
 11
-502.63776905046905
 21
-1068.8981954811902
 31
0.0
  0
LINE
  8
0
  6
CONTINUOUS
 62
               7
  5
344
 10
-349.58372644623552
 20
-872.43031141215556
 30
0.0
 11
-438.57849032556106
 21
-872.43031141215533
 31
0.0
  0
LINE
  8
0
  6
CONTINUOUS
 62
               7
  5
345
 10
-349.58372644623552
 20
-871.83031141215542
 30
0.0
 11
-349.58372644623552
 21
-872.43031141215556
 31
0.0
  0
LINE
  8
0
  6
CONTINUOUS
 62
               7
  5
346
 10
-431.08372644623552
 20
-907.43031141215533
 30
0.0
 11
-357.08372644623552
 21
-907.43031141215556
 31
0.0
  0
LINE
  8
0
  6
CONTINUOUS
 62
               7
  5
347
 10
-437.5837264462354
 20
-814.43031141215533
 30
0.0
 11
-350.58372644623552
 21
-814.43031141215556
 31
0.0
  0
LINE
  8
0
  6
CONTINUOUS
 62
               7
  5
348
 10
-349.58372644623552
 20
-872.43031141215556
 30
0.0
 11
-349.58372644623552
 21
-815.43031141215556
 31
0.0
  0
LINE
  8
0
  6
CONTINUOUS
 62
               7
  5
349
 10
-432.08372644623552
 20
-906.43031141215533
 30
0.0
 11
-432.08372644623552
 21
-872.43031141215533
 31
0.0
  0
LINE
  8
0
  6
CONTINUOUS
 62
               7
  5
34A
 10
-349.58372644623552
 20
-815.43031141215556
 30
0.0
 11
-350.58372644623552
 21
-814.43031141215556
 31
0.0
  0
LINE
  8
0
  6
CONTINUOUS
 62
               7
  5
34B
 10
-437.5837264462354
 20
-814.43031141215533
 30
0.0
 11
-438.5837264462354
 21
-815.43031141215533
 31
0.0
  0
LINE
  8
0
  6
CONTINUOUS
 62
               7
  5
34C
 10
-356.08372644623552
 20
-906.43031141215556
 30
0.0
 11
-356.08372644623552
 21
-872.43031141215533
 31
0.0
  0
LINE
  8
0
  6
CONTINUOUS
 62
               7
  5
34D
 10
-356.08372644623552
 20
-906.43031141215556
 30
0.0
 11
-357.08372644623552
 21
-907.43031141215556
 31
0.0
  0
LINE
  8
0
  6
CONTINUOUS
 62
               7
  5
34E
 10
-431.08372644623552
 20
-907.43031141215533
 30
0.0
 11
-432.08372644623552
 21
-906.43031141215533
 31
0.0
  0
LINE
  8
0
  6
CONTINUOUS
 62
               7
  5
34F
 10
-438.58372644623552
 20
-872.43031141215533
 30
0.0
 11
-438.58372644623552
 21
-815.43031141215533
 31
0.0
  0
LINE
  8
0
  6
CONTINUOUS
 62
               7
  5
350
 10
216.63392368588069
 20
-1067.8981954811904
 30
0.0
 11
216.63392368588069
 21
-1009.8981954811904
 31
0.0
  0
LINE
  8
0
  6
CONTINUOUS
 62
               7
  5
351
 10
242.2339236858806
 20
-979.89819548119044
 30
0.0
 11
242.2339236858806
 21
-1068.8981954811904
 31
0.0
  0
LINE
  8
0
  6
CONTINUOUS
 62
               7
  5
352
 10
242.83392368588073
 20
-979.89819548119044
 30
0.0
 11
242.2339236858806
 21
-979.89819548119044
 31
0.0
  0
LINE
  8
0
  6
CONTINUOUS
 62
               7
  5
353
 10
300.23392368588082
 20
-1067.8981954811904
 30
0.0
 11
300.23392368588082
 21
-980.89819548119044
 31
0.0
  0
CIRCLE
  8
0
  6
CONTINUOUS
 62
               7
  5
354
 10
120.87790746063769
 20
-1038.8981954811904
 30
0.0
 40
30.0
  0
CIRCLE
  8
0
  6
CONTINUOUS
 62
               7
  5
355
 10
120.87790746063769
 20
-1038.8981954811904
 30
0.0
 40
25.5
  0
CIRCLE
  8
0
  6
CONTINUOUS
 62
               7
  5
356
 10
120.87790746063769
 20
-1024.3981954811904
 30
0.0
 40
44.5
  0
LINE
  8
0
  6
CONTINUOUS
 62
               7
  5
357
 10
242.36837543136102
 20
-979.89819548119044
 30
0.0
 11
299.23392368588082
 21
-979.89819548119044
 31
0.0
  0
LINE
  8
0
  6
CONTINUOUS
 62
               7
  5
358
 10
217.63392368588069
 20
-1068.8981954811904
 30
0.0
 11
299.23392368588082
 21
-1068.8981954811904
 31
0.0
  0
LINE
  8
0
  6
CONTINUOUS
 62
               7
  5
359
 10
217.63392368588069
 20
-1008.8981954811904
 30
0.0
 11
242.2339236858806
 21
-1008.8981954811904
 31
0.0
  0
LINE
  8
0
  6
CONTINUOUS
 62
               7
  5
35A
 10
217.63392368588069
 20
-1008.8981954811904
 30
0.0
 11
216.63392368588069
 21
-1009.8981954811904
 31
0.0
  0
LINE
  8
0
  6
CONTINUOUS
 62
               7
  5
35B
 10
299.23392368588082
 20
-979.89819548119044
 30
0.0
 11
300.23392368588082
 21
-980.89819548119044
 31
0.0
  0
LINE
  8
0
  6
CONTINUOUS
 62
               7
  5
35C
 10
216.63392368588069
 20
-1067.8981954811904
 30
0.0
 11
217.63392368588069
 21
-1068.8981954811904
 31
0.0
  0
LINE
  8
0
  6
CONTINUOUS
 62
               7
  5
35D
 10
300.23392368588082
 20
-1067.8981954811904
 30
0.0
 11
299.23392368588082
 21
-1068.8981954811904
 31
0.0
  0
LINE
  8
0
  6
CONTINUOUS
 62
               7
  5
35E
 10
25.121891235394912
 20
-1067.8981954811904
 30
0.0
 11
25.121891235394912
 21
-1009.8981954811904
 31
0.0
  0
LINE
  8
0
  6
CONTINUOUS
 62
               7
  5
35F
 10
-0.4781087646051105
 20
-979.89819548119044
 30
0.0
 11
-0.4781087646051105
 21
-1068.8981954811904
 31
0.0
  0
LINE
  8
0
  6
CONTINUOUS
 62
               7
  5
360
 10
-1.0781087646051333
 20
-979.89819548119044
 30
0.0
 11
-0.4781087646051105
 21
-979.89819548119044
 31
0.0
  0
LINE
  8
0
  6
CONTINUOUS
 62
               7
  5
361
 10
-58.478108764605111
 20
-1067.8981954811904
 30
0.0
 11
-58.478108764605111
 21
-980.89819548119044
 31
0.0
  0
LINE
  8
0
  6
CONTINUOUS
 62
               7
  5
362
 10
-0.6125605100854159
 20
-979.89819548119044
 30
0.0
 11
-57.478108764605111
 21
-979.89819548119044
 31
0.0
  0
LINE
  8
0
  6
CONTINUOUS
 62
               7
  5
363
 10
24.121891235394912
 20
-1068.8981954811904
 30
0.0
 11
-57.478108764605111
 21
-1068.8981954811904
 31
0.0
  0
LINE
  8
0
  6
CONTINUOUS
 62
               7
  5
364
 10
24.121891235394912
 20
-1008.8981954811904
 30
0.0
 11
-0.4781087646051105
 21
-1008.8981954811904
 31
0.0
  0
LINE
  8
0
  6
CONTINUOUS
 62
               7
  5
365
 10
24.121891235394912
 20
-1008.8981954811904
 30
0.0
 11
25.121891235394912
 21
-1009.8981954811904
 31
0.0
  0
LINE
  8
0
  6
CONTINUOUS
 62
               7
  5
366
 10
-57.478108764605111
 20
-979.89819548119044
 30
0.0
 11
-58.478108764605111
 21
-980.89819548119044
 31
0.0
  0
LINE
  8
0
  6
CONTINUOUS
 62
               7
  5
367
 10
25.121891235394912
 20
-1067.8981954811904
 30
0.0
 11
24.121891235394912
 21
-1068.8981954811904
 31
0.0
  0
LINE
  8
0
  6
CONTINUOUS
 62
               7
  5
368
 10
-58.478108764605111
 20
-1067.8981954811904
 30
0.0
 11
-57.478108764605111
 21
-1068.8981954811904
 31
0.0
  0
LINE
  8
0
  6
CONTINUOUS
 62
               7
  5
369
 10
91.877907460637914
 20
-918.14217925594767
 30
0.0
 11
149.87790746063791
 21
-918.14217925594767
 31
0.0
  0
LINE
  8
0
  6
CONTINUOUS
 62
               7
  5
36A
 10
165.37790746063791
 20
-892.54217925594753
 30
0.0
 11
76.377907460637914
 21
-892.54217925594753
 31
0.0
  0
LINE
  8
0
  6
CONTINUOUS
 62
               7
  5
36B
 10
165.37790746063791
 20
-891.94217925594762
 30
0.0
 11
165.37790746063791
 21
-892.54217925594753
 31
0.0
  0
LINE
  8
0
  6
CONTINUOUS
 62
               7
  5
36C
 10
77.377907460637914
 20
-834.54217925594753
 30
0.0
 11
164.37790746063791
 21
-834.54217925594753
 31
0.0
  0
LINE
  8
0
  6
CONTINUOUS
 62
               7
  5
36D
 10
165.37790746063791
 20
-892.40772751046734
 30
0.0
 11
165.37790746063791
 21
-835.54217925594753
 31
0.0
  0
LINE
  8
0
  6
CONTINUOUS
 62
               7
  5
36E
 10
90.877907460637914
 20
-917.14217925594767
 30
0.0
 11
90.877907460637914
 21
-892.54217925594753
 31
0.0
  0
LINE
  8
0
  6
CONTINUOUS
 62
               7
  5
36F
 10
150.87790746063791
 20
-917.14217925594767
 30
0.0
 11
150.87790746063791
 21
-892.54217925594753
 31
0.0
  0
LINE
  8
0
  6
CONTINUOUS
 62
               7
  5
370
 10
150.87790746063791
 20
-917.14217925594767
 30
0.0
 11
149.87790746063791
 21
-918.14217925594767
 31
0.0
  0
LINE
  8
0
  6
CONTINUOUS
 62
               7
  5
371
 10
165.37790746063791
 20
-835.54217925594753
 30
0.0
 11
164.37790746063791
 21
-834.54217925594753
 31
0.0
  0
LINE
  8
0
  6
CONTINUOUS
 62
               7
  5
372
 10
91.877907460637914
 20
-918.14217925594767
 30
0.0
 11
90.877907460637914
 21
-917.14217925594767
 31
0.0
  0
LINE
  8
0
  6
CONTINUOUS
 62
               7
  5
373
 10
77.377907460637914
 20
-834.54217925594753
 30
0.0
 11
76.377907460637914
 21
-835.54217925594753
 31
0.0
  0
LINE
  8
0
  6
CONTINUOUS
 62
               7
  5
374
 10
76.377907460637914
 20
-892.40772751046711
 30
0.0
 11
76.377907460637914
 21
-835.54217925594753
 31
0.0
  0
CIRCLE
  8
0
  6
CONTINUOUS
 62
               7
  5
375
 10
609.2865232163075
 20
-1455.713193657984
 30
0.0
 40
25.5
  0
CIRCLE
  8
0
  6
CONTINUOUS
 62
               7
  5
376
 10
609.2865232163075
 20
-1441.213193657984
 30
0.0
 40
44.5
  0
CIRCLE
  8
0
  6
CONTINUOUS
 62
               7
  5
377
 10
609.2865232163075
 20
-1455.713193657984
 30
0.0
 40
30.0
  0
LINE
  8
0
  6
CONTINUOUS
 62
               7
  5
378
 10
580.2865232163075
 20
-1137.3137599093993
 30
0.0
 11
638.2865232163075
 21
-1137.3137599093993
 31
0.0
  0
LINE
  8
0
  6
CONTINUOUS
 62
               7
  5
379
 10
653.7865232163075
 20
-1111.7137599093994
 30
0.0
 11
564.7865232163075
 21
-1111.7137599093994
 31
0.0
  0
LINE
  8
0
  6
CONTINUOUS
 62
               7
  5
37A
 10
653.7865232163075
 20
-1111.1137599093995
 30
0.0
 11
653.7865232163075
 21
-1111.7137599093994
 31
0.0
  0
LINE
  8
0
  6
CONTINUOUS
 62
               7
  5
37B
 10
565.7865232163075
 20
-1053.7137599093994
 30
0.0
 11
652.7865232163075
 21
-1053.7137599093994
 31
0.0
  0
LINE
  8
0
  6
CONTINUOUS
 62
               7
  5
37C
 10
653.7865232163075
 20
-1111.579308163919
 30
0.0
 11
653.7865232163075
 21
-1054.7137599093994
 31
0.0
  0
LINE
  8
0
  6
CONTINUOUS
 62
               7
  5
37D
 10
579.2865232163075
 20
-1136.3137599093993
 30
0.0
 11
579.2865232163075
 21
-1111.7137599093994
 31
0.0
  0
LINE
  8
0
  6
CONTINUOUS
 62
               7
  5
37E
 10
639.2865232163075
 20
-1136.3137599093993
 30
0.0
 11
639.2865232163075
 21
-1111.7137599093994
 31
0.0
  0
LINE
  8
0
  6
CONTINUOUS
 62
               7
  5
37F
 10
639.2865232163075
 20
-1136.3137599093993
 30
0.0
 11
638.2865232163075
 21
-1137.3137599093993
 31
0.0
  0
LINE
  8
0
  6
CONTINUOUS
 62
               7
  5
380
 10
653.7865232163075
 20
-1054.7137599093994
 30
0.0
 11
652.7865232163075
 21
-1053.7137599093994
 31
0.0
  0
LINE
  8
0
  6
CONTINUOUS
 62
               7
  5
381
 10
580.2865232163075
 20
-1137.3137599093993
 30
0.0
 11
579.2865232163075
 21
-1136.3137599093993
 31
0.0
  0
LINE
  8
0
  6
CONTINUOUS
 62
               7
  5
382
 10
565.7865232163075
 20
-1053.7137599093994
 30
0.0
 11
564.7865232163075
 21
-1054.7137599093994
 31
0.0
  0
LINE
  8
0
  6
CONTINUOUS
 62
               7
  5
383
 10
564.7865232163075
 20
-1111.579308163919
 30
0.0
 11
564.7865232163075
 21
-1054.7137599093994
 31
0.0
  0
LINE
  8
0
  6
CONTINUOUS
 62
               7
  5
384
 10
464.28652321630756
 20
-1396.713193657984
 30
0.0
 11
464.28652321630756
 21
-1485.7079575373095
 31
0.0
  0
LINE
  8
0
  6
CONTINUOUS
 62
               7
  5
385
 10
464.88652321630758
 20
-1396.713193657984
 30
0.0
 11
464.28652321630756
 21
-1396.713193657984
 31
0.0
  0
LINE
  8
0
  6
CONTINUOUS
 62
               7
  5
386
 10
429.28652321630756
 20
-1484.713193657984
 30
0.0
 11
429.28652321630756
 21
-1410.713193657984
 31
0.0
  0
LINE
  8
0
  6
CONTINUOUS
 62
               7
  5
387
 10
522.28652321630761
 20
-1484.713193657984
 30
0.0
 11
522.28652321630761
 21
-1397.713193657984
 31
0.0
  0
LINE
  8
0
  6
CONTINUOUS
 62
               7
  5
388
 10
464.28652321630756
 20
-1396.713193657984
 30
0.0
 11
521.28652321630761
 21
-1396.713193657984
 31
0.0
  0
LINE
  8
0
  6
CONTINUOUS
 62
               7
  5
389
 10
430.28652321630756
 20
-1485.713193657984
 30
0.0
 11
521.28652321630761
 21
-1485.713193657984
 31
0.0
  0
LINE
  8
0
  6
CONTINUOUS
 62
               7
  5
38A
 10
521.28652321630761
 20
-1396.713193657984
 30
0.0
 11
522.28652321630761
 21
-1397.713193657984
 31
0.0
  0
LINE
  8
0
  6
CONTINUOUS
 62
               7
  5
38B
 10
522.28652321630761
 20
-1484.713193657984
 30
0.0
 11
521.28652321630761
 21
-1485.713193657984
 31
0.0
  0
LINE
  8
0
  6
CONTINUOUS
 62
               7
  5
38C
 10
430.28652321630756
 20
-1409.713193657984
 30
0.0
 11
464.28652321630756
 21
-1409.713193657984
 31
0.0
  0
LINE
  8
0
  6
CONTINUOUS
 62
               7
  5
38D
 10
430.28652321630756
 20
-1409.713193657984
 30
0.0
 11
429.28652321630756
 21
-1410.713193657984
 31
0.0
  0
LINE
  8
0
  6
CONTINUOUS
 62
               7
  5
38E
 10
429.28652321630756
 20
-1484.713193657984
 30
0.0
 11
430.28652321630756
 21
-1485.713193657984
 31
0.0
  0
LINE
  8
0
  6
CONTINUOUS
 62
               7
  5
38F
 10
464.28652321630756
 20
-1011.2137599093992
 30
0.0
 11
464.28652321630778
 21
-922.21899603007364
 31
0.0
  0
LINE
  8
0
  6
CONTINUOUS
 62
               7
  5
390
 10
464.88652321630769
 20
-1011.2137599093992
 30
0.0
 11
464.28652321630756
 21
-1011.2137599093992
 31
0.0
  0
LINE
  8
0
  6
CONTINUOUS
 62
               7
  5
391
 10
429.28652321630778
 20
-929.71375990939919
 30
0.0
 11
429.28652321630756
 21
-1003.7137599093992
 31
0.0
  0
LINE
  8
0
  6
CONTINUOUS
 62
               7
  5
392
 10
522.28652321630784
 20
-923.21375990939941
 30
0.0
 11
522.28652321630761
 21
-1010.2137599093992
 31
0.0
  0
LINE
  8
0
  6
CONTINUOUS
 62
               7
  5
393
 10
464.28652321630756
 20
-1011.2137599093992
 30
0.0
 11
521.28652321630761
 21
-1011.2137599093992
 31
0.0
  0
LINE
  8
0
  6
CONTINUOUS
 62
               7
  5
394
 10
430.28652321630778
 20
-928.71375990939919
 30
0.0
 11
464.28652321630778
 21
-928.71375990939919
 31
0.0
  0
LINE
  8
0
  6
CONTINUOUS
 62
               7
  5
395
 10
521.28652321630761
 20
-1011.2137599093992
 30
0.0
 11
522.28652321630761
 21
-1010.2137599093992
 31
0.0
  0
LINE
  8
0
  6
CONTINUOUS
 62
               7
  5
396
 10
522.28652321630784
 20
-923.21375990939941
 30
0.0
 11
521.28652321630784
 21
-922.21375990939941
 31
0.0
  0
LINE
  8
0
  6
CONTINUOUS
 62
               7
  5
397
 10
430.28652321630756
 20
-1004.7137599093992
 30
0.0
 11
464.28652321630778
 21
-1004.7137599093992
 31
0.0
  0
LINE
  8
0
  6
CONTINUOUS
 62
               7
  5
398
 10
430.28652321630756
 20
-1004.7137599093992
 30
0.0
 11
429.28652321630756
 21
-1003.7137599093992
 31
0.0
  0
LINE
  8
0
  6
CONTINUOUS
 62
               7
  5
399
 10
429.28652321630778
 20
-929.71375990939919
 30
0.0
 11
430.28652321630778
 21
-928.71375990939919
 31
0.0
  0
LINE
  8
0
  6
CONTINUOUS
 62
               7
  5
39A
 10
464.28652321630778
 20
-922.21375990939919
 30
0.0
 11
521.28652321630784
 21
-922.21375990939919
 31
0.0
  0
CIRCLE
  8
0
  6
DASHED
 62
               7
  5
39B
 10
-392.13776905046899
 20
-1024.3981954811904
 30
0.0
 40
40.0
  0
CIRCLE
  8
0
  6
DASHED
 62
               7
  5
39C
 10
120.87790746063769
 20
-1024.3981954811904
 30
0.0
 40
40.0
  0
CIRCLE
  8
0
  6
DASHED
 62
               7
  5
39D
 10
609.2865232163075
 20
-1441.213193657984
 30
0.0
 40
40.0
  0
TEXT
  8
0
 62
               3
  5
39E
 10
-392.13776905046899
 20
-1108.8981954811902
 30
0.0
 40
40.0
  1
EMB_80×65
 41
0.8
 72
               1
 11
-392.13776905046899
 21
-1108.8981954811902
 31
0.0
 73
               3
  0
TEXT
  8
0
 62
               3
  5
39F
 10
120.87790746063769
 20
-1108.8981954811907
 30
0.0
 40
40.0
  1
EMB_80×50
 41
0.8
 72
               1
 11
120.87790746063769
 21
-1108.8981954811907
 31
0.0
 73
               3
  0
TEXT
  8
0
 62
               3
  5
3A0
 10
605.58911923866719
 20
-787.2673914041801
 30
0.0
 40
40.0
  1
EMB使用例
 41
0.8
 72
               1
 11
605.58911923866719
 21
-787.2673914041801
 31
0.0
 73
               3
  0
TEXT
  8
0
 62
               3
  5
3A1
 10
-123.74270409089118
 20
-732.90725550384059
 30
0.0
 40
35.0
  1
横枝管に呼び６５、５０の管を接続するときは、EMBをご使用ください。
 41
0.8
 72
               1
 11
-123.74270409089118
 21
-732.90725550384059
 31
0.0
 73
               3
  0
ENDSEC
  0
EOF
