  0
SECTION
  2
HEADER
  9
$ACADVER
  1
AC1009
  9
$INSBASE
 10
0.0
 20
0.0
 30
0.0
  9
$EXTMIN
 10
-716.62573046432613
 20
-1574.8358253300071
 30
0.0
  9
$EXTMAX
 10
745.91225368063397
 20
677.56540833980409
 30
0.0
  9
$LIMMIN
 10
-762.33004246885616
 20
-1645.2233638821888
  9
$LIMMAX
 10
791.61656568516401
 20
747.95294689198568
  9
$ORTHOMODE
 70
               0
  9
$REGENMODE
 70
               1
  9
$FILLMODE
 70
               1
  9
$QTEXTMODE
 70
               0
  9
$MIRRTEXT
 70
               1
  9
$DRAGMODE
 70
               2
  9
$LTSCALE
 40
1.0
  9
$OSMODE
 70
               0
  9
$ATTMODE
 70
               1
  9
$TEXTSIZE
 40
0.2
  9
$TRACEWID
 40
0.05
  9
$TEXTSTYLE
  7
STANDARD
  9
$CLAYER
  8
0
  9
$CELTYPE
  6
CONTINUOUS
  9
$CECOLOR
 62
             256
  9
$DIMSCALE
 40
1.0
  9
$DIMASZ
 40
0.18
  9
$DIMEXO
 40
0.0625
  9
$DIMDLI
 40
0.38
  9
$DIMRND
 40
0.0
  9
$DIMDLE
 40
0.0
  9
$DIMEXE
 40
0.18
  9
$DIMTP
 40
0.0
  9
$DIMTM
 40
0.0
  9
$DIMTXT
 40
0.18
  9
$DIMCEN
 40
0.09
  9
$DIMTSZ
 40
0.0
  9
$DIMTOL
 70
               0
  9
$DIMLIM
 70
               0
  9
$DIMTIH
 70
               1
  9
$DIMTOH
 70
               1
  9
$DIMSE1
 70
               0
  9
$DIMSE2
 70
               0
  9
$DIMTAD
 70
               0
  9
$DIMZIN
 70
               0
  9
$DIMBLK
  1

  9
$DIMASO
 70
               1
  9
$DIMSHO
 70
               1
  9
$DIMPOST
  1

  9
$DIMAPOST
  1

  9
$DIMALT
 70
               0
  9
$DIMALTD
 70
               2
  9
$DIMALTF
 40
25.399999999999999
  9
$DIMLFAC
 40
1.0
  9
$DIMTOFL
 70
               0
  9
$DIMTVP
 40
0.0
  9
$DIMTIX
 70
               0
  9
$DIMSOXD
 70
               0
  9
$DIMSAH
 70
               0
  9
$DIMBLK1
  1

  9
$DIMBLK2
  1

  9
$DIMSTYLE
  2
STANDARD
  9
$DIMCLRD
 70
               0
  9
$DIMCLRE
 70
               0
  9
$DIMCLRT
 70
               0
  9
$DIMTFAC
 40
1.0
  9
$DIMGAP
 40
0.09
  9
$LUNITS
 70
               2
  9
$LUPREC
 70
               4
  9
$AXISMODE
 70
               0
  9
$AXISUNIT
 10
0.0
 20
0.0
  9
$SKETCHINC
 40
0.1
  9
$FILLETRAD
 40
0.0
  9
$AUNITS
 70
               0
  9
$AUPREC
 70
               0
  9
$MENU
  1
acad
  9
$ELEVATION
 40
0.0
  9
$PELEVATION
 40
0.0
  9
$THICKNESS
 40
0.0
  9
$LIMCHECK
 70
               0
  9
$BLIPMODE
 70
               1
  9
$CHAMFERA
 40
0.0
  9
$CHAMFERB
 40
0.0
  9
$SKPOLY
 70
               0
  9
$TDCREATE
 40
0.000000000
  9
$TDUPDATE
 40
0.000000000
  9
$TDINDWG
 40
0.0000000000
  9
$TDUSRTIMER
 40
0.0000000000
  9
$USRTIMER
 70
               1
  9
$ANGBASE
 50
0.0
  9
$ANGDIR
 70
               0
  9
$PDMODE
 70
               0
  9
$PDSIZE
 40
1.0
  9
$PLINEWID
 40
0.0
  9
$COORDS
 70
               1
  9
$SPLFRAME
 70
               0
  9
$SPLINETYPE
 70
               6
  9
$SPLINESEGS
 70
               8
  9
$ATTDIA
 70
               0
  9
$ATTREQ
 70
               1
  9
$HANDLING
 70
               1
  9
$HANDSEED
  5
36A
  9
$SURFTAB1
 70
               6
  9
$SURFTAB2
 70
               6
  9
$SURFTYPE
 70
               6
  9
$SURFU
 70
               6
  9
$SURFV
 70
               6
  9
$UCSNAME
  2

  9
$UCSORG
 10
0.0
 20
0.0
 30
0.0
  9
$UCSXDIR
 10
1.0
 20
0.0
 30
0.0
  9
$UCSYDIR
 10
0.0
 20
1.0
 30
0.0
  9
$PUCSNAME
  2

  9
$PUCSORG
 10
0.0
 20
0.0
 30
0.0
  9
$PUCSXDIR
 10
1.0
 20
0.0
 30
0.0
  9
$PUCSYDIR
 10
0.0
 20
1.0
 30
0.0
  9
$USERI1
 70
               0
  9
$USERI2
 70
               0
  9
$USERI3
 70
               0
  9
$USERI4
 70
               0
  9
$USERI5
 70
               0
  9
$USERR1
 40
0.0
  9
$USERR2
 40
0.0
  9
$USERR3
 40
0.0
  9
$USERR4
 40
0.0
  9
$USERR5
 40
0.0
  9
$WORLDVIEW
 70
               1
  9
$SHADEDGE
 70
               3
  9
$SHADEDIF
 70
              70
  9
$TILEMODE
 70
               1
  9
$MAXACTVP
 70
              16
  9
$PINSBASE
 10
0.0
 20
0.0
 30
0.0
  9
$PLIMCHECK
 70
               0
  9
$PEXTMIN
 10
1.0000000000000000E+20
 20
1.0000000000000000E+20
 30
1.0000000000000000E+20
  9
$PEXTMAX
 10
-1.0000000000000000E+20
 20
-1.0000000000000000E+20
 30
-1.0000000000000000E+20
  9
$PLIMMIN
 10
0.0
 20
0.0
  9
$PLIMMAX
 10
12.0
 20
9.0
  9
$UNITMODE
 70
               0
  9
$VISRETAIN
 70
               0
  9
$PLINEGEN
 70
               1
  9
$PSLTSCALE
 70
               0
  9
$TREEDEPTH
 70
            3020
  9
$DWGCODEPAGE
  3
dos932
  0
ENDSEC
  0
SECTION
  2
TABLES
  0
TABLE
  2
VPORT
 70
               1
  0
VPORT
  2
*ACTIVE
 70
               0
 10
0.0
 20
0.0
 11
1.0
 21
1.0
 12
14.643261608153921
 22
-448.63520849510155
 13
0.0
 23
0.0
 14
1.0
 24
1.0
 15
0.0
 25
0.0
 16
0.0
 26
0.0
 36
1.0
 17
0.0
 27
0.0
 37
0.0
 40
2393.1763107741745
 41
0.6493239136448455
 42
50.0
 43
0.0
 44
0.0
 50
0.0
 51
0.0
 71
               0
 72
             100
 73
               1
 74
               1
 75
               0
 76
               0
 77
               0
 78
               0
  0
ENDTAB
  0
TABLE
  2
LTYPE
 70
              26
  0
LTYPE
  2
CONTINUOUS
 70
               0
  3
Solid line
 72
              65
 73
               0
 40
0.0
  0
LTYPE
  2
HIDDENX2
 70
               0
  3
CADPAC FUSION LINETYPE
 72
              65
 73
               2
 40
47.560000000000002
 49
35.670000000000002
 49
-11.890000000000001
  0
LTYPE
  2
HIDDEN
 70
               0
  3
CADPAC FUSION LINETYPE
 72
              65
 73
               2
 40
35.670000000000002
 49
23.780000000000001
 49
-11.890000000000001
  0
LTYPE
  2
HIDDEN2
 70
               0
  3
CADPAC FUSION LINETYPE
 72
              65
 73
               2
 40
29.725000000000001
 49
17.835000000000001
 49
-11.890000000000001
  0
LTYPE
  2
DASHED
 70
               0
  3
CADPAC FUSION LINETYPE
 72
              65
 73
               2
 40
35.670000000000002
 49
23.780000000000001
 49
-11.890000000000001
  0
LTYPE
  2
DASHED2
 70
               0
  3
CADPAC FUSION LINETYPE
 72
              65
 73
               2
 40
26.752500000000001
 49
17.835000000000001
 49
-8.9175000000000004
  0
LTYPE
  2
DASHEDX2
 70
               0
  3
CADPAC FUSION LINETYPE
 72
              65
 73
               2
 40
53.505000000000003
 49
35.670000000000002
 49
-17.835000000000001
  0
LTYPE
  2
DOTX2
 70
               0
  3
CADPAC FUSION LINETYPE
 72
              65
 73
               2
 40
14.862500000000001
 49
0.0
 49
-14.862500000000001
  0
LTYPE
  2
DOT
 70
               0
  3
CADPAC FUSION LINETYPE
 72
              65
 73
               2
 40
11.890000000000001
 49
0.0
 49
-11.890000000000001
  0
LTYPE
  2
DOTS
 70
               0
  3
CADPAC FUSION LINETYPE
 72
              65
 73
               2
 40
11.890000000000001
 49
0.0
 49
-11.890000000000001
  0
LTYPE
  2
DOT2
 70
               0
  3
CADPAC FUSION LINETYPE
 72
              65
 73
               2
 40
8.9175000000000004
 49
0.0
 49
-8.9175000000000004
  0
LTYPE
  2
CENTERX2
 70
               0
  3
CADPAC FUSION LINETYPE
 72
              65
 73
               4
 40
71.340000000000003
 49
29.725000000000001
 49
-14.862500000000001
 49
11.890000000000001
 49
-14.862500000000001
  0
LTYPE
  2
CENTER
 70
               0
  3
CADPAC FUSION LINETYPE
 72
              65
 73
               4
 40
54.694000000000003
 49
23.780000000000001
 49
-11.890000000000001
 49
7.1340000000000003
 49
-11.890000000000001
  0
LTYPE
  2
CENTER2
 70
               0
  3
CADPAC FUSION LINETYPE
 72
              65
 73
               4
 40
38.048000000000002
 49
17.835000000000001
 49
-8.9175000000000004
 49
2.3780000000000001
 49
-8.9175000000000004
  0
LTYPE
  2
DASHDOTX2
 70
               0
  3
CADPAC FUSION LINETYPE
 72
              65
 73
               4
 40
59.450000000000003
 49
29.725000000000001
 49
-14.862500000000001
 49
0.0
 49
-14.862500000000001
  0
LTYPE
  2
DASHDOT
 70
               0
  3
CADPAC FUSION LINETYPE
 72
              65
 73
               4
 40
47.560000000000002
 49
23.780000000000001
 49
-11.890000000000001
 49
0.0
 49
-11.890000000000001
  0
LTYPE
  2
DASHDOT2
 70
               0
  3
CADPAC FUSION LINETYPE
 72
              65
 73
               4
 40
35.670000000000002
 49
17.835000000000001
 49
-8.9175000000000004
 49
0.0
 49
-8.9175000000000004
  0
LTYPE
  2
DIVIDEX2
 70
               0
  3
CADPAC FUSION LINETYPE
 72
              65
 73
               6
 40
74.3125
 49
29.725000000000001
 49
-14.862500000000001
 49
0.0
 49
-14.862500000000001
 49
0.0
 49
-14.862500000000001
  0
LTYPE
  2
DIVIDE
 70
               0
  3
CADPAC FUSION LINETYPE
 72
              65
 73
               6
 40
59.450000000000003
 49
23.780000000000001
 49
-11.890000000000001
 49
0.0
 49
-11.890000000000001
 49
0.0
 49
-11.890000000000001
  0
LTYPE
  2
DIVIDE2
 70
               0
  3
CADPAC FUSION LINETYPE
 72
              65
 73
               6
 40
44.587500000000006
 49
17.835000000000001
 49
-8.9175000000000004
 49
0.0
 49
-8.9175000000000004
 49
0.0
 49
-8.9175000000000004
  0
LTYPE
  2
BORDERX2
 70
               0
  3
CADPAC FUSION LINETYPE
 72
              65
 73
               6
 40
104.03750000000001
 49
29.725000000000001
 49
-14.862500000000001
 49
29.725000000000001
 49
-14.862500000000001
 49
0.0
 49
-14.862500000000001
  0
LTYPE
  2
BORDER
 70
               0
  3
CADPAC FUSION LINETYPE
 72
              65
 73
               6
 40
83.230000000000004
 49
23.780000000000001
 49
-11.890000000000001
 49
23.780000000000001
 49
-11.890000000000001
 49
0.0
 49
-11.890000000000001
  0
LTYPE
  2
BORDER2
 70
               0
  3
CADPAC FUSION LINETYPE
 72
              65
 73
               6
 40
62.422499999999999
 49
17.835000000000001
 49
-8.9175000000000004
 49
17.835000000000001
 49
-8.9175000000000004
 49
0.0
 49
-8.9175000000000004
  0
LTYPE
  2
PHANTOMX2
 70
               0
  3
CADPAC FUSION LINETYPE
 72
              65
 73
               6
 40
89.175000000000011
 49
29.725000000000001
 49
-11.890000000000001
 49
11.890000000000001
 49
-11.890000000000001
 49
11.890000000000001
 49
-11.890000000000001
  0
LTYPE
  2
PHANTOM
 70
               0
  3
CADPAC FUSION LINETYPE
 72
              65
 73
               6
 40
73.718000000000004
 49
23.780000000000001
 49
-11.890000000000001
 49
7.1340000000000003
 49
-11.890000000000001
 49
7.1340000000000003
 49
-11.890000000000001
  0
LTYPE
  2
PHANTOM2
 70
               0
  3
CADPAC FUSION LINETYPE
 72
              65
 73
               6
 40
63.017000000000003
 49
17.835000000000001
 49
-11.890000000000001
 49
4.7560000000000002
 49
-11.890000000000001
 49
4.7560000000000002
 49
-11.890000000000001
  0
ENDTAB
  0
TABLE
  2
LAYER
 70
             256
  0
LAYER
  2
0
 70
               0
 62
               7
  6
CONTINUOUS
  0
LAYER
  2
LAYER001
 70
               0
 62
               7
  6
CONTINUOUS
  0
LAYER
  2
LAYER002
 70
               0
 62
               7
  6
CONTINUOUS
  0
LAYER
  2
LAYER003
 70
               0
 62
               7
  6
CONTINUOUS
  0
LAYER
  2
LAYER004
 70
               0
 62
               7
  6
CONTINUOUS
  0
LAYER
  2
LAYER005
 70
               0
 62
               7
  6
CONTINUOUS
  0
LAYER
  2
LAYER006
 70
               0
 62
               7
  6
CONTINUOUS
  0
LAYER
  2
LAYER007
 70
               0
 62
               7
  6
CONTINUOUS
  0
LAYER
  2
LAYER008
 70
               0
 62
               7
  6
CONTINUOUS
  0
LAYER
  2
LAYER009
 70
               0
 62
               7
  6
CONTINUOUS
  0
LAYER
  2
LAYER010
 70
               0
 62
               7
  6
CONTINUOUS
  0
LAYER
  2
LAYER011
 70
               0
 62
               7
  6
CONTINUOUS
  0
LAYER
  2
LAYER012
 70
               0
 62
               7
  6
CONTINUOUS
  0
LAYER
  2
LAYER013
 70
               0
 62
               7
  6
CONTINUOUS
  0
LAYER
  2
LAYER014
 70
               0
 62
               7
  6
CONTINUOUS
  0
LAYER
  2
LAYER015
 70
               0
 62
               7
  6
CONTINUOUS
  0
LAYER
  2
LAYER016
 70
               0
 62
               7
  6
CONTINUOUS
  0
LAYER
  2
LAYER017
 70
               0
 62
               7
  6
CONTINUOUS
  0
LAYER
  2
LAYER018
 70
               0
 62
               7
  6
CONTINUOUS
  0
LAYER
  2
LAYER019
 70
               0
 62
               7
  6
CONTINUOUS
  0
LAYER
  2
LAYER020
 70
               0
 62
               7
  6
CONTINUOUS
  0
LAYER
  2
LAYER021
 70
               0
 62
               7
  6
CONTINUOUS
  0
LAYER
  2
LAYER022
 70
               0
 62
               7
  6
CONTINUOUS
  0
LAYER
  2
LAYER023
 70
               0
 62
               7
  6
CONTINUOUS
  0
LAYER
  2
LAYER024
 70
               0
 62
               7
  6
CONTINUOUS
  0
LAYER
  2
LAYER025
 70
               0
 62
               7
  6
CONTINUOUS
  0
LAYER
  2
LAYER026
 70
               0
 62
               7
  6
CONTINUOUS
  0
LAYER
  2
LAYER027
 70
               0
 62
               7
  6
CONTINUOUS
  0
LAYER
  2
LAYER028
 70
               0
 62
               7
  6
CONTINUOUS
  0
LAYER
  2
LAYER029
 70
               0
 62
               7
  6
CONTINUOUS
  0
LAYER
  2
LAYER030
 70
               0
 62
               7
  6
CONTINUOUS
  0
LAYER
  2
LAYER031
 70
               0
 62
               7
  6
CONTINUOUS
  0
LAYER
  2
LAYER032
 70
               0
 62
               7
  6
CONTINUOUS
  0
LAYER
  2
LAYER033
 70
               0
 62
               7
  6
CONTINUOUS
  0
LAYER
  2
LAYER034
 70
               0
 62
               7
  6
CONTINUOUS
  0
LAYER
  2
LAYER035
 70
               0
 62
               7
  6
CONTINUOUS
  0
LAYER
  2
LAYER036
 70
               0
 62
               7
  6
CONTINUOUS
  0
LAYER
  2
LAYER037
 70
               0
 62
               7
  6
CONTINUOUS
  0
LAYER
  2
LAYER038
 70
               0
 62
               7
  6
CONTINUOUS
  0
LAYER
  2
LAYER039
 70
               0
 62
               7
  6
CONTINUOUS
  0
LAYER
  2
LAYER040
 70
               0
 62
               7
  6
CONTINUOUS
  0
LAYER
  2
LAYER041
 70
               0
 62
               7
  6
CONTINUOUS
  0
LAYER
  2
LAYER042
 70
               0
 62
               7
  6
CONTINUOUS
  0
LAYER
  2
LAYER043
 70
               0
 62
               7
  6
CONTINUOUS
  0
LAYER
  2
LAYER044
 70
               0
 62
               7
  6
CONTINUOUS
  0
LAYER
  2
LAYER045
 70
               0
 62
               7
  6
CONTINUOUS
  0
LAYER
  2
LAYER046
 70
               0
 62
               7
  6
CONTINUOUS
  0
LAYER
  2
LAYER047
 70
               0
 62
               7
  6
CONTINUOUS
  0
LAYER
  2
LAYER048
 70
               0
 62
               7
  6
CONTINUOUS
  0
LAYER
  2
LAYER049
 70
               0
 62
               7
  6
CONTINUOUS
  0
LAYER
  2
LAYER050
 70
               0
 62
               7
  6
CONTINUOUS
  0
LAYER
  2
LAYER051
 70
               0
 62
               7
  6
CONTINUOUS
  0
LAYER
  2
LAYER052
 70
               0
 62
               7
  6
CONTINUOUS
  0
LAYER
  2
LAYER053
 70
               0
 62
               7
  6
CONTINUOUS
  0
LAYER
  2
LAYER054
 70
               0
 62
               7
  6
CONTINUOUS
  0
LAYER
  2
LAYER055
 70
               0
 62
               7
  6
CONTINUOUS
  0
LAYER
  2
LAYER056
 70
               0
 62
               7
  6
CONTINUOUS
  0
LAYER
  2
LAYER057
 70
               0
 62
               7
  6
CONTINUOUS
  0
LAYER
  2
LAYER058
 70
               0
 62
               7
  6
CONTINUOUS
  0
LAYER
  2
LAYER059
 70
               0
 62
               7
  6
CONTINUOUS
  0
LAYER
  2
LAYER060
 70
               0
 62
               7
  6
CONTINUOUS
  0
LAYER
  2
LAYER061
 70
               0
 62
               7
  6
CONTINUOUS
  0
LAYER
  2
LAYER062
 70
               0
 62
               7
  6
CONTINUOUS
  0
LAYER
  2
LAYER063
 70
               0
 62
               7
  6
CONTINUOUS
  0
LAYER
  2
LAYER064
 70
               0
 62
               7
  6
CONTINUOUS
  0
LAYER
  2
LAYER065
 70
               0
 62
               7
  6
CONTINUOUS
  0
LAYER
  2
LAYER066
 70
               0
 62
               7
  6
CONTINUOUS
  0
LAYER
  2
LAYER067
 70
               0
 62
               7
  6
CONTINUOUS
  0
LAYER
  2
LAYER068
 70
               0
 62
               7
  6
CONTINUOUS
  0
LAYER
  2
LAYER069
 70
               0
 62
               7
  6
CONTINUOUS
  0
LAYER
  2
LAYER070
 70
               0
 62
               7
  6
CONTINUOUS
  0
LAYER
  2
LAYER071
 70
               0
 62
               7
  6
CONTINUOUS
  0
LAYER
  2
LAYER072
 70
               0
 62
               7
  6
CONTINUOUS
  0
LAYER
  2
LAYER073
 70
               0
 62
               7
  6
CONTINUOUS
  0
LAYER
  2
LAYER074
 70
               0
 62
               7
  6
CONTINUOUS
  0
LAYER
  2
LAYER075
 70
               0
 62
               7
  6
CONTINUOUS
  0
LAYER
  2
LAYER076
 70
               0
 62
               7
  6
CONTINUOUS
  0
LAYER
  2
LAYER077
 70
               0
 62
               7
  6
CONTINUOUS
  0
LAYER
  2
LAYER078
 70
               0
 62
               7
  6
CONTINUOUS
  0
LAYER
  2
LAYER079
 70
               0
 62
               7
  6
CONTINUOUS
  0
LAYER
  2
LAYER080
 70
               0
 62
               7
  6
CONTINUOUS
  0
LAYER
  2
LAYER081
 70
               0
 62
               7
  6
CONTINUOUS
  0
LAYER
  2
LAYER082
 70
               0
 62
               7
  6
CONTINUOUS
  0
LAYER
  2
LAYER083
 70
               0
 62
               7
  6
CONTINUOUS
  0
LAYER
  2
LAYER084
 70
               0
 62
               7
  6
CONTINUOUS
  0
LAYER
  2
LAYER085
 70
               0
 62
               7
  6
CONTINUOUS
  0
LAYER
  2
LAYER086
 70
               0
 62
               7
  6
CONTINUOUS
  0
LAYER
  2
LAYER087
 70
               0
 62
               7
  6
CONTINUOUS
  0
LAYER
  2
LAYER088
 70
               0
 62
               7
  6
CONTINUOUS
  0
LAYER
  2
LAYER089
 70
               0
 62
               7
  6
CONTINUOUS
  0
LAYER
  2
LAYER090
 70
               0
 62
               7
  6
CONTINUOUS
  0
LAYER
  2
LAYER091
 70
               0
 62
               7
  6
CONTINUOUS
  0
LAYER
  2
LAYER092
 70
               0
 62
               7
  6
CONTINUOUS
  0
LAYER
  2
LAYER093
 70
               0
 62
               7
  6
CONTINUOUS
  0
LAYER
  2
LAYER094
 70
               0
 62
               7
  6
CONTINUOUS
  0
LAYER
  2
LAYER095
 70
               0
 62
               7
  6
CONTINUOUS
  0
LAYER
  2
LAYER096
 70
               0
 62
               7
  6
CONTINUOUS
  0
LAYER
  2
LAYER097
 70
               0
 62
               7
  6
CONTINUOUS
  0
LAYER
  2
LAYER098
 70
               0
 62
               7
  6
CONTINUOUS
  0
LAYER
  2
LAYER099
 70
               0
 62
               7
  6
CONTINUOUS
  0
LAYER
  2
LAYER100
 70
               0
 62
               7
  6
CONTINUOUS
  0
LAYER
  2
LAYER101
 70
               0
 62
               7
  6
CONTINUOUS
  0
LAYER
  2
LAYER102
 70
               0
 62
               7
  6
CONTINUOUS
  0
LAYER
  2
LAYER103
 70
               0
 62
               7
  6
CONTINUOUS
  0
LAYER
  2
LAYER104
 70
               0
 62
               7
  6
CONTINUOUS
  0
LAYER
  2
LAYER105
 70
               0
 62
               7
  6
CONTINUOUS
  0
LAYER
  2
LAYER106
 70
               0
 62
               7
  6
CONTINUOUS
  0
LAYER
  2
LAYER107
 70
               0
 62
               7
  6
CONTINUOUS
  0
LAYER
  2
LAYER108
 70
               0
 62
               7
  6
CONTINUOUS
  0
LAYER
  2
LAYER109
 70
               0
 62
               7
  6
CONTINUOUS
  0
LAYER
  2
LAYER110
 70
               0
 62
               7
  6
CONTINUOUS
  0
LAYER
  2
LAYER111
 70
               0
 62
               7
  6
CONTINUOUS
  0
LAYER
  2
LAYER112
 70
               0
 62
               7
  6
CONTINUOUS
  0
LAYER
  2
LAYER113
 70
               0
 62
               7
  6
CONTINUOUS
  0
LAYER
  2
LAYER114
 70
               0
 62
               7
  6
CONTINUOUS
  0
LAYER
  2
LAYER115
 70
               0
 62
               7
  6
CONTINUOUS
  0
LAYER
  2
LAYER116
 70
               0
 62
               7
  6
CONTINUOUS
  0
LAYER
  2
LAYER117
 70
               0
 62
               7
  6
CONTINUOUS
  0
LAYER
  2
LAYER118
 70
               0
 62
               7
  6
CONTINUOUS
  0
LAYER
  2
LAYER119
 70
               0
 62
               7
  6
CONTINUOUS
  0
LAYER
  2
LAYER120
 70
               0
 62
               7
  6
CONTINUOUS
  0
LAYER
  2
LAYER121
 70
               0
 62
               7
  6
CONTINUOUS
  0
LAYER
  2
LAYER122
 70
               0
 62
               7
  6
CONTINUOUS
  0
LAYER
  2
LAYER123
 70
               0
 62
               7
  6
CONTINUOUS
  0
LAYER
  2
LAYER124
 70
               0
 62
               7
  6
CONTINUOUS
  0
LAYER
  2
LAYER125
 70
               0
 62
               7
  6
CONTINUOUS
  0
LAYER
  2
LAYER126
 70
               0
 62
               7
  6
CONTINUOUS
  0
LAYER
  2
LAYER127
 70
               0
 62
               7
  6
CONTINUOUS
  0
LAYER
  2
LAYER128
 70
               0
 62
               7
  6
CONTINUOUS
  0
LAYER
  2
LAYER129
 70
               0
 62
               7
  6
CONTINUOUS
  0
LAYER
  2
LAYER130
 70
               0
 62
               7
  6
CONTINUOUS
  0
LAYER
  2
LAYER131
 70
               0
 62
               7
  6
CONTINUOUS
  0
LAYER
  2
LAYER132
 70
               0
 62
               7
  6
CONTINUOUS
  0
LAYER
  2
LAYER133
 70
               0
 62
               7
  6
CONTINUOUS
  0
LAYER
  2
LAYER134
 70
               0
 62
               7
  6
CONTINUOUS
  0
LAYER
  2
LAYER135
 70
               0
 62
               7
  6
CONTINUOUS
  0
LAYER
  2
LAYER136
 70
               0
 62
               7
  6
CONTINUOUS
  0
LAYER
  2
LAYER137
 70
               0
 62
               7
  6
CONTINUOUS
  0
LAYER
  2
LAYER138
 70
               0
 62
               7
  6
CONTINUOUS
  0
LAYER
  2
LAYER139
 70
               0
 62
               7
  6
CONTINUOUS
  0
LAYER
  2
LAYER140
 70
               0
 62
               7
  6
CONTINUOUS
  0
LAYER
  2
LAYER141
 70
               0
 62
               7
  6
CONTINUOUS
  0
LAYER
  2
LAYER142
 70
               0
 62
               7
  6
CONTINUOUS
  0
LAYER
  2
LAYER143
 70
               0
 62
               7
  6
CONTINUOUS
  0
LAYER
  2
LAYER144
 70
               0
 62
               7
  6
CONTINUOUS
  0
LAYER
  2
LAYER145
 70
               0
 62
               7
  6
CONTINUOUS
  0
LAYER
  2
LAYER146
 70
               0
 62
               7
  6
CONTINUOUS
  0
LAYER
  2
LAYER147
 70
               0
 62
               7
  6
CONTINUOUS
  0
LAYER
  2
LAYER148
 70
               0
 62
               7
  6
CONTINUOUS
  0
LAYER
  2
LAYER149
 70
               0
 62
               7
  6
CONTINUOUS
  0
LAYER
  2
LAYER150
 70
               0
 62
               7
  6
CONTINUOUS
  0
LAYER
  2
LAYER151
 70
               0
 62
               7
  6
CONTINUOUS
  0
LAYER
  2
LAYER152
 70
               0
 62
               7
  6
CONTINUOUS
  0
LAYER
  2
LAYER153
 70
               0
 62
               7
  6
CONTINUOUS
  0
LAYER
  2
LAYER154
 70
               0
 62
               7
  6
CONTINUOUS
  0
LAYER
  2
LAYER155
 70
               0
 62
               7
  6
CONTINUOUS
  0
LAYER
  2
LAYER156
 70
               0
 62
               7
  6
CONTINUOUS
  0
LAYER
  2
LAYER157
 70
               0
 62
               7
  6
CONTINUOUS
  0
LAYER
  2
LAYER158
 70
               0
 62
               7
  6
CONTINUOUS
  0
LAYER
  2
LAYER159
 70
               0
 62
               7
  6
CONTINUOUS
  0
LAYER
  2
LAYER160
 70
               0
 62
               7
  6
CONTINUOUS
  0
LAYER
  2
LAYER161
 70
               0
 62
               7
  6
CONTINUOUS
  0
LAYER
  2
LAYER162
 70
               0
 62
               7
  6
CONTINUOUS
  0
LAYER
  2
LAYER163
 70
               0
 62
               7
  6
CONTINUOUS
  0
LAYER
  2
LAYER164
 70
               0
 62
               7
  6
CONTINUOUS
  0
LAYER
  2
LAYER165
 70
               0
 62
               7
  6
CONTINUOUS
  0
LAYER
  2
LAYER166
 70
               0
 62
               7
  6
CONTINUOUS
  0
LAYER
  2
LAYER167
 70
               0
 62
               7
  6
CONTINUOUS
  0
LAYER
  2
LAYER168
 70
               0
 62
               7
  6
CONTINUOUS
  0
LAYER
  2
LAYER169
 70
               0
 62
               7
  6
CONTINUOUS
  0
LAYER
  2
LAYER170
 70
               0
 62
               7
  6
CONTINUOUS
  0
LAYER
  2
LAYER171
 70
               0
 62
               7
  6
CONTINUOUS
  0
LAYER
  2
LAYER172
 70
               0
 62
               7
  6
CONTINUOUS
  0
LAYER
  2
LAYER173
 70
               0
 62
               7
  6
CONTINUOUS
  0
LAYER
  2
LAYER174
 70
               0
 62
               7
  6
CONTINUOUS
  0
LAYER
  2
LAYER175
 70
               0
 62
               7
  6
CONTINUOUS
  0
LAYER
  2
LAYER176
 70
               0
 62
               7
  6
CONTINUOUS
  0
LAYER
  2
LAYER177
 70
               0
 62
               7
  6
CONTINUOUS
  0
LAYER
  2
LAYER178
 70
               0
 62
               7
  6
CONTINUOUS
  0
LAYER
  2
LAYER179
 70
               0
 62
               7
  6
CONTINUOUS
  0
LAYER
  2
LAYER180
 70
               0
 62
               7
  6
CONTINUOUS
  0
LAYER
  2
LAYER181
 70
               0
 62
               7
  6
CONTINUOUS
  0
LAYER
  2
LAYER182
 70
               0
 62
               7
  6
CONTINUOUS
  0
LAYER
  2
LAYER183
 70
               0
 62
               7
  6
CONTINUOUS
  0
LAYER
  2
LAYER184
 70
               0
 62
               7
  6
CONTINUOUS
  0
LAYER
  2
LAYER185
 70
               0
 62
               7
  6
CONTINUOUS
  0
LAYER
  2
LAYER186
 70
               0
 62
               7
  6
CONTINUOUS
  0
LAYER
  2
LAYER187
 70
               0
 62
               7
  6
CONTINUOUS
  0
LAYER
  2
LAYER188
 70
               0
 62
               7
  6
CONTINUOUS
  0
LAYER
  2
LAYER189
 70
               0
 62
               7
  6
CONTINUOUS
  0
LAYER
  2
LAYER190
 70
               0
 62
               7
  6
CONTINUOUS
  0
LAYER
  2
LAYER191
 70
               0
 62
               7
  6
CONTINUOUS
  0
LAYER
  2
LAYER192
 70
               0
 62
               7
  6
CONTINUOUS
  0
LAYER
  2
LAYER193
 70
               0
 62
               7
  6
CONTINUOUS
  0
LAYER
  2
LAYER194
 70
               0
 62
               7
  6
CONTINUOUS
  0
LAYER
  2
LAYER195
 70
               0
 62
               7
  6
CONTINUOUS
  0
LAYER
  2
LAYER196
 70
               0
 62
               7
  6
CONTINUOUS
  0
LAYER
  2
LAYER197
 70
               0
 62
               7
  6
CONTINUOUS
  0
LAYER
  2
LAYER198
 70
               0
 62
               7
  6
CONTINUOUS
  0
LAYER
  2
LAYER199
 70
               0
 62
               7
  6
CONTINUOUS
  0
LAYER
  2
LAYER200
 70
               0
 62
               7
  6
CONTINUOUS
  0
LAYER
  2
LAYER201
 70
               0
 62
               7
  6
CONTINUOUS
  0
LAYER
  2
LAYER202
 70
               0
 62
               7
  6
CONTINUOUS
  0
LAYER
  2
LAYER203
 70
               0
 62
               7
  6
CONTINUOUS
  0
LAYER
  2
LAYER204
 70
               0
 62
               7
  6
CONTINUOUS
  0
LAYER
  2
LAYER205
 70
               0
 62
               7
  6
CONTINUOUS
  0
LAYER
  2
LAYER206
 70
               0
 62
               7
  6
CONTINUOUS
  0
LAYER
  2
LAYER207
 70
               0
 62
               7
  6
CONTINUOUS
  0
LAYER
  2
LAYER208
 70
               0
 62
               7
  6
CONTINUOUS
  0
LAYER
  2
LAYER209
 70
               0
 62
               7
  6
CONTINUOUS
  0
LAYER
  2
LAYER210
 70
               0
 62
               7
  6
CONTINUOUS
  0
LAYER
  2
LAYER211
 70
               0
 62
               7
  6
CONTINUOUS
  0
LAYER
  2
LAYER212
 70
               0
 62
               7
  6
CONTINUOUS
  0
LAYER
  2
LAYER213
 70
               0
 62
               7
  6
CONTINUOUS
  0
LAYER
  2
LAYER214
 70
               0
 62
               7
  6
CONTINUOUS
  0
LAYER
  2
LAYER215
 70
               0
 62
               7
  6
CONTINUOUS
  0
LAYER
  2
LAYER216
 70
               0
 62
               7
  6
CONTINUOUS
  0
LAYER
  2
LAYER217
 70
               0
 62
               7
  6
CONTINUOUS
  0
LAYER
  2
LAYER218
 70
               0
 62
               7
  6
CONTINUOUS
  0
LAYER
  2
LAYER219
 70
               0
 62
               7
  6
CONTINUOUS
  0
LAYER
  2
LAYER220
 70
               0
 62
               7
  6
CONTINUOUS
  0
LAYER
  2
LAYER221
 70
               0
 62
               7
  6
CONTINUOUS
  0
LAYER
  2
LAYER222
 70
               0
 62
               7
  6
CONTINUOUS
  0
LAYER
  2
LAYER223
 70
               0
 62
               7
  6
CONTINUOUS
  0
LAYER
  2
LAYER224
 70
               0
 62
               7
  6
CONTINUOUS
  0
LAYER
  2
LAYER225
 70
               0
 62
               7
  6
CONTINUOUS
  0
LAYER
  2
LAYER226
 70
               0
 62
               7
  6
CONTINUOUS
  0
LAYER
  2
LAYER227
 70
               0
 62
               7
  6
CONTINUOUS
  0
LAYER
  2
LAYER228
 70
               0
 62
               7
  6
CONTINUOUS
  0
LAYER
  2
LAYER229
 70
               0
 62
               7
  6
CONTINUOUS
  0
LAYER
  2
LAYER230
 70
               0
 62
               7
  6
CONTINUOUS
  0
LAYER
  2
LAYER231
 70
               0
 62
               7
  6
CONTINUOUS
  0
LAYER
  2
LAYER232
 70
               0
 62
               7
  6
CONTINUOUS
  0
LAYER
  2
LAYER233
 70
               0
 62
               7
  6
CONTINUOUS
  0
LAYER
  2
LAYER234
 70
               0
 62
               7
  6
CONTINUOUS
  0
LAYER
  2
LAYER235
 70
               0
 62
               7
  6
CONTINUOUS
  0
LAYER
  2
LAYER236
 70
               0
 62
               7
  6
CONTINUOUS
  0
LAYER
  2
LAYER237
 70
               0
 62
               7
  6
CONTINUOUS
  0
LAYER
  2
LAYER238
 70
               0
 62
               7
  6
CONTINUOUS
  0
LAYER
  2
LAYER239
 70
               0
 62
               7
  6
CONTINUOUS
  0
LAYER
  2
LAYER240
 70
               0
 62
               7
  6
CONTINUOUS
  0
LAYER
  2
LAYER241
 70
               0
 62
               7
  6
CONTINUOUS
  0
LAYER
  2
LAYER242
 70
               0
 62
               7
  6
CONTINUOUS
  0
LAYER
  2
LAYER243
 70
               0
 62
               7
  6
CONTINUOUS
  0
LAYER
  2
LAYER244
 70
               0
 62
               7
  6
CONTINUOUS
  0
LAYER
  2
LAYER245
 70
               0
 62
               7
  6
CONTINUOUS
  0
LAYER
  2
LAYER246
 70
               0
 62
               7
  6
CONTINUOUS
  0
LAYER
  2
LAYER247
 70
               0
 62
               7
  6
CONTINUOUS
  0
LAYER
  2
LAYER248
 70
               0
 62
               7
  6
CONTINUOUS
  0
LAYER
  2
LAYER249
 70
               0
 62
               7
  6
CONTINUOUS
  0
LAYER
  2
LAYER250
 70
               0
 62
               7
  6
CONTINUOUS
  0
LAYER
  2
LAYER251
 70
               0
 62
               7
  6
CONTINUOUS
  0
LAYER
  2
LAYER252
 70
               0
 62
               7
  6
CONTINUOUS
  0
LAYER
  2
LAYER253
 70
               0
 62
               7
  6
CONTINUOUS
  0
LAYER
  2
LAYER254
 70
               0
 62
               7
  6
CONTINUOUS
  0
LAYER
  2
LAYER255
 70
               0
 62
               7
  6
CONTINUOUS
  0
ENDTAB
  0
TABLE
  2
STYLE
 70
               1
  0
STYLE
  2
STANDARD
 70
               0
 40
0.0
 41
0.8
 50
0.0
 71
               0
 42
40.0
  3
MS PGothic.ttf
  4

  0
ENDTAB
  0
TABLE
  2
VIEW
 70
               0
  0
VIEW
  2
QQQQ
 70
               0
 40
2393.1763107741745
 10
14.643261608153921
 20
-448.63520849510155
 41
1553.9466081540202
 11
0.0
 21
0.0
 31
1.0
 12
100.0
 22
100.0
 32
0.0
 42
50.0
 43
0.0
 44
0.0
 50
0.0
 71
               0
  0
ENDTAB
  0
TABLE
  2
UCS
 70
               0
  0
ENDTAB
  0
TABLE
  2
APPID
 70
               1
  0
APPID
  2
ACAD
 70
               0
  0
ENDTAB
  0
TABLE
  2
DIMSTYLE
 70
               1
  0
DIMSTYLE
  2
STANDARD
 70
               0
  3

  4

  5

  6

  7

 40
1.0
 41
0.18
 42
0.0625
 43
0.38
 44
0.18
 45
0.0
 46
0.0
 47
0.0
 48
0.0
140
0.18
141
0.09
142
0.0
143
25.399999999999999
144
1.0
145
0.0
146
1.0
147
0.09
 71
               0
 72
               0
 73
               1
 74
               1
 75
               0
 76
               0
 77
               0
 78
               0
170
               0
171
               2
172
               0
173
               0
174
               0
175
               0
176
               0
177
               0
178
               0
  0
ENDTAB
  0
ENDSEC
  0
SECTION
  2
BLOCKS
  0
ENDSEC
  0
SECTION
  2
ENTITIES
  0
CIRCLE
  8
0
  6
CONTINUOUS
 62
               3
  5
136
 10
-0.0000000000002274
 20
525.75
 30
0.0
 40
75.0
  0
CIRCLE
  8
0
  6
CONTINUOUS
 62
               3
  5
137
 10
-0.0000000000002274
 20
525.75
 30
0.0
 40
52.5
  0
LINE
  8
0
  6
CONTINUOUS
 62
               3
  5
138
 10
-86.210498200625466
 20
545.75
 30
0.0
 11
-72.2841614740056
 21
545.75
 31
0.0
  0
LINE
  8
0
  6
CONTINUOUS
 62
               3
  5
139
 10
-72.2841614740056
 20
505.75
 30
0.0
 11
-86.210498200625466
 21
505.75
 31
0.0
  0
ARC
  8
0
  6
CONTINUOUS
 62
               3
  5
13A
 10
-0.0000000000002274
 20
525.75
 30
0.0
 40
88.5
 50
166.93897588510336
 51
193.06102411468945
  0
LINE
  8
0
  6
CONTINUOUS
 62
               3
  5
13B
 10
-20.000000000000231
 20
439.5395017993751
 30
0.0
 11
-20.000000000000231
 21
453.46583852599497
 31
0.0
  0
LINE
  8
0
  6
CONTINUOUS
 62
               3
  5
13C
 10
19.999999999999773
 20
453.46583852599497
 30
0.0
 11
19.999999999999773
 21
439.5395017993751
 31
0.0
  0
ARC
  8
0
  6
CONTINUOUS
 62
               3
  5
13D
 10
-0.0000000000002274
 20
525.75
 30
0.0
 40
88.5
 50
256.93897588505172
 51
283.06102411463769
  0
LINE
  8
0
  6
CONTINUOUS
 62
               3
  5
13E
 10
86.210498200624428
 20
505.75
 30
0.0
 11
72.284161474004009
 21
505.75
 31
0.0
  0
LINE
  8
0
  6
CONTINUOUS
 62
               3
  5
13F
 10
72.284161474004009
 20
545.75
 30
0.0
 11
86.210498200624428
 21
545.75
 31
0.0
  0
ARC
  8
0
  6
CONTINUOUS
 62
               3
  5
140
 10
-0.0000000000002274
 20
525.75
 30
0.0
 40
88.5
 50
346.93897588499982
 51
373.06102411458585
  0
LINE
  8
0
  6
CONTINUOUS
 62
               3
  5
141
 10
19.999999999999773
 20
611.96049820062558
 30
0.0
 11
19.999999999999773
 21
598.03416147400503
 31
0.0
  0
LINE
  8
0
  6
CONTINUOUS
 62
               3
  5
142
 10
-20.000000000000231
 20
598.03416147400503
 30
0.0
 11
-20.000000000000231
 21
611.96049820062558
 31
0.0
  0
ARC
  8
0
  6
CONTINUOUS
 62
               3
  5
143
 10
-0.0000000000002274
 20
525.75
 30
0.0
 40
88.5
 50
76.938975885155202
 51
103.06102411474124
  0
LINE
  8
0
  6
CONTINUOUS
 62
               3
  5
144
 10
-47.668123520861286
 20
503.74999999999955
 30
0.0
 11
47.668123520859695
 21
503.74999999999955
 31
0.0
  0
ARC
  8
0
  6
CONTINUOUS
 62
               3
  5
145
 10
12.5036116493809
 20
534.45639762761903
 30
0.0
 40
54.763804151667173
 50
141.38591763675663
 51
145.15009542087034
  0
ARC
  8
0
  6
CONTINUOUS
 62
               3
  5
146
 10
-0.0000000000002274
 20
525.75
 30
0.0
 40
51.5
 50
334.71098847326505
 51
410.95932736340404
  0
ARC
  8
0
  6
CONTINUOUS
 62
               3
  5
147
 10
-0.0000000000002274
 20
525.75
 30
0.0
 40
51.5
 50
129.04067263628565
 51
205.28901152642416
  0
ARC
  8
0
  6
CONTINUOUS
 62
               3
  5
148
 10
-0.0000000000002274
 20
525.75
 30
0.0
 40
77.5
 50
104.95524831658297
 51
128.57288309095929
  0
LINE
  8
0
  6
CONTINUOUS
 62
               3
  5
149
 10
-140.00000000000023
 20
470.75
 30
0.0
 11
-139.328443874036
 21
470.75
 31
0.0
  0
LINE
  8
0
  6
CONTINUOUS
 62
               3
  5
14A
 10
-136.82844387403554
 20
468.25
 30
0.0
 11
-139.328443874036
 21
470.75
 31
0.0
  0
LINE
  8
0
  6
CONTINUOUS
 62
               3
  5
14B
 10
-140.00000000000023
 20
580.75
 30
0.0
 11
-139.328443874036
 21
580.75
 31
0.0
  0
LINE
  8
0
  6
CONTINUOUS
 62
               3
  5
14C
 10
-136.828443874036
 20
583.25
 30
0.0
 11
-139.328443874036
 21
580.75
 31
0.0
  0
LINE
  8
0
  6
CONTINUOUS
 62
               3
  5
14D
 10
-139.328443874036
 20
580.75
 30
0.0
 11
-139.328443874036
 21
470.75
 31
0.0
  0
LINE
  8
0
  6
CONTINUOUS
 62
               3
  5
14E
 10
-45.490335786378139
 20
586.4395970183416
 30
0.0
 11
-136.828443874036
 21
583.25
 31
0.0
  0
LINE
  8
0
  6
CONTINUOUS
 62
               3
  5
14F
 10
-45.490335786378822
 20
465.06040298165885
 30
0.0
 11
-136.82844387403549
 21
468.25
 31
0.0
  0
LINE
  8
0
  6
CONTINUOUS
 62
               3
  5
150
 10
-145.00000000000023
 20
580.57844387403588
 30
0.0
 11
-145.00000000000023
 21
470.64999999999998
 31
0.0
  0
LINE
  8
0
  6
CONTINUOUS
 62
               3
  5
151
 10
-140.00000000000023
 20
468.14999999999998
 30
0.0
 11
-140.00000000000023
 21
583.35000000000002
 31
0.0
  0
LINE
  8
0
  6
CONTINUOUS
 62
               3
  5
152
 10
-140.00000000000023
 20
583.35000000000002
 30
0.0
 11
-142.50000000000023
 21
583.35000000000002
 31
0.0
  0
LINE
  8
0
  6
CONTINUOUS
 62
               3
  5
153
 10
-140.00000000000023
 20
468.14999999999998
 30
0.0
 11
-142.50000000000023
 21
468.14999999999998
 31
0.0
  0
ARC
  8
0
  6
CONTINUOUS
 62
               3
  5
154
 10
-142.50000000000023
 20
470.64999999999998
 30
0.0
 40
2.5
 50
179.99999999989538
 51
269.99999999984499
  0
ARC
  8
0
  6
CONTINUOUS
 62
               3
  5
155
 10
-142.50000000000023
 20
580.85000000000002
 30
0.0
 40
2.5
 50
89.999999999948344
 51
179.99999999989538
  0
LINE
  8
0
  6
CONTINUOUS
 62
               3
  5
156
 10
-32.438403166617832
 20
565.74999999999977
 30
0.0
 11
-0.0000000000002274
 21
565.74999999999977
 31
0.0
  0
LINE
  8
0
  6
CONTINUOUS
 62
               3
  5
157
 10
-0.0000000000002274
 20
565.74999999999977
 30
0.0
 11
34.003676271838458
 21
565.74999999999977
 31
0.0
  0
ARC
  8
0
  6
CONTINUOUS
 62
               3
  5
158
 10
-0.0000000000002274
 20
525.75
 30
0.0
 40
77.5
 50
231.42711690883286
 51
255.04475168320991
  0
LINE
  8
0
  6
CONTINUOUS
 62
               3
  5
159
 10
-136.82844387403554
 20
468.25
 30
0.0
 11
-136.828443874036
 21
583.25
 31
0.0
  0
ARC
  8
0
  6
CONTINUOUS
 62
               3
  5
15A
 10
-45.664833269890657
 20
591.43655115343711
 30
0.0
 40
5.0
 50
271.99999999984362
 51
304.80675787025228
  0
ARC
  8
0
  6
CONTINUOUS
 62
               3
  5
15B
 10
-45.664833269891311
 20
460.06344884656335
 30
0.0
 40
5.0
 50
55.19324212953974
 51
87.999999999949537
  0
LINE
  8
0
  6
CONTINUOUS
 62
               3
  5
15C
 10
-75.000000000000227
 20
-9.25
 30
0.0
 11
74.999999999999773
 21
-9.25
 31
0.0
  0
LINE
  8
0
  6
CONTINUOUS
 62
               3
  5
15D
 10
-88.500000000000455
 20
-19.25
 30
0.0
 11
-88.500000000000455
 21
-26.249999999999659
 31
0.0
  0
LINE
  8
0
  6
CONTINUOUS
 62
               3
  5
15E
 10
-88.500000000000455
 20
-19.25
 30
0.0
 11
-75.000000000000227
 21
-9.25
 31
0.0
  0
ARC
  8
0
  6
CONTINUOUS
 62
               3
  5
15F
 10
-77.000000000000114
 20
-30.832575694955381
 30
0.0
 40
4.9999999999999991
 50
0.0
 51
66.421821521759824
  0
LINE
  8
0
  6
CONTINUOUS
 62
               3
  5
160
 10
-88.500000000000455
 20
-26.249999999999659
 30
0.0
 11
88.499999999999432
 21
-26.249999999999659
 31
0.0
  0
ARC
  8
0
  6
CONTINUOUS
 62
               3
  5
161
 10
-55.000000000000227
 20
-116.25
 30
0.0
 40
19.999999999999996
 50
148.21166938286291
 51
167.26981986159126
  0
LINE
  8
0
  6
CONTINUOUS
 62
               3
  5
162
 10
-72.000000000000114
 20
-30.832575694955381
 30
0.0
 11
-72.000000000000114
 21
-105.7143462471472
 31
0.0
  0
LINE
  8
0
  6
CONTINUOUS
 62
               3
  5
163
 10
71.999999999999659
 20
-105.71434624714709
 30
0.0
 11
71.999999999999659
 21
-30.832575694955381
 31
0.0
  0
LINE
  8
0
  6
CONTINUOUS
 62
               3
  5
164
 10
-58.000000000000341
 20
-502.25000000000028
 30
0.0
 11
-75.000000000000227
 21
-353.24999999999983
 31
0.0
  0
LINE
  8
0
  6
CONTINUOUS
 62
               3
  5
165
 10
57.999999999999879
 20
-513.2499999999992
 30
0.0
 11
57.999999999999879
 21
-502.25000000000028
 31
0.0
  0
LINE
  8
0
  6
CONTINUOUS
 62
               3
  5
166
 10
-75.000000000000213
 20
-254.05722333221911
 30
0.0
 11
-75.000000000000227
 21
-353.24999999999983
 31
0.0
  0
LINE
  8
0
  6
CONTINUOUS
 62
               3
  5
167
 10
-58.000000000000341
 20
-502.25000000000028
 30
0.0
 11
-58.000000000000341
 21
-513.25
 31
0.0
  0
LINE
  8
0
  6
CONTINUOUS
 62
               3
  5
168
 10
-72.000000000000114
 20
-105.7143462471472
 30
0.0
 11
71.999999999989313
 21
-105.71434624713041
 31
0.0
  0
LINE
  8
0
  6
CONTINUOUS
 62
               3
  5
169
 10
-20.000000000000231
 20
-26.249999999999659
 30
0.0
 11
-20.000000000000231
 21
-9.25
 31
0.0
  0
LINE
  8
0
  6
CONTINUOUS
 62
               3
  5
16A
 10
19.999999999999773
 20
-9.25
 30
0.0
 11
19.999999999999773
 21
-26.249999999999659
 31
0.0
  0
LINE
  8
0
  6
CONTINUOUS
 62
               3
  5
16B
 10
-20.000000000000231
 20
-19.25
 30
0.0
 11
19.999999999999773
 21
-19.25
 31
0.0
  0
LINE
  8
0
  6
CONTINUOUS
 62
               3
  5
16C
 10
-72.2841614740056
 20
-9.25
 30
0.0
 11
-72.2841614740056
 21
-26.249999999999659
 31
0.0
  0
LINE
  8
0
  6
CONTINUOUS
 62
               3
  5
16D
 10
-86.210498200625466
 20
-19.25
 30
0.0
 11
-86.210498200625466
 21
-26.249999999999659
 31
0.0
  0
LINE
  8
0
  6
CONTINUOUS
 62
               3
  5
16E
 10
-88.500000000000455
 20
-19.25
 30
0.0
 11
-86.210498200625466
 21
-19.25
 31
0.0
  0
LINE
  8
0
  6
CONTINUOUS
 62
               3
  5
16F
 10
-86.210498200625466
 20
-19.25
 30
0.0
 11
-72.2841614740056
 21
-9.25
 31
0.0
  0
LINE
  8
0
  6
CONTINUOUS
 62
               3
  5
170
 10
88.499999999999432
 20
-19.25
 30
0.0
 11
88.499999999999432
 21
-26.249999999999659
 31
0.0
  0
LINE
  8
0
  6
CONTINUOUS
 62
               3
  5
171
 10
88.499999999999432
 20
-19.25
 30
0.0
 11
74.999999999999773
 21
-9.25
 31
0.0
  0
ARC
  8
0
  6
CONTINUOUS
 62
               3
  5
172
 10
76.999999999999659
 20
-30.832575694955381
 30
0.0
 40
4.9999999999999991
 50
113.57817847813641
 51
179.9999999998962
  0
LINE
  8
0
  6
CONTINUOUS
 62
               3
  5
173
 10
72.284161474004009
 20
-9.25
 30
0.0
 11
72.284161474004009
 21
-26.249999999999659
 31
0.0
  0
LINE
  8
0
  6
CONTINUOUS
 62
               3
  5
174
 10
86.210498200625011
 20
-19.25
 30
0.0
 11
86.210498200625011
 21
-26.249999999999659
 31
0.0
  0
LINE
  8
0
  6
CONTINUOUS
 62
               3
  5
175
 10
88.499999999999432
 20
-19.25
 30
0.0
 11
86.210498200625011
 21
-19.25
 31
0.0
  0
LINE
  8
0
  6
CONTINUOUS
 62
               3
  5
176
 10
86.210498200625011
 20
-19.25
 30
0.0
 11
72.284161474004009
 21
-9.25
 31
0.0
  0
LINE
  8
0
  6
CONTINUOUS
 62
               3
  5
177
 10
-58.000000000000341
 20
-502.24999999999972
 30
0.0
 11
57.999999999999879
 21
-502.25000000000028
 31
0.0
  0
ARC
  8
0
  6
CONTINUOUS
 62
               3
  5
178
 10
-65.000000000000227
 20
-237.75
 30
0.0
 40
2.4999999999999996
 50
89.999999999948017
 51
269.9999999998447
  0
LINE
  8
0
  6
CONTINUOUS
 62
               3
  5
179
 10
-75.000000000000227
 20
-353.24999999999983
 30
0.0
 11
-46.368107792057117
 21
-353.24999999999983
 31
0.0
  0
LINE
  8
0
  6
CONTINUOUS
 62
               3
  5
17A
 10
-1.9728332801511215
 20
-353.24999999999983
 30
0.0
 11
74.496765133649546
 21
-353.24999999999983
 31
0.0
  0
LINE
  8
0
  6
CONTINUOUS
 62
               3
  5
17B
 10
-65.000000000000227
 20
-235.25
 30
0.0
 11
64.999999999999773
 21
-235.25
 31
0.0
  0
LINE
  8
0
  6
CONTINUOUS
 62
               3
  5
17C
 10
-65.000000000000227
 20
-240.25
 30
0.0
 11
64.999999999999773
 21
-240.25
 31
0.0
  0
LINE
  8
0
  6
CONTINUOUS
 62
               3
  5
17D
 10
-140.00000000000023
 20
-230.25
 30
0.0
 11
-139.32844387403583
 21
-230.25
 31
0.0
  0
LINE
  8
0
  6
CONTINUOUS
 62
               3
  5
17E
 10
-136.82844387403577
 20
-232.74999999999926
 30
0.0
 11
-139.32844387403583
 21
-230.25
 31
0.0
  0
LINE
  8
0
  6
CONTINUOUS
 62
               3
  5
17F
 10
-136.82844387403503
 20
-232.75
 30
0.0
 11
-94.663333617757615
 21
-234.22243809585405
 31
0.0
  0
LINE
  8
0
  6
CONTINUOUS
 62
               3
  5
180
 10
-76.464466094067731
 20
-250.521689426286
 30
0.0
 11
-91.302297195337474
 21
-235.68385832501673
 31
0.0
  0
ARC
  8
0
  6
CONTINUOUS
 62
               3
  5
181
 10
-80.000000000000213
 20
-254.05722333221911
 30
0.0
 40
4.9999999999999991
 50
0.0
 51
44.999999999973191
  0
LINE
  8
0
  6
CONTINUOUS
 62
               3
  5
182
 10
-140.00000000000023
 20
-120.25000000000011
 30
0.0
 11
-139.32844387403583
 21
-120.25000000000011
 31
0.0
  0
LINE
  8
0
  6
CONTINUOUS
 62
               3
  5
183
 10
-136.82844387403577
 20
-117.74999999999991
 30
0.0
 11
-139.32844387403583
 21
-120.25000000000011
 31
0.0
  0
LINE
  8
0
  6
CONTINUOUS
 62
               3
  5
184
 10
-136.82844387403583
 20
-117.74999999999994
 30
0.0
 11
-79.210967671861539
 21
-115.73795339484769
 31
0.0
  0
LINE
  8
0
  6
CONTINUOUS
 62
               3
  5
185
 10
-139.32844387403583
 20
-120.25000000000011
 30
0.0
 11
-139.32844387403583
 21
-230.25
 31
0.0
  0
LINE
  8
0
  6
CONTINUOUS
 62
               3
  5
186
 10
-140.00000000000023
 20
-232.84999999999999
 30
0.0
 11
-140.00000000000023
 21
-117.65000000000001
 31
0.0
  0
LINE
  8
0
  6
CONTINUOUS
 62
               3
  5
187
 10
-140.00000000000023
 20
-117.65000000000001
 30
0.0
 11
-142.50000000000023
 21
-117.65000000000001
 31
0.0
  0
ARC
  8
0
  6
CONTINUOUS
 62
               3
  5
188
 10
-142.50000000000023
 20
-120.15000000000001
 30
0.0
 40
2.5
 50
89.999999999948344
 51
179.9999999998962
  0
LINE
  8
0
  6
CONTINUOUS
 62
               3
  5
189
 10
-145.00000000000023
 20
-120.15000000000001
 30
0.0
 11
-145.00000000000023
 21
-230.34999999999999
 31
0.0
  0
LINE
  8
0
  6
CONTINUOUS
 62
               3
  5
18A
 10
-140.00000000000023
 20
-232.84999999999999
 30
0.0
 11
-142.50000000000023
 21
-232.84999999999999
 31
0.0
  0
ARC
  8
0
  6
CONTINUOUS
 62
               3
  5
18B
 10
-142.50000000000023
 20
-230.34999999999999
 30
0.0
 40
2.5
 50
179.99999999989603
 51
269.99999999984499
  0
LINE
  8
0
  6
CONTINUOUS
 62
               3
  5
18C
 10
-136.82844387403577
 20
-117.74999999999991
 30
0.0
 11
-136.82844387403503
 21
-232.75
 31
0.0
  0
ARC
  8
0
  6
CONTINUOUS
 62
               3
  5
18D
 10
-94.837831101270154
 20
-239.2193922309495
 30
0.0
 40
5.0
 50
44.999999999974911
 51
87.999999999948912
  0
ARC
  8
0
  6
CONTINUOUS
 62
               3
  5
18E
 10
-79.385465155374035
 20
-110.74099925975224
 30
0.0
 40
5.0
 50
271.99999999984334
 51
347.26981986148638
  0
LINE
  8
0
  6
CONTINUOUS
 62
               3
  5
18F
 10
-56.500000000000227
 20
-614.25
 30
0.0
 11
56.499999999999766
 21
-614.25
 31
0.0
  0
LINE
  8
0
  6
CONTINUOUS
 62
               3
  5
190
 10
-56.500000000000227
 20
-614.25
 30
0.0
 11
-56.500000000000227
 21
-514.25
 31
0.0
  0
LINE
  8
0
  6
CONTINUOUS
 62
               3
  5
191
 10
56.499999999999766
 20
-614.25
 30
0.0
 11
56.499999999999766
 21
-514.25
 31
0.0
  0
LINE
  8
0
  6
CONTINUOUS
 62
               3
  5
192
 10
-56.500000000000227
 20
-514.25
 30
0.0
 11
-58.000000000000625
 21
-512.74999999999955
 31
0.0
  0
LINE
  8
0
  6
CONTINUOUS
 62
               3
  5
193
 10
56.499999999999766
 20
-514.25
 30
0.0
 11
57.999999999999879
 21
-512.74999999999989
 31
0.0
  0
LINE
  8
0
  6
CONTINUOUS
 62
               3
  5
194
 10
-674.99999999999977
 20
-9.25
 30
0.0
 11
-525.00000000000023
 21
-9.25
 31
0.0
  0
LINE
  8
0
  6
CONTINUOUS
 62
               3
  5
195
 10
-688.5
 20
-19.25
 30
0.0
 11
-688.5
 21
-26.249999999999659
 31
0.0
  0
LINE
  8
0
  6
CONTINUOUS
 62
               3
  5
196
 10
-688.5
 20
-19.25
 30
0.0
 11
-674.99999999999977
 21
-9.25
 31
0.0
  0
ARC
  8
0
  6
CONTINUOUS
 62
               3
  5
197
 10
-676.99999999999955
 20
-30.832575694955381
 30
0.0
 40
4.9999999999999991
 50
0.0
 51
66.421821521759668
  0
LINE
  8
0
  6
CONTINUOUS
 62
               3
  5
198
 10
-688.5
 20
-26.249999999999659
 30
0.0
 11
-511.50000000000006
 21
-26.249999999999659
 31
0.0
  0
ARC
  8
0
  6
CONTINUOUS
 62
               3
  5
199
 10
-654.99999999999977
 20
-116.25
 30
0.0
 40
19.999999999999996
 50
148.21166938286288
 51
179.99999999989649
  0
LINE
  8
0
  6
CONTINUOUS
 62
               3
  5
19A
 10
-671.99999999999955
 20
-30.832575694955381
 30
0.0
 11
-671.99999999999955
 21
-105.7143462471472
 31
0.0
  0
ARC
  8
0
  6
CONTINUOUS
 62
               3
  5
19B
 10
-545.00000000000023
 20
-116.25
 30
0.0
 40
19.999999999999996
 50
0.0
 51
31.78833061703353
  0
LINE
  8
0
  6
CONTINUOUS
 62
               3
  5
19C
 10
-527.99999999999977
 20
-105.7143462471472
 30
0.0
 11
-527.99999999999977
 21
-30.832575694955381
 31
0.0
  0
LINE
  8
0
  6
CONTINUOUS
 62
               3
  5
19D
 10
-657.99999999999977
 20
-502.25000000000028
 30
0.0
 11
-674.99999999999977
 21
-353.24999999999983
 31
0.0
  0
LINE
  8
0
  6
CONTINUOUS
 62
               3
  5
19E
 10
-541.99999999999955
 20
-512.74999999999909
 30
0.0
 11
-541.99999999999955
 21
-502.25000000000028
 31
0.0
  0
LINE
  8
0
  6
CONTINUOUS
 62
               3
  5
19F
 10
-674.99999999999977
 20
-240.25
 30
0.0
 11
-674.99999999999977
 21
-353.24999999999983
 31
0.0
  0
LINE
  8
0
  6
CONTINUOUS
 62
               3
  5
1A0
 10
-657.99999999999977
 20
-502.25000000000028
 30
0.0
 11
-657.99999999999977
 21
-512.74999999999955
 31
0.0
  0
LINE
  8
0
  6
CONTINUOUS
 62
               3
  5
1A1
 10
-671.99999999999955
 20
-105.7143462471472
 30
0.0
 11
-527.99999999999977
 21
-105.7143462471472
 31
0.0
  0
LINE
  8
0
  6
CONTINUOUS
 62
               3
  5
1A2
 10
-619.99999999999977
 20
-26.249999999999659
 30
0.0
 11
-619.99999999999977
 21
-9.25
 31
0.0
  0
LINE
  8
0
  6
CONTINUOUS
 62
               3
  5
1A3
 10
-580.00000000000023
 20
-9.25
 30
0.0
 11
-580.00000000000023
 21
-26.249999999999659
 31
0.0
  0
LINE
  8
0
  6
CONTINUOUS
 62
               3
  5
1A4
 10
-619.99999999999977
 20
-19.25
 30
0.0
 11
-580.00000000000023
 21
-19.25
 31
0.0
  0
LINE
  8
0
  6
CONTINUOUS
 62
               3
  5
1A5
 10
-672.28416147400389
 20
-9.25
 30
0.0
 11
-672.28416147400389
 21
-26.249999999999659
 31
0.0
  0
LINE
  8
0
  6
CONTINUOUS
 62
               3
  5
1A6
 10
-686.2104982006249
 20
-19.25
 30
0.0
 11
-686.2104982006249
 21
-26.249999999999659
 31
0.0
  0
LINE
  8
0
  6
CONTINUOUS
 62
               3
  5
1A7
 10
-688.5
 20
-19.25
 30
0.0
 11
-686.2104982006249
 21
-19.25
 31
0.0
  0
LINE
  8
0
  6
CONTINUOUS
 62
               3
  5
1A8
 10
-686.2104982006249
 20
-19.25
 30
0.0
 11
-672.28416147400389
 21
-9.25
 31
0.0
  0
LINE
  8
0
  6
CONTINUOUS
 62
               3
  5
1A9
 10
-511.50000000000006
 20
-19.25
 30
0.0
 11
-511.50000000000006
 21
-26.249999999999659
 31
0.0
  0
LINE
  8
0
  6
CONTINUOUS
 62
               3
  5
1AA
 10
-511.50000000000006
 20
-19.25
 30
0.0
 11
-525.00000000000023
 21
-9.25
 31
0.0
  0
ARC
  8
0
  6
CONTINUOUS
 62
               3
  5
1AB
 10
-522.99999999999977
 20
-30.832575694955381
 30
0.0
 40
4.9999999999999991
 50
113.57817847813625
 51
179.9999999998962
  0
LINE
  8
0
  6
CONTINUOUS
 62
               3
  5
1AC
 10
-527.71583852599497
 20
-9.25
 30
0.0
 11
-527.71583852599497
 21
-26.249999999999659
 31
0.0
  0
LINE
  8
0
  6
CONTINUOUS
 62
               3
  5
1AD
 10
-513.78950179937442
 20
-19.25
 30
0.0
 11
-513.78950179937442
 21
-26.249999999999659
 31
0.0
  0
LINE
  8
0
  6
CONTINUOUS
 62
               3
  5
1AE
 10
-511.50000000000006
 20
-19.25
 30
0.0
 11
-513.78950179937442
 21
-19.25
 31
0.0
  0
LINE
  8
0
  6
CONTINUOUS
 62
               3
  5
1AF
 10
-513.78950179937442
 20
-19.25
 30
0.0
 11
-527.71583852599497
 21
-9.25
 31
0.0
  0
LINE
  8
0
  6
CONTINUOUS
 62
               3
  5
1B0
 10
-657.99999999999977
 20
-502.24999999999972
 30
0.0
 11
-541.99999999999955
 21
-502.25000000000028
 31
0.0
  0
ARC
  8
0
  6
CONTINUOUS
 62
               3
  5
1B1
 10
-674.99999999999977
 20
-237.75
 30
0.0
 40
2.4999999999999996
 50
89.99999999994769
 51
269.99999999984567
  0
LINE
  8
0
  6
CONTINUOUS
 62
               3
  5
1B2
 10
-674.99999999999977
 20
-116.25
 30
0.0
 11
-674.99999999999977
 21
-235.25
 31
0.0
  0
LINE
  8
0
  6
CONTINUOUS
 62
               3
  5
1B3
 10
-674.99999999999977
 20
-353.24999999999983
 30
0.0
 11
-541.0509999999997
 21
-353.24999999999955
 31
0.0
  0
LINE
  8
0
  6
CONTINUOUS
 62
               3
  5
1B4
 10
-528.24363345646043
 20
-353.24999999999955
 30
0.0
 11
-525.00000000000023
 21
-353.24999999999955
 31
0.0
  0
ARC
  8
0
  6
CONTINUOUS
 62
               3
  5
1B5
 10
-622.49999999999977
 20
-237.75
 30
0.0
 40
2.4999999999999996
 50
269.99999999984567
 51
449.99999999974102
  0
ARC
  8
0
  6
CONTINUOUS
 62
               3
  5
1B6
 10
-577.49999999999977
 20
-237.75
 30
0.0
 40
2.4999999999999996
 50
89.99999999994769
 51
269.99999999984567
  0
LINE
  8
0
  6
CONTINUOUS
 62
               3
  5
1B7
 10
-674.99999999999977
 20
-240.25
 30
0.0
 11
-622.49999999999977
 21
-240.25
 31
0.0
  0
LINE
  8
0
  6
CONTINUOUS
 62
               3
  5
1B8
 10
-577.49999999999977
 20
-240.25
 30
0.0
 11
-525.00000000000091
 21
-240.25
 31
0.0
  0
LINE
  8
0
  6
CONTINUOUS
 62
               3
  5
1B9
 10
-674.99999999999977
 20
-235.25
 30
0.0
 11
-622.49999999999977
 21
-235.25
 31
0.0
  0
LINE
  8
0
  6
CONTINUOUS
 62
               3
  5
1BA
 10
-577.49999999999977
 20
-235.25
 30
0.0
 11
-525.00000000000091
 21
-235.25
 31
0.0
  0
LINE
  8
0
  6
CONTINUOUS
 62
               3
  5
1BB
 10
-573.21264290752083
 20
-147.25000000000011
 30
0.0
 11
-626.78735709247974
 21
-147.25000000000011
 31
0.0
  0
CIRCLE
  8
0
  6
CONTINUOUS
 62
               3
  5
1BC
 10
-600.00000000000023
 20
-175.25
 30
0.0
 40
48.5
  0
CIRCLE
  8
0
  6
CONTINUOUS
 62
               3
  5
1BD
 10
-600.00000000000023
 20
-175.25
 30
0.0
 40
38.75
  0
CIRCLE
  8
0
  6
CONTINUOUS
 62
               3
  5
1BE
 10
-600.00000000000023
 20
-175.25
 30
0.0
 40
47.299999999999997
  0
LINE
  8
0
  6
CONTINUOUS
 62
               3
  5
1BF
 10
-631.8198051533949
 20
-207.06980515339455
 30
0.0
 11
-633.44615075012393
 21
-208.69615075012371
 31
0.0
  0
LINE
  8
0
  6
CONTINUOUS
 62
               3
  5
1C0
 10
-568.18019484660567
 20
-207.06980515339455
 30
0.0
 11
-566.55384924987652
 21
-208.69615075012359
 31
0.0
  0
ARC
  8
0
  6
CONTINUOUS
 62
               3
  5
1C1
 10
-600.00000000000023
 20
-175.25
 30
0.0
 40
45.0
 50
224.99999999987045
 51
314.99999999981878
  0
CIRCLE
  8
0
  6
CONTINUOUS
 62
               3
  5
1C2
 10
-600.00000000000023
 20
-175.25
 30
0.0
 40
43.0
  0
ARC
  8
0
  6
CONTINUOUS
 62
               3
  5
1C3
 10
-525.00000000000091
 20
-237.75
 30
0.0
 40
2.4999999999999996
 50
269.99999999984567
 51
449.99999999974102
  0
LINE
  8
0
  6
CONTINUOUS
 62
               3
  5
1C4
 10
-525.00000000000023
 20
-353.24999999999983
 30
0.0
 11
-525.00000000000091
 21
-240.25
 31
0.0
  0
LINE
  8
0
  6
CONTINUOUS
 62
               3
  5
1C5
 10
-525.00000000000091
 20
-235.25
 30
0.0
 11
-525.00000000000023
 21
-116.25
 31
0.0
  0
CIRCLE
  8
0
  6
CONTINUOUS
 62
               3
  5
1C6
 10
-600.00000000000023
 20
-175.25
 30
0.0
 40
57.600000000000001
  0
LINE
  8
0
  6
CONTINUOUS
 62
               3
  5
1C7
 10
-541.99999999999955
 20
-502.25000000000028
 30
0.0
 11
-529.45190901929914
 21
-392.26967316915028
 31
0.0
  0
LINE
  8
0
  6
CONTINUOUS
 62
               3
  5
1C8
 10
-527.39985704623871
 20
-374.28404116997245
 30
0.0
 11
-525.00000000000023
 21
-353.24999999999955
 31
0.0
  0
LINE
  8
0
  6
CONTINUOUS
 62
               3
  5
1C9
 10
-656.50000000000023
 20
-614.25
 30
0.0
 11
-543.50000000000023
 21
-614.25
 31
0.0
  0
LINE
  8
0
  6
CONTINUOUS
 62
               3
  5
1CA
 10
-656.50000000000023
 20
-614.25
 30
0.0
 11
-656.50000000000023
 21
-514.25
 31
0.0
  0
LINE
  8
0
  6
CONTINUOUS
 62
               3
  5
1CB
 10
-543.50000000000023
 20
-614.25
 30
0.0
 11
-543.50000000000023
 21
-514.25
 31
0.0
  0
LINE
  8
0
  6
CONTINUOUS
 62
               3
  5
1CC
 10
-656.50000000000023
 20
-514.25
 30
0.0
 11
-658.00000000000068
 21
-512.74999999999955
 31
0.0
  0
LINE
  8
0
  6
CONTINUOUS
 62
               3
  5
1CD
 10
-543.50000000000023
 20
-514.25
 30
0.0
 11
-542.00000000000023
 21
-512.74999999999989
 31
0.0
  0
LINE
  8
0
  6
CONTINUOUS
 62
               3
  5
1CE
 10
674.99999999999977
 20
-9.25
 30
0.0
 11
524.99999999999977
 21
-9.25
 31
0.0
  0
LINE
  8
0
  6
CONTINUOUS
 62
               3
  5
1CF
 10
688.5
 20
-19.25
 30
0.0
 11
688.5
 21
-26.249999999999659
 31
0.0
  0
LINE
  8
0
  6
CONTINUOUS
 62
               3
  5
1D0
 10
688.5
 20
-19.25
 30
0.0
 11
674.99999999999977
 21
-9.25
 31
0.0
  0
ARC
  8
0
  6
CONTINUOUS
 62
               3
  5
1D1
 10
676.99999999999966
 20
-30.832575694955381
 30
0.0
 40
4.9999999999999991
 50
113.57817847813625
 51
179.9999999998962
  0
LINE
  8
0
  6
CONTINUOUS
 62
               3
  5
1D2
 10
688.5
 20
-26.249999999999659
 30
0.0
 11
511.49999999999955
 21
-26.249999999999659
 31
0.0
  0
ARC
  8
0
  6
CONTINUOUS
 62
               3
  5
1D3
 10
654.99999999999977
 20
-116.25000000000003
 30
0.0
 40
19.999999999999996
 50
0.0
 51
31.78833061703353
  0
LINE
  8
0
  6
CONTINUOUS
 62
               3
  5
1D4
 10
671.99999999999966
 20
-30.832575694955381
 30
0.0
 11
671.99999999999966
 21
-105.71434624714723
 31
0.0
  0
ARC
  8
0
  6
CONTINUOUS
 62
               3
  5
1D5
 10
544.99999999999977
 20
-116.25000000000003
 30
0.0
 40
19.999999999999996
 50
148.21166938286288
 51
179.99999999989649
  0
LINE
  8
0
  6
CONTINUOUS
 62
               3
  5
1D6
 10
527.99999999999989
 20
-105.71434624714723
 30
0.0
 11
527.99999999999989
 21
-30.832575694955381
 31
0.0
  0
LINE
  8
0
  6
CONTINUOUS
 62
               3
  5
1D7
 10
657.99999999999989
 20
-502.25000000000023
 30
0.0
 11
674.99999999999977
 21
-353.24999999999989
 31
0.0
  0
LINE
  8
0
  6
CONTINUOUS
 62
               3
  5
1D8
 10
541.99999999999966
 20
-502.25000000000023
 30
0.0
 11
524.99999999999977
 21
-353.24999999999989
 31
0.0
  0
LINE
  8
0
  6
CONTINUOUS
 62
               3
  5
1D9
 10
541.99999999999932
 20
-512.74999999999955
 30
0.0
 11
541.99999999999966
 21
-502.25000000000023
 31
0.0
  0
LINE
  8
0
  6
CONTINUOUS
 62
               3
  5
1DA
 10
674.99999999999977
 20
-240.25
 30
0.0
 11
674.99999999999977
 21
-353.24999999999989
 31
0.0
  0
LINE
  8
0
  6
CONTINUOUS
 62
               3
  5
1DB
 10
657.99999999999989
 20
-502.25000000000023
 30
0.0
 11
657.99999999999989
 21
-512.74999999999909
 31
0.0
  0
LINE
  8
0
  6
CONTINUOUS
 62
               3
  5
1DC
 10
619.99999999999977
 20
-26.249999999999659
 30
0.0
 11
619.99999999999977
 21
-9.25
 31
0.0
  0
LINE
  8
0
  6
CONTINUOUS
 62
               3
  5
1DD
 10
579.99999999999977
 20
-9.25
 30
0.0
 11
579.99999999999977
 21
-26.249999999999659
 31
0.0
  0
LINE
  8
0
  6
CONTINUOUS
 62
               3
  5
1DE
 10
619.99999999999977
 20
-19.25
 30
0.0
 11
579.99999999999977
 21
-19.25
 31
0.0
  0
LINE
  8
0
  6
CONTINUOUS
 62
               3
  5
1DF
 10
672.28416147400458
 20
-9.25
 30
0.0
 11
672.28416147400458
 21
-26.249999999999659
 31
0.0
  0
LINE
  8
0
  6
CONTINUOUS
 62
               3
  5
1E0
 10
686.21049820062501
 20
-19.25
 30
0.0
 11
686.21049820062501
 21
-26.249999999999659
 31
0.0
  0
LINE
  8
0
  6
CONTINUOUS
 62
               3
  5
1E1
 10
688.5
 20
-19.25
 30
0.0
 11
686.21049820062501
 21
-19.25
 31
0.0
  0
LINE
  8
0
  6
CONTINUOUS
 62
               3
  5
1E2
 10
686.21049820062501
 20
-19.25
 30
0.0
 11
672.28416147400458
 21
-9.25
 31
0.0
  0
LINE
  8
0
  6
CONTINUOUS
 62
               3
  5
1E3
 10
511.49999999999955
 20
-19.25
 30
0.0
 11
511.49999999999955
 21
-26.249999999999659
 31
0.0
  0
LINE
  8
0
  6
CONTINUOUS
 62
               3
  5
1E4
 10
511.49999999999955
 20
-19.25
 30
0.0
 11
524.99999999999977
 21
-9.25
 31
0.0
  0
ARC
  8
0
  6
CONTINUOUS
 62
               3
  5
1E5
 10
522.99999999999989
 20
-30.832575694955381
 30
0.0
 40
4.9999999999999991
 50
0.0
 51
66.421821521759668
  0
LINE
  8
0
  6
CONTINUOUS
 62
               3
  5
1E6
 10
527.71583852599497
 20
-9.25
 30
0.0
 11
527.71583852599497
 21
-26.249999999999659
 31
0.0
  0
LINE
  8
0
  6
CONTINUOUS
 62
               3
  5
1E7
 10
513.78950179937453
 20
-19.25
 30
0.0
 11
513.78950179937453
 21
-26.249999999999659
 31
0.0
  0
LINE
  8
0
  6
CONTINUOUS
 62
               3
  5
1E8
 10
511.49999999999955
 20
-19.25
 30
0.0
 11
513.78950179937453
 21
-19.25
 31
0.0
  0
LINE
  8
0
  6
CONTINUOUS
 62
               3
  5
1E9
 10
513.78950179937453
 20
-19.25
 30
0.0
 11
527.71583852599497
 21
-9.25
 31
0.0
  0
ARC
  8
0
  6
CONTINUOUS
 62
               3
  5
1EA
 10
674.99999999999977
 20
-237.75
 30
0.0
 40
2.4999999999999996
 50
269.99999999984567
 51
449.99999999974102
  0
LINE
  8
0
  6
CONTINUOUS
 62
               3
  5
1EB
 10
674.99999999999977
 20
-353.24999999999989
 30
0.0
 11
608.21699999999942
 21
-353.24999999999989
 31
0.0
  0
LINE
  8
0
  6
CONTINUOUS
 62
               3
  5
1EC
 10
591.78299999999956
 20
-353.24999999999989
 30
0.0
 11
524.99999999999977
 21
-353.24999999999989
 31
0.0
  0
LINE
  8
0
  6
CONTINUOUS
 62
               3
  5
1ED
 10
674.99999999999977
 20
-116.25000000000003
 30
0.0
 11
674.99999999999977
 21
-235.25
 31
0.0
  0
ARC
  8
0
  6
CONTINUOUS
 62
               3
  5
1EE
 10
524.99999999999977
 20
-237.75
 30
0.0
 40
2.4999999999999996
 50
89.99999999994769
 51
269.99999999984567
  0
LINE
  8
0
  6
CONTINUOUS
 62
               3
  5
1EF
 10
524.99999999999977
 20
-353.24999999999989
 30
0.0
 11
524.99999999999977
 21
-240.25
 31
0.0
  0
LINE
  8
0
  6
CONTINUOUS
 62
               3
  5
1F0
 10
524.99999999999977
 20
-235.25
 30
0.0
 11
524.99999999999977
 21
-116.25000000000003
 31
0.0
  0
LINE
  8
0
  6
CONTINUOUS
 62
               3
  5
1F1
 10
543.49999999999977
 20
-614.25
 30
0.0
 11
656.49999999999977
 21
-614.25
 31
0.0
  0
LINE
  8
0
  6
CONTINUOUS
 62
               3
  5
1F2
 10
543.49999999999977
 20
-614.25
 30
0.0
 11
543.49999999999977
 21
-514.25
 31
0.0
  0
LINE
  8
0
  6
CONTINUOUS
 62
               3
  5
1F3
 10
656.49999999999977
 20
-614.25
 30
0.0
 11
656.49999999999977
 21
-514.25
 31
0.0
  0
LINE
  8
0
  6
CONTINUOUS
 62
               3
  5
1F4
 10
543.49999999999977
 20
-514.25
 30
0.0
 11
541.99999999999932
 21
-512.74999999999955
 31
0.0
  0
LINE
  8
0
  6
CONTINUOUS
 62
               3
  5
1F5
 10
656.49999999999977
 20
-514.25
 30
0.0
 11
657.99999999999989
 21
-512.74999999999977
 31
0.0
  0
ARC
  8
0
  6
CONTINUOUS
 62
               3
  5
1F6
 10
54.999999999999773
 20
-116.25
 30
0.0
 40
19.999999999999996
 50
12.730180138373962
 51
31.788330617102307
  0
ARC
  8
0
  6
CONTINUOUS
 62
               3
  5
1F7
 10
64.999999999999773
 20
-237.75
 30
0.0
 40
2.4999999999999996
 50
270.00000000005082
 51
449.99999999994753
  0
LINE
  8
0
  6
CONTINUOUS
 62
               3
  5
1F8
 10
139.99999999999977
 20
-230.25
 30
0.0
 11
139.32844387403537
 21
-230.25
 31
0.0
  0
LINE
  8
0
  6
CONTINUOUS
 62
               3
  5
1F9
 10
136.82844387403532
 20
-232.74999999999926
 30
0.0
 11
139.32844387403537
 21
-230.25
 31
0.0
  0
LINE
  8
0
  6
CONTINUOUS
 62
               3
  5
1FA
 10
136.82844387403458
 20
-232.75
 30
0.0
 11
94.663333617757161
 21
-234.22243809585405
 31
0.0
  0
LINE
  8
0
  6
CONTINUOUS
 62
               3
  5
1FB
 10
76.464466094067276
 20
-250.521689426286
 30
0.0
 11
91.302297195337019
 21
-235.68385832501673
 31
0.0
  0
ARC
  8
0
  6
CONTINUOUS
 62
               3
  5
1FC
 10
79.999999999999758
 20
-254.05722333221911
 30
0.0
 40
4.9999999999999991
 50
134.99999999999187
 51
179.99999999996507
  0
LINE
  8
0
  6
CONTINUOUS
 62
               3
  5
1FD
 10
139.99999999999977
 20
-120.25000000000011
 30
0.0
 11
139.32844387403537
 21
-120.25000000000011
 31
0.0
  0
LINE
  8
0
  6
CONTINUOUS
 62
               3
  5
1FE
 10
136.82844387403532
 20
-117.74999999999991
 30
0.0
 11
139.32844387403537
 21
-120.25000000000011
 31
0.0
  0
LINE
  8
0
  6
CONTINUOUS
 62
               3
  5
1FF
 10
136.82844387403537
 20
-117.74999999999994
 30
0.0
 11
79.210967671861084
 21
-115.73795339484769
 31
0.0
  0
LINE
  8
0
  6
CONTINUOUS
 62
               3
  5
200
 10
139.32844387403537
 20
-120.25000000000011
 30
0.0
 11
139.32844387403537
 21
-230.25
 31
0.0
  0
LINE
  8
0
  6
CONTINUOUS
 62
               3
  5
201
 10
139.99999999999977
 20
-232.84999999999999
 30
0.0
 11
139.99999999999977
 21
-117.65000000000001
 31
0.0
  0
LINE
  8
0
  6
CONTINUOUS
 62
               3
  5
202
 10
139.99999999999977
 20
-117.65000000000001
 30
0.0
 11
142.49999999999977
 21
-117.65000000000001
 31
0.0
  0
ARC
  8
0
  6
CONTINUOUS
 62
               3
  5
203
 10
142.49999999999977
 20
-120.15000000000001
 30
0.0
 40
2.5
 50
0.000000000069046
 51
90.000000000016726
  0
LINE
  8
0
  6
CONTINUOUS
 62
               3
  5
204
 10
144.99999999999977
 20
-120.15000000000001
 30
0.0
 11
144.99999999999977
 21
-230.34999999999999
 31
0.0
  0
LINE
  8
0
  6
CONTINUOUS
 62
               3
  5
205
 10
139.99999999999977
 20
-232.84999999999999
 30
0.0
 11
142.49999999999977
 21
-232.84999999999999
 31
0.0
  0
ARC
  8
0
  6
CONTINUOUS
 62
               3
  5
206
 10
142.49999999999977
 20
-230.34999999999999
 30
0.0
 40
2.5
 50
270.00000000005082
 51
359.9999999999992
  0
LINE
  8
0
  6
CONTINUOUS
 62
               3
  5
207
 10
136.82844387403532
 20
-117.74999999999991
 30
0.0
 11
136.82844387403458
 21
-232.75
 31
0.0
  0
ARC
  8
0
  6
CONTINUOUS
 62
               3
  5
208
 10
94.8378311012697
 20
-239.2193922309495
 30
0.0
 40
5.0
 50
92.000000000016328
 51
134.99999999999039
  0
ARC
  8
0
  6
CONTINUOUS
 62
               3
  5
209
 10
79.385465155373581
 20
-110.74099925975224
 30
0.0
 40
5.0
 50
192.7301801384092
 51
268.0000000000523
  0
LINE
  8
0
  6
CONTINUOUS
 62
               3
  5
20A
 10
74.999999999999758
 20
-254.05722333221911
 30
0.0
 11
74.999999999999773
 21
-353.24999999999983
 31
0.0
  0
LINE
  8
0
  6
CONTINUOUS
 62
               3
  5
20B
 10
57.999999999999886
 20
-502.25000000000028
 30
0.0
 11
74.999999999999773
 21
-353.24999999999983
 31
0.0
  0
ARC
  8
0
  6
CONTINUOUS
 62
               3
  5
20C
 10
622.49999999999932
 20
-237.75
 30
0.0
 40
2.4999999999999996
 50
90.00000000015352
 51
270.0000000000515
  0
ARC
  8
0
  6
CONTINUOUS
 62
               3
  5
20D
 10
577.49999999999932
 20
-237.75
 30
0.0
 40
2.4999999999999996
 50
270.0000000000515
 51
449.99999999994691
  0
LINE
  8
0
  6
CONTINUOUS
 62
               3
  5
20E
 10
573.21264290752038
 20
-147.25000000000011
 30
0.0
 11
626.78735709247928
 21
-147.25000000000011
 31
0.0
  0
LINE
  8
0
  6
CONTINUOUS
 62
               3
  5
20F
 10
631.81980515339444
 20
-207.06980515339455
 30
0.0
 11
633.44615075012348
 21
-208.69615075012371
 31
0.0
  0
ARC
  8
0
  6
CONTINUOUS
 62
               3
  5
210
 10
599.99999999999977
 20
-175.25
 30
0.0
 40
45.0
 50
225.0000000000768
 51
315.00000000002512
  0
LINE
  8
0
  6
CONTINUOUS
 62
               3
  5
211
 10
674.99999999999932
 20
-235.25
 30
0.0
 11
622.49999999999932
 21
-235.25
 31
0.0
  0
LINE
  8
0
  6
CONTINUOUS
 62
               3
  5
212
 10
674.99999999999932
 20
-240.25
 30
0.0
 11
622.49999999999932
 21
-240.25
 31
0.0
  0
LINE
  8
0
  6
CONTINUOUS
 62
               3
  5
213
 10
577.49999999999932
 20
-240.25
 30
0.0
 11
525.00000000000045
 21
-240.25
 31
0.0
  0
CIRCLE
  8
0
  6
CONTINUOUS
 62
               3
  5
214
 10
599.99999999999977
 20
-175.25
 30
0.0
 40
48.5
  0
CIRCLE
  8
0
  6
CONTINUOUS
 62
               3
  5
215
 10
599.99999999999977
 20
-175.25
 30
0.0
 40
38.75
  0
CIRCLE
  8
0
  6
CONTINUOUS
 62
               3
  5
216
 10
599.99999999999977
 20
-175.25
 30
0.0
 40
47.299999999999997
  0
LINE
  8
0
  6
CONTINUOUS
 62
               3
  5
217
 10
568.18019484660522
 20
-207.06980515339455
 30
0.0
 11
566.55384924987607
 21
-208.69615075012359
 31
0.0
  0
CIRCLE
  8
0
  6
CONTINUOUS
 62
               3
  5
218
 10
599.99999999999977
 20
-175.25
 30
0.0
 40
43.0
  0
CIRCLE
  8
0
  6
CONTINUOUS
 62
               3
  5
219
 10
599.99999999999977
 20
-175.25
 30
0.0
 40
57.600000000000001
  0
LINE
  8
0
  6
CONTINUOUS
 62
               3
  5
21A
 10
671.99999999999909
 20
-105.7143462471472
 30
0.0
 11
527.99999999999932
 21
-105.7143462471472
 31
0.0
  0
LINE
  8
0
  6
CONTINUOUS
 62
               3
  5
21B
 10
577.49999999999932
 20
-235.25
 30
0.0
 11
525.00000000000045
 21
-235.25
 31
0.0
  0
LINE
  8
0
  6
CONTINUOUS
 62
               3
  5
21C
 10
139.99999999999977
 20
470.75
 30
0.0
 11
139.32844387403554
 21
470.75
 31
0.0
  0
LINE
  8
0
  6
CONTINUOUS
 62
               3
  5
21D
 10
136.82844387403509
 20
468.25
 30
0.0
 11
139.32844387403554
 21
470.75
 31
0.0
  0
LINE
  8
0
  6
CONTINUOUS
 62
               3
  5
21E
 10
139.99999999999977
 20
580.75
 30
0.0
 11
139.32844387403554
 21
580.75
 31
0.0
  0
LINE
  8
0
  6
CONTINUOUS
 62
               3
  5
21F
 10
136.82844387403554
 20
583.25
 30
0.0
 11
139.32844387403554
 21
580.75
 31
0.0
  0
LINE
  8
0
  6
CONTINUOUS
 62
               3
  5
220
 10
139.32844387403554
 20
580.75
 30
0.0
 11
139.32844387403554
 21
470.75
 31
0.0
  0
LINE
  8
0
  6
CONTINUOUS
 62
               3
  5
221
 10
144.99999999999977
 20
580.57844387403588
 30
0.0
 11
144.99999999999977
 21
470.64999999999998
 31
0.0
  0
LINE
  8
0
  6
CONTINUOUS
 62
               3
  5
222
 10
139.99999999999977
 20
468.14999999999998
 30
0.0
 11
139.99999999999977
 21
583.35000000000002
 31
0.0
  0
LINE
  8
0
  6
CONTINUOUS
 62
               3
  5
223
 10
139.99999999999977
 20
583.35000000000002
 30
0.0
 11
142.49999999999977
 21
583.35000000000002
 31
0.0
  0
LINE
  8
0
  6
CONTINUOUS
 62
               3
  5
224
 10
139.99999999999977
 20
468.14999999999998
 30
0.0
 11
142.49999999999977
 21
468.14999999999998
 31
0.0
  0
ARC
  8
0
  6
CONTINUOUS
 62
               3
  5
225
 10
142.49999999999977
 20
470.64999999999998
 30
0.0
 40
2.5
 50
270.00000000005082
 51
359.9999999999992
  0
ARC
  8
0
  6
CONTINUOUS
 62
               3
  5
226
 10
142.49999999999977
 20
580.85000000000002
 30
0.0
 40
2.5
 50
0.0000000000677433
 51
90.000000000016726
  0
LINE
  8
0
  6
CONTINUOUS
 62
               3
  5
227
 10
136.82844387403509
 20
468.25
 30
0.0
 11
136.82844387403554
 21
583.25
 31
0.0
  0
LINE
  8
0
  6
CONTINUOUS
 62
               3
  5
228
 10
45.490335786377685
 20
586.4395970183416
 30
0.0
 11
136.82844387403554
 21
583.25
 31
0.0
  0
LINE
  8
0
  6
CONTINUOUS
 62
               3
  5
229
 10
45.490335786378367
 20
465.06040298165885
 30
0.0
 11
136.82844387403503
 21
468.25
 31
0.0
  0
ARC
  8
0
  6
CONTINUOUS
 62
               3
  5
22A
 10
-0.0000000000002274
 20
525.75
 30
0.0
 40
77.5
 50
284.9552483166857
 51
308.57288309106264
  0
ARC
  8
0
  6
CONTINUOUS
 62
               3
  5
22B
 10
45.664833269890856
 20
460.06344884656335
 30
0.0
 40
5.0
 50
92.000000000015689
 51
124.80675787042485
  0
ARC
  8
0
  6
CONTINUOUS
 62
               3
  5
22C
 10
-0.0000000000002274
 20
525.75
 30
0.0
 40
77.5
 50
51.427116909005875
 51
75.044751683382273
  0
ARC
  8
0
  6
CONTINUOUS
 62
               3
  5
22D
 10
45.664833269890202
 20
591.43655115343711
 30
0.0
 40
5.0
 50
235.19324212964338
 51
268.00000000005195
  0
CIRCLE
  8
0
  6
CONTINUOUS
 62
               3
  5
22E
 10
-0.0000000000002274
 20
525.75
 30
0.0
 40
59.0
  0
CIRCLE
  8
0
  6
CONTINUOUS
 62
               3
  5
22F
 10
609.28652321630761
 20
-978.21375990939941
 30
0.0
 40
75.0
  0
CIRCLE
  8
0
  6
CONTINUOUS
 62
               3
  5
230
 10
609.28652321630761
 20
-978.21375990939941
 30
0.0
 40
52.5
  0
LINE
  8
0
  6
CONTINUOUS
 62
               3
  5
231
 10
523.07602501568238
 20
-958.21375990939941
 30
0.0
 11
537.00236174230236
 21
-958.21375990939941
 31
0.0
  0
LINE
  8
0
  6
CONTINUOUS
 62
               3
  5
232
 10
537.00236174230236
 20
-998.21375990939941
 30
0.0
 11
523.07602501568238
 21
-998.21375990939941
 31
0.0
  0
ARC
  8
0
  6
CONTINUOUS
 62
               3
  5
233
 10
609.28652321630761
 20
-978.21375990939941
 30
0.0
 40
88.5
 50
166.93897588510336
 51
193.06102411468945
  0
LINE
  8
0
  6
CONTINUOUS
 62
               3
  5
234
 10
589.28652321630761
 20
-1064.4242581100243
 30
0.0
 11
589.28652321630761
 21
-1050.4979213834044
 31
0.0
  0
LINE
  8
0
  6
CONTINUOUS
 62
               3
  5
235
 10
629.28652321630761
 20
-1050.4979213834044
 30
0.0
 11
629.28652321630761
 21
-1064.4242581100243
 31
0.0
  0
ARC
  8
0
  6
CONTINUOUS
 62
               3
  5
236
 10
609.28652321630761
 20
-978.21375990939941
 30
0.0
 40
88.5
 50
256.93897588505166
 51
283.06102411463769
  0
LINE
  8
0
  6
CONTINUOUS
 62
               3
  5
237
 10
695.49702141693228
 20
-998.21375990939941
 30
0.0
 11
681.57068469031196
 21
-998.21375990939941
 31
0.0
  0
LINE
  8
0
  6
CONTINUOUS
 62
               3
  5
238
 10
681.57068469031196
 20
-958.21375990939941
 30
0.0
 11
695.49702141693228
 21
-958.21375990939941
 31
0.0
  0
ARC
  8
0
  6
CONTINUOUS
 62
               3
  5
239
 10
609.28652321630761
 20
-978.21375990939941
 30
0.0
 40
88.5
 50
346.93897588499982
 51
373.06102411458585
  0
LINE
  8
0
  6
CONTINUOUS
 62
               3
  5
23A
 10
629.28652321630761
 20
-892.00326170877383
 30
0.0
 11
629.28652321630761
 21
-905.92959843539438
 31
0.0
  0
LINE
  8
0
  6
CONTINUOUS
 62
               3
  5
23B
 10
589.28652321630761
 20
-905.92959843539438
 30
0.0
 11
589.28652321630761
 21
-892.00326170877383
 31
0.0
  0
ARC
  8
0
  6
CONTINUOUS
 62
               3
  5
23C
 10
609.28652321630761
 20
-978.21375990939941
 30
0.0
 40
88.5
 50
76.938975885155216
 51
103.06102411474124
  0
LINE
  8
0
  6
CONTINUOUS
 62
               3
  5
23D
 10
561.61839969544667
 20
-1000.2137599093999
 30
0.0
 11
656.95464673716765
 21
-1000.2137599093999
 31
0.0
  0
ARC
  8
0
  6
CONTINUOUS
 62
               3
  5
23E
 10
621.79013486568874
 20
-969.50736228178039
 30
0.0
 40
54.763804151667173
 50
141.3859176367566
 51
145.15009542087031
  0
ARC
  8
0
  6
CONTINUOUS
 62
               3
  5
23F
 10
609.28652321630761
 20
-978.21375990939941
 30
0.0
 40
51.5
 50
334.71098847326505
 51
410.95932736340404
  0
ARC
  8
0
  6
CONTINUOUS
 62
               3
  5
240
 10
609.28652321630761
 20
-978.21375990939941
 30
0.0
 40
51.5
 50
129.04067263628559
 51
205.28901152642416
  0
ARC
  8
0
  6
CONTINUOUS
 62
               3
  5
241
 10
609.28652321630761
 20
-978.21375990939941
 30
0.0
 40
77.5
 50
104.95524831658298
 51
128.57288309095932
  0
ARC
  8
0
  6
CONTINUOUS
 62
               3
  5
242
 10
609.28652321630761
 20
-978.21375990939941
 30
0.0
 40
77.5
 50
14.9552483166347
 51
75.044751683313535
  0
ARC
  8
0
  6
CONTINUOUS
 62
               3
  5
243
 10
609.28652321630761
 20
-978.21375990939941
 30
0.0
 40
77.5
 50
321.42711690878122
 51
345.04475168315804
  0
LINE
  8
0
  6
CONTINUOUS
 62
               3
  5
244
 10
469.28652321630761
 20
-1033.2137599093994
 30
0.0
 11
469.95807934227184
 21
-1033.2137599093994
 31
0.0
  0
LINE
  8
0
  6
CONTINUOUS
 62
               3
  5
245
 10
472.4580793422723
 20
-1035.7137599093994
 30
0.0
 11
469.95807934227184
 21
-1033.2137599093994
 31
0.0
  0
LINE
  8
0
  6
CONTINUOUS
 62
               3
  5
246
 10
469.28652321630761
 20
-923.21375990939941
 30
0.0
 11
469.95807934227184
 21
-923.21375990939941
 31
0.0
  0
LINE
  8
0
  6
CONTINUOUS
 62
               3
  5
247
 10
472.45807934227184
 20
-920.71375990939941
 30
0.0
 11
469.95807934227184
 21
-923.21375990939941
 31
0.0
  0
LINE
  8
0
  6
CONTINUOUS
 62
               3
  5
248
 10
469.95807934227184
 20
-923.21375990939941
 30
0.0
 11
469.95807934227184
 21
-1033.2137599093994
 31
0.0
  0
LINE
  8
0
  6
CONTINUOUS
 62
               3
  5
249
 10
563.79618742992966
 20
-917.52416289105781
 30
0.0
 11
472.45807934227184
 21
-920.71375990939941
 31
0.0
  0
LINE
  8
0
  6
CONTINUOUS
 62
               3
  5
24A
 10
544.45005149975668
 20
-1038.2277749743671
 30
0.0
 11
472.45807934227241
 21
-1035.7137599093994
 31
0.0
  0
LINE
  8
0
  6
CONTINUOUS
 62
               3
  5
24B
 10
464.28652321630761
 20
-923.38531603536353
 30
0.0
 11
464.28652321630761
 21
-1033.3137599093993
 31
0.0
  0
LINE
  8
0
  6
CONTINUOUS
 62
               3
  5
24C
 10
469.28652321630761
 20
-1035.8137599093993
 30
0.0
 11
469.28652321630761
 21
-920.61375990939939
 31
0.0
  0
LINE
  8
0
  6
CONTINUOUS
 62
               3
  5
24D
 10
469.28652321630761
 20
-920.61375990939939
 30
0.0
 11
466.78652321630761
 21
-920.61375990939939
 31
0.0
  0
LINE
  8
0
  6
CONTINUOUS
 62
               3
  5
24E
 10
469.28652321630761
 20
-1035.8137599093993
 30
0.0
 11
466.78652321630761
 21
-1035.8137599093993
 31
0.0
  0
ARC
  8
0
  6
CONTINUOUS
 62
               3
  5
24F
 10
466.78652321630761
 20
-1033.3137599093993
 30
0.0
 40
2.5
 50
179.99999999989538
 51
269.99999999984436
  0
ARC
  8
0
  6
CONTINUOUS
 62
               3
  5
250
 10
466.78652321630761
 20
-923.11375990939939
 30
0.0
 40
2.5
 50
89.999999999948997
 51
179.99999999989538
  0
LINE
  8
0
  6
CONTINUOUS
 62
               3
  5
251
 10
576.84812004969012
 20
-938.21375990939964
 30
0.0
 11
609.28652321630761
 21
-938.21375990939964
 31
0.0
  0
LINE
  8
0
  6
CONTINUOUS
 62
               3
  5
252
 10
609.28652321630761
 20
-938.21375990939964
 30
0.0
 11
643.2901994881463
 21
-938.21375990939964
 31
0.0
  0
LINE
  8
0
  6
CONTINUOUS
 62
               3
  5
253
 10
472.4580793422723
 20
-1035.7137599093994
 30
0.0
 11
472.45807934227184
 21
-920.71375990939941
 31
0.0
  0
ARC
  8
0
  6
CONTINUOUS
 62
               3
  5
254
 10
563.62168994641729
 20
-912.52720875596231
 30
0.0
 40
5.0
 50
271.99999999984402
 51
304.806757870252
  0
LINE
  8
0
  6
CONTINUOUS
 62
               3
  5
255
 10
664.28652321630761
 20
-1118.2137599093994
 30
0.0
 11
664.28652321630761
 21
-1117.5422037834351
 31
0.0
  0
LINE
  8
0
  6
CONTINUOUS
 62
               3
  5
256
 10
666.78652321630761
 20
-1115.0422037834346
 30
0.0
 11
664.28652321630761
 21
-1117.5422037834351
 31
0.0
  0
LINE
  8
0
  6
CONTINUOUS
 62
               3
  5
257
 10
554.28652321630761
 20
-1118.2137599093994
 30
0.0
 11
554.28652321630761
 21
-1117.5422037834351
 31
0.0
  0
LINE
  8
0
  6
CONTINUOUS
 62
               3
  5
258
 10
551.78652321630761
 20
-1115.0422037834351
 30
0.0
 11
554.28652321630761
 21
-1117.5422037834351
 31
0.0
  0
LINE
  8
0
  6
CONTINUOUS
 62
               3
  5
259
 10
554.28652321630761
 20
-1117.5422037834351
 30
0.0
 11
664.28652321630761
 21
-1117.5422037834351
 31
0.0
  0
LINE
  8
0
  6
CONTINUOUS
 62
               3
  5
25A
 10
554.45807934227173
 20
-1123.2137599093994
 30
0.0
 11
664.38652321630752
 21
-1123.2137599093994
 31
0.0
  0
LINE
  8
0
  6
CONTINUOUS
 62
               3
  5
25B
 10
666.88652321630752
 20
-1118.2137599093994
 30
0.0
 11
551.68652321630748
 21
-1118.2137599093994
 31
0.0
  0
LINE
  8
0
  6
CONTINUOUS
 62
               3
  5
25C
 10
551.68652321630748
 20
-1118.2137599093994
 30
0.0
 11
551.68652321630748
 21
-1120.7137599093994
 31
0.0
  0
LINE
  8
0
  6
CONTINUOUS
 62
               3
  5
25D
 10
666.88652321630752
 20
-1118.2137599093994
 30
0.0
 11
666.88652321630752
 21
-1120.7137599093994
 31
0.0
  0
ARC
  8
0
  6
CONTINUOUS
 62
               3
  5
25E
 10
664.38652321630752
 20
-1120.7137599093994
 30
0.0
 40
2.5
 50
269.99999999984567
 51
359.99999999979076
  0
ARC
  8
0
  6
CONTINUOUS
 62
               3
  5
25F
 10
554.18652321630748
 20
-1120.7137599093994
 30
0.0
 40
2.5
 50
179.99999999989538
 51
269.99999999984567
  0
LINE
  8
0
  6
CONTINUOUS
 62
               3
  5
260
 10
666.78652321630761
 20
-1115.0422037834346
 30
0.0
 11
551.78652321630761
 21
-1115.0422037834351
 31
0.0
  0
LINE
  8
0
  6
CONTINUOUS
 62
               3
  5
261
 10
669.97612023464876
 20
-1023.7040956957779
 30
0.0
 11
666.78652321630761
 21
-1115.0422037834346
 31
0.0
  0
ARC
  8
0
  6
CONTINUOUS
 62
               3
  5
262
 10
674.97307436974415
 20
-1023.8785931792904
 30
0.0
 40
5.0
 50
145.19324212948862
 51
177.99999999989819
  0
LINE
  8
0
  6
CONTINUOUS
 62
               3
  5
263
 10
549.27250815133948
 20
-1043.0502316259503
 30
0.0
 11
551.78652321630761
 21
-1115.0422037834351
 31
0.0
  0
ARC
  8
0
  6
CONTINUOUS
 62
               3
  5
264
 10
544.27555401624409
 20
-1043.2247291094627
 30
0.0
 40
5.0
 50
1.9999999999958187
 51
87.99999999994921
  0
LINE
  8
0
  6
CONTINUOUS
 62
               3
  5
265
 10
534.28652321630761
 20
-1286.713193657984
 30
0.0
 11
684.28652321630761
 21
-1286.713193657984
 31
0.0
  0
LINE
  8
0
  6
CONTINUOUS
 62
               3
  5
266
 10
520.78652321630739
 20
-1296.713193657984
 30
0.0
 11
520.78652321630739
 21
-1303.7131936579835
 31
0.0
  0
LINE
  8
0
  6
CONTINUOUS
 62
               3
  5
267
 10
520.78652321630739
 20
-1296.713193657984
 30
0.0
 11
534.28652321630761
 21
-1286.713193657984
 31
0.0
  0
ARC
  8
0
  6
CONTINUOUS
 62
               3
  5
268
 10
532.28652321630784
 20
-1308.2957693529393
 30
0.0
 40
4.9999999999999991
 50
0.0
 51
66.421821521760023
  0
LINE
  8
0
  6
CONTINUOUS
 62
               3
  5
269
 10
520.78652321630739
 20
-1303.7131936579835
 30
0.0
 11
697.78652321630739
 21
-1303.7131936579835
 31
0.0
  0
ARC
  8
0
  6
CONTINUOUS
 62
               3
  5
26A
 10
554.28652321630761
 20
-1393.713193657984
 30
0.0
 40
19.999999999999996
 50
148.21166938286279
 51
167.26981986159123
  0
LINE
  8
0
  6
CONTINUOUS
 62
               3
  5
26B
 10
537.28652321630784
 20
-1308.2957693529393
 30
0.0
 11
537.28652321630784
 21
-1383.1775399051312
 31
0.0
  0
LINE
  8
0
  6
CONTINUOUS
 62
               3
  5
26C
 10
681.28652321630761
 20
-1378.1775399051307
 30
0.0
 11
681.28652321630761
 21
-1308.2957693529393
 31
0.0
  0
LINE
  8
0
  6
CONTINUOUS
 62
               3
  5
26D
 10
537.28652321630784
 20
-1383.1775399051312
 30
0.0
 11
680.78652321630807
 21
-1383.1775399051312
 31
0.0
  0
LINE
  8
0
  6
CONTINUOUS
 62
               3
  5
26E
 10
589.28652321630761
 20
-1303.7131936579835
 30
0.0
 11
589.28652321630761
 21
-1286.713193657984
 31
0.0
  0
LINE
  8
0
  6
CONTINUOUS
 62
               3
  5
26F
 10
629.28652321630761
 20
-1286.713193657984
 30
0.0
 11
629.28652321630761
 21
-1303.7131936579835
 31
0.0
  0
LINE
  8
0
  6
CONTINUOUS
 62
               3
  5
270
 10
589.28652321630761
 20
-1296.713193657984
 30
0.0
 11
629.28652321630761
 21
-1296.713193657984
 31
0.0
  0
LINE
  8
0
  6
CONTINUOUS
 62
               3
  5
271
 10
537.00236174230236
 20
-1286.713193657984
 30
0.0
 11
537.00236174230236
 21
-1303.7131936579835
 31
0.0
  0
LINE
  8
0
  6
CONTINUOUS
 62
               3
  5
272
 10
523.07602501568238
 20
-1296.713193657984
 30
0.0
 11
523.07602501568238
 21
-1303.7131936579835
 31
0.0
  0
LINE
  8
0
  6
CONTINUOUS
 62
               3
  5
273
 10
520.78652321630739
 20
-1296.713193657984
 30
0.0
 11
523.07602501568238
 21
-1296.713193657984
 31
0.0
  0
LINE
  8
0
  6
CONTINUOUS
 62
               3
  5
274
 10
523.07602501568238
 20
-1296.713193657984
 30
0.0
 11
537.00236174230236
 21
-1286.713193657984
 31
0.0
  0
LINE
  8
0
  6
CONTINUOUS
 62
               3
  5
275
 10
697.78652321630739
 20
-1296.713193657984
 30
0.0
 11
697.78652321630739
 21
-1303.7131936579835
 31
0.0
  0
LINE
  8
0
  6
CONTINUOUS
 62
               3
  5
276
 10
697.78652321630739
 20
-1296.713193657984
 30
0.0
 11
684.28652321630761
 21
-1286.713193657984
 31
0.0
  0
ARC
  8
0
  6
CONTINUOUS
 62
               3
  5
277
 10
686.28652321630761
 20
-1308.2957693529393
 30
0.0
 40
4.9999999999999991
 50
113.57817847813573
 51
179.99999999989538
  0
LINE
  8
0
  6
CONTINUOUS
 62
               3
  5
278
 10
681.57068469031196
 20
-1286.713193657984
 30
0.0
 11
681.57068469031196
 21
-1303.7131936579835
 31
0.0
  0
LINE
  8
0
  6
CONTINUOUS
 62
               3
  5
279
 10
695.49702141693297
 20
-1296.713193657984
 30
0.0
 11
695.49702141693297
 21
-1303.7131936579835
 31
0.0
  0
LINE
  8
0
  6
CONTINUOUS
 62
               3
  5
27A
 10
697.78652321630739
 20
-1296.713193657984
 30
0.0
 11
695.49702141693297
 21
-1296.713193657984
 31
0.0
  0
LINE
  8
0
  6
CONTINUOUS
 62
               3
  5
27B
 10
695.49702141693297
 20
-1296.713193657984
 30
0.0
 11
681.57068469031196
 21
-1286.713193657984
 31
0.0
  0
ARC
  8
0
  6
CONTINUOUS
 62
               3
  5
27C
 10
544.28652321630761
 20
-1515.213193657984
 30
0.0
 40
2.4999999999999996
 50
89.99999999994769
 51
269.99999999984567
  0
ARC
  8
0
  6
CONTINUOUS
 62
               3
  5
27D
 10
684.28652321630761
 20
-1515.213193657984
 30
0.0
 40
2.4999999999999996
 50
269.99999999984567
 51
449.99999999974102
  0
LINE
  8
0
  6
CONTINUOUS
 62
               3
  5
27E
 10
469.28652321630761
 20
-1507.713193657984
 30
0.0
 11
469.95807934227196
 21
-1507.713193657984
 31
0.0
  0
LINE
  8
0
  6
CONTINUOUS
 62
               3
  5
27F
 10
472.45807934227207
 20
-1510.2131936579831
 30
0.0
 11
469.95807934227196
 21
-1507.713193657984
 31
0.0
  0
LINE
  8
0
  6
CONTINUOUS
 62
               3
  5
280
 10
472.45807934227287
 20
-1510.213193657984
 30
0.0
 11
514.6231895985502
 21
-1511.6856317538382
 31
0.0
  0
LINE
  8
0
  6
CONTINUOUS
 62
               3
  5
281
 10
532.82205712224027
 20
-1527.9848830842698
 30
0.0
 11
517.98422602097037
 21
-1513.1470519830004
 31
0.0
  0
ARC
  8
0
  6
CONTINUOUS
 62
               3
  5
282
 10
529.28652321630761
 20
-1531.5204169902031
 30
0.0
 40
4.9999999999999991
 50
0.0
 51
44.999999999973191
  0
LINE
  8
0
  6
CONTINUOUS
 62
               3
  5
283
 10
469.28652321630761
 20
-1397.713193657984
 30
0.0
 11
469.95807934227196
 21
-1397.713193657984
 31
0.0
  0
LINE
  8
0
  6
CONTINUOUS
 62
               3
  5
284
 10
472.45807934227207
 20
-1395.213193657984
 30
0.0
 11
469.95807934227196
 21
-1397.713193657984
 31
0.0
  0
LINE
  8
0
  6
CONTINUOUS
 62
               3
  5
285
 10
472.45807934227196
 20
-1395.213193657984
 30
0.0
 11
530.07555554444639
 21
-1393.2011470528314
 31
0.0
  0
LINE
  8
0
  6
CONTINUOUS
 62
               3
  5
286
 10
469.95807934227196
 20
-1397.713193657984
 30
0.0
 11
469.95807934227196
 21
-1507.713193657984
 31
0.0
  0
LINE
  8
0
  6
CONTINUOUS
 62
               3
  5
287
 10
469.28652321630761
 20
-1510.3131936579839
 30
0.0
 11
469.28652321630761
 21
-1395.1131936579841
 31
0.0
  0
LINE
  8
0
  6
CONTINUOUS
 62
               3
  5
288
 10
469.28652321630761
 20
-1395.1131936579841
 30
0.0
 11
466.78652321630761
 21
-1395.1131936579841
 31
0.0
  0
ARC
  8
0
  6
CONTINUOUS
 62
               3
  5
289
 10
466.78652321630761
 20
-1397.6131936579841
 30
0.0
 40
2.5
 50
89.999999999948997
 51
179.99999999989538
  0
LINE
  8
0
  6
CONTINUOUS
 62
               3
  5
28A
 10
464.28652321630761
 20
-1397.6131936579841
 30
0.0
 11
464.28652321630761
 21
-1507.8131936579839
 31
0.0
  0
LINE
  8
0
  6
CONTINUOUS
 62
               3
  5
28B
 10
469.28652321630761
 20
-1510.3131936579839
 30
0.0
 11
466.78652321630761
 21
-1510.3131936579839
 31
0.0
  0
ARC
  8
0
  6
CONTINUOUS
 62
               3
  5
28C
 10
466.78652321630761
 20
-1507.8131936579839
 30
0.0
 40
2.5
 50
179.99999999989538
 51
269.99999999984436
  0
LINE
  8
0
  6
CONTINUOUS
 62
               3
  5
28D
 10
472.45807934227207
 20
-1395.213193657984
 30
0.0
 11
472.45807934227287
 21
-1510.213193657984
 31
0.0
  0
ARC
  8
0
  6
CONTINUOUS
 62
               3
  5
28E
 10
514.44869211503772
 20
-1516.6825858889333
 30
0.0
 40
5.0
 50
44.999999999975948
 51
87.999999999949253
  0
ARC
  8
0
  6
CONTINUOUS
 62
               3
  5
28F
 10
529.90105806093379
 20
-1388.2041929177362
 30
0.0
 40
5.0
 50
271.99999999984408
 51
347.26981986148661
  0
CIRCLE
  8
0
  6
CONTINUOUS
 62
               3
  5
290
 10
609.28652321630761
 20
-1452.713193657984
 30
0.0
 40
48.5
  0
CIRCLE
  8
0
  6
CONTINUOUS
 62
               3
  5
291
 10
609.28652321630761
 20
-1452.713193657984
 30
0.0
 40
47.299999999999997
  0
LINE
  8
0
  6
CONTINUOUS
 62
               3
  5
292
 10
577.46671806291306
 20
-1484.5329988113785
 30
0.0
 11
575.84037246618391
 21
-1486.1593444081077
 31
0.0
  0
LINE
  8
0
  6
CONTINUOUS
 62
               3
  5
293
 10
641.1063283697024
 20
-1484.5329988113785
 30
0.0
 11
642.73267396643132
 21
-1486.1593444081077
 31
0.0
  0
ARC
  8
0
  6
CONTINUOUS
 62
               3
  5
294
 10
609.28652321630761
 20
-1452.713193657984
 30
0.0
 40
45.0
 50
224.99999999987043
 51
314.99999999981884
  0
CIRCLE
  8
0
  6
CONTINUOUS
 62
               3
  5
295
 10
609.28652321630761
 20
-1452.713193657984
 30
0.0
 40
57.600000000000001
  0
ARC
  8
0
  6
CONTINUOUS
 62
               3
  5
296
 10
586.7865232163083
 20
-1515.213193657984
 30
0.0
 40
2.4999999999999996
 50
269.99999999984567
 51
449.99999999974102
  0
ARC
  8
0
  6
CONTINUOUS
 62
               3
  5
297
 10
631.7865232163083
 20
-1515.213193657984
 30
0.0
 40
2.4999999999999996
 50
89.99999999994769
 51
269.99999999984567
  0
LINE
  8
0
  6
CONTINUOUS
 62
               3
  5
298
 10
544.28652321630761
 20
-1517.713193657984
 30
0.0
 11
586.7865232163083
 21
-1517.713193657984
 31
0.0
  0
LINE
  8
0
  6
CONTINUOUS
 62
               3
  5
299
 10
544.28652321630761
 20
-1512.713193657984
 30
0.0
 11
586.7865232163083
 21
-1512.713193657984
 31
0.0
  0
LINE
  8
0
  6
CONTINUOUS
 62
               3
  5
29A
 10
631.7865232163083
 20
-1512.713193657984
 30
0.0
 11
684.28652321630761
 21
-1512.713193657984
 31
0.0
  0
LINE
  8
0
  6
CONTINUOUS
 62
               3
  5
29B
 10
631.7865232163083
 20
-1517.713193657984
 30
0.0
 11
684.28652321630761
 21
-1517.713193657984
 31
0.0
  0
CIRCLE
  8
0
  6
CONTINUOUS
 62
               3
  5
29C
 10
609.28652321630761
 20
-978.21375990939941
 30
0.0
 40
59.0
  0
LINE
  8
0
  6
DASHED2
 62
               3
  5
29D
 10
-51.500000000000455
 20
-614.25
 30
0.0
 11
-51.500000000000455
 21
-534.25
 31
0.0
  0
LINE
  8
0
  6
DASHED2
 62
               3
  5
29E
 10
51.499999999999424
 20
-614.25
 30
0.0
 11
51.499999999999424
 21
-534.25
 31
0.0
  0
LINE
  8
0
  6
DASHED2
 62
               3
  5
29F
 10
-651.50000000000045
 20
-614.25
 30
0.0
 11
-651.50000000000045
 21
-534.25
 31
0.0
  0
LINE
  8
0
  6
DASHED2
 62
               3
  5
2A0
 10
-548.50000000000068
 20
-614.25
 30
0.0
 11
-548.50000000000068
 21
-534.25
 31
0.0
  0
LINE
  8
0
  6
DASHED2
 62
               3
  5
2A1
 10
548.49999999999955
 20
-614.25
 30
0.0
 11
548.49999999999955
 21
-534.25
 31
0.0
  0
LINE
  8
0
  6
DASHED2
 62
               3
  5
2A2
 10
651.49999999999943
 20
-614.25
 30
0.0
 11
651.49999999999943
 21
-534.25
 31
0.0
  0
LINE
  8
0
  6
DASHDOT
 62
               4
  5
2A3
 10
-0.0000000000002274
 20
634.25
 30
0.0
 11
-0.0000000000002274
 21
417.25
 31
0.0
  0
LINE
  8
0
  6
DASHDOT
 62
               4
  5
2A4
 10
-162.00000000000011
 20
525.75
 30
0.0
 11
161.99999999999966
 21
525.75
 31
0.0
  0
LINE
  8
0
  6
DASHDOT
 62
               4
  5
2A5
 10
-0.0000000000002274
 20
10.75
 30
0.0
 11
-0.0000000000002274
 21
-634.25
 31
0.0
  0
LINE
  8
0
  6
DASHDOT
 62
               4
  5
2A6
 10
-162.00000000000011
 20
-175.25
 30
0.0
 11
-62.000000000000099
 21
-175.25
 31
0.0
  0
LINE
  8
0
  6
DASHDOT
 62
               4
  5
2A7
 10
-531.47477522477561
 20
-175.25
 30
0.0
 11
-668.17557442557472
 21
-175.25
 31
0.0
  0
LINE
  8
0
  6
DASHDOT
 62
               4
  5
2A8
 10
-600.00000000000023
 20
10.75
 30
0.0
 11
-600.00000000000023
 21
-634.25
 31
0.0
  0
LINE
  8
0
  6
DASHDOT
 62
               4
  5
2A9
 10
599.99999999999977
 20
10.75
 30
0.0
 11
599.99999999999977
 21
-634.25
 31
0.0
  0
LINE
  8
0
  6
DASHDOT
 62
               4
  5
2AA
 10
161.99999999999966
 20
-175.25
 30
0.0
 11
61.999999999999645
 21
-175.25
 31
0.0
  0
LINE
  8
0
  6
DASHDOT
 62
               4
  5
2AB
 10
531.47477522477516
 20
-175.25
 30
0.0
 11
668.17557442557427
 21
-175.25
 31
0.0
  0
LINE
  8
0
  6
DASHDOT
 62
               4
  5
2AC
 10
-392.13776905046893
 20
-1100.3981954811907
 30
0.0
 11
-392.13776905046882
 21
-971.39819548119044
 31
0.0
  0
LINE
  8
0
  6
DASHDOT
 62
               4
  5
2AD
 10
-450.13776905046893
 20
-1042.3981954811904
 30
0.0
 11
-334.13776905046893
 21
-1042.3981954811904
 31
0.0
  0
LINE
  8
0
  6
DASHDOT
 62
               4
  5
2AE
 10
-461.94094753457637
 20
-1035.8981954811904
 30
0.0
 11
-327.63776905046893
 21
-1035.8981954811904
 31
0.0
  0
LINE
  8
0
  6
DASHDOT
 62
               4
  5
2AF
 10
-268.23776905046884
 20
-1035.8981954811904
 30
0.0
 11
-169.63776905046893
 21
-1035.8981954811904
 31
0.0
  0
LINE
  8
0
  6
DASHDOT
 62
               4
  5
2B0
 10
-302.63776905046893
 20
-1042.3981954811904
 30
0.0
 11
-228.23776905046896
 21
-1042.3981954811904
 31
0.0
  0
LINE
  8
0
  6
DASHDOT
 62
               4
  5
2B1
 10
-516.0377690504688
 20
-1035.8981954811902
 30
0.0
 11
-614.63776905046893
 21
-1035.89819548119
 31
0.0
  0
LINE
  8
0
  6
DASHDOT
 62
               4
  5
2B2
 10
-481.63776905046893
 20
-1042.3981954811902
 30
0.0
 11
-556.0377690504688
 21
-1042.3981954811902
 31
0.0
  0
LINE
  8
0
  6
DASHDOT
 62
               4
  5
2B3
 10
-394.08372644623546
 20
-938.93031141215533
 30
0.0
 11
-394.08372644623546
 21
-805.93031141215533
 31
0.0
  0
LINE
  8
0
  6
DASHDOT
 62
               4
  5
2B4
 10
221.63392368588075
 20
-1035.8981954811904
 30
0.0
 11
320.23392368588088
 21
-1035.8981954811904
 31
0.0
  0
LINE
  8
0
  6
DASHDOT
 62
               4
  5
2B5
 10
196.63392368588075
 20
-1050.3981954811904
 30
0.0
 11
261.63392368588075
 21
-1050.3981954811904
 31
0.0
  0
LINE
  8
0
  6
DASHDOT
 62
               4
  5
2B6
 10
70.877907460637743
 20
-1050.3981954811904
 30
0.0
 11
170.87790746063797
 21
-1050.3981954811904
 31
0.0
  0
LINE
  8
0
  6
DASHDOT
 62
               4
  5
2B7
 10
120.87790746063774
 20
-1100.3981954811907
 30
0.0
 11
120.87790746063797
 21
-971.39819548119044
 31
0.0
  0
LINE
  8
0
  6
DASHDOT
 62
               4
  5
2B8
 10
56.377907460637743
 20
-1035.8981954811904
 30
0.0
 11
190.92191724058898
 21
-1035.8981954811904
 31
0.0
  0
LINE
  8
0
  6
DASHDOT
 62
               4
  5
2B9
 10
20.121891235394969
 20
-1035.8981954811904
 30
0.0
 11
-78.478108764605054
 21
-1035.8981954811904
 31
0.0
  0
LINE
  8
0
  6
DASHDOT
 62
               4
  5
2BA
 10
45.121891235394969
 20
-1050.3981954811904
 30
0.0
 11
-19.878108764605031
 21
-1050.3981954811904
 31
0.0
  0
LINE
  8
0
  6
DASHDOT
 62
               4
  5
2BB
 10
120.87790746063797
 20
-949.64217925594767
 30
0.0
 11
120.87790746063797
 21
-826.04217925594753
 31
0.0
  0
LINE
  8
0
  6
DASHDOT
 62
               4
  5
2BC
 10
609.28652321630761
 20
-869.71375990939941
 30
0.0
 11
609.28652321630761
 21
-1140.2605467092258
 31
0.0
  0
LINE
  8
0
  6
DASHDOT
 62
               4
  5
2BD
 10
447.28652321630773
 20
-978.21375990939941
 30
0.0
 11
717.78652321630784
 21
-978.21375990939941
 31
0.0
  0
LINE
  8
0
  6
DASHDOT
 62
               4
  5
2BE
 10
677.81174799153246
 20
-1452.713193657984
 30
0.0
 11
447.55790992287939
 21
-1452.713193657984
 31
0.0
  0
LINE
  8
0
  6
DASHDOT
 62
               4
  5
2BF
 10
609.28652321630761
 20
-1266.713193657984
 30
0.0
 11
609.28652321630761
 21
-1517.713193657984
 31
0.0
  0
LINE
  8
0
  6
DASHDOT
 62
               4
  5
2C0
 10
559.28652321630761
 20
-1467.213193657984
 30
0.0
 11
659.28652321630784
 21
-1467.213193657984
 31
0.0
  0
LINE
  8
0
  6
DASHDOT
 62
               4
  5
2C1
 10
609.28652321630761
 20
-1168.8137599093998
 30
0.0
 11
609.28652321630761
 21
-1045.2137599093994
 31
0.0
  0
LINE
  8
0
  6
DASHDOT
 62
               4
  5
2C2
 10
409.28652321630761
 20
-1459.213193657984
 30
0.0
 11
483.68652321630759
 21
-1459.213193657984
 31
0.0
  0
LINE
  8
0
  6
DASHDOT
 62
               4
  5
2C3
 10
409.28652321630784
 20
-978.21375990939919
 30
0.0
 11
542.28652321630784
 21
-978.21375990939919
 31
0.0
  0
LINE
  8
0
  6
CONTINUOUS
 62
               4
  5
2C4
 10
58.141132586505698
 20
-407.03450905619968
 30
0.0
 11
-65.512000000000739
 21
-303.2772111089468
 31
0.0
  0
ARC
  8
0
  6
CONTINUOUS
 62
               4
  5
2C5
 10
-914.27232010053979
 20
-1447.8356282358955
 30
0.0
 40
1424.9238755783815
 50
50.189956146237648
 51
53.440796050701131
  0
ARC
  8
0
  6
CONTINUOUS
 62
               4
  5
2C6
 10
63.579388837032745
 20
-282.47734108515374
 30
0.0
 40
130.75634311527989
 50
189.15312334019521
 51
212.7691831126306
  0
ARC
  8
0
  6
CONTINUOUS
 62
               4
  5
2C7
 10
61.364025499550841
 20
-272.34332033391343
 30
0.0
 40
134.72974192119386
 50
216.90649751121279
 51
268.62928723395265
  0
ARC
  8
0
  6
CONTINUOUS
 62
               4
  5
2C8
 10
-733.63034809850853
 20
-1231.4966709110088
 30
0.0
 40
1143.0835201141012
 50
46.158732653398935
 51
50.202696616627449
  0
LINE
  8
0
  6
CONTINUOUS
 62
               4
  5
2C9
 10
-56.500000000000227
 20
-514.25
 30
0.0
 11
56.499999999999766
 21
-514.25
 31
0.0
  0
LINE
  8
0
  6
CONTINUOUS
 62
               4
  5
2CA
 10
-58.000000000000625
 20
-512.74999999999955
 30
0.0
 11
57.999999999999311
 21
-512.74999999999909
 31
0.0
  0
ARC
  8
0
  6
CONTINUOUS
 62
               4
  5
2CB
 10
-878.92922884912446
 20
-474.92239841146238
 30
0.0
 40
359.11818398045398
 50
13.306177675722569
 51
28.552443501602074
  0
ARC
  8
0
  6
CONTINUOUS
 62
               4
  5
2CC
 10
-600.33118646999378
 20
-366.67572250889316
 30
0.0
 40
73.327111796148202
 50
342.62945642111072
 51
419.83689160537813
  0
LINE
  8
0
  6
CONTINUOUS
 62
               4
  5
2CD
 10
-656.50000000000023
 20
-514.25
 30
0.0
 11
-543.50000000000023
 21
-514.25
 31
0.0
  0
LINE
  8
0
  6
CONTINUOUS
 62
               4
  5
2CE
 10
-658.00000000000068
 20
-512.74999999999955
 30
0.0
 11
-542.00000000000068
 21
-512.74999999999909
 31
0.0
  0
ARC
  8
0
  6
CONTINUOUS
 62
               4
  5
2CF
 10
585.02192705347204
 20
-357.5472496535815
 30
0.0
 40
59.149634972654262
 50
186.49999999989254
 51
236.78754046655175
  0
ARC
  8
0
  6
CONTINUOUS
 62
               4
  5
2D0
 10
605.92691953069368
 20
-345.69823255482981
 30
0.0
 40
81.261593956721953
 50
186.49999999989254
 51
229.00792456441022
  0
ARC
  8
0
  6
CONTINUOUS
 62
               4
  5
2D1
 10
460.68129117650449
 20
-430.03575137952453
 30
0.0
 40
204.24864340422488
 50
353.49999999979656
 51
373.43680216726273
  0
ARC
  8
0
  6
CONTINUOUS
 62
               4
  5
2D2
 10
498.3723009445655
 20
-427.75133431011682
 30
0.0
 40
167.18634723772169
 50
351.25933879873276
 51
375.67746336832698
  0
LINE
  8
0
  6
CONTINUOUS
 62
               4
  5
2D3
 10
543.49999999999977
 20
-514.25
 30
0.0
 11
656.49999999999977
 21
-514.25
 31
0.0
  0
LINE
  8
0
  6
CONTINUOUS
 62
               4
  5
2D4
 10
541.99999999999932
 20
-512.74999999999955
 30
0.0
 11
657.99999999999932
 21
-512.74999999999909
 31
0.0
  0
POINT
  8
0
  6
CONTINUOUS
 62
               4
  5
2D5
 10
-247.03776905046891
 20
-991.39819548119044
 30
0.0
  0
POINT
  8
0
  6
CONTINUOUS
 62
               4
  5
2D6
 10
-537.23776905046884
 20
-991.39819548119021
 30
0.0
  0
POINT
  8
0
  6
CONTINUOUS
 62
               4
  5
2D7
 10
-349.58372644623546
 20
-883.33031141215542
 30
0.0
  0
POINT
  8
0
  6
CONTINUOUS
 62
               4
  5
2D8
 10
242.83392368588079
 20
-991.39819548119044
 30
0.0
  0
POINT
  8
0
  6
CONTINUOUS
 62
               4
  5
2D9
 10
-1.0781087646050764
 20
-991.39819548119044
 30
0.0
  0
POINT
  8
0
  6
CONTINUOUS
 62
               4
  5
2DA
 10
165.37790746063797
 20
-903.44217925594762
 30
0.0
  0
LINE
  8
0
  6
CONTINUOUS
 62
               4
  5
2DB
 10
686.28652321630761
 20
-1383.1775399051312
 30
0.0
 11
681.28652321630761
 21
-1378.1775399051312
 31
0.0
  0
ARC
  8
0
  6
CONTINUOUS
 62
               4
  5
2DC
 10
663.78652321630761
 20
-1393.713193657984
 30
0.0
 40
19.999999999999996
 50
0.0
 51
31.78833061703342
  0
LINE
  8
0
  6
CONTINUOUS
 62
               4
  5
2DD
 10
680.78652321630807
 20
-1383.1775399051312
 30
0.0
 11
680.78652321630807
 21
-1378.1775399051307
 31
0.0
  0
LINE
  8
0
  6
CONTINUOUS
 62
               4
  5
2DE
 10
681.28652321630761
 20
-1378.1775399051312
 30
0.0
 11
680.78652321630807
 21
-1378.1775399051312
 31
0.0
  0
LINE
  8
0
  6
CONTINUOUS
 62
               4
  5
2DF
 10
686.03652321630784
 20
-1383.4275399051312
 30
0.0
 11
680.78652321630807
 21
-1378.1775399051312
 31
0.0
  0
LINE
  8
0
  6
CONTINUOUS
 62
               4
  5
2E0
 10
686.03652321630784
 20
-1383.4275399051312
 30
0.0
 11
686.28652321630761
 21
-1383.1775399051312
 31
0.0
  0
LINE
  8
0
  6
CONTINUOUS
 62
               4
  5
2E1
 10
686.28652321630761
 20
-1383.1775399051312
 30
0.0
 11
686.28652321630761
 21
-1513.8662172551008
 31
0.0
  0
LINE
  8
0
  6
CONTINUOUS
 62
               4
  5
2E2
 10
686.03652321630784
 20
-1383.4275399051312
 30
0.0
 11
686.03652321630784
 21
-1513.5808601479653
 31
0.0
  0
LINE
  8
0
  6
CONTINUOUS
 62
               4
  5
2E3
 10
683.78652321630761
 20
-1393.5601700608668
 30
0.0
 11
683.78652321630761
 21
-1512.713193657984
 31
0.0
  0
POINT
  8
0
  6
CONTINUOUS
 62
               4
  5
2E4
 10
653.78652321630761
 20
-1122.6137599093995
 30
0.0
  0
POINT
  8
0
  6
CONTINUOUS
 62
               4
  5
2E5
 10
464.88652321630764
 20
-1408.213193657984
 30
0.0
  0
POINT
  8
0
  6
CONTINUOUS
 62
               4
  5
2E6
 10
464.88652321630775
 20
-1022.7137599093992
 30
0.0
  0
LINE
  8
0
  6
DASHED2
 62
               4
  5
2E7
 10
-57.000000000000114
 20
-74.25
 30
0.0
 11
56.999999999999652
 21
-74.25
 31
0.0
  0
LINE
  8
0
  6
DASHED2
 62
               4
  5
2E8
 10
-657.00000000000023
 20
-74.25
 30
0.0
 11
-543.00000000000045
 21
-74.25
 31
0.0
  0
LINE
  8
0
  6
DASHED2
 62
               4
  5
2E9
 10
542.99999999999989
 20
-74.25
 30
0.0
 11
656.99999999999966
 21
-74.25
 31
0.0
  0
LINE
  8
0
  6
DASHED2
 62
               4
  5
2EA
 10
552.28652321630784
 20
-1351.713193657984
 30
0.0
 11
666.28652321630761
 21
-1351.713193657984
 31
0.0
  0
POINT
  8
0
  6
CONTINUOUS
 62
               5
  5
2EB
 10
-392.13776905046893
 20
-1035.8981954811904
 30
0.0
  0
POINT
  8
0
  6
CONTINUOUS
 62
               5
  5
2EC
 10
-218.90769754050859
 20
-1037.1889895560794
 30
0.0
  0
POINT
  8
0
  6
CONTINUOUS
 62
               5
  5
2ED
 10
-565.36784056042916
 20
-1037.1889895560792
 30
0.0
  0
POINT
  8
0
  6
CONTINUOUS
 62
               5
  5
2EE
 10
-395.37452052112451
 20
-855.20023990219511
 30
0.0
  0
POINT
  8
0
  6
CONTINUOUS
 62
               5
  5
2EF
 10
493.01659472626795
 20
-1454.0039877328727
 30
0.0
  0
POINT
  8
0
  6
CONTINUOUS
 62
               5
  5
2F0
 10
493.01659472626807
 20
-976.92296583451025
 30
0.0
  0
CIRCLE
  8
0
  6
CONTINUOUS
 62
               7
  5
2F1
 10
-392.13776905046893
 20
-1042.3981954811904
 30
0.0
 40
38.0
  0
CIRCLE
  8
0
  6
CONTINUOUS
 62
               7
  5
2F2
 10
-392.13776905046893
 20
-1042.3981954811904
 30
0.0
 40
33.5
  0
LINE
  8
0
  6
CONTINUOUS
 62
               7
  5
2F3
 10
-247.63776905046893
 20
-991.39819548119044
 30
0.0
 11
-247.63776905046893
 21
-1080.392959360516
 31
0.0
  0
LINE
  8
0
  6
CONTINUOUS
 62
               7
  5
2F4
 10
-247.03776905046891
 20
-991.39819548119044
 30
0.0
 11
-247.63776905046893
 21
-991.39819548119044
 31
0.0
  0
LINE
  8
0
  6
CONTINUOUS
 62
               7
  5
2F5
 10
-282.63776905046893
 20
-1079.3981954811904
 30
0.0
 11
-282.63776905046893
 21
-1005.3981954811904
 31
0.0
  0
LINE
  8
0
  6
CONTINUOUS
 62
               7
  5
2F6
 10
-189.63776905046893
 20
-1079.3981954811904
 30
0.0
 11
-189.63776905046893
 21
-992.39819548119044
 31
0.0
  0
LINE
  8
0
  6
CONTINUOUS
 62
               7
  5
2F7
 10
-247.63776905046893
 20
-991.39819548119044
 30
0.0
 11
-190.63776905046893
 21
-991.39819548119044
 31
0.0
  0
LINE
  8
0
  6
CONTINUOUS
 62
               7
  5
2F8
 10
-281.63776905046893
 20
-1080.3981954811904
 30
0.0
 11
-190.63776905046893
 21
-1080.3981954811904
 31
0.0
  0
LINE
  8
0
  6
CONTINUOUS
 62
               7
  5
2F9
 10
-190.63776905046893
 20
-991.39819548119044
 30
0.0
 11
-189.63776905046893
 21
-992.39819548119044
 31
0.0
  0
LINE
  8
0
  6
CONTINUOUS
 62
               7
  5
2FA
 10
-189.63776905046893
 20
-1079.3981954811904
 30
0.0
 11
-190.63776905046893
 21
-1080.3981954811904
 31
0.0
  0
LINE
  8
0
  6
CONTINUOUS
 62
               7
  5
2FB
 10
-281.63776905046893
 20
-1004.3981954811904
 30
0.0
 11
-247.63776905046893
 21
-1004.3981954811904
 31
0.0
  0
CIRCLE
  8
0
  6
CONTINUOUS
 62
               7
  5
2FC
 10
-392.13776905046893
 20
-1035.8981954811904
 30
0.0
 40
44.5
  0
LINE
  8
0
  6
CONTINUOUS
 62
               7
  5
2FD
 10
-281.63776905046893
 20
-1004.3981954811904
 30
0.0
 11
-282.63776905046893
 21
-1005.3981954811904
 31
0.0
  0
LINE
  8
0
  6
CONTINUOUS
 62
               7
  5
2FE
 10
-282.63776905046893
 20
-1079.3981954811904
 30
0.0
 11
-281.63776905046893
 21
-1080.3981954811904
 31
0.0
  0
LINE
  8
0
  6
CONTINUOUS
 62
               7
  5
2FF
 10
-536.63776905046871
 20
-991.39819548119021
 30
0.0
 11
-536.63776905046893
 21
-1080.3929593605158
 31
0.0
  0
LINE
  8
0
  6
CONTINUOUS
 62
               7
  5
300
 10
-537.23776905046884
 20
-991.39819548119021
 30
0.0
 11
-536.63776905046871
 21
-991.39819548119021
 31
0.0
  0
LINE
  8
0
  6
CONTINUOUS
 62
               7
  5
301
 10
-501.63776905046899
 20
-1079.3981954811902
 30
0.0
 11
-501.63776905046876
 21
-1005.3981954811902
 31
0.0
  0
LINE
  8
0
  6
CONTINUOUS
 62
               7
  5
302
 10
-594.63776905046893
 20
-1079.3981954811902
 30
0.0
 11
-594.63776905046871
 21
-992.39819548119021
 31
0.0
  0
LINE
  8
0
  6
CONTINUOUS
 62
               7
  5
303
 10
-536.63776905046871
 20
-991.39819548119021
 30
0.0
 11
-593.63776905046871
 21
-991.39819548119021
 31
0.0
  0
LINE
  8
0
  6
CONTINUOUS
 62
               7
  5
304
 10
-502.63776905046899
 20
-1080.3981954811902
 30
0.0
 11
-593.63776905046893
 21
-1080.3981954811902
 31
0.0
  0
LINE
  8
0
  6
CONTINUOUS
 62
               7
  5
305
 10
-593.63776905046871
 20
-991.39819548119021
 30
0.0
 11
-594.63776905046871
 21
-992.39819548119021
 31
0.0
  0
LINE
  8
0
  6
CONTINUOUS
 62
               7
  5
306
 10
-594.63776905046893
 20
-1079.3981954811902
 30
0.0
 11
-593.63776905046893
 21
-1080.3981954811902
 31
0.0
  0
LINE
  8
0
  6
CONTINUOUS
 62
               7
  5
307
 10
-502.63776905046876
 20
-1004.3981954811902
 30
0.0
 11
-536.63776905046871
 21
-1004.3981954811902
 31
0.0
  0
LINE
  8
0
  6
CONTINUOUS
 62
               7
  5
308
 10
-502.63776905046876
 20
-1004.3981954811902
 30
0.0
 11
-501.63776905046876
 21
-1005.3981954811902
 31
0.0
  0
LINE
  8
0
  6
CONTINUOUS
 62
               7
  5
309
 10
-501.63776905046899
 20
-1079.3981954811902
 30
0.0
 11
-502.63776905046899
 21
-1080.3981954811902
 31
0.0
  0
LINE
  8
0
  6
CONTINUOUS
 62
               7
  5
30A
 10
-349.58372644623546
 20
-883.93031141215556
 30
0.0
 11
-438.57849032556101
 21
-883.93031141215533
 31
0.0
  0
LINE
  8
0
  6
CONTINUOUS
 62
               7
  5
30B
 10
-349.58372644623546
 20
-883.33031141215542
 30
0.0
 11
-349.58372644623546
 21
-883.93031141215556
 31
0.0
  0
LINE
  8
0
  6
CONTINUOUS
 62
               7
  5
30C
 10
-431.08372644623546
 20
-918.93031141215533
 30
0.0
 11
-357.08372644623546
 21
-918.93031141215556
 31
0.0
  0
LINE
  8
0
  6
CONTINUOUS
 62
               7
  5
30D
 10
-437.58372644623535
 20
-825.93031141215533
 30
0.0
 11
-350.58372644623546
 21
-825.93031141215556
 31
0.0
  0
LINE
  8
0
  6
CONTINUOUS
 62
               7
  5
30E
 10
-349.58372644623546
 20
-883.93031141215556
 30
0.0
 11
-349.58372644623546
 21
-826.93031141215556
 31
0.0
  0
LINE
  8
0
  6
CONTINUOUS
 62
               7
  5
30F
 10
-432.08372644623546
 20
-917.93031141215533
 30
0.0
 11
-432.08372644623546
 21
-883.93031141215533
 31
0.0
  0
LINE
  8
0
  6
CONTINUOUS
 62
               7
  5
310
 10
-349.58372644623546
 20
-826.93031141215556
 30
0.0
 11
-350.58372644623546
 21
-825.93031141215556
 31
0.0
  0
LINE
  8
0
  6
CONTINUOUS
 62
               7
  5
311
 10
-437.58372644623535
 20
-825.93031141215533
 30
0.0
 11
-438.58372644623535
 21
-826.93031141215533
 31
0.0
  0
LINE
  8
0
  6
CONTINUOUS
 62
               7
  5
312
 10
-356.08372644623546
 20
-917.93031141215556
 30
0.0
 11
-356.08372644623546
 21
-883.93031141215533
 31
0.0
  0
LINE
  8
0
  6
CONTINUOUS
 62
               7
  5
313
 10
-356.08372644623546
 20
-917.93031141215556
 30
0.0
 11
-357.08372644623546
 21
-918.93031141215556
 31
0.0
  0
LINE
  8
0
  6
CONTINUOUS
 62
               7
  5
314
 10
-431.08372644623546
 20
-918.93031141215533
 30
0.0
 11
-432.08372644623546
 21
-917.93031141215533
 31
0.0
  0
LINE
  8
0
  6
CONTINUOUS
 62
               7
  5
315
 10
-438.58372644623546
 20
-883.93031141215533
 30
0.0
 11
-438.58372644623546
 21
-826.93031141215533
 31
0.0
  0
LINE
  8
0
  6
CONTINUOUS
 62
               7
  5
316
 10
216.63392368588075
 20
-1079.3981954811904
 30
0.0
 11
216.63392368588075
 21
-1021.3981954811904
 31
0.0
  0
LINE
  8
0
  6
CONTINUOUS
 62
               7
  5
317
 10
242.23392368588065
 20
-991.39819548119044
 30
0.0
 11
242.23392368588065
 21
-1080.3981954811904
 31
0.0
  0
LINE
  8
0
  6
CONTINUOUS
 62
               7
  5
318
 10
242.83392368588079
 20
-991.39819548119044
 30
0.0
 11
242.23392368588065
 21
-991.39819548119044
 31
0.0
  0
LINE
  8
0
  6
CONTINUOUS
 62
               7
  5
319
 10
300.23392368588088
 20
-1079.3981954811904
 30
0.0
 11
300.23392368588088
 21
-992.39819548119044
 31
0.0
  0
CIRCLE
  8
0
  6
CONTINUOUS
 62
               7
  5
31A
 10
120.87790746063774
 20
-1050.3981954811904
 30
0.0
 40
30.0
  0
CIRCLE
  8
0
  6
CONTINUOUS
 62
               7
  5
31B
 10
120.87790746063774
 20
-1050.3981954811904
 30
0.0
 40
25.5
  0
CIRCLE
  8
0
  6
CONTINUOUS
 62
               7
  5
31C
 10
120.87790746063774
 20
-1035.8981954811904
 30
0.0
 40
44.5
  0
LINE
  8
0
  6
CONTINUOUS
 62
               7
  5
31D
 10
242.36837543136107
 20
-991.39819548119044
 30
0.0
 11
299.23392368588088
 21
-991.39819548119044
 31
0.0
  0
LINE
  8
0
  6
CONTINUOUS
 62
               7
  5
31E
 10
217.63392368588075
 20
-1080.3981954811904
 30
0.0
 11
299.23392368588088
 21
-1080.3981954811904
 31
0.0
  0
LINE
  8
0
  6
CONTINUOUS
 62
               7
  5
31F
 10
217.63392368588075
 20
-1020.3981954811904
 30
0.0
 11
242.23392368588065
 21
-1020.3981954811904
 31
0.0
  0
LINE
  8
0
  6
CONTINUOUS
 62
               7
  5
320
 10
217.63392368588075
 20
-1020.3981954811904
 30
0.0
 11
216.63392368588075
 21
-1021.3981954811904
 31
0.0
  0
LINE
  8
0
  6
CONTINUOUS
 62
               7
  5
321
 10
299.23392368588088
 20
-991.39819548119044
 30
0.0
 11
300.23392368588088
 21
-992.39819548119044
 31
0.0
  0
LINE
  8
0
  6
CONTINUOUS
 62
               7
  5
322
 10
216.63392368588075
 20
-1079.3981954811904
 30
0.0
 11
217.63392368588075
 21
-1080.3981954811904
 31
0.0
  0
LINE
  8
0
  6
CONTINUOUS
 62
               7
  5
323
 10
300.23392368588088
 20
-1079.3981954811904
 30
0.0
 11
299.23392368588088
 21
-1080.3981954811904
 31
0.0
  0
LINE
  8
0
  6
CONTINUOUS
 62
               7
  5
324
 10
25.121891235394969
 20
-1079.3981954811904
 30
0.0
 11
25.121891235394969
 21
-1021.3981954811904
 31
0.0
  0
LINE
  8
0
  6
CONTINUOUS
 62
               7
  5
325
 10
-0.4781087646050537
 20
-991.39819548119044
 30
0.0
 11
-0.4781087646050537
 21
-1080.3981954811904
 31
0.0
  0
LINE
  8
0
  6
CONTINUOUS
 62
               7
  5
326
 10
-1.0781087646050764
 20
-991.39819548119044
 30
0.0
 11
-0.4781087646050537
 21
-991.39819548119044
 31
0.0
  0
LINE
  8
0
  6
CONTINUOUS
 62
               7
  5
327
 10
-58.478108764605054
 20
-1079.3981954811904
 30
0.0
 11
-58.478108764605054
 21
-992.39819548119044
 31
0.0
  0
LINE
  8
0
  6
CONTINUOUS
 62
               7
  5
328
 10
-0.6125605100853591
 20
-991.39819548119044
 30
0.0
 11
-57.478108764605054
 21
-991.39819548119044
 31
0.0
  0
LINE
  8
0
  6
CONTINUOUS
 62
               7
  5
329
 10
24.121891235394969
 20
-1080.3981954811904
 30
0.0
 11
-57.478108764605054
 21
-1080.3981954811904
 31
0.0
  0
LINE
  8
0
  6
CONTINUOUS
 62
               7
  5
32A
 10
24.121891235394969
 20
-1020.3981954811904
 30
0.0
 11
-0.4781087646050537
 21
-1020.3981954811904
 31
0.0
  0
LINE
  8
0
  6
CONTINUOUS
 62
               7
  5
32B
 10
24.121891235394969
 20
-1020.3981954811904
 30
0.0
 11
25.121891235394969
 21
-1021.3981954811904
 31
0.0
  0
LINE
  8
0
  6
CONTINUOUS
 62
               7
  5
32C
 10
-57.478108764605054
 20
-991.39819548119044
 30
0.0
 11
-58.478108764605054
 21
-992.39819548119044
 31
0.0
  0
LINE
  8
0
  6
CONTINUOUS
 62
               7
  5
32D
 10
25.121891235394969
 20
-1079.3981954811904
 30
0.0
 11
24.121891235394969
 21
-1080.3981954811904
 31
0.0
  0
LINE
  8
0
  6
CONTINUOUS
 62
               7
  5
32E
 10
-58.478108764605054
 20
-1079.3981954811904
 30
0.0
 11
-57.478108764605054
 21
-1080.3981954811904
 31
0.0
  0
LINE
  8
0
  6
CONTINUOUS
 62
               7
  5
32F
 10
91.877907460637971
 20
-929.64217925594767
 30
0.0
 11
149.87790746063797
 21
-929.64217925594767
 31
0.0
  0
LINE
  8
0
  6
CONTINUOUS
 62
               7
  5
330
 10
165.37790746063797
 20
-904.04217925594753
 30
0.0
 11
76.377907460637971
 21
-904.04217925594753
 31
0.0
  0
LINE
  8
0
  6
CONTINUOUS
 62
               7
  5
331
 10
165.37790746063797
 20
-903.44217925594762
 30
0.0
 11
165.37790746063797
 21
-904.04217925594753
 31
0.0
  0
LINE
  8
0
  6
CONTINUOUS
 62
               7
  5
332
 10
77.377907460637971
 20
-846.04217925594753
 30
0.0
 11
164.37790746063797
 21
-846.04217925594753
 31
0.0
  0
LINE
  8
0
  6
CONTINUOUS
 62
               7
  5
333
 10
165.37790746063797
 20
-903.90772751046734
 30
0.0
 11
165.37790746063797
 21
-847.04217925594753
 31
0.0
  0
LINE
  8
0
  6
CONTINUOUS
 62
               7
  5
334
 10
90.877907460637971
 20
-928.64217925594767
 30
0.0
 11
90.877907460637971
 21
-904.04217925594753
 31
0.0
  0
LINE
  8
0
  6
CONTINUOUS
 62
               7
  5
335
 10
150.87790746063797
 20
-928.64217925594767
 30
0.0
 11
150.87790746063797
 21
-904.04217925594753
 31
0.0
  0
LINE
  8
0
  6
CONTINUOUS
 62
               7
  5
336
 10
150.87790746063797
 20
-928.64217925594767
 30
0.0
 11
149.87790746063797
 21
-929.64217925594767
 31
0.0
  0
LINE
  8
0
  6
CONTINUOUS
 62
               7
  5
337
 10
165.37790746063797
 20
-847.04217925594753
 30
0.0
 11
164.37790746063797
 21
-846.04217925594753
 31
0.0
  0
LINE
  8
0
  6
CONTINUOUS
 62
               7
  5
338
 10
91.877907460637971
 20
-929.64217925594767
 30
0.0
 11
90.877907460637971
 21
-928.64217925594767
 31
0.0
  0
LINE
  8
0
  6
CONTINUOUS
 62
               7
  5
339
 10
77.377907460637971
 20
-846.04217925594753
 30
0.0
 11
76.377907460637971
 21
-847.04217925594753
 31
0.0
  0
LINE
  8
0
  6
CONTINUOUS
 62
               7
  5
33A
 10
76.377907460637971
 20
-903.90772751046711
 30
0.0
 11
76.377907460637971
 21
-847.04217925594753
 31
0.0
  0
CIRCLE
  8
0
  6
CONTINUOUS
 62
               7
  5
33B
 10
609.28652321630761
 20
-1467.213193657984
 30
0.0
 40
25.5
  0
CIRCLE
  8
0
  6
CONTINUOUS
 62
               7
  5
33C
 10
609.28652321630761
 20
-1452.713193657984
 30
0.0
 40
44.5
  0
CIRCLE
  8
0
  6
CONTINUOUS
 62
               7
  5
33D
 10
609.28652321630761
 20
-1467.213193657984
 30
0.0
 40
30.0
  0
LINE
  8
0
  6
CONTINUOUS
 62
               7
  5
33E
 10
580.28652321630761
 20
-1148.8137599093993
 30
0.0
 11
638.28652321630761
 21
-1148.8137599093993
 31
0.0
  0
LINE
  8
0
  6
CONTINUOUS
 62
               7
  5
33F
 10
653.78652321630761
 20
-1123.2137599093994
 30
0.0
 11
564.78652321630761
 21
-1123.2137599093994
 31
0.0
  0
LINE
  8
0
  6
CONTINUOUS
 62
               7
  5
340
 10
653.78652321630761
 20
-1122.6137599093995
 30
0.0
 11
653.78652321630761
 21
-1123.2137599093994
 31
0.0
  0
LINE
  8
0
  6
CONTINUOUS
 62
               7
  5
341
 10
565.78652321630761
 20
-1065.2137599093994
 30
0.0
 11
652.78652321630761
 21
-1065.2137599093994
 31
0.0
  0
LINE
  8
0
  6
CONTINUOUS
 62
               7
  5
342
 10
653.78652321630761
 20
-1123.079308163919
 30
0.0
 11
653.78652321630761
 21
-1066.2137599093994
 31
0.0
  0
LINE
  8
0
  6
CONTINUOUS
 62
               7
  5
343
 10
579.28652321630761
 20
-1147.8137599093993
 30
0.0
 11
579.28652321630761
 21
-1123.2137599093994
 31
0.0
  0
LINE
  8
0
  6
CONTINUOUS
 62
               7
  5
344
 10
639.28652321630761
 20
-1147.8137599093993
 30
0.0
 11
639.28652321630761
 21
-1123.2137599093994
 31
0.0
  0
LINE
  8
0
  6
CONTINUOUS
 62
               7
  5
345
 10
639.28652321630761
 20
-1147.8137599093993
 30
0.0
 11
638.28652321630761
 21
-1148.8137599093993
 31
0.0
  0
LINE
  8
0
  6
CONTINUOUS
 62
               7
  5
346
 10
653.78652321630761
 20
-1066.2137599093994
 30
0.0
 11
652.78652321630761
 21
-1065.2137599093994
 31
0.0
  0
LINE
  8
0
  6
CONTINUOUS
 62
               7
  5
347
 10
580.28652321630761
 20
-1148.8137599093993
 30
0.0
 11
579.28652321630761
 21
-1147.8137599093993
 31
0.0
  0
LINE
  8
0
  6
CONTINUOUS
 62
               7
  5
348
 10
565.78652321630761
 20
-1065.2137599093994
 30
0.0
 11
564.78652321630761
 21
-1066.2137599093994
 31
0.0
  0
LINE
  8
0
  6
CONTINUOUS
 62
               7
  5
349
 10
564.78652321630761
 20
-1123.079308163919
 30
0.0
 11
564.78652321630761
 21
-1066.2137599093994
 31
0.0
  0
LINE
  8
0
  6
CONTINUOUS
 62
               7
  5
34A
 10
464.28652321630761
 20
-1408.213193657984
 30
0.0
 11
464.28652321630761
 21
-1497.2079575373095
 31
0.0
  0
LINE
  8
0
  6
CONTINUOUS
 62
               7
  5
34B
 10
464.88652321630764
 20
-1408.213193657984
 30
0.0
 11
464.28652321630761
 21
-1408.213193657984
 31
0.0
  0
LINE
  8
0
  6
CONTINUOUS
 62
               7
  5
34C
 10
429.28652321630761
 20
-1496.213193657984
 30
0.0
 11
429.28652321630761
 21
-1422.213193657984
 31
0.0
  0
LINE
  8
0
  6
CONTINUOUS
 62
               7
  5
34D
 10
522.28652321630761
 20
-1496.213193657984
 30
0.0
 11
522.28652321630761
 21
-1409.213193657984
 31
0.0
  0
LINE
  8
0
  6
CONTINUOUS
 62
               7
  5
34E
 10
464.28652321630761
 20
-1408.213193657984
 30
0.0
 11
521.28652321630761
 21
-1408.213193657984
 31
0.0
  0
LINE
  8
0
  6
CONTINUOUS
 62
               7
  5
34F
 10
430.28652321630761
 20
-1497.213193657984
 30
0.0
 11
521.28652321630761
 21
-1497.213193657984
 31
0.0
  0
LINE
  8
0
  6
CONTINUOUS
 62
               7
  5
350
 10
521.28652321630761
 20
-1408.213193657984
 30
0.0
 11
522.28652321630761
 21
-1409.213193657984
 31
0.0
  0
LINE
  8
0
  6
CONTINUOUS
 62
               7
  5
351
 10
522.28652321630761
 20
-1496.213193657984
 30
0.0
 11
521.28652321630761
 21
-1497.213193657984
 31
0.0
  0
LINE
  8
0
  6
CONTINUOUS
 62
               7
  5
352
 10
430.28652321630761
 20
-1421.213193657984
 30
0.0
 11
464.28652321630761
 21
-1421.213193657984
 31
0.0
  0
LINE
  8
0
  6
CONTINUOUS
 62
               7
  5
353
 10
430.28652321630761
 20
-1421.213193657984
 30
0.0
 11
429.28652321630761
 21
-1422.213193657984
 31
0.0
  0
LINE
  8
0
  6
CONTINUOUS
 62
               7
  5
354
 10
429.28652321630761
 20
-1496.213193657984
 30
0.0
 11
430.28652321630761
 21
-1497.213193657984
 31
0.0
  0
LINE
  8
0
  6
CONTINUOUS
 62
               7
  5
355
 10
464.28652321630761
 20
-1022.7137599093992
 30
0.0
 11
464.28652321630784
 21
-933.71899603007364
 31
0.0
  0
LINE
  8
0
  6
CONTINUOUS
 62
               7
  5
356
 10
464.88652321630775
 20
-1022.7137599093992
 30
0.0
 11
464.28652321630761
 21
-1022.7137599093992
 31
0.0
  0
LINE
  8
0
  6
CONTINUOUS
 62
               7
  5
357
 10
429.28652321630784
 20
-941.21375990939919
 30
0.0
 11
429.28652321630761
 21
-1015.2137599093992
 31
0.0
  0
LINE
  8
0
  6
CONTINUOUS
 62
               7
  5
358
 10
522.28652321630784
 20
-934.71375990939941
 30
0.0
 11
522.28652321630761
 21
-1021.7137599093992
 31
0.0
  0
LINE
  8
0
  6
CONTINUOUS
 62
               7
  5
359
 10
464.28652321630761
 20
-1022.7137599093992
 30
0.0
 11
521.28652321630761
 21
-1022.7137599093992
 31
0.0
  0
LINE
  8
0
  6
CONTINUOUS
 62
               7
  5
35A
 10
430.28652321630784
 20
-940.21375990939919
 30
0.0
 11
464.28652321630784
 21
-940.21375990939919
 31
0.0
  0
LINE
  8
0
  6
CONTINUOUS
 62
               7
  5
35B
 10
521.28652321630761
 20
-1022.7137599093992
 30
0.0
 11
522.28652321630761
 21
-1021.7137599093992
 31
0.0
  0
LINE
  8
0
  6
CONTINUOUS
 62
               7
  5
35C
 10
522.28652321630784
 20
-934.71375990939941
 30
0.0
 11
521.28652321630784
 21
-933.71375990939941
 31
0.0
  0
LINE
  8
0
  6
CONTINUOUS
 62
               7
  5
35D
 10
430.28652321630761
 20
-1016.2137599093992
 30
0.0
 11
464.28652321630784
 21
-1016.2137599093992
 31
0.0
  0
LINE
  8
0
  6
CONTINUOUS
 62
               7
  5
35E
 10
430.28652321630761
 20
-1016.2137599093992
 30
0.0
 11
429.28652321630761
 21
-1015.2137599093992
 31
0.0
  0
LINE
  8
0
  6
CONTINUOUS
 62
               7
  5
35F
 10
429.28652321630784
 20
-941.21375990939919
 30
0.0
 11
430.28652321630784
 21
-940.21375990939919
 31
0.0
  0
LINE
  8
0
  6
CONTINUOUS
 62
               7
  5
360
 10
464.28652321630784
 20
-933.71375990939919
 30
0.0
 11
521.28652321630784
 21
-933.71375990939919
 31
0.0
  0
CIRCLE
  8
0
  6
DASHED
 62
               7
  5
361
 10
-392.13776905046893
 20
-1035.8981954811904
 30
0.0
 40
40.0
  0
CIRCLE
  8
0
  6
DASHED
 62
               7
  5
362
 10
120.87790746063774
 20
-1035.8981954811904
 30
0.0
 40
40.0
  0
CIRCLE
  8
0
  6
DASHED
 62
               7
  5
363
 10
609.28652321630761
 20
-1452.713193657984
 30
0.0
 40
40.0
  0
TEXT
  8
0
 62
               3
  5
364
 10
-392.13776905046893
 20
-1120.3981954811902
 30
0.0
 40
40.0
  1
EMB_80×65
 41
0.8
 72
               1
 11
-392.13776905046893
 21
-1120.3981954811902
 31
0.0
 73
               3
  0
TEXT
  8
0
 62
               3
  5
365
 10
120.87790746063774
 20
-1120.3981954811907
 30
0.0
 40
40.0
  1
EMB_80×50
 41
0.8
 72
               1
 11
120.87790746063774
 21
-1120.3981954811907
 31
0.0
 73
               3
  0
TEXT
  8
0
 62
               3
  5
366
 10
605.58911923866731
 20
-798.7673914041801
 30
0.0
 40
40.0
  1
EMB使用例
 41
0.8
 72
               1
 11
605.58911923866731
 21
-798.7673914041801
 31
0.0
 73
               3
  0
TEXT
  8
0
 62
               3
  5
367
 10
-123.74270409089112
 20
-744.40725550384059
 30
0.0
 40
35.0
  1
横枝管に呼び６５、５０の管を接続するときは、EMBをご使用ください。
 41
0.8
 72
               1
 11
-123.74270409089112
 21
-744.40725550384059
 31
0.0
 73
               3
  0
ENDSEC
  0
EOF
