  0
SECTION
  2
HEADER
  9
$ACADVER
  1
AC1009
  9
$INSBASE
 10
0.0
 20
0.0
 30
0.0
  9
$EXTMIN
 10
-733.20000000000027
 20
-822.16583392761777
 30
0.0
  9
$EXTMAX
 10
733.20000000000084
 20
848.78728737433744
 30
0.0
  9
$LIMMIN
 10
-779.02500000000032
 20
-874.38311896830385
  9
$LIMMAX
 10
779.02500000000089
 20
901.00457241502352
  9
$ORTHOMODE
 70
               0
  9
$REGENMODE
 70
               1
  9
$FILLMODE
 70
               1
  9
$QTEXTMODE
 70
               0
  9
$MIRRTEXT
 70
               1
  9
$DRAGMODE
 70
               2
  9
$LTSCALE
 40
1.0
  9
$OSMODE
 70
               0
  9
$ATTMODE
 70
               1
  9
$TEXTSIZE
 40
0.2
  9
$TRACEWID
 40
0.05
  9
$TEXTSTYLE
  7
STANDARD
  9
$CLAYER
  8
0
  9
$CELTYPE
  6
CONTINUOUS
  9
$CECOLOR
 62
             256
  9
$DIMSCALE
 40
1.0
  9
$DIMASZ
 40
0.18
  9
$DIMEXO
 40
0.0625
  9
$DIMDLI
 40
0.38
  9
$DIMRND
 40
0.0
  9
$DIMDLE
 40
0.0
  9
$DIMEXE
 40
0.18
  9
$DIMTP
 40
0.0
  9
$DIMTM
 40
0.0
  9
$DIMTXT
 40
0.18
  9
$DIMCEN
 40
0.09
  9
$DIMTSZ
 40
0.0
  9
$DIMTOL
 70
               0
  9
$DIMLIM
 70
               0
  9
$DIMTIH
 70
               1
  9
$DIMTOH
 70
               1
  9
$DIMSE1
 70
               0
  9
$DIMSE2
 70
               0
  9
$DIMTAD
 70
               0
  9
$DIMZIN
 70
               0
  9
$DIMBLK
  1

  9
$DIMASO
 70
               1
  9
$DIMSHO
 70
               1
  9
$DIMPOST
  1

  9
$DIMAPOST
  1

  9
$DIMALT
 70
               0
  9
$DIMALTD
 70
               2
  9
$DIMALTF
 40
25.399999999999999
  9
$DIMLFAC
 40
1.0
  9
$DIMTOFL
 70
               0
  9
$DIMTVP
 40
0.0
  9
$DIMTIX
 70
               0
  9
$DIMSOXD
 70
               0
  9
$DIMSAH
 70
               0
  9
$DIMBLK1
  1

  9
$DIMBLK2
  1

  9
$DIMSTYLE
  2
STANDARD
  9
$DIMCLRD
 70
               0
  9
$DIMCLRE
 70
               0
  9
$DIMCLRT
 70
               0
  9
$DIMTFAC
 40
1.0
  9
$DIMGAP
 40
0.09
  9
$LUNITS
 70
               2
  9
$LUPREC
 70
               4
  9
$AXISMODE
 70
               0
  9
$AXISUNIT
 10
0.0
 20
0.0
  9
$SKETCHINC
 40
0.1
  9
$FILLETRAD
 40
0.0
  9
$AUNITS
 70
               0
  9
$AUPREC
 70
               0
  9
$MENU
  1
acad
  9
$ELEVATION
 40
0.0
  9
$PELEVATION
 40
0.0
  9
$THICKNESS
 40
0.0
  9
$LIMCHECK
 70
               0
  9
$BLIPMODE
 70
               1
  9
$CHAMFERA
 40
0.0
  9
$CHAMFERB
 40
0.0
  9
$SKPOLY
 70
               0
  9
$TDCREATE
 40
0.000000000
  9
$TDUPDATE
 40
0.000000000
  9
$TDINDWG
 40
0.0000000000
  9
$TDUSRTIMER
 40
0.0000000000
  9
$USRTIMER
 70
               1
  9
$ANGBASE
 50
0.0
  9
$ANGDIR
 70
               0
  9
$PDMODE
 70
               0
  9
$PDSIZE
 40
1.0
  9
$PLINEWID
 40
0.0
  9
$COORDS
 70
               1
  9
$SPLFRAME
 70
               0
  9
$SPLINETYPE
 70
               6
  9
$SPLINESEGS
 70
               8
  9
$ATTDIA
 70
               0
  9
$ATTREQ
 70
               1
  9
$HANDLING
 70
               1
  9
$HANDSEED
  5
4A4
  9
$SURFTAB1
 70
               6
  9
$SURFTAB2
 70
               6
  9
$SURFTYPE
 70
               6
  9
$SURFU
 70
               6
  9
$SURFV
 70
               6
  9
$UCSNAME
  2

  9
$UCSORG
 10
0.0
 20
0.0
 30
0.0
  9
$UCSXDIR
 10
1.0
 20
0.0
 30
0.0
  9
$UCSYDIR
 10
0.0
 20
1.0
 30
0.0
  9
$PUCSNAME
  2

  9
$PUCSORG
 10
0.0
 20
0.0
 30
0.0
  9
$PUCSXDIR
 10
1.0
 20
0.0
 30
0.0
  9
$PUCSYDIR
 10
0.0
 20
1.0
 30
0.0
  9
$USERI1
 70
               0
  9
$USERI2
 70
               0
  9
$USERI3
 70
               0
  9
$USERI4
 70
               0
  9
$USERI5
 70
               0
  9
$USERR1
 40
0.0
  9
$USERR2
 40
0.0
  9
$USERR3
 40
0.0
  9
$USERR4
 40
0.0
  9
$USERR5
 40
0.0
  9
$WORLDVIEW
 70
               1
  9
$SHADEDGE
 70
               3
  9
$SHADEDIF
 70
              70
  9
$TILEMODE
 70
               1
  9
$MAXACTVP
 70
              16
  9
$PINSBASE
 10
0.0
 20
0.0
 30
0.0
  9
$PLIMCHECK
 70
               0
  9
$PEXTMIN
 10
1.0000000000000000E+20
 20
1.0000000000000000E+20
 30
1.0000000000000000E+20
  9
$PEXTMAX
 10
-1.0000000000000000E+20
 20
-1.0000000000000000E+20
 30
-1.0000000000000000E+20
  9
$PLIMMIN
 10
0.0
 20
0.0
  9
$PLIMMAX
 10
12.0
 20
9.0
  9
$UNITMODE
 70
               0
  9
$VISRETAIN
 70
               0
  9
$PLINEGEN
 70
               1
  9
$PSLTSCALE
 70
               0
  9
$TREEDEPTH
 70
            3020
  9
$DWGCODEPAGE
  3
dos932
  0
ENDSEC
  0
SECTION
  2
TABLES
  0
TABLE
  2
VPORT
 70
               1
  0
VPORT
  2
*ACTIVE
 70
               0
 10
0.0
 20
0.0
 11
1.0
 21
1.0
 12
0.0000000000002842
 22
13.310726723359835
 13
0.0
 23
0.0
 14
1.0
 24
1.0
 15
0.0
 25
0.0
 16
0.0
 26
0.0
 36
1.0
 17
0.0
 27
0.0
 37
0.0
 40
1775.3876913833274
 41
0.8775829682507355
 42
50.0
 43
0.0
 44
0.0
 50
0.0
 51
0.0
 71
               0
 72
             100
 73
               1
 74
               1
 75
               0
 76
               0
 77
               0
 78
               0
  0
ENDTAB
  0
TABLE
  2
LTYPE
 70
              26
  0
LTYPE
  2
CONTINUOUS
 70
               0
  3
Solid line
 72
              65
 73
               0
 40
0.0
  0
LTYPE
  2
HIDDENX2
 70
               0
  3
CADPAC FUSION LINETYPE
 72
              65
 73
               2
 40
120.0
 49
90.0
 49
-30.0
  0
LTYPE
  2
HIDDEN
 70
               0
  3
CADPAC FUSION LINETYPE
 72
              65
 73
               2
 40
90.0
 49
60.0
 49
-30.0
  0
LTYPE
  2
HIDDEN2
 70
               0
  3
CADPAC FUSION LINETYPE
 72
              65
 73
               2
 40
75.0
 49
45.0
 49
-30.0
  0
LTYPE
  2
DASHED
 70
               0
  3
CADPAC FUSION LINETYPE
 72
              65
 73
               2
 40
90.0
 49
60.0
 49
-30.0
  0
LTYPE
  2
DASHED2
 70
               0
  3
CADPAC FUSION LINETYPE
 72
              65
 73
               2
 40
67.5
 49
45.0
 49
-22.5
  0
LTYPE
  2
DASHEDX2
 70
               0
  3
CADPAC FUSION LINETYPE
 72
              65
 73
               2
 40
135.0
 49
90.0
 49
-45.0
  0
LTYPE
  2
DOTX2
 70
               0
  3
CADPAC FUSION LINETYPE
 72
              65
 73
               2
 40
37.5
 49
0.0
 49
-37.5
  0
LTYPE
  2
DOT
 70
               0
  3
CADPAC FUSION LINETYPE
 72
              65
 73
               2
 40
30.0
 49
0.0
 49
-30.0
  0
LTYPE
  2
DOTS
 70
               0
  3
CADPAC FUSION LINETYPE
 72
              65
 73
               2
 40
30.0
 49
0.0
 49
-30.0
  0
LTYPE
  2
DOT2
 70
               0
  3
CADPAC FUSION LINETYPE
 72
              65
 73
               2
 40
22.5
 49
0.0
 49
-22.5
  0
LTYPE
  2
CENTERX2
 70
               0
  3
CADPAC FUSION LINETYPE
 72
              65
 73
               4
 40
180.0
 49
75.0
 49
-37.5
 49
30.0
 49
-37.5
  0
LTYPE
  2
CENTER
 70
               0
  3
CADPAC FUSION LINETYPE
 72
              65
 73
               4
 40
138.0
 49
60.0
 49
-30.0
 49
18.0
 49
-30.0
  0
LTYPE
  2
CENTER2
 70
               0
  3
CADPAC FUSION LINETYPE
 72
              65
 73
               4
 40
96.0
 49
45.0
 49
-22.5
 49
6.0
 49
-22.5
  0
LTYPE
  2
DASHDOTX2
 70
               0
  3
CADPAC FUSION LINETYPE
 72
              65
 73
               4
 40
150.0
 49
75.0
 49
-37.5
 49
0.0
 49
-37.5
  0
LTYPE
  2
DASHDOT
 70
               0
  3
CADPAC FUSION LINETYPE
 72
              65
 73
               4
 40
120.0
 49
60.0
 49
-30.0
 49
0.0
 49
-30.0
  0
LTYPE
  2
DASHDOT2
 70
               0
  3
CADPAC FUSION LINETYPE
 72
              65
 73
               4
 40
90.0
 49
45.0
 49
-22.5
 49
0.0
 49
-22.5
  0
LTYPE
  2
DIVIDEX2
 70
               0
  3
CADPAC FUSION LINETYPE
 72
              65
 73
               6
 40
187.5
 49
75.0
 49
-37.5
 49
0.0
 49
-37.5
 49
0.0
 49
-37.5
  0
LTYPE
  2
DIVIDE
 70
               0
  3
CADPAC FUSION LINETYPE
 72
              65
 73
               6
 40
150.0
 49
60.0
 49
-30.0
 49
0.0
 49
-30.0
 49
0.0
 49
-30.0
  0
LTYPE
  2
DIVIDE2
 70
               0
  3
CADPAC FUSION LINETYPE
 72
              65
 73
               6
 40
112.5
 49
45.0
 49
-22.5
 49
0.0
 49
-22.5
 49
0.0
 49
-22.5
  0
LTYPE
  2
BORDERX2
 70
               0
  3
CADPAC FUSION LINETYPE
 72
              65
 73
               6
 40
262.5
 49
75.0
 49
-37.5
 49
75.0
 49
-37.5
 49
0.0
 49
-37.5
  0
LTYPE
  2
BORDER
 70
               0
  3
CADPAC FUSION LINETYPE
 72
              65
 73
               6
 40
210.0
 49
60.0
 49
-30.0
 49
60.0
 49
-30.0
 49
0.0
 49
-30.0
  0
LTYPE
  2
BORDER2
 70
               0
  3
CADPAC FUSION LINETYPE
 72
              65
 73
               6
 40
157.5
 49
45.0
 49
-22.5
 49
45.0
 49
-22.5
 49
0.0
 49
-22.5
  0
LTYPE
  2
PHANTOMX2
 70
               0
  3
CADPAC FUSION LINETYPE
 72
              65
 73
               6
 40
225.0
 49
75.0
 49
-30.0
 49
30.0
 49
-30.0
 49
30.0
 49
-30.0
  0
LTYPE
  2
PHANTOM
 70
               0
  3
CADPAC FUSION LINETYPE
 72
              65
 73
               6
 40
186.0
 49
60.0
 49
-30.0
 49
18.0
 49
-30.0
 49
18.0
 49
-30.0
  0
LTYPE
  2
PHANTOM2
 70
               0
  3
CADPAC FUSION LINETYPE
 72
              65
 73
               6
 40
159.0
 49
45.0
 49
-30.0
 49
12.0
 49
-30.0
 49
12.0
 49
-30.0
  0
ENDTAB
  0
TABLE
  2
LAYER
 70
             256
  0
LAYER
  2
0
 70
               0
 62
               7
  6
CONTINUOUS
  0
LAYER
  2
LAYER001
 70
               0
 62
               7
  6
CONTINUOUS
  0
LAYER
  2
LAYER002
 70
               0
 62
               7
  6
CONTINUOUS
  0
LAYER
  2
LAYER003
 70
               0
 62
               7
  6
CONTINUOUS
  0
LAYER
  2
LAYER004
 70
               0
 62
               7
  6
CONTINUOUS
  0
LAYER
  2
LAYER005
 70
               0
 62
               7
  6
CONTINUOUS
  0
LAYER
  2
LAYER006
 70
               0
 62
               7
  6
CONTINUOUS
  0
LAYER
  2
LAYER007
 70
               0
 62
               7
  6
CONTINUOUS
  0
LAYER
  2
LAYER008
 70
               0
 62
               7
  6
CONTINUOUS
  0
LAYER
  2
LAYER009
 70
               0
 62
               7
  6
CONTINUOUS
  0
LAYER
  2
LAYER010
 70
               0
 62
               7
  6
CONTINUOUS
  0
LAYER
  2
LAYER011
 70
               0
 62
               7
  6
CONTINUOUS
  0
LAYER
  2
LAYER012
 70
               0
 62
               7
  6
CONTINUOUS
  0
LAYER
  2
LAYER013
 70
               0
 62
               7
  6
CONTINUOUS
  0
LAYER
  2
LAYER014
 70
               0
 62
               7
  6
CONTINUOUS
  0
LAYER
  2
LAYER015
 70
               0
 62
               7
  6
CONTINUOUS
  0
LAYER
  2
LAYER016
 70
               0
 62
               7
  6
CONTINUOUS
  0
LAYER
  2
LAYER017
 70
               0
 62
               7
  6
CONTINUOUS
  0
LAYER
  2
LAYER018
 70
               0
 62
               7
  6
CONTINUOUS
  0
LAYER
  2
LAYER019
 70
               0
 62
               7
  6
CONTINUOUS
  0
LAYER
  2
LAYER020
 70
               0
 62
               7
  6
CONTINUOUS
  0
LAYER
  2
LAYER021
 70
               0
 62
               7
  6
CONTINUOUS
  0
LAYER
  2
LAYER022
 70
               0
 62
               7
  6
CONTINUOUS
  0
LAYER
  2
LAYER023
 70
               0
 62
               7
  6
CONTINUOUS
  0
LAYER
  2
LAYER024
 70
               0
 62
               7
  6
CONTINUOUS
  0
LAYER
  2
LAYER025
 70
               0
 62
               7
  6
CONTINUOUS
  0
LAYER
  2
LAYER026
 70
               0
 62
               7
  6
CONTINUOUS
  0
LAYER
  2
LAYER027
 70
               0
 62
               7
  6
CONTINUOUS
  0
LAYER
  2
LAYER028
 70
               0
 62
               7
  6
CONTINUOUS
  0
LAYER
  2
LAYER029
 70
               0
 62
               7
  6
CONTINUOUS
  0
LAYER
  2
LAYER030
 70
               0
 62
               7
  6
CONTINUOUS
  0
LAYER
  2
LAYER031
 70
               0
 62
               7
  6
CONTINUOUS
  0
LAYER
  2
LAYER032
 70
               0
 62
               7
  6
CONTINUOUS
  0
LAYER
  2
LAYER033
 70
               0
 62
               7
  6
CONTINUOUS
  0
LAYER
  2
LAYER034
 70
               0
 62
               7
  6
CONTINUOUS
  0
LAYER
  2
LAYER035
 70
               0
 62
               7
  6
CONTINUOUS
  0
LAYER
  2
LAYER036
 70
               0
 62
               7
  6
CONTINUOUS
  0
LAYER
  2
LAYER037
 70
               0
 62
               7
  6
CONTINUOUS
  0
LAYER
  2
LAYER038
 70
               0
 62
               7
  6
CONTINUOUS
  0
LAYER
  2
LAYER039
 70
               0
 62
               7
  6
CONTINUOUS
  0
LAYER
  2
LAYER040
 70
               0
 62
               7
  6
CONTINUOUS
  0
LAYER
  2
LAYER041
 70
               0
 62
               7
  6
CONTINUOUS
  0
LAYER
  2
LAYER042
 70
               0
 62
               7
  6
CONTINUOUS
  0
LAYER
  2
LAYER043
 70
               0
 62
               7
  6
CONTINUOUS
  0
LAYER
  2
LAYER044
 70
               0
 62
               7
  6
CONTINUOUS
  0
LAYER
  2
LAYER045
 70
               0
 62
               7
  6
CONTINUOUS
  0
LAYER
  2
LAYER046
 70
               0
 62
               7
  6
CONTINUOUS
  0
LAYER
  2
LAYER047
 70
               0
 62
               7
  6
CONTINUOUS
  0
LAYER
  2
LAYER048
 70
               0
 62
               7
  6
CONTINUOUS
  0
LAYER
  2
LAYER049
 70
               0
 62
               7
  6
CONTINUOUS
  0
LAYER
  2
LAYER050
 70
               0
 62
               7
  6
CONTINUOUS
  0
LAYER
  2
LAYER051
 70
               0
 62
               7
  6
CONTINUOUS
  0
LAYER
  2
LAYER052
 70
               0
 62
               7
  6
CONTINUOUS
  0
LAYER
  2
LAYER053
 70
               0
 62
               7
  6
CONTINUOUS
  0
LAYER
  2
LAYER054
 70
               0
 62
               7
  6
CONTINUOUS
  0
LAYER
  2
LAYER055
 70
               0
 62
               7
  6
CONTINUOUS
  0
LAYER
  2
LAYER056
 70
               0
 62
               7
  6
CONTINUOUS
  0
LAYER
  2
LAYER057
 70
               0
 62
               7
  6
CONTINUOUS
  0
LAYER
  2
LAYER058
 70
               0
 62
               7
  6
CONTINUOUS
  0
LAYER
  2
LAYER059
 70
               0
 62
               7
  6
CONTINUOUS
  0
LAYER
  2
LAYER060
 70
               0
 62
               7
  6
CONTINUOUS
  0
LAYER
  2
LAYER061
 70
               0
 62
               7
  6
CONTINUOUS
  0
LAYER
  2
LAYER062
 70
               0
 62
               7
  6
CONTINUOUS
  0
LAYER
  2
LAYER063
 70
               0
 62
               7
  6
CONTINUOUS
  0
LAYER
  2
LAYER064
 70
               0
 62
               7
  6
CONTINUOUS
  0
LAYER
  2
LAYER065
 70
               0
 62
               7
  6
CONTINUOUS
  0
LAYER
  2
LAYER066
 70
               0
 62
               7
  6
CONTINUOUS
  0
LAYER
  2
LAYER067
 70
               0
 62
               7
  6
CONTINUOUS
  0
LAYER
  2
LAYER068
 70
               0
 62
               7
  6
CONTINUOUS
  0
LAYER
  2
LAYER069
 70
               0
 62
               7
  6
CONTINUOUS
  0
LAYER
  2
LAYER070
 70
               0
 62
               7
  6
CONTINUOUS
  0
LAYER
  2
LAYER071
 70
               0
 62
               7
  6
CONTINUOUS
  0
LAYER
  2
LAYER072
 70
               0
 62
               7
  6
CONTINUOUS
  0
LAYER
  2
LAYER073
 70
               0
 62
               7
  6
CONTINUOUS
  0
LAYER
  2
LAYER074
 70
               0
 62
               7
  6
CONTINUOUS
  0
LAYER
  2
LAYER075
 70
               0
 62
               7
  6
CONTINUOUS
  0
LAYER
  2
LAYER076
 70
               0
 62
               7
  6
CONTINUOUS
  0
LAYER
  2
LAYER077
 70
               0
 62
               7
  6
CONTINUOUS
  0
LAYER
  2
LAYER078
 70
               0
 62
               7
  6
CONTINUOUS
  0
LAYER
  2
LAYER079
 70
               0
 62
               7
  6
CONTINUOUS
  0
LAYER
  2
LAYER080
 70
               0
 62
               7
  6
CONTINUOUS
  0
LAYER
  2
LAYER081
 70
               0
 62
               7
  6
CONTINUOUS
  0
LAYER
  2
LAYER082
 70
               0
 62
               7
  6
CONTINUOUS
  0
LAYER
  2
LAYER083
 70
               0
 62
               7
  6
CONTINUOUS
  0
LAYER
  2
LAYER084
 70
               0
 62
               7
  6
CONTINUOUS
  0
LAYER
  2
LAYER085
 70
               0
 62
               7
  6
CONTINUOUS
  0
LAYER
  2
LAYER086
 70
               0
 62
               7
  6
CONTINUOUS
  0
LAYER
  2
LAYER087
 70
               0
 62
               7
  6
CONTINUOUS
  0
LAYER
  2
LAYER088
 70
               0
 62
               7
  6
CONTINUOUS
  0
LAYER
  2
LAYER089
 70
               0
 62
               7
  6
CONTINUOUS
  0
LAYER
  2
LAYER090
 70
               0
 62
               7
  6
CONTINUOUS
  0
LAYER
  2
LAYER091
 70
               0
 62
               7
  6
CONTINUOUS
  0
LAYER
  2
LAYER092
 70
               0
 62
               7
  6
CONTINUOUS
  0
LAYER
  2
LAYER093
 70
               0
 62
               7
  6
CONTINUOUS
  0
LAYER
  2
LAYER094
 70
               0
 62
               7
  6
CONTINUOUS
  0
LAYER
  2
LAYER095
 70
               0
 62
               7
  6
CONTINUOUS
  0
LAYER
  2
LAYER096
 70
               0
 62
               7
  6
CONTINUOUS
  0
LAYER
  2
LAYER097
 70
               0
 62
               7
  6
CONTINUOUS
  0
LAYER
  2
LAYER098
 70
               0
 62
               7
  6
CONTINUOUS
  0
LAYER
  2
LAYER099
 70
               0
 62
               7
  6
CONTINUOUS
  0
LAYER
  2
LAYER100
 70
               0
 62
               7
  6
CONTINUOUS
  0
LAYER
  2
LAYER101
 70
               0
 62
               7
  6
CONTINUOUS
  0
LAYER
  2
LAYER102
 70
               0
 62
               7
  6
CONTINUOUS
  0
LAYER
  2
LAYER103
 70
               0
 62
               7
  6
CONTINUOUS
  0
LAYER
  2
LAYER104
 70
               0
 62
               7
  6
CONTINUOUS
  0
LAYER
  2
LAYER105
 70
               0
 62
               7
  6
CONTINUOUS
  0
LAYER
  2
LAYER106
 70
               0
 62
               7
  6
CONTINUOUS
  0
LAYER
  2
LAYER107
 70
               0
 62
               7
  6
CONTINUOUS
  0
LAYER
  2
LAYER108
 70
               0
 62
               7
  6
CONTINUOUS
  0
LAYER
  2
LAYER109
 70
               0
 62
               7
  6
CONTINUOUS
  0
LAYER
  2
LAYER110
 70
               0
 62
               7
  6
CONTINUOUS
  0
LAYER
  2
LAYER111
 70
               0
 62
               7
  6
CONTINUOUS
  0
LAYER
  2
LAYER112
 70
               0
 62
               7
  6
CONTINUOUS
  0
LAYER
  2
LAYER113
 70
               0
 62
               7
  6
CONTINUOUS
  0
LAYER
  2
LAYER114
 70
               0
 62
               7
  6
CONTINUOUS
  0
LAYER
  2
LAYER115
 70
               0
 62
               7
  6
CONTINUOUS
  0
LAYER
  2
LAYER116
 70
               0
 62
               7
  6
CONTINUOUS
  0
LAYER
  2
LAYER117
 70
               0
 62
               7
  6
CONTINUOUS
  0
LAYER
  2
LAYER118
 70
               0
 62
               7
  6
CONTINUOUS
  0
LAYER
  2
LAYER119
 70
               0
 62
               7
  6
CONTINUOUS
  0
LAYER
  2
LAYER120
 70
               0
 62
               7
  6
CONTINUOUS
  0
LAYER
  2
LAYER121
 70
               0
 62
               7
  6
CONTINUOUS
  0
LAYER
  2
LAYER122
 70
               0
 62
               7
  6
CONTINUOUS
  0
LAYER
  2
LAYER123
 70
               0
 62
               7
  6
CONTINUOUS
  0
LAYER
  2
LAYER124
 70
               0
 62
               7
  6
CONTINUOUS
  0
LAYER
  2
LAYER125
 70
               0
 62
               7
  6
CONTINUOUS
  0
LAYER
  2
LAYER126
 70
               0
 62
               7
  6
CONTINUOUS
  0
LAYER
  2
LAYER127
 70
               0
 62
               7
  6
CONTINUOUS
  0
LAYER
  2
LAYER128
 70
               0
 62
               7
  6
CONTINUOUS
  0
LAYER
  2
LAYER129
 70
               0
 62
               7
  6
CONTINUOUS
  0
LAYER
  2
LAYER130
 70
               0
 62
               7
  6
CONTINUOUS
  0
LAYER
  2
LAYER131
 70
               0
 62
               7
  6
CONTINUOUS
  0
LAYER
  2
LAYER132
 70
               0
 62
               7
  6
CONTINUOUS
  0
LAYER
  2
LAYER133
 70
               0
 62
               7
  6
CONTINUOUS
  0
LAYER
  2
LAYER134
 70
               0
 62
               7
  6
CONTINUOUS
  0
LAYER
  2
LAYER135
 70
               0
 62
               7
  6
CONTINUOUS
  0
LAYER
  2
LAYER136
 70
               0
 62
               7
  6
CONTINUOUS
  0
LAYER
  2
LAYER137
 70
               0
 62
               7
  6
CONTINUOUS
  0
LAYER
  2
LAYER138
 70
               0
 62
               7
  6
CONTINUOUS
  0
LAYER
  2
LAYER139
 70
               0
 62
               7
  6
CONTINUOUS
  0
LAYER
  2
LAYER140
 70
               0
 62
               7
  6
CONTINUOUS
  0
LAYER
  2
LAYER141
 70
               0
 62
               7
  6
CONTINUOUS
  0
LAYER
  2
LAYER142
 70
               0
 62
               7
  6
CONTINUOUS
  0
LAYER
  2
LAYER143
 70
               0
 62
               7
  6
CONTINUOUS
  0
LAYER
  2
LAYER144
 70
               0
 62
               7
  6
CONTINUOUS
  0
LAYER
  2
LAYER145
 70
               0
 62
               7
  6
CONTINUOUS
  0
LAYER
  2
LAYER146
 70
               0
 62
               7
  6
CONTINUOUS
  0
LAYER
  2
LAYER147
 70
               0
 62
               7
  6
CONTINUOUS
  0
LAYER
  2
LAYER148
 70
               0
 62
               7
  6
CONTINUOUS
  0
LAYER
  2
LAYER149
 70
               0
 62
               7
  6
CONTINUOUS
  0
LAYER
  2
LAYER150
 70
               0
 62
               7
  6
CONTINUOUS
  0
LAYER
  2
LAYER151
 70
               0
 62
               7
  6
CONTINUOUS
  0
LAYER
  2
LAYER152
 70
               0
 62
               7
  6
CONTINUOUS
  0
LAYER
  2
LAYER153
 70
               0
 62
               7
  6
CONTINUOUS
  0
LAYER
  2
LAYER154
 70
               0
 62
               7
  6
CONTINUOUS
  0
LAYER
  2
LAYER155
 70
               0
 62
               7
  6
CONTINUOUS
  0
LAYER
  2
LAYER156
 70
               0
 62
               7
  6
CONTINUOUS
  0
LAYER
  2
LAYER157
 70
               0
 62
               7
  6
CONTINUOUS
  0
LAYER
  2
LAYER158
 70
               0
 62
               7
  6
CONTINUOUS
  0
LAYER
  2
LAYER159
 70
               0
 62
               7
  6
CONTINUOUS
  0
LAYER
  2
LAYER160
 70
               0
 62
               7
  6
CONTINUOUS
  0
LAYER
  2
LAYER161
 70
               0
 62
               7
  6
CONTINUOUS
  0
LAYER
  2
LAYER162
 70
               0
 62
               7
  6
CONTINUOUS
  0
LAYER
  2
LAYER163
 70
               0
 62
               7
  6
CONTINUOUS
  0
LAYER
  2
LAYER164
 70
               0
 62
               7
  6
CONTINUOUS
  0
LAYER
  2
LAYER165
 70
               0
 62
               7
  6
CONTINUOUS
  0
LAYER
  2
LAYER166
 70
               0
 62
               7
  6
CONTINUOUS
  0
LAYER
  2
LAYER167
 70
               0
 62
               7
  6
CONTINUOUS
  0
LAYER
  2
LAYER168
 70
               0
 62
               7
  6
CONTINUOUS
  0
LAYER
  2
LAYER169
 70
               0
 62
               7
  6
CONTINUOUS
  0
LAYER
  2
LAYER170
 70
               0
 62
               7
  6
CONTINUOUS
  0
LAYER
  2
LAYER171
 70
               0
 62
               7
  6
CONTINUOUS
  0
LAYER
  2
LAYER172
 70
               0
 62
               7
  6
CONTINUOUS
  0
LAYER
  2
LAYER173
 70
               0
 62
               7
  6
CONTINUOUS
  0
LAYER
  2
LAYER174
 70
               0
 62
               7
  6
CONTINUOUS
  0
LAYER
  2
LAYER175
 70
               0
 62
               7
  6
CONTINUOUS
  0
LAYER
  2
LAYER176
 70
               0
 62
               7
  6
CONTINUOUS
  0
LAYER
  2
LAYER177
 70
               0
 62
               7
  6
CONTINUOUS
  0
LAYER
  2
LAYER178
 70
               0
 62
               7
  6
CONTINUOUS
  0
LAYER
  2
LAYER179
 70
               0
 62
               7
  6
CONTINUOUS
  0
LAYER
  2
LAYER180
 70
               0
 62
               7
  6
CONTINUOUS
  0
LAYER
  2
LAYER181
 70
               0
 62
               7
  6
CONTINUOUS
  0
LAYER
  2
LAYER182
 70
               0
 62
               7
  6
CONTINUOUS
  0
LAYER
  2
LAYER183
 70
               0
 62
               7
  6
CONTINUOUS
  0
LAYER
  2
LAYER184
 70
               0
 62
               7
  6
CONTINUOUS
  0
LAYER
  2
LAYER185
 70
               0
 62
               7
  6
CONTINUOUS
  0
LAYER
  2
LAYER186
 70
               0
 62
               7
  6
CONTINUOUS
  0
LAYER
  2
LAYER187
 70
               0
 62
               7
  6
CONTINUOUS
  0
LAYER
  2
LAYER188
 70
               0
 62
               7
  6
CONTINUOUS
  0
LAYER
  2
LAYER189
 70
               0
 62
               7
  6
CONTINUOUS
  0
LAYER
  2
LAYER190
 70
               0
 62
               7
  6
CONTINUOUS
  0
LAYER
  2
LAYER191
 70
               0
 62
               7
  6
CONTINUOUS
  0
LAYER
  2
LAYER192
 70
               0
 62
               7
  6
CONTINUOUS
  0
LAYER
  2
LAYER193
 70
               0
 62
               7
  6
CONTINUOUS
  0
LAYER
  2
LAYER194
 70
               0
 62
               7
  6
CONTINUOUS
  0
LAYER
  2
LAYER195
 70
               0
 62
               7
  6
CONTINUOUS
  0
LAYER
  2
LAYER196
 70
               0
 62
               7
  6
CONTINUOUS
  0
LAYER
  2
LAYER197
 70
               0
 62
               7
  6
CONTINUOUS
  0
LAYER
  2
LAYER198
 70
               0
 62
               7
  6
CONTINUOUS
  0
LAYER
  2
LAYER199
 70
               0
 62
               7
  6
CONTINUOUS
  0
LAYER
  2
LAYER200
 70
               0
 62
               7
  6
CONTINUOUS
  0
LAYER
  2
LAYER201
 70
               0
 62
               7
  6
CONTINUOUS
  0
LAYER
  2
LAYER202
 70
               0
 62
               7
  6
CONTINUOUS
  0
LAYER
  2
LAYER203
 70
               0
 62
               7
  6
CONTINUOUS
  0
LAYER
  2
LAYER204
 70
               0
 62
               7
  6
CONTINUOUS
  0
LAYER
  2
LAYER205
 70
               0
 62
               7
  6
CONTINUOUS
  0
LAYER
  2
LAYER206
 70
               0
 62
               7
  6
CONTINUOUS
  0
LAYER
  2
LAYER207
 70
               0
 62
               7
  6
CONTINUOUS
  0
LAYER
  2
LAYER208
 70
               0
 62
               7
  6
CONTINUOUS
  0
LAYER
  2
LAYER209
 70
               0
 62
               7
  6
CONTINUOUS
  0
LAYER
  2
LAYER210
 70
               0
 62
               7
  6
CONTINUOUS
  0
LAYER
  2
LAYER211
 70
               0
 62
               7
  6
CONTINUOUS
  0
LAYER
  2
LAYER212
 70
               0
 62
               7
  6
CONTINUOUS
  0
LAYER
  2
LAYER213
 70
               0
 62
               7
  6
CONTINUOUS
  0
LAYER
  2
LAYER214
 70
               0
 62
               7
  6
CONTINUOUS
  0
LAYER
  2
LAYER215
 70
               0
 62
               7
  6
CONTINUOUS
  0
LAYER
  2
LAYER216
 70
               0
 62
               7
  6
CONTINUOUS
  0
LAYER
  2
LAYER217
 70
               0
 62
               7
  6
CONTINUOUS
  0
LAYER
  2
LAYER218
 70
               0
 62
               7
  6
CONTINUOUS
  0
LAYER
  2
LAYER219
 70
               0
 62
               7
  6
CONTINUOUS
  0
LAYER
  2
LAYER220
 70
               0
 62
               7
  6
CONTINUOUS
  0
LAYER
  2
LAYER221
 70
               0
 62
               7
  6
CONTINUOUS
  0
LAYER
  2
LAYER222
 70
               0
 62
               7
  6
CONTINUOUS
  0
LAYER
  2
LAYER223
 70
               0
 62
               7
  6
CONTINUOUS
  0
LAYER
  2
LAYER224
 70
               0
 62
               7
  6
CONTINUOUS
  0
LAYER
  2
LAYER225
 70
               0
 62
               7
  6
CONTINUOUS
  0
LAYER
  2
LAYER226
 70
               0
 62
               7
  6
CONTINUOUS
  0
LAYER
  2
LAYER227
 70
               0
 62
               7
  6
CONTINUOUS
  0
LAYER
  2
LAYER228
 70
               0
 62
               7
  6
CONTINUOUS
  0
LAYER
  2
LAYER229
 70
               0
 62
               7
  6
CONTINUOUS
  0
LAYER
  2
LAYER230
 70
               0
 62
               7
  6
CONTINUOUS
  0
LAYER
  2
LAYER231
 70
               0
 62
               7
  6
CONTINUOUS
  0
LAYER
  2
LAYER232
 70
               0
 62
               7
  6
CONTINUOUS
  0
LAYER
  2
LAYER233
 70
               0
 62
               7
  6
CONTINUOUS
  0
LAYER
  2
LAYER234
 70
               0
 62
               7
  6
CONTINUOUS
  0
LAYER
  2
LAYER235
 70
               0
 62
               7
  6
CONTINUOUS
  0
LAYER
  2
LAYER236
 70
               0
 62
               7
  6
CONTINUOUS
  0
LAYER
  2
LAYER237
 70
               0
 62
               7
  6
CONTINUOUS
  0
LAYER
  2
LAYER238
 70
               0
 62
               7
  6
CONTINUOUS
  0
LAYER
  2
LAYER239
 70
               0
 62
               7
  6
CONTINUOUS
  0
LAYER
  2
LAYER240
 70
               0
 62
               7
  6
CONTINUOUS
  0
LAYER
  2
LAYER241
 70
               0
 62
               7
  6
CONTINUOUS
  0
LAYER
  2
LAYER242
 70
               0
 62
               7
  6
CONTINUOUS
  0
LAYER
  2
LAYER243
 70
               0
 62
               7
  6
CONTINUOUS
  0
LAYER
  2
LAYER244
 70
               0
 62
               7
  6
CONTINUOUS
  0
LAYER
  2
LAYER245
 70
               0
 62
               7
  6
CONTINUOUS
  0
LAYER
  2
LAYER246
 70
               0
 62
               7
  6
CONTINUOUS
  0
LAYER
  2
LAYER247
 70
               0
 62
               7
  6
CONTINUOUS
  0
LAYER
  2
LAYER248
 70
               0
 62
               7
  6
CONTINUOUS
  0
LAYER
  2
LAYER249
 70
               0
 62
               7
  6
CONTINUOUS
  0
LAYER
  2
LAYER250
 70
               0
 62
               7
  6
CONTINUOUS
  0
LAYER
  2
LAYER251
 70
               0
 62
               7
  6
CONTINUOUS
  0
LAYER
  2
LAYER252
 70
               0
 62
               7
  6
CONTINUOUS
  0
LAYER
  2
LAYER253
 70
               0
 62
               7
  6
CONTINUOUS
  0
LAYER
  2
LAYER254
 70
               0
 62
               7
  6
CONTINUOUS
  0
LAYER
  2
LAYER255
 70
               0
 62
               7
  6
CONTINUOUS
  0
ENDTAB
  0
TABLE
  2
STYLE
 70
               1
  0
STYLE
  2
STANDARD
 70
               0
 40
0.0
 41
1.0
 50
0.0
 71
               0
 42
0.0
  3
txt
  4

  0
ENDTAB
  0
TABLE
  2
VIEW
 70
               0
  0
VIEW
  2
QQQQ
 70
               0
 40
1775.3876913833274
 10
0.0000000000002842
 20
13.310726723359835
 41
1558.0500000000011
 11
0.0
 21
0.0
 31
1.0
 12
100.0
 22
100.0
 32
0.0
 42
50.0
 43
0.0
 44
0.0
 50
0.0
 71
               0
  0
ENDTAB
  0
TABLE
  2
UCS
 70
               0
  0
ENDTAB
  0
TABLE
  2
APPID
 70
               1
  0
APPID
  2
ACAD
 70
               0
  0
ENDTAB
  0
TABLE
  2
DIMSTYLE
 70
               1
  0
DIMSTYLE
  2
STANDARD
 70
               0
  3

  4

  5

  6

  7

 40
1.0
 41
0.18
 42
0.0625
 43
0.38
 44
0.18
 45
0.0
 46
0.0
 47
0.0
 48
0.0
140
0.18
141
0.09
142
0.0
143
25.399999999999999
144
1.0
145
0.0
146
1.0
147
0.09
 71
               0
 72
               0
 73
               1
 74
               1
 75
               0
 76
               0
 77
               0
 78
               0
170
               0
171
               2
172
               0
173
               0
174
               0
175
               0
176
               0
177
               0
178
               0
  0
ENDTAB
  0
ENDSEC
  0
SECTION
  2
BLOCKS
  0
BLOCK
  8
0
  5
142
  2
GROUP_1
 70
               0
 10
0.0
 20
0.0
 30
0.0
  3
GROUP_1
  0
LINE
  8
0
  6
CONTINUOUS
 62
               4
  5
143
 10
-72.753934824880986
 20
-230.89109028540466
 30
0.0
 11
-71.38632497186066
 21
-231.76528926978494
 31
0.0
  0
LINE
  8
0
  6
CONTINUOUS
 62
               4
  5
144
 10
-71.38632497186066
 20
-231.76528926978494
 30
0.0
 11
-70.018715118837918
 21
-232.64437873892888
 31
0.0
  0
LINE
  8
0
  6
CONTINUOUS
 62
               4
  5
145
 10
-70.018715118837918
 20
-232.64437873892888
 30
0.0
 11
-68.65110526581347
 21
-233.53324917751593
 31
0.0
  0
LINE
  8
0
  6
CONTINUOUS
 62
               4
  5
146
 10
-68.65110526581347
 20
-233.53324917751593
 30
0.0
 11
-67.283495412788241
 21
-234.43679107022552
 31
0.0
  0
LINE
  8
0
  6
CONTINUOUS
 62
               4
  5
147
 10
-67.283495412788241
 20
-234.43679107022552
 30
0.0
 11
-65.915885559763154
 21
-235.35989490173708
 31
0.0
  0
LINE
  8
0
  6
CONTINUOUS
 62
               4
  5
148
 10
-65.915885559763154
 20
-235.35989490173708
 30
0.0
 11
-64.548275706738778
 21
-236.30601667203376
 31
0.0
  0
LINE
  8
0
  6
CONTINUOUS
 62
               4
  5
149
 10
-64.548275706738778
 20
-236.30601667203376
 30
0.0
 11
-63.18066585371497
 21
-237.27287444231359
 31
0.0
  0
LINE
  8
0
  6
CONTINUOUS
 62
               4
  5
14A
 10
-63.18066585371497
 20
-237.27287444231359
 30
0.0
 11
-61.813056000691589
 21
-238.25675178907829
 31
0.0
  0
LINE
  8
0
  6
CONTINUOUS
 62
               4
  5
14B
 10
-61.813056000691589
 20
-238.25675178907829
 30
0.0
 11
-60.44544614766842
 21
-239.2539322888297
 31
0.0
  0
LINE
  8
0
  6
CONTINUOUS
 62
               4
  5
14C
 10
-60.44544614766842
 20
-239.2539322888297
 30
0.0
 11
-59.077836294645323
 21
-240.26069951806957
 31
0.0
  0
LINE
  8
0
  6
CONTINUOUS
 62
               4
  5
14D
 10
-59.077836294645323
 20
-240.26069951806957
 30
0.0
 11
-57.710226441622012
 21
-241.27396299210162
 31
0.0
  0
LINE
  8
0
  6
CONTINUOUS
 62
               4
  5
14E
 10
-57.710226441622012
 20
-241.27396299210162
 30
0.0
 11
-56.342616588598418
 21
-242.29313598143739
 31
0.0
  0
LINE
  8
0
  6
CONTINUOUS
 62
               4
  5
14F
 10
-56.342616588598418
 20
-242.29313598143739
 30
0.0
 11
-54.975006735574823
 21
-243.31825769539037
 31
0.0
  0
LINE
  8
0
  6
CONTINUOUS
 62
               4
  5
150
 10
-54.975006735574823
 20
-243.31825769539037
 30
0.0
 11
-53.607396882551228
 21
-244.34936734327408
 31
0.0
  0
LINE
  8
0
  6
CONTINUOUS
 62
               4
  5
151
 10
-53.607396882551228
 20
-244.34936734327408
 30
0.0
 11
-52.239787029527349
 21
-245.386504134402
 31
0.0
  0
LINE
  8
0
  6
CONTINUOUS
 62
               4
  5
152
 10
-52.239787029527349
 20
-245.386504134402
 30
0.0
 11
-50.872177176503754
 21
-246.4296460075762
 31
0.0
  0
LINE
  8
0
  6
CONTINUOUS
 62
               4
  5
153
 10
-50.872177176503754
 20
-246.4296460075762
 30
0.0
 11
-49.504567323480231
 21
-247.47852581955226
 31
0.0
  0
LINE
  8
0
  6
CONTINUOUS
 62
               4
  5
154
 10
-49.504567323480231
 20
-247.47852581955226
 30
0.0
 11
-48.136957470456707
 21
-248.53281515657457
 31
0.0
  0
LINE
  8
0
  6
CONTINUOUS
 62
               4
  5
155
 10
-48.136957470456707
 20
-248.53281515657457
 30
0.0
 11
-46.769347617433183
 21
-249.59218560488722
 31
0.0
  0
LINE
  8
0
  6
CONTINUOUS
 62
               4
  5
156
 10
-46.769347617433183
 20
-249.59218560488722
 30
0.0
 11
-45.40173776440966
 21
-250.6563087507345
 31
0.0
  0
LINE
  8
0
  6
CONTINUOUS
 62
               4
  5
157
 10
-45.40173776440966
 20
-250.6563087507345
 30
0.0
 11
-44.034127911385994
 21
-251.72483532360479
 31
0.0
  0
LINE
  8
0
  6
CONTINUOUS
 62
               4
  5
158
 10
-44.034127911385994
 20
-251.72483532360479
 30
0.0
 11
-42.666518058362541
 21
-252.79733262596363
 31
0.0
  0
LINE
  8
0
  6
CONTINUOUS
 62
               4
  5
159
 10
-42.666518058362541
 20
-252.79733262596363
 30
0.0
 11
-41.298908205339018
 21
-253.8733471035205
 31
0.0
  0
LINE
  8
0
  6
CONTINUOUS
 62
               4
  5
15A
 10
-41.298908205339018
 20
-253.8733471035205
 30
0.0
 11
-39.931298352315423
 21
-254.95242520198502
 31
0.0
  0
LINE
  8
0
  6
CONTINUOUS
 62
               4
  5
15B
 10
-39.931298352315423
 20
-254.95242520198502
 30
0.0
 11
-38.563688499291828
 21
-256.03411336706694
 31
0.0
  0
LINE
  8
0
  6
CONTINUOUS
 62
               4
  5
15C
 10
-38.563688499291828
 20
-256.03411336706694
 30
0.0
 11
-37.196078646268305
 21
-257.11810274201036
 31
0.0
  0
LINE
  8
0
  6
CONTINUOUS
 62
               4
  5
15D
 10
-37.196078646268305
 20
-257.11810274201036
 30
0.0
 11
-35.82846879324471
 21
-258.204663260198
 31
0.0
  0
LINE
  8
0
  6
CONTINUOUS
 62
               4
  5
15E
 10
-35.82846879324471
 20
-258.204663260198
 30
0.0
 11
-34.460858940221115
 21
-259.29420955254722
 31
0.0
  0
LINE
  8
0
  6
CONTINUOUS
 62
               4
  5
15F
 10
-34.460858940221115
 20
-259.29420955254722
 30
0.0
 11
-33.093249087197449
 21
-260.38715624997519
 31
0.0
  0
LINE
  8
0
  6
CONTINUOUS
 62
               4
  5
160
 10
-33.093249087197449
 20
-260.38715624997519
 30
0.0
 11
-31.725639234173997
 21
-261.48391798339941
 31
0.0
  0
LINE
  8
0
  6
CONTINUOUS
 62
               4
  5
161
 10
-31.725639234173997
 20
-261.48391798339941
 30
0.0
 11
-30.358029381150402
 21
-262.58471145035429
 31
0.0
  0
LINE
  8
0
  6
CONTINUOUS
 62
               4
  5
162
 10
-30.358029381150402
 20
-262.58471145035429
 30
0.0
 11
-28.990419528126736
 21
-263.68896161484378
 31
0.0
  0
LINE
  8
0
  6
CONTINUOUS
 62
               4
  5
163
 10
-28.990419528126736
 20
-263.68896161484378
 30
0.0
 11
-27.622809675103284
 21
-264.79589550748909
 31
0.0
  0
LINE
  8
0
  6
CONTINUOUS
 62
               4
  5
164
 10
-27.622809675103284
 20
-264.79589550748909
 30
0.0
 11
-26.255199822079689
 21
-265.90474015891141
 31
0.0
  0
LINE
  8
0
  6
CONTINUOUS
 62
               4
  5
165
 10
-26.255199822079689
 20
-265.90474015891141
 30
0.0
 11
-24.887589969056094
 21
-267.01472259973184
 31
0.0
  0
LINE
  8
0
  6
CONTINUOUS
 62
               4
  5
166
 10
-24.887589969056094
 20
-267.01472259973184
 30
0.0
 11
-23.519980116032642
 21
-268.12535689656778
 31
0.0
  0
LINE
  8
0
  6
CONTINUOUS
 62
               4
  5
167
 10
-23.519980116032642
 20
-268.12535689656778
 30
0.0
 11
-22.152370263009047
 21
-269.237305260021
 31
0.0
  0
LINE
  8
0
  6
CONTINUOUS
 62
               4
  5
168
 10
-22.152370263009047
 20
-269.237305260021
 30
0.0
 11
-20.784760409985381
 21
-270.35151693668956
 31
0.0
  0
LINE
  8
0
  6
CONTINUOUS
 62
               4
  5
169
 10
-20.784760409985381
 20
-270.35151693668956
 30
0.0
 11
-19.417150556961786
 21
-271.46894117317134
 31
0.0
  0
LINE
  8
0
  6
CONTINUOUS
 62
               4
  5
16A
 10
-19.417150556961786
 20
-271.46894117317134
 30
0.0
 11
-18.049540703938263
 21
-272.59052721606434
 31
0.0
  0
LINE
  8
0
  6
CONTINUOUS
 62
               4
  5
16B
 10
-18.049540703938263
 20
-272.59052721606434
 30
0.0
 11
-16.681930850914597
 21
-273.71692210136462
 31
0.0
  0
LINE
  8
0
  6
CONTINUOUS
 62
               4
  5
16C
 10
-16.681930850914597
 20
-273.71692210136462
 30
0.0
 11
-15.314320997891073
 21
-274.84756402266106
 31
0.0
  0
LINE
  8
0
  6
CONTINUOUS
 62
               4
  5
16D
 10
-15.314320997891073
 20
-274.84756402266106
 30
0.0
 11
-13.94671114486755
 21
-275.98158896294058
 31
0.0
  0
LINE
  8
0
  6
CONTINUOUS
 62
               4
  5
16E
 10
-13.94671114486755
 20
-275.98158896294058
 30
0.0
 11
-12.579101291843884
 21
-277.11813290519018
 31
0.0
  0
LINE
  8
0
  6
CONTINUOUS
 62
               4
  5
16F
 10
-12.579101291843884
 20
-277.11813290519018
 30
0.0
 11
-11.21149143882036
 21
-278.25633183239677
 31
0.0
  0
LINE
  8
0
  6
CONTINUOUS
 62
               4
  5
170
 10
-11.21149143882036
 20
-278.25633183239677
 30
0.0
 11
-9.8438815858012418
 21
-279.39535316551832
 31
0.0
  0
LINE
  8
0
  6
CONTINUOUS
 62
               4
  5
171
 10
-9.8438815858012418
 20
-279.39535316551832
 30
0.0
 11
-8.4762717327865289
 21
-280.53534191959773
 31
0.0
  0
LINE
  8
0
  6
CONTINUOUS
 62
               4
  5
172
 10
-8.4762717327865289
 20
-280.53534191959773
 30
0.0
 11
-7.1086618797696133
 21
-281.67690046874964
 31
0.0
  0
LINE
  8
0
  6
CONTINUOUS
 62
               4
  5
173
 10
-7.1086618797696133
 20
-281.67690046874964
 30
0.0
 11
-5.7410520267438159
 21
-282.82063118708862
 31
0.0
  0
LINE
  8
0
  6
CONTINUOUS
 62
               4
  5
174
 10
-5.7410520267438159
 20
-282.82063118708862
 30
0.0
 11
-4.3734421737025286
 21
-283.96713644872926
 31
0.0
  0
LINE
  8
0
  6
CONTINUOUS
 62
               4
  5
175
 10
-4.3734421737025286
 20
-283.96713644872926
 30
0.0
 11
-3.0058323206600335
 21
-285.11643450741087
 31
0.0
  0
LINE
  8
0
  6
CONTINUOUS
 62
               4
  5
176
 10
-3.0058323206600335
 20
-285.11643450741087
 30
0.0
 11
-1.6382224676319623
 21
-286.26791081983191
 31
0.0
  0
LINE
  8
0
  6
CONTINUOUS
 62
               4
  5
177
 10
-1.6382224676319623
 20
-286.26791081983191
 30
0.0
 11
-0.2706126146132704
 21
-287.42121856454531
 31
0.0
  0
LINE
  8
0
  6
CONTINUOUS
 62
               4
  5
178
 10
-0.2706126146132704
 20
-287.42121856454531
 30
0.0
 11
1.0969972384009452
 21
-288.57601092010418
 31
0.0
  0
LINE
  8
0
  6
CONTINUOUS
 62
               4
  5
179
 10
1.0969972384009452
 20
-288.57601092010418
 30
0.0
 11
2.4646070914152318
 21
-289.73194106506173
 31
0.0
  0
LINE
  8
0
  6
CONTINUOUS
 62
               4
  5
17A
 10
2.4646070914152318
 20
-289.73194106506173
 30
0.0
 11
3.8322169444337817
 21
-290.88886398438058
 31
0.0
  0
LINE
  8
0
  6
CONTINUOUS
 62
               4
  5
17B
 10
3.8322169444337817
 20
-290.88886398438058
 30
0.0
 11
5.1998267974561685
 21
-292.04744188866209
 31
0.0
  0
LINE
  8
0
  6
CONTINUOUS
 62
               4
  5
17C
 10
5.1998267974561685
 20
-292.04744188866209
 30
0.0
 11
6.5674366504810422
 21
-293.2085387949175
 31
0.0
  0
LINE
  8
0
  6
CONTINUOUS
 62
               4
  5
17D
 10
6.5674366504810422
 20
-293.2085387949175
 30
0.0
 11
7.9350465035071238
 21
-294.37301872015786
 31
0.0
  0
LINE
  8
0
  6
CONTINUOUS
 62
               4
  5
17E
 10
7.9350465035071238
 20
-294.37301872015786
 30
0.0
 11
9.3026563565331344
 21
-295.54174568139416
 31
0.0
  0
LINE
  8
0
  6
CONTINUOUS
 62
               4
  5
17F
 10
9.3026563565331344
 20
-295.54174568139416
 30
0.0
 11
10.670266209558008
 21
-296.71528148503626
 31
0.0
  0
LINE
  8
0
  6
CONTINUOUS
 62
               4
  5
180
 10
10.670266209558008
 20
-296.71528148503626
 30
0.0
 11
12.0378760625821
 21
-297.89297909508798
 31
0.0
  0
LINE
  8
0
  6
CONTINUOUS
 62
               4
  5
181
 10
12.0378760625821
 20
-297.89297909508798
 30
0.0
 11
13.405485915605198
 21
-299.07388926495184
 31
0.0
  0
LINE
  8
0
  6
CONTINUOUS
 62
               4
  5
182
 10
13.405485915605198
 20
-299.07388926495184
 30
0.0
 11
14.773095768628082
 21
-300.25706274803059
 31
0.0
  0
LINE
  8
0
  6
CONTINUOUS
 62
               4
  5
183
 10
14.773095768628082
 20
-300.25706274803059
 30
0.0
 11
16.140705621650966
 21
-301.44155029772668
 31
0.0
  0
LINE
  8
0
  6
CONTINUOUS
 62
               4
  5
184
 10
16.140705621650966
 20
-301.44155029772668
 30
0.0
 11
17.508315474674134
 21
-302.62668970343861
 31
0.0
  0
LINE
  8
0
  6
CONTINUOUS
 62
               4
  5
185
 10
17.508315474674134
 20
-302.62668970343861
 30
0.0
 11
18.8759253276978
 21
-303.81296689854923
 31
0.0
  0
LINE
  8
0
  6
CONTINUOUS
 62
               4
  5
186
 10
18.8759253276978
 20
-303.81296689854923
 30
0.0
 11
20.243535180721324
 21
-305.00115485243703
 31
0.0
  0
LINE
  8
0
  6
CONTINUOUS
 62
               4
  5
187
 10
20.243535180721324
 20
-305.00115485243703
 30
0.0
 11
21.611145033745061
 21
-306.19202653448076
 31
0.0
  0
LINE
  8
0
  6
CONTINUOUS
 62
               4
  5
188
 10
21.611145033745061
 20
-306.19202653448076
 30
0.0
 11
22.978754886768726
 21
-307.3863549140591
 31
0.0
  0
LINE
  8
0
  6
CONTINUOUS
 62
               4
  5
189
 10
22.978754886768726
 20
-307.3863549140591
 30
0.0
 11
24.346364739792534
 21
-308.58471502716804
 31
0.0
  0
LINE
  8
0
  6
CONTINUOUS
 62
               4
  5
18A
 10
24.346364739792534
 20
-308.58471502716804
 30
0.0
 11
25.713974592816058
 21
-309.78689017627295
 31
0.0
  0
LINE
  8
0
  6
CONTINUOUS
 62
               4
  5
18B
 10
25.713974592816058
 20
-309.78689017627295
 30
0.0
 11
27.081584445839582
 21
-310.99246573045673
 31
0.0
  0
LINE
  8
0
  6
CONTINUOUS
 62
               4
  5
18C
 10
27.081584445839582
 20
-310.99246573045673
 30
0.0
 11
28.449194298863105
 21
-312.20102705880197
 31
0.0
  0
LINE
  8
0
  6
CONTINUOUS
 62
               4
  5
18D
 10
28.449194298863105
 20
-312.20102705880197
 30
0.0
 11
29.8168041518867
 21
-313.41215953039159
 31
0.0
  0
LINE
  8
0
  6
CONTINUOUS
 62
               4
  5
18E
 10
29.8168041518867
 20
-313.41215953039159
 30
0.0
 11
31.184414004910153
 21
-314.6255932118429
 31
0.0
  0
LINE
  8
0
  6
CONTINUOUS
 62
               4
  5
18F
 10
31.184414004910153
 20
-314.6255932118429
 30
0.0
 11
32.552023857933747
 21
-315.84163695991151
 31
0.0
  0
LINE
  8
0
  6
CONTINUOUS
 62
               4
  5
190
 10
32.552023857933747
 20
-315.84163695991151
 30
0.0
 11
33.919633710957271
 21
-317.06074432888778
 31
0.0
  0
LINE
  8
0
  6
CONTINUOUS
 62
               4
  5
191
 10
33.919633710957271
 20
-317.06074432888778
 30
0.0
 11
35.287243563980795
 21
-318.28336887306182
 31
0.0
  0
LINE
  8
0
  6
CONTINUOUS
 62
               4
  5
192
 10
35.287243563980795
 20
-318.28336887306182
 30
0.0
 11
36.65485341700446
 21
-319.50996414672403
 31
0.0
  0
LINE
  8
0
  6
CONTINUOUS
 62
               4
  5
193
 10
36.65485341700446
 20
-319.50996414672403
 30
0.0
 11
38.022463270027984
 21
-320.74096284740898
 31
0.0
  0
LINE
  8
0
  6
CONTINUOUS
 62
               4
  5
194
 10
38.022463270027984
 20
-320.74096284740898
 30
0.0
 11
39.390073123051508
 21
-321.97671424562839
 31
0.0
  0
LINE
  8
0
  6
CONTINUOUS
 62
               4
  5
195
 10
39.390073123051508
 20
-321.97671424562839
 30
0.0
 11
40.757682976075174
 21
-323.21754675513876
 31
0.0
  0
LINE
  8
0
  6
CONTINUOUS
 62
               4
  5
196
 10
40.757682976075174
 20
-323.21754675513876
 30
0.0
 11
42.125292829098697
 21
-324.46378878969597
 31
0.0
  0
LINE
  8
0
  6
CONTINUOUS
 62
               4
  5
197
 10
42.125292829098697
 20
-324.46378878969597
 30
0.0
 11
43.492902682122221
 21
-325.71576876305647
 31
0.0
  0
LINE
  8
0
  6
CONTINUOUS
 62
               4
  5
198
 10
43.492902682122221
 20
-325.71576876305647
 30
0.0
 11
44.860512535145887
 21
-326.97375381846439
 31
0.0
  0
LINE
  8
0
  6
CONTINUOUS
 62
               4
  5
199
 10
44.860512535145887
 20
-326.97375381846439
 30
0.0
 11
46.228122388169552
 21
-328.23776601711671
 31
0.0
  0
LINE
  8
0
  6
CONTINUOUS
 62
               4
  5
19A
 10
46.228122388169552
 20
-328.23776601711671
 30
0.0
 11
47.595732241193076
 21
-329.50776614969823
 31
0.0
  0
LINE
  8
0
  6
CONTINUOUS
 62
               4
  5
19B
 10
47.595732241193076
 20
-329.50776614969823
 30
0.0
 11
48.963342094216671
 21
-330.783715006894
 31
0.0
  0
LINE
  8
0
  6
CONTINUOUS
 62
               4
  5
19C
 10
48.963342094216671
 20
-330.783715006894
 30
0.0
 11
50.330951947240123
 21
-332.06557337938898
 31
0.0
  0
LINE
  8
0
  6
CONTINUOUS
 62
               4
  5
19D
 10
50.330951947240123
 20
-332.06557337938898
 30
0.0
 11
51.698561800263505
 21
-333.35392799667119
 31
0.0
  0
LINE
  8
0
  6
CONTINUOUS
 62
               4
  5
19E
 10
51.698561800263505
 20
-333.35392799667119
 30
0.0
 11
53.066171653287029
 21
-334.65186934344149
 31
0.0
  0
LINE
  8
0
  6
CONTINUOUS
 62
               4
  5
19F
 10
53.066171653287029
 20
-334.65186934344149
 30
0.0
 11
54.433781506310552
 21
-335.96311384320404
 31
0.0
  0
LINE
  8
0
  6
CONTINUOUS
 62
               4
  5
1A0
 10
54.433781506310552
 20
-335.96311384320404
 30
0.0
 11
55.801391359334076
 21
-337.29137791946266
 31
0.0
  0
LINE
  8
0
  6
CONTINUOUS
 62
               4
  5
1A1
 10
55.801391359334076
 20
-337.29137791946266
 30
0.0
 11
57.169001212357955
 21
-338.64037799572145
 31
0.0
  0
LINE
  8
0
  6
CONTINUOUS
 62
               4
  5
1A2
 10
57.169001212357955
 20
-338.64037799572145
 30
0.0
 11
58.536611065381976
 21
-340.01239601078362
 31
0.0
  0
LINE
  8
0
  6
CONTINUOUS
 62
               4
  5
1A3
 10
58.536611065381976
 20
-340.01239601078362
 30
0.0
 11
59.904220918406281
 21
-341.40397596464908
 31
0.0
  0
LINE
  8
0
  6
CONTINUOUS
 62
               4
  5
1A4
 10
59.904220918406281
 20
-341.40397596464908
 30
0.0
 11
61.271830771430729
 21
-342.81022737261708
 31
0.0
  0
LINE
  8
0
  6
CONTINUOUS
 62
               4
  5
1A5
 10
61.271830771430729
 20
-342.81022737261708
 30
0.0
 11
62.639440624455247
 21
-344.22625974998681
 31
0.0
  0
LINE
  8
0
  6
CONTINUOUS
 62
               4
  5
1A6
 10
62.639440624455247
 20
-344.22625974998681
 30
0.0
 11
64.007050477479908
 21
-345.64718261205724
 31
0.0
  0
ENDBLK
  8
0
  5
1A7
  0
BLOCK
  8
0
  5
1A8
  2
GROUP_2
 70
               0
 10
0.0
 20
0.0
 30
0.0
  3
GROUP_2
  0
LINE
  8
0
  6
CONTINUOUS
 62
               4
  5
1A9
 10
-72.753934824880986
 20
-230.89109028540463
 30
0.0
 11
-71.38632497186066
 21
-235.19068449815623
 31
0.0
  0
LINE
  8
0
  6
CONTINUOUS
 62
               4
  5
1AA
 10
-71.38632497186066
 20
-235.19068449815623
 30
0.0
 11
-70.018715118837918
 21
-239.43262038846649
 31
0.0
  0
LINE
  8
0
  6
CONTINUOUS
 62
               4
  5
1AB
 10
-70.018715118837918
 20
-239.43262038846649
 30
0.0
 11
-68.65110526581347
 21
-243.55923963403413
 31
0.0
  0
LINE
  8
0
  6
CONTINUOUS
 62
               4
  5
1AC
 10
-68.65110526581347
 20
-243.55923963403413
 30
0.0
 11
-67.283495412788241
 21
-247.51288391255804
 31
0.0
  0
LINE
  8
0
  6
CONTINUOUS
 62
               4
  5
1AD
 10
-67.283495412788241
 20
-247.51288391255804
 30
0.0
 11
-65.915885559763154
 21
-251.23589490173708
 31
0.0
  0
LINE
  8
0
  6
CONTINUOUS
 62
               4
  5
1AE
 10
-65.915885559763154
 20
-251.23589490173708
 30
0.0
 11
-64.548275706738778
 21
-254.68788060159932
 31
0.0
  0
LINE
  8
0
  6
CONTINUOUS
 62
               4
  5
1AF
 10
-64.548275706738778
 20
-254.68788060159932
 30
0.0
 11
-63.18066585371497
 21
-257.89751430148948
 31
0.0
  0
LINE
  8
0
  6
CONTINUOUS
 62
               4
  5
1B0
 10
-63.18066585371497
 20
-257.89751430148948
 30
0.0
 11
-61.813056000691589
 21
-260.91073561308184
 31
0.0
  0
LINE
  8
0
  6
CONTINUOUS
 62
               4
  5
1B1
 10
-61.813056000691589
 20
-260.91073561308184
 30
0.0
 11
-60.44544614766842
 21
-263.7734841480505
 31
0.0
  0
LINE
  8
0
  6
CONTINUOUS
 62
               4
  5
1B2
 10
-60.44544614766842
 20
-263.7734841480505
 30
0.0
 11
-59.077836294645323
 21
-266.53169951806956
 31
0.0
  0
LINE
  8
0
  6
CONTINUOUS
 62
               4
  5
1B3
 10
-59.077836294645323
 20
-266.53169951806956
 30
0.0
 11
-57.710226441622012
 21
-269.22309604546831
 31
0.0
  0
LINE
  8
0
  6
CONTINUOUS
 62
               4
  5
1B4
 10
-57.710226441622012
 20
-269.22309604546831
 30
0.0
 11
-56.342616588598418
 21
-271.85248689519619
 31
0.0
  0
LINE
  8
0
  6
CONTINUOUS
 62
               4
  5
1B5
 10
-56.342616588598418
 20
-271.85248689519619
 30
0.0
 11
-54.975006735574823
 21
-274.41645994285801
 31
0.0
  0
LINE
  8
0
  6
CONTINUOUS
 62
               4
  5
1B6
 10
-54.975006735574823
 20
-274.41645994285801
 30
0.0
 11
-53.607396882551228
 21
-276.9116030640584
 31
0.0
  0
LINE
  8
0
  6
CONTINUOUS
 62
               4
  5
1B7
 10
-53.607396882551228
 20
-276.9116030640584
 30
0.0
 11
-52.239787029527349
 21
-279.33450413440204
 31
0.0
  0
LINE
  8
0
  6
CONTINUOUS
 62
               4
  5
1B8
 10
-52.239787029527349
 20
-279.33450413440204
 30
0.0
 11
-50.872177176503754
 21
-281.68341786454397
 31
0.0
  0
LINE
  8
0
  6
CONTINUOUS
 62
               4
  5
1B9
 10
-50.872177176503754
 20
-281.68341786454397
 30
0.0
 11
-49.504567323480231
 21
-283.96326630534099
 31
0.0
  0
LINE
  8
0
  6
CONTINUOUS
 62
               4
  5
1BA
 10
-49.504567323480231
 20
-283.96326630534099
 30
0.0
 11
-48.136957470456707
 21
-286.18063834270032
 31
0.0
  0
LINE
  8
0
  6
CONTINUOUS
 62
               4
  5
1BB
 10
-48.136957470456707
 20
-286.18063834270032
 30
0.0
 11
-46.769347617433183
 21
-288.3421228625291
 31
0.0
  0
LINE
  8
0
  6
CONTINUOUS
 62
               4
  5
1BC
 10
-46.769347617433183
 20
-288.3421228625291
 30
0.0
 11
-45.40173776440966
 21
-290.45430875073453
 31
0.0
  0
LINE
  8
0
  6
CONTINUOUS
 62
               4
  5
1BD
 10
-45.40173776440966
 20
-290.45430875073453
 30
0.0
 11
-44.034127911385994
 21
-292.52282284236702
 31
0.0
  0
LINE
  8
0
  6
CONTINUOUS
 62
               4
  5
1BE
 10
-44.034127911385994
 20
-292.52282284236702
 30
0.0
 11
-42.666518058362541
 21
-294.54944376904996
 31
0.0
  0
LINE
  8
0
  6
CONTINUOUS
 62
               4
  5
1BF
 10
-42.666518058362541
 20
-294.54944376904996
 30
0.0
 11
-41.298908205339018
 21
-296.53498811154986
 31
0.0
  0
LINE
  8
0
  6
CONTINUOUS
 62
               4
  5
1C0
 10
-41.298908205339018
 20
-296.53498811154986
 30
0.0
 11
-39.931298352315423
 21
-298.48027245063338
 31
0.0
  0
LINE
  8
0
  6
CONTINUOUS
 62
               4
  5
1C1
 10
-39.931298352315423
 20
-298.48027245063338
 30
0.0
 11
-38.563688499291828
 21
-300.38611336706697
 31
0.0
  0
LINE
  8
0
  6
CONTINUOUS
 62
               4
  5
1C2
 10
-38.563688499291828
 20
-300.38611336706697
 30
0.0
 11
-37.196078646268305
 21
-302.25342080999388
 31
0.0
  0
LINE
  8
0
  6
CONTINUOUS
 62
               4
  5
1C3
 10
-37.196078646268305
 20
-302.25342080999388
 30
0.0
 11
-35.82846879324471
 21
-304.08347820206404
 31
0.0
  0
LINE
  8
0
  6
CONTINUOUS
 62
               4
  5
1C4
 10
-35.82846879324471
 20
-304.08347820206404
 30
0.0
 11
-34.460858940221115
 21
-305.87766233430398
 31
0.0
  0
LINE
  8
0
  6
CONTINUOUS
 62
               4
  5
1C5
 10
-34.460858940221115
 20
-305.87766233430398
 30
0.0
 11
-33.093249087197449
 21
-307.63734999774033
 31
0.0
  0
LINE
  8
0
  6
CONTINUOUS
 62
               4
  5
1C6
 10
-33.093249087197449
 20
-307.63734999774033
 30
0.0
 11
-31.725639234173997
 21
-309.3639179833994
 31
0.0
  0
LINE
  8
0
  6
CONTINUOUS
 62
               4
  5
1C7
 10
-31.725639234173997
 20
-309.3639179833994
 30
0.0
 11
-30.358029381150402
 21
-311.05853965965809
 31
0.0
  0
LINE
  8
0
  6
CONTINUOUS
 62
               4
  5
1C8
 10
-30.358029381150402
 20
-311.05853965965809
 30
0.0
 11
-28.990419528126736
 21
-312.72157470429335
 31
0.0
  0
LINE
  8
0
  6
CONTINUOUS
 62
               4
  5
1C9
 10
-28.990419528126736
 20
-312.72157470429335
 30
0.0
 11
-27.622809675103284
 21
-314.35317937243252
 31
0.0
  0
LINE
  8
0
  6
CONTINUOUS
 62
               4
  5
1CA
 10
-27.622809675103284
 20
-314.35317937243252
 30
0.0
 11
-26.255199822079689
 21
-315.95350991920293
 31
0.0
  0
LINE
  8
0
  6
CONTINUOUS
 62
               4
  5
1CB
 10
-26.255199822079689
 20
-315.95350991920293
 30
0.0
 11
-24.887589969056094
 21
-317.52272259973188
 31
0.0
  0
LINE
  8
0
  6
CONTINUOUS
 62
               4
  5
1CC
 10
-24.887589969056094
 20
-317.52272259973188
 30
0.0
 11
-23.519980116032642
 21
-319.06111799136937
 31
0.0
  0
LINE
  8
0
  6
CONTINUOUS
 62
               4
  5
1CD
 10
-23.519980116032642
 20
-319.06111799136937
 30
0.0
 11
-22.152370263009047
 21
-320.56957396035699
 31
0.0
  0
LINE
  8
0
  6
CONTINUOUS
 62
               4
  5
1CE
 10
-22.152370263009047
 20
-320.56957396035699
 30
0.0
 11
-20.784760409985381
 21
-322.04911269515901
 31
0.0
  0
LINE
  8
0
  6
CONTINUOUS
 62
               4
  5
1CF
 10
-20.784760409985381
 20
-322.04911269515901
 30
0.0
 11
-19.417150556961786
 21
-323.50075638424011
 31
0.0
  0
LINE
  8
0
  6
CONTINUOUS
 62
               4
  5
1D0
 10
-19.417150556961786
 20
-323.50075638424011
 30
0.0
 11
-18.049540703938263
 21
-324.92552721606432
 31
0.0
  0
LINE
  8
0
  6
CONTINUOUS
 62
               4
  5
1D1
 10
-18.049540703938263
 20
-324.92552721606432
 30
0.0
 11
-16.681930850914597
 21
-326.32421751285472
 31
0.0
  0
LINE
  8
0
  6
CONTINUOUS
 62
               4
  5
1D2
 10
-16.681930850914597
 20
-326.32421751285472
 30
0.0
 11
-15.314320997891215
 21
-327.69670013186794
 31
0.0
  0
LINE
  8
0
  6
CONTINUOUS
 62
               4
  5
1D3
 10
-15.314320997891215
 20
-327.69670013186794
 30
0.0
 11
-13.94671114486755
 21
-329.04261806411921
 31
0.0
  0
LINE
  8
0
  6
CONTINUOUS
 62
               4
  5
1D4
 10
-13.94671114486755
 20
-329.04261806411921
 30
0.0
 11
-12.579101291844026
 21
-330.36161430062378
 31
0.0
  0
LINE
  8
0
  6
CONTINUOUS
 62
               4
  5
1D5
 10
-12.579101291844026
 20
-330.36161430062378
 30
0.0
 11
-11.211491438820502
 21
-331.65333183239682
 31
0.0
  0
LINE
  8
0
  6
CONTINUOUS
 62
               4
  5
1D6
 10
-11.211491438820502
 20
-331.65333183239682
 30
0.0
 11
-9.8438815858013129
 21
-332.91847448216294
 31
0.0
  0
LINE
  8
0
  6
CONTINUOUS
 62
               4
  5
1D7
 10
-9.8438815858013129
 20
-332.91847448216294
 30
0.0
 11
-8.476271732786671
 21
-334.15768095465364
 31
0.0
  0
LINE
  8
0
  6
CONTINUOUS
 62
               4
  5
1D8
 10
-8.476271732786671
 20
-334.15768095465364
 30
0.0
 11
-7.1086618797697554
 21
-335.37049656389456
 31
0.0
  0
LINE
  8
0
  6
CONTINUOUS
 62
               4
  5
1D9
 10
-7.1086618797697554
 20
-335.37049656389456
 30
0.0
 11
-5.741052026743958
 21
-336.55646662391132
 31
0.0
  0
LINE
  8
0
  6
CONTINUOUS
 62
               4
  5
1DA
 10
-5.741052026743958
 20
-336.55646662391132
 30
0.0
 11
-4.3734421737026707
 21
-337.71513644872925
 31
0.0
  0
LINE
  8
0
  6
CONTINUOUS
 62
               4
  5
1DB
 10
-4.3734421737026707
 20
-337.71513644872925
 30
0.0
 11
-3.0058323206601756
 21
-338.84814171455218
 31
0.0
  0
LINE
  8
0
  6
CONTINUOUS
 62
               4
  5
1DC
 10
-3.0058323206601756
 20
-338.84814171455218
 30
0.0
 11
-1.6382224676319623
 21
-339.95686265657872
 31
0.0
  0
LINE
  8
0
  6
CONTINUOUS
 62
               4
  5
1DD
 10
-1.6382224676319623
 20
-339.95686265657872
 30
0.0
 11
-0.2706126146134125
 21
-341.04046142732716
 31
0.0
  0
LINE
  8
0
  6
CONTINUOUS
 62
               4
  5
1DE
 10
-0.2706126146134125
 20
-341.04046142732716
 30
0.0
 11
1.0969972384008031
 21
-342.0981001793154
 31
0.0
  0
LINE
  8
0
  6
CONTINUOUS
 62
               4
  5
1DF
 10
1.0969972384008031
 20
-342.0981001793154
 30
0.0
 11
2.4646070914152318
 21
-343.12894106506172
 31
0.0
  0
LINE
  8
0
  6
CONTINUOUS
 62
               4
  5
1E0
 10
2.4646070914152318
 20
-343.12894106506172
 30
0.0
 11
3.8322169444337817
 21
-344.13234537982902
 31
0.0
  0
LINE
  8
0
  6
CONTINUOUS
 62
               4
  5
1E1
 10
3.8322169444337817
 20
-344.13234537982902
 30
0.0
 11
5.1998267974561685
 21
-345.1084709898592
 31
0.0
  0
LINE
  8
0
  6
CONTINUOUS
 62
               4
  5
1E2
 10
5.1998267974561685
 20
-345.1084709898592
 30
0.0
 11
6.5674366504809711
 21
-346.05767490413911
 31
0.0
  0
LINE
  8
0
  6
CONTINUOUS
 62
               4
  5
1E3
 10
6.5674366504809711
 20
-346.05767490413911
 30
0.0
 11
7.9350465035070528
 21
-346.98031413165518
 31
0.0
  0
LINE
  8
0
  6
CONTINUOUS
 62
               4
  5
1E4
 10
7.9350465035070528
 20
-346.98031413165518
 30
0.0
 11
9.3026563565329923
 21
-347.87674568139414
 31
0.0
  0
LINE
  8
0
  6
CONTINUOUS
 62
               4
  5
1E5
 10
9.3026563565329923
 20
-347.87674568139414
 30
0.0
 11
10.670266209557937
 21
-348.74709669610093
 31
0.0
  0
LINE
  8
0
  6
CONTINUOUS
 62
               4
  5
1E6
 10
10.670266209557937
 20
-348.74709669610093
 30
0.0
 11
12.0378760625821
 21
-349.59057485355243
 31
0.0
  0
LINE
  8
0
  6
CONTINUOUS
 62
               4
  5
1E7
 10
12.0378760625821
 20
-349.59057485355243
 30
0.0
 11
13.405485915605198
 21
-350.40615796528391
 31
0.0
  0
LINE
  8
0
  6
CONTINUOUS
 62
               4
  5
1E8
 10
13.405485915605198
 20
-350.40615796528391
 30
0.0
 11
14.773095768628082
 21
-351.19282384283019
 31
0.0
  0
LINE
  8
0
  6
CONTINUOUS
 62
               4
  5
1E9
 10
14.773095768628082
 20
-351.19282384283019
 30
0.0
 11
16.140705621650966
 21
-351.94955029772666
 31
0.0
  0
LINE
  8
0
  6
CONTINUOUS
 62
               4
  5
1EA
 10
16.140705621650966
 20
-351.94955029772666
 30
0.0
 11
17.508315474674134
 21
-352.67545946373127
 31
0.0
  0
LINE
  8
0
  6
CONTINUOUS
 62
               4
  5
1EB
 10
17.508315474674134
 20
-352.67545946373127
 30
0.0
 11
18.875925327697658
 21
-353.37025076349391
 31
0.0
  0
LINE
  8
0
  6
CONTINUOUS
 62
               4
  5
1EC
 10
18.875925327697658
 20
-353.37025076349391
 30
0.0
 11
20.243535180721182
 21
-354.0337679418875
 31
0.0
  0
LINE
  8
0
  6
CONTINUOUS
 62
               4
  5
1ED
 10
20.243535180721182
 20
-354.0337679418875
 30
0.0
 11
21.611145033745061
 21
-354.66585474378496
 31
0.0
  0
LINE
  8
0
  6
CONTINUOUS
 62
               4
  5
1EE
 10
21.611145033745061
 20
-354.66585474378496
 30
0.0
 11
22.978754886768726
 21
-355.26635491405904
 31
0.0
  0
LINE
  8
0
  6
CONTINUOUS
 62
               4
  5
1EF
 10
22.978754886768726
 20
-355.26635491405904
 30
0.0
 11
24.346364739792392
 21
-355.8349087749329
 31
0.0
  0
LINE
  8
0
  6
CONTINUOUS
 62
               4
  5
1F0
 10
24.346364739792392
 20
-355.8349087749329
 30
0.0
 11
25.713974592816058
 21
-356.37034295802971
 31
0.0
  0
LINE
  8
0
  6
CONTINUOUS
 62
               4
  5
1F1
 10
25.713974592816058
 20
-356.37034295802971
 30
0.0
 11
27.081584445839582
 21
-356.87128067232277
 31
0.0
  0
LINE
  8
0
  6
CONTINUOUS
 62
               4
  5
1F2
 10
27.081584445839582
 20
-356.87128067232277
 30
0.0
 11
28.449194298863105
 21
-357.33634512678566
 31
0.0
  0
LINE
  8
0
  6
CONTINUOUS
 62
               4
  5
1F3
 10
28.449194298863105
 20
-357.33634512678566
 30
0.0
 11
29.816804151886629
 21
-357.76415953039162
 31
0.0
  0
LINE
  8
0
  6
CONTINUOUS
 62
               4
  5
1F4
 10
29.816804151886629
 20
-357.76415953039162
 30
0.0
 11
31.184414004910153
 21
-358.15344046049069
 31
0.0
  0
LINE
  8
0
  6
CONTINUOUS
 62
               4
  5
1F5
 10
31.184414004910153
 20
-358.15344046049069
 30
0.0
 11
32.552023857933747
 21
-358.50327796793982
 31
0.0
  0
LINE
  8
0
  6
CONTINUOUS
 62
               4
  5
1F6
 10
32.552023857933747
 20
-358.50327796793982
 30
0.0
 11
33.9196337109572
 21
-358.81285547197274
 31
0.0
  0
LINE
  8
0
  6
CONTINUOUS
 62
               4
  5
1F7
 10
33.9196337109572
 20
-358.81285547197274
 30
0.0
 11
35.287243563980795
 21
-359.08135639182285
 31
0.0
  0
LINE
  8
0
  6
CONTINUOUS
 62
               4
  5
1F8
 10
35.287243563980795
 20
-359.08135639182285
 30
0.0
 11
36.65485341700446
 21
-359.30796414672398
 31
0.0
  0
LINE
  8
0
  6
CONTINUOUS
 62
               4
  5
1F9
 10
36.65485341700446
 20
-359.30796414672398
 30
0.0
 11
38.022463270027842
 21
-359.49090010505279
 31
0.0
  0
LINE
  8
0
  6
CONTINUOUS
 62
               4
  5
1FA
 10
38.022463270027842
 20
-359.49090010505279
 30
0.0
 11
39.390073123051508
 21
-359.62453743175837
 31
0.0
  0
LINE
  8
0
  6
CONTINUOUS
 62
               4
  5
1FB
 10
39.390073123051508
 20
-359.62453743175837
 30
0.0
 11
40.757682976075174
 21
-359.70228724093272
 31
0.0
  0
LINE
  8
0
  6
CONTINUOUS
 62
               4
  5
1FC
 10
40.757682976075174
 20
-359.70228724093272
 30
0.0
 11
42.125292829098555
 21
-359.71756064666806
 31
0.0
  0
LINE
  8
0
  6
CONTINUOUS
 62
               4
  5
1FD
 10
42.125292829098555
 20
-359.71756064666806
 30
0.0
 11
43.492902682122221
 21
-359.66376876305645
 31
0.0
  0
LINE
  8
0
  6
CONTINUOUS
 62
               4
  5
1FE
 10
43.492902682122221
 20
-359.66376876305645
 30
0.0
 11
44.860512535145887
 21
-359.53598953924109
 31
0.0
  0
LINE
  8
0
  6
CONTINUOUS
 62
               4
  5
1FF
 10
44.860512535145887
 20
-359.53598953924109
 30
0.0
 11
46.22812238816941
 21
-359.33596826456881
 31
0.0
  0
LINE
  8
0
  6
CONTINUOUS
 62
               4
  5
200
 10
46.22812238816941
 20
-359.33596826456881
 30
0.0
 11
47.595732241193076
 21
-359.06711706343737
 31
0.0
  0
LINE
  8
0
  6
CONTINUOUS
 62
               4
  5
201
 10
47.595732241193076
 20
-359.06711706343737
 30
0.0
 11
48.9633420942166
 21
-358.73284806024481
 31
0.0
  0
LINE
  8
0
  6
CONTINUOUS
 62
               4
  5
202
 10
48.9633420942166
 20
-358.73284806024481
 30
0.0
 11
50.330951947240123
 21
-358.33657337938894
 31
0.0
  0
LINE
  8
0
  6
CONTINUOUS
 62
               4
  5
203
 10
50.330951947240123
 20
-358.33657337938894
 30
0.0
 11
51.698561800263505
 21
-357.87347985592072
 31
0.0
  0
LINE
  8
0
  6
CONTINUOUS
 62
               4
  5
204
 10
51.698561800263505
 20
-357.87347985592072
 30
0.0
 11
53.066171653287029
 21
-357.30585316750341
 31
0.0
  0
LINE
  8
0
  6
CONTINUOUS
 62
               4
  5
205
 10
53.066171653287029
 20
-357.30585316750341
 30
0.0
 11
54.433781506310552
 21
-356.5877537024536
 31
0.0
  0
LINE
  8
0
  6
CONTINUOUS
 62
               4
  5
206
 10
54.433781506310552
 20
-356.5877537024536
 30
0.0
 11
55.801391359334076
 21
-355.67324184908739
 31
0.0
  0
LINE
  8
0
  6
CONTINUOUS
 62
               4
  5
207
 10
55.801391359334076
 20
-355.67324184908739
 30
0.0
 11
57.169001212357955
 21
-354.51637799572143
 31
0.0
  0
LINE
  8
0
  6
CONTINUOUS
 62
               4
  5
208
 10
57.169001212357955
 20
-354.51637799572143
 30
0.0
 11
58.536611065381976
 21
-353.0884888530087
 31
0.0
  0
LINE
  8
0
  6
CONTINUOUS
 62
               4
  5
209
 10
58.536611065381976
 20
-353.0884888530087
 30
0.0
 11
59.904220918406281
 21
-351.42996642094931
 31
0.0
  0
LINE
  8
0
  6
CONTINUOUS
 62
               4
  5
20A
 10
59.904220918406281
 20
-351.42996642094931
 30
0.0
 11
61.271830771430729
 21
-349.59846902187974
 31
0.0
  0
LINE
  8
0
  6
CONTINUOUS
 62
               4
  5
20B
 10
61.271830771430729
 20
-349.59846902187974
 30
0.0
 11
62.639440624455247
 21
-347.65165497813683
 31
0.0
  0
LINE
  8
0
  6
CONTINUOUS
 62
               4
  5
20C
 10
62.639440624455247
 20
-347.65165497813683
 30
0.0
 11
64.007050477479908
 21
-345.64718261205724
 31
0.0
  0
ENDBLK
  8
0
  5
20D
  0
BLOCK
  8
0
  5
20E
  2
GROUP_3
 70
               0
 10
0.0
 20
0.0
 30
0.0
  3
GROUP_3
  0
CIRCLE
  8
0
  6
CONTINUOUS
 62
               4
  5
20F
 10
77.781745930520572
 20
624.9686281953858
 30
0.0
 40
9.5
  0
LINE
  8
0
  6
CONTINUOUS
 62
               4
  5
210
 10
88.751401045123615
 20
624.9686281953858
 30
0.0
 11
83.266573487821844
 21
634.46862819538569
 31
0.0
  0
LINE
  8
0
  6
CONTINUOUS
 62
               4
  5
211
 10
83.266573487821844
 20
634.46862819538569
 30
0.0
 11
72.296918373218872
 21
634.46862819538569
 31
0.0
  0
LINE
  8
0
  6
CONTINUOUS
 62
               4
  5
212
 10
72.296918373218872
 20
634.46862819538569
 30
0.0
 11
66.812090815917529
 21
624.9686281953858
 31
0.0
  0
LINE
  8
0
  6
CONTINUOUS
 62
               4
  5
213
 10
66.812090815917529
 20
624.9686281953858
 30
0.0
 11
72.296918373218872
 21
615.46862819538558
 31
0.0
  0
LINE
  8
0
  6
CONTINUOUS
 62
               4
  5
214
 10
72.296918373218872
 20
615.46862819538558
 30
0.0
 11
83.266573487821844
 21
615.46862819538558
 31
0.0
  0
LINE
  8
0
  6
CONTINUOUS
 62
               4
  5
215
 10
83.266573487821844
 20
615.46862819538558
 30
0.0
 11
88.751401045123615
 21
624.9686281953858
 31
0.0
  0
CIRCLE
  8
0
  6
CONTINUOUS
 62
               4
  5
216
 10
77.781745930520572
 20
624.9686281953858
 30
0.0
 40
5.1250000000000009
  0
CIRCLE
  8
0
  6
CONTINUOUS
 62
               4
  5
217
 10
77.781745930520572
 20
624.9686281953858
 30
0.0
 40
6.0000000000000009
  0
ENDBLK
  8
0
  5
218
  0
BLOCK
  8
0
  5
219
  2
GROUP_4
 70
               0
 10
0.0
 20
0.0
 30
0.0
  3
GROUP_4
  0
CIRCLE
  8
0
  6
CONTINUOUS
 62
               4
  5
21A
 10
77.781745930520643
 20
780.53212005642638
 30
0.0
 40
9.5
  0
LINE
  8
0
  6
CONTINUOUS
 62
               4
  5
21B
 10
88.751401045123686
 20
780.53212005642638
 30
0.0
 11
83.266573487821915
 21
790.03212005642627
 31
0.0
  0
LINE
  8
0
  6
CONTINUOUS
 62
               4
  5
21C
 10
83.266573487821915
 20
790.03212005642627
 30
0.0
 11
72.296918373218872
 21
790.03212005642627
 31
0.0
  0
LINE
  8
0
  6
CONTINUOUS
 62
               4
  5
21D
 10
72.296918373218872
 20
790.03212005642627
 30
0.0
 11
66.8120908159176
 21
780.53212005642638
 31
0.0
  0
LINE
  8
0
  6
CONTINUOUS
 62
               4
  5
21E
 10
66.8120908159176
 20
780.53212005642638
 30
0.0
 11
72.296918373218872
 21
771.03212005642615
 31
0.0
  0
LINE
  8
0
  6
CONTINUOUS
 62
               4
  5
21F
 10
72.296918373218872
 20
771.03212005642615
 30
0.0
 11
83.266573487821915
 21
771.03212005642615
 31
0.0
  0
LINE
  8
0
  6
CONTINUOUS
 62
               4
  5
220
 10
83.266573487821915
 20
771.03212005642615
 30
0.0
 11
88.751401045123686
 21
780.53212005642638
 31
0.0
  0
CIRCLE
  8
0
  6
CONTINUOUS
 62
               4
  5
221
 10
77.781745930520643
 20
780.53212005642638
 30
0.0
 40
5.1250000000000009
  0
CIRCLE
  8
0
  6
CONTINUOUS
 62
               4
  5
222
 10
77.781745930520643
 20
780.53212005642638
 30
0.0
 40
6.0000000000000009
  0
ENDBLK
  8
0
  5
223
  0
BLOCK
  8
0
  5
224
  2
GROUP_5
 70
               0
 10
0.0
 20
0.0
 30
0.0
  3
GROUP_5
  0
CIRCLE
  8
0
  6
CONTINUOUS
 62
               4
  5
225
 10
-77.781745930519932
 20
780.53212005642604
 30
0.0
 40
9.5
  0
LINE
  8
0
  6
CONTINUOUS
 62
               4
  5
226
 10
-66.812090815916889
 20
780.53212005642604
 30
0.0
 11
-72.296918373218659
 21
790.03212005642592
 31
0.0
  0
LINE
  8
0
  6
CONTINUOUS
 62
               4
  5
227
 10
-72.296918373218659
 20
790.03212005642592
 30
0.0
 11
-83.266573487821702
 21
790.03212005642592
 31
0.0
  0
LINE
  8
0
  6
CONTINUOUS
 62
               4
  5
228
 10
-83.266573487821702
 20
790.03212005642592
 30
0.0
 11
-88.751401045122904
 21
780.53212005642604
 31
0.0
  0
LINE
  8
0
  6
CONTINUOUS
 62
               4
  5
229
 10
-88.751401045122904
 20
780.53212005642604
 30
0.0
 11
-83.266573487821702
 21
771.03212005642592
 31
0.0
  0
LINE
  8
0
  6
CONTINUOUS
 62
               4
  5
22A
 10
-83.266573487821702
 20
771.03212005642592
 30
0.0
 11
-72.296918373218659
 21
771.03212005642592
 31
0.0
  0
LINE
  8
0
  6
CONTINUOUS
 62
               4
  5
22B
 10
-72.296918373218659
 20
771.03212005642592
 30
0.0
 11
-66.812090815916889
 21
780.53212005642604
 31
0.0
  0
CIRCLE
  8
0
  6
CONTINUOUS
 62
               4
  5
22C
 10
-77.781745930519932
 20
780.53212005642604
 30
0.0
 40
5.1250000000000009
  0
CIRCLE
  8
0
  6
CONTINUOUS
 62
               4
  5
22D
 10
-77.781745930519932
 20
780.53212005642604
 30
0.0
 40
6.0000000000000009
  0
ENDBLK
  8
0
  5
22E
  0
BLOCK
  8
0
  5
22F
  2
GROUP_6
 70
               0
 10
0.0
 20
0.0
 30
0.0
  3
GROUP_6
  0
CIRCLE
  8
0
  6
CONTINUOUS
 62
               4
  5
230
 10
-77.78174593051979
 20
624.9686281953858
 30
0.0
 40
9.5
  0
LINE
  8
0
  6
CONTINUOUS
 62
               4
  5
231
 10
-66.812090815916747
 20
624.9686281953858
 30
0.0
 11
-72.296918373218517
 21
634.46862819538569
 31
0.0
  0
LINE
  8
0
  6
CONTINUOUS
 62
               4
  5
232
 10
-72.296918373218517
 20
634.46862819538569
 30
0.0
 11
-83.26657348782156
 21
634.46862819538569
 31
0.0
  0
LINE
  8
0
  6
CONTINUOUS
 62
               4
  5
233
 10
-83.26657348782156
 20
634.46862819538569
 30
0.0
 11
-88.751401045122762
 21
624.9686281953858
 31
0.0
  0
LINE
  8
0
  6
CONTINUOUS
 62
               4
  5
234
 10
-88.751401045122762
 20
624.9686281953858
 30
0.0
 11
-83.26657348782156
 21
615.46862819538558
 31
0.0
  0
LINE
  8
0
  6
CONTINUOUS
 62
               4
  5
235
 10
-83.26657348782156
 20
615.46862819538558
 30
0.0
 11
-72.296918373218517
 21
615.46862819538558
 31
0.0
  0
LINE
  8
0
  6
CONTINUOUS
 62
               4
  5
236
 10
-72.296918373218517
 20
615.46862819538558
 30
0.0
 11
-66.812090815916747
 21
624.9686281953858
 31
0.0
  0
CIRCLE
  8
0
  6
CONTINUOUS
 62
               4
  5
237
 10
-77.78174593051979
 20
624.9686281953858
 30
0.0
 40
5.1250000000000009
  0
CIRCLE
  8
0
  6
CONTINUOUS
 62
               4
  5
238
 10
-77.78174593051979
 20
624.9686281953858
 30
0.0
 40
6.0000000000000009
  0
ENDBLK
  8
0
  5
239
  0
BLOCK
  8
0
  5
23A
  2
GROUP_7
 70
               0
 10
0.0
 20
0.0
 30
0.0
  3
GROUP_7
  0
LINE
  8
0
  6
CONTINUOUS
 62
               4
  5
23B
 10
-511.26825406948069
 20
30.006242835975527
 30
0.0
 11
-511.26825406948069
 21
38.880409811055827
 31
0.0
  0
LINE
  8
0
  6
CONTINUOUS
 62
               4
  5
23C
 10
-516.75308162678209
 20
30.006242835975527
 30
0.0
 11
-516.75308162678209
 21
38.880409811055827
 31
0.0
  0
LINE
  8
0
  6
CONTINUOUS
 62
               4
  5
23D
 10
-511.26825406948069
 20
30.006242835975527
 30
0.0
 11
-533.16825406948044
 21
30.006242835975527
 31
0.0
  0
LINE
  8
0
  6
CONTINUOUS
 62
               4
  5
23E
 10
-514.01066784813133
 20
40.006242835975527
 30
0.0
 11
-530.42584029082968
 21
40.006242835975527
 31
0.0
  0
LINE
  8
0
  6
CONTINUOUS
 62
               4
  5
23F
 10
-533.16825406948044
 20
30.006242835975527
 30
0.0
 11
-533.16825406948044
 21
38.880409811055827
 31
0.0
  0
LINE
  8
0
  6
CONTINUOUS
 62
               4
  5
240
 10
-527.68342651217904
 20
30.006242835975527
 30
0.0
 11
-527.68342651217904
 21
38.880409811055827
 31
0.0
  0
ARC
  8
0
  6
CONTINUOUS
 62
               4
  5
241
 10
-514.01066784813133
 20
36.103206977723161
 30
0.0
 40
3.9030358582523994
 50
45.361119214048536
 51
134.63888078594869
  0
ARC
  8
0
  6
CONTINUOUS
 62
               4
  5
242
 10
-530.42584029082968
 20
36.103206977723161
 30
0.0
 40
3.9030358582525593
 50
45.361119214050902
 51
134.6388807859511
  0
ARC
  8
0
  6
CONTINUOUS
 62
               4
  5
243
 10
-522.21825406948051
 20
26.17843305456951
 30
0.0
 40
13.827809781406303
 50
66.719648257529286
 51
113.28035174247033
  0
ENDBLK
  8
0
  5
244
  0
BLOCK
  8
0
  5
245
  2
GROUP_8
 70
               0
 10
0.0
 20
0.0
 30
0.0
  3
GROUP_8
  0
LINE
  8
0
  6
CONTINUOUS
 62
               4
  5
246
 10
-666.83174593052127
 20
30.006242835975527
 30
0.0
 11
-666.83174593052127
 21
38.880409811055827
 31
0.0
  0
LINE
  8
0
  6
CONTINUOUS
 62
               4
  5
247
 10
-672.31657348782267
 20
30.006242835975527
 30
0.0
 11
-672.31657348782267
 21
38.880409811055827
 31
0.0
  0
LINE
  8
0
  6
CONTINUOUS
 62
               4
  5
248
 10
-666.83174593052127
 20
30.006242835975527
 30
0.0
 11
-688.73174593052101
 21
30.006242835975527
 31
0.0
  0
LINE
  8
0
  6
CONTINUOUS
 62
               4
  5
249
 10
-669.57415970917191
 20
40.006242835975527
 30
0.0
 11
-685.98933215187026
 21
40.006242835975527
 31
0.0
  0
LINE
  8
0
  6
CONTINUOUS
 62
               4
  5
24A
 10
-688.73174593052101
 20
30.006242835975527
 30
0.0
 11
-688.73174593052101
 21
38.880409811055827
 31
0.0
  0
LINE
  8
0
  6
CONTINUOUS
 62
               4
  5
24B
 10
-683.24691837321961
 20
30.006242835975527
 30
0.0
 11
-683.24691837321961
 21
38.880409811055827
 31
0.0
  0
ARC
  8
0
  6
CONTINUOUS
 62
               4
  5
24C
 10
-669.57415970917191
 20
36.103206977723161
 30
0.0
 40
3.9030358582523994
 50
45.361119214048536
 51
134.63888078594869
  0
ARC
  8
0
  6
CONTINUOUS
 62
               4
  5
24D
 10
-685.98933215187026
 20
36.103206977723161
 30
0.0
 40
3.9030358582525593
 50
45.361119214050902
 51
134.6388807859511
  0
ARC
  8
0
  6
CONTINUOUS
 62
               4
  5
24E
 10
-677.78174593052108
 20
26.17843305456951
 30
0.0
 40
13.827809781406303
 50
66.719648257529286
 51
113.28035174247033
  0
ENDBLK
  8
0
  5
24F
  0
BLOCK
  8
0
  5
250
  2
GROUP_9
 70
               0
 10
0.0
 20
0.0
 30
0.0
  3
GROUP_9
  0
LINE
  8
0
  6
CONTINUOUS
 62
               4
  5
251
 10
-88.731745930519878
 20
30.006242835975456
 30
0.0
 11
-88.731745930519878
 21
38.880409811055756
 31
0.0
  0
LINE
  8
0
  6
CONTINUOUS
 62
               4
  5
252
 10
-83.246918373218534
 20
30.006242835975456
 30
0.0
 11
-83.246918373218534
 21
38.880409811055756
 31
0.0
  0
LINE
  8
0
  6
CONTINUOUS
 62
               4
  5
253
 10
-88.731745930519878
 20
30.006242835975456
 30
0.0
 11
-66.831745930520185
 21
30.006242835975456
 31
0.0
  0
LINE
  8
0
  6
CONTINUOUS
 62
               4
  5
254
 10
-85.989332151869206
 20
40.006242835975456
 30
0.0
 11
-69.574159709170857
 21
40.006242835975456
 31
0.0
  0
LINE
  8
0
  6
CONTINUOUS
 62
               4
  5
255
 10
-66.831745930520185
 20
30.006242835975456
 30
0.0
 11
-66.831745930520185
 21
38.880409811055756
 31
0.0
  0
LINE
  8
0
  6
CONTINUOUS
 62
               4
  5
256
 10
-72.316573487821529
 20
30.006242835975456
 30
0.0
 11
-72.316573487821529
 21
38.880409811055756
 31
0.0
  0
ARC
  8
0
  6
CONTINUOUS
 62
               4
  5
257
 10
-85.989332151869206
 20
36.10320697772309
 30
0.0
 40
3.9030358582523994
 50
45.36111921405093
 51
134.63888078595113
  0
ARC
  8
0
  6
CONTINUOUS
 62
               4
  5
258
 10
-69.574159709170857
 20
36.10320697772309
 30
0.0
 40
3.9030358582525593
 50
45.361119214048543
 51
134.63888078594871
  0
ARC
  8
0
  6
CONTINUOUS
 62
               4
  5
259
 10
-77.781745930520032
 20
26.178433054569439
 30
0.0
 40
13.827809781406303
 50
66.719648257529315
 51
113.28035174247036
  0
ENDBLK
  8
0
  5
25A
  0
BLOCK
  8
0
  5
25B
  2
GROUP_10
 70
               0
 10
0.0
 20
0.0
 30
0.0
  3
GROUP_10
  0
LINE
  8
0
  6
CONTINUOUS
 62
               4
  5
25C
 10
66.831745930520555
 20
30.006242835975527
 30
0.0
 11
66.831745930520555
 21
38.880409811055827
 31
0.0
  0
LINE
  8
0
  6
CONTINUOUS
 62
               4
  5
25D
 10
72.316573487821898
 20
30.006242835975527
 30
0.0
 11
72.316573487821898
 21
38.880409811055827
 31
0.0
  0
LINE
  8
0
  6
CONTINUOUS
 62
               4
  5
25E
 10
66.831745930520555
 20
30.006242835975527
 30
0.0
 11
88.731745930520248
 21
30.006242835975527
 31
0.0
  0
LINE
  8
0
  6
CONTINUOUS
 62
               4
  5
25F
 10
69.574159709171369
 20
40.006242835975527
 30
0.0
 11
85.989332151869718
 21
40.006242835975527
 31
0.0
  0
LINE
  8
0
  6
CONTINUOUS
 62
               4
  5
260
 10
88.731745930520248
 20
30.006242835975527
 30
0.0
 11
88.731745930520248
 21
38.880409811055827
 31
0.0
  0
LINE
  8
0
  6
CONTINUOUS
 62
               4
  5
261
 10
83.246918373218904
 20
30.006242835975527
 30
0.0
 11
83.246918373218904
 21
38.880409811055827
 31
0.0
  0
ARC
  8
0
  6
CONTINUOUS
 62
               4
  5
262
 10
69.574159709171369
 20
36.103206977723161
 30
0.0
 40
3.9030358582523994
 50
45.36111921405093
 51
134.63888078595113
  0
ARC
  8
0
  6
CONTINUOUS
 62
               4
  5
263
 10
85.989332151869718
 20
36.103206977723161
 30
0.0
 40
3.9030358582525593
 50
45.361119214048543
 51
134.63888078594871
  0
ARC
  8
0
  6
CONTINUOUS
 62
               4
  5
264
 10
77.781745930520543
 20
26.17843305456951
 30
0.0
 40
13.827809781406303
 50
66.719648257529315
 51
113.28035174247036
  0
ENDBLK
  8
0
  5
265
  0
BLOCK
  8
0
  5
266
  2
GROUP_11
 70
               0
 10
0.0
 20
0.0
 30
0.0
  3
GROUP_11
  0
LINE
  8
0
  6
CONTINUOUS
 62
               4
  5
267
 10
511.26825406948115
 20
30.006242835975172
 30
0.0
 11
511.26825406948115
 21
38.880409811055472
 31
0.0
  0
LINE
  8
0
  6
CONTINUOUS
 62
               4
  5
268
 10
516.75308162678243
 20
30.006242835975172
 30
0.0
 11
516.75308162678243
 21
38.880409811055472
 31
0.0
  0
LINE
  8
0
  6
CONTINUOUS
 62
               4
  5
269
 10
511.26825406948115
 20
30.006242835975172
 30
0.0
 11
533.16825406948078
 21
30.006242835975172
 31
0.0
  0
LINE
  8
0
  6
CONTINUOUS
 62
               4
  5
26A
 10
514.01066784813179
 20
40.006242835975172
 30
0.0
 11
530.42584029083014
 21
40.006242835975172
 31
0.0
  0
LINE
  8
0
  6
CONTINUOUS
 62
               4
  5
26B
 10
533.16825406948078
 20
30.006242835975172
 30
0.0
 11
533.16825406948078
 21
38.880409811055472
 31
0.0
  0
LINE
  8
0
  6
CONTINUOUS
 62
               4
  5
26C
 10
527.68342651217949
 20
30.006242835975172
 30
0.0
 11
527.68342651217949
 21
38.880409811055472
 31
0.0
  0
ARC
  8
0
  6
CONTINUOUS
 62
               4
  5
26D
 10
514.01066784813179
 20
36.103206977722806
 30
0.0
 40
3.9030358582523994
 50
45.361119214050859
 51
134.63888078595105
  0
ARC
  8
0
  6
CONTINUOUS
 62
               4
  5
26E
 10
530.42584029083014
 20
36.103206977722806
 30
0.0
 40
3.9030358582525593
 50
45.361119214048472
 51
134.63888078594869
  0
ARC
  8
0
  6
CONTINUOUS
 62
               4
  5
26F
 10
522.21825406948096
 20
26.178433054569155
 30
0.0
 40
13.827809781406303
 50
66.719648257529244
 51
113.28035174247027
  0
ENDBLK
  8
0
  5
270
  0
BLOCK
  8
0
  5
271
  2
GROUP_12
 70
               0
 10
0.0
 20
0.0
 30
0.0
  3
GROUP_12
  0
LINE
  8
0
  6
CONTINUOUS
 62
               4
  5
272
 10
666.83174593052183
 20
30.006242835975172
 30
0.0
 11
666.83174593052183
 21
38.880409811055472
 31
0.0
  0
LINE
  8
0
  6
CONTINUOUS
 62
               4
  5
273
 10
672.31657348782323
 20
30.006242835975172
 30
0.0
 11
672.31657348782323
 21
38.880409811055472
 31
0.0
  0
LINE
  8
0
  6
CONTINUOUS
 62
               4
  5
274
 10
666.83174593052183
 20
30.006242835975172
 30
0.0
 11
688.73174593052158
 21
30.006242835975172
 31
0.0
  0
LINE
  8
0
  6
CONTINUOUS
 62
               4
  5
275
 10
669.57415970917259
 20
40.006242835975172
 30
0.0
 11
685.98933215187094
 21
40.006242835975172
 31
0.0
  0
LINE
  8
0
  6
CONTINUOUS
 62
               4
  5
276
 10
688.73174593052158
 20
30.006242835975172
 30
0.0
 11
688.73174593052158
 21
38.880409811055472
 31
0.0
  0
LINE
  8
0
  6
CONTINUOUS
 62
               4
  5
277
 10
683.24691837322018
 20
30.006242835975172
 30
0.0
 11
683.24691837322018
 21
38.880409811055472
 31
0.0
  0
ARC
  8
0
  6
CONTINUOUS
 62
               4
  5
278
 10
669.57415970917259
 20
36.103206977722806
 30
0.0
 40
3.9030358582523994
 50
45.361119214050859
 51
134.63888078595105
  0
ARC
  8
0
  6
CONTINUOUS
 62
               4
  5
279
 10
685.98933215187094
 20
36.103206977722806
 30
0.0
 40
3.9030358582525593
 50
45.361119214048472
 51
134.63888078594869
  0
ARC
  8
0
  6
CONTINUOUS
 62
               4
  5
27A
 10
677.78174593052177
 20
26.178433054569155
 30
0.0
 40
13.827809781406303
 50
66.719648257529244
 51
113.28035174247027
  0
ENDBLK
  8
0
  5
27B
  0
ENDSEC
  0
SECTION
  2
ENTITIES
  0
LINE
  8
0
  6
DASHDOT
 62
               4
  5
27C
 10
0.0
 20
-673.82354048964226
 30
0.0
 11
0.0000000000002842
 21
306.25037412590586
 31
0.0
  0
LINE
  8
0
  6
DASHDOT
 62
               4
  5
27D
 10
-162.01839599130295
 20
-86.499999999999915
 30
0.0
 11
-89.999999999999716
 21
-86.499999999999915
 31
0.0
  0
LINE
  8
0
  6
DASHDOT
 62
               4
  5
27E
 10
-600.00000000000011
 20
-669.82354048964226
 30
0.0
 11
-599.99999999999989
 21
306.25037412590586
 31
0.0
  0
LINE
  8
0
  6
DASHDOT
 62
               4
  5
27F
 10
600.00000000000023
 20
-669.82354048964226
 30
0.0
 11
600.00000000000057
 21
306.25037412590541
 31
0.0
  0
LINE
  8
0
  6
DASHDOT
 62
               4
  5
280
 10
0.0000000000001422
 20
588.84717474866568
 30
0.0
 11
0.0000000000003553
 21
816.65357350314605
 31
0.0
  0
LINE
  8
0
  6
DASHDOT
 62
               4
  5
281
 10
113.9031993772403
 20
702.75037412590586
 30
0.0
 11
-113.90319937724007
 21
702.75037412590609
 31
0.0
  0
LINE
  8
0
  6
DASHDOT
 62
               4
  5
282
 10
-113.9031993772398
 20
702.75037412590609
 30
0.0
 11
-179.99999999999966
 21
702.75037412590609
 31
0.0
  0
LINE
  8
0
  6
DASHDOT
 62
               4
  5
283
 10
110.04390339203849
 20
-76.500000000000313
 30
0.0
 11
70.043903392038487
 21
-76.500000000000341
 31
0.0
  0
LINE
  8
0
  6
DASHDOT
 62
               4
  5
284
 10
547.64445073687148
 20
-76.500000000000682
 30
0.0
 11
652.41326649167718
 21
-76.500000000000682
 31
0.0
  0
LINE
  8
0
  6
DASHDOT
 62
               4
  5
285
 10
-675.50000000000011
 20
-86.499999999999915
 30
0.0
 11
-524.50000000000011
 21
-86.499999999999915
 31
0.0
  0
LINE
  8
0
  6
CONTINUOUS
 62
               4
  5
286
 10
-510.00000000000028
 20
164.797568126778
 30
0.0
 11
-510.00000000000028
 21
32.991094147964333
 31
0.0
  0
LINE
  8
0
  6
CONTINUOUS
 62
               4
  5
287
 10
-690.00000000000011
 20
164.797568126778
 30
0.0
 11
-690.00000000000011
 21
32.991094147964333
 31
0.0
  0
LINE
  8
0
  6
CONTINUOUS
 62
               4
  5
288
 10
-496.93020100659538
 20
27.706242835976695
 30
0.0
 11
-505.17449748351271
 21
27.994140012868769
 31
0.0
  0
LINE
  8
0
  6
CONTINUOUS
 62
               4
  5
289
 10
-703.06979899340513
 20
27.706242835976767
 30
0.0
 11
-694.82550251648775
 21
27.994140012868769
 31
0.0
  0
ARC
  8
0
  6
CONTINUOUS
 62
               4
  5
28A
 10
-505.00000000000028
 20
32.991094147964333
 30
0.0
 40
5.0
 50
179.9999999999996
 51
267.99999999999932
  0
ARC
  8
0
  6
CONTINUOUS
 62
               4
  5
28B
 10
-695.00000000000011
 20
32.991094147964333
 30
0.0
 40
5.0
 50
271.99999999999932
 51
359.9999999999992
  0
LINE
  8
0
  6
CONTINUOUS
 62
               4
  5
28C
 10
-508.00000000000023
 20
171.11357374475625
 30
0.0
 11
-508.00000000000023
 21
32.921252608980751
 31
0.0
  0
ARC
  8
0
  6
CONTINUOUS
 62
               4
  5
28D
 10
-503.00000000000023
 20
32.921252608980751
 30
0.0
 40
5.0
 50
179.9999999999996
 51
267.99999999999932
  0
LINE
  8
0
  6
CONTINUOUS
 62
               4
  5
28E
 10
-692.00000000000023
 20
171.1135737447554
 30
0.0
 11
-692.00000000000023
 21
32.921252608980751
 31
0.0
  0
ARC
  8
0
  6
CONTINUOUS
 62
               4
  5
28F
 10
-697.00000000000023
 20
32.921252608980751
 30
0.0
 40
5.0
 50
271.99999999999949
 51
359.9999999999992
  0
LINE
  8
0
  6
CONTINUOUS
 62
               4
  5
290
 10
-72.753934824880986
 20
-230.89109028540463
 30
0.0
 11
64.007050477479908
 21
-345.64718261205724
 31
0.0
  0
CIRCLE
  8
0
  6
CONTINUOUS
 62
               4
  5
291
 10
77.781745930520572
 20
624.9686281953858
 30
0.0
 40
13.0
  0
CIRCLE
  8
0
  6
CONTINUOUS
 62
               4
  5
292
 10
77.781745930520643
 20
780.53212005642638
 30
0.0
 40
13.0
  0
CIRCLE
  8
0
  6
CONTINUOUS
 62
               4
  5
293
 10
-77.781745930519932
 20
780.53212005642604
 30
0.0
 40
13.0
  0
CIRCLE
  8
0
  6
CONTINUOUS
 62
               4
  5
294
 10
-77.78174593051979
 20
624.9686281953858
 30
0.0
 40
13.0
  0
LINE
  8
0
  6
CONTINUOUS
 62
               4
  5
295
 10
-6.0000000000009734
 20
185.29756812677832
 30
0.0
 11
-6.0000000000008313
 21
27.706242835976269
 31
0.0
  0
LINE
  8
0
  6
CONTINUOUS
 62
               4
  5
296
 10
5.9999999999991971
 20
185.29756812677775
 30
0.0
 11
5.9999999999993392
 21
27.706242835976269
 31
0.0
  0
LINE
  8
0
  6
CONTINUOUS
 62
               4
  5
297
 10
-8.0000000000008598
 20
174.67554049548241
 30
0.0
 11
-8.0000000000007176
 21
27.706242835976269
 31
0.0
  0
LINE
  8
0
  6
CONTINUOUS
 62
               4
  5
298
 10
7.9999999999990834
 20
174.67554049548241
 30
0.0
 11
7.9999999999992255
 21
27.706242835976269
 31
0.0
  0
LINE
  8
0
  6
CONTINUOUS
 62
               4
  5
299
 10
-535.21825406948039
 20
30.006242835976664
 30
0.0
 11
-535.21825406948039
 21
27.706242835976767
 31
0.0
  0
LINE
  8
0
  6
CONTINUOUS
 62
               4
  5
29A
 10
-535.21825406948039
 20
27.706242835976767
 30
0.0
 11
-509.21825406948028
 21
27.706242835976767
 31
0.0
  0
LINE
  8
0
  6
CONTINUOUS
 62
               4
  5
29B
 10
-509.21825406948028
 20
27.706242835976767
 30
0.0
 11
-509.21825406948028
 21
30.006242835976664
 31
0.0
  0
LINE
  8
0
  6
CONTINUOUS
 62
               4
  5
29C
 10
-509.21825406948028
 20
30.006242835976664
 30
0.0
 11
-535.21825406948039
 21
30.006242835976664
 31
0.0
  0
LINE
  8
0
  6
CONTINUOUS
 62
               4
  5
29D
 10
-86.468963291263208
 20
-30.000000000000142
 30
0.0
 11
-86.468963291263208
 21
-17.999999999999972
 31
0.0
  0
LINE
  8
0
  6
CONTINUOUS
 62
               4
  5
29E
 10
-74.651270255116913
 20
-30.000000000000142
 30
0.0
 11
-74.651270255116913
 21
-17.999999999999972
 31
0.0
  0
LINE
  8
0
  6
CONTINUOUS
 62
               4
  5
29F
 10
-69.094528569774809
 20
-30.000000000000142
 30
0.0
 11
-69.094528569774809
 21
-17.999999999999972
 31
0.0
  0
LINE
  8
0
  6
CONTINUOUS
 62
               4
  5
2A0
 10
-69.094528569774809
 20
-30.000000000000142
 30
0.0
 11
-86.468963291263208
 21
-30.000000000000142
 31
0.0
  0
LINE
  8
0
  6
CONTINUOUS
 62
               4
  5
2A1
 10
-528.21825406948039
 20
40.006242835975527
 30
0.0
 11
-528.21825406948039
 21
48.706242835975715
 31
0.0
  0
LINE
  8
0
  6
CONTINUOUS
 62
               4
  5
2A2
 10
-516.21825406948028
 20
48.706242835975715
 30
0.0
 11
-516.21825406948028
 21
40.006242835975527
 31
0.0
  0
LINE
  8
0
  6
CONTINUOUS
 62
               4
  5
2A3
 10
-516.21825406948028
 20
48.706242835975715
 30
0.0
 11
-528.21825406948039
 21
48.706242835975715
 31
0.0
  0
LINE
  8
0
  6
CONTINUOUS
 62
               4
  5
2A4
 10
69.094528569777296
 20
-30.000000000000142
 30
0.0
 11
69.094528569777296
 21
-17.999999999999972
 31
0.0
  0
LINE
  8
0
  6
CONTINUOUS
 62
               4
  5
2A5
 10
80.912221605923591
 20
-30.000000000000142
 30
0.0
 11
80.912221605923591
 21
-17.999999999999972
 31
0.0
  0
LINE
  8
0
  6
CONTINUOUS
 62
               4
  5
2A6
 10
86.468963291265695
 20
-30.000000000000142
 30
0.0
 11
86.468963291265695
 21
-17.999999999999972
 31
0.0
  0
LINE
  8
0
  6
CONTINUOUS
 62
               4
  5
2A7
 10
86.468963291265695
 20
-30.000000000000142
 30
0.0
 11
69.094528569777296
 21
-30.000000000000142
 31
0.0
  0
LINE
  8
0
  6
CONTINUOUS
 62
               4
  5
2A8
 10
-690.78174593052097
 20
30.006242835976664
 30
0.0
 11
-690.78174593052097
 21
27.706242835976767
 31
0.0
  0
LINE
  8
0
  6
CONTINUOUS
 62
               4
  5
2A9
 10
-690.78174593052097
 20
27.706242835976767
 30
0.0
 11
-664.78174593052086
 21
27.706242835976767
 31
0.0
  0
LINE
  8
0
  6
CONTINUOUS
 62
               4
  5
2AA
 10
-664.78174593052086
 20
27.706242835976767
 30
0.0
 11
-664.78174593052086
 21
30.006242835976664
 31
0.0
  0
LINE
  8
0
  6
CONTINUOUS
 62
               4
  5
2AB
 10
-664.78174593052086
 20
30.006242835976664
 30
0.0
 11
-690.78174593052097
 21
30.006242835976664
 31
0.0
  0
LINE
  8
0
  6
CONTINUOUS
 62
               4
  5
2AC
 10
-683.78174593052097
 20
40.006242835975527
 30
0.0
 11
-683.78174593052097
 21
48.706242835975715
 31
0.0
  0
LINE
  8
0
  6
CONTINUOUS
 62
               4
  5
2AD
 10
-671.78174593052086
 20
48.706242835975715
 30
0.0
 11
-671.78174593052086
 21
40.006242835975527
 31
0.0
  0
LINE
  8
0
  6
CONTINUOUS
 62
               4
  5
2AE
 10
-671.78174593052086
 20
48.706242835975715
 30
0.0
 11
-683.78174593052097
 21
48.706242835975715
 31
0.0
  0
LINE
  8
0
  6
CONTINUOUS
 62
               4
  5
2AF
 10
-64.781745930520202
 20
30.006242835976593
 30
0.0
 11
-64.781745930520202
 21
27.706242835976695
 31
0.0
  0
LINE
  8
0
  6
CONTINUOUS
 62
               4
  5
2B0
 10
-64.781745930520202
 20
27.706242835976695
 30
0.0
 11
-90.781745930520287
 21
27.706242835976695
 31
0.0
  0
LINE
  8
0
  6
CONTINUOUS
 62
               4
  5
2B1
 10
-90.781745930520287
 20
27.706242835976695
 30
0.0
 11
-90.781745930520287
 21
30.006242835976593
 31
0.0
  0
LINE
  8
0
  6
CONTINUOUS
 62
               4
  5
2B2
 10
-90.781745930520287
 20
30.006242835976593
 30
0.0
 11
-64.781745930520202
 21
30.006242835976593
 31
0.0
  0
LINE
  8
0
  6
CONTINUOUS
 62
               4
  5
2B3
 10
-686.46896329126321
 20
-30.000000000000142
 30
0.0
 11
-686.46896329126321
 21
-17.999999999999972
 31
0.0
  0
LINE
  8
0
  6
CONTINUOUS
 62
               4
  5
2B4
 10
-674.65127025511697
 20
-30.000000000000142
 30
0.0
 11
-674.65127025511697
 21
-17.999999999999972
 31
0.0
  0
LINE
  8
0
  6
CONTINUOUS
 62
               4
  5
2B5
 10
-669.09452856977487
 20
-30.000000000000142
 30
0.0
 11
-669.09452856977487
 21
-17.999999999999972
 31
0.0
  0
LINE
  8
0
  6
CONTINUOUS
 62
               4
  5
2B6
 10
-669.09452856977487
 20
-30.000000000000142
 30
0.0
 11
-686.46896329126321
 21
-30.000000000000142
 31
0.0
  0
LINE
  8
0
  6
CONTINUOUS
 62
               4
  5
2B7
 10
-71.781745930520231
 20
40.006242835975456
 30
0.0
 11
-71.781745930520231
 21
48.706242835975644
 31
0.0
  0
LINE
  8
0
  6
CONTINUOUS
 62
               4
  5
2B8
 10
-83.781745930520259
 20
48.706242835975644
 30
0.0
 11
-83.781745930520259
 21
40.006242835975456
 31
0.0
  0
LINE
  8
0
  6
CONTINUOUS
 62
               4
  5
2B9
 10
-83.781745930520259
 20
48.706242835975644
 30
0.0
 11
-71.781745930520231
 21
48.706242835975644
 31
0.0
  0
LINE
  8
0
  6
CONTINUOUS
 62
               4
  5
2BA
 10
-530.90547143022286
 20
-30.000000000000142
 30
0.0
 11
-530.90547143022286
 21
-17.999999999999972
 31
0.0
  0
LINE
  8
0
  6
CONTINUOUS
 62
               4
  5
2BB
 10
-519.08777839407662
 20
-30.000000000000142
 30
0.0
 11
-519.08777839407662
 21
-17.999999999999972
 31
0.0
  0
LINE
  8
0
  6
CONTINUOUS
 62
               4
  5
2BC
 10
-513.53103670873452
 20
-30.000000000000142
 30
0.0
 11
-513.53103670873452
 21
-17.999999999999972
 31
0.0
  0
LINE
  8
0
  6
CONTINUOUS
 62
               4
  5
2BD
 10
-513.53103670873452
 20
-30.000000000000142
 30
0.0
 11
-530.90547143022286
 21
-30.000000000000142
 31
0.0
  0
LINE
  8
0
  6
CONTINUOUS
 62
               4
  5
2BE
 10
64.781745930520145
 20
27.706242835976767
 30
0.0
 11
64.781745930520145
 21
30.006242835976664
 31
0.0
  0
LINE
  8
0
  6
CONTINUOUS
 62
               4
  5
2BF
 10
83.781745930520202
 20
40.006242835975527
 30
0.0
 11
83.781745930520202
 21
48.706242835975715
 31
0.0
  0
LINE
  8
0
  6
CONTINUOUS
 62
               4
  5
2C0
 10
71.781745930520316
 20
48.706242835975715
 30
0.0
 11
71.781745930520316
 21
40.006242835975527
 31
0.0
  0
LINE
  8
0
  6
CONTINUOUS
 62
               4
  5
2C1
 10
71.781745930520316
 20
48.706242835975715
 30
0.0
 11
83.781745930520202
 21
48.706242835975715
 31
0.0
  0
LINE
  8
0
  6
CONTINUOUS
 62
               4
  5
2C2
 10
90.781745930520373
 20
30.006242835976664
 30
0.0
 11
90.781745930520373
 21
27.706242835976767
 31
0.0
  0
LINE
  8
0
  6
CONTINUOUS
 62
               4
  5
2C3
 10
90.781745930520373
 20
27.706242835976767
 30
0.0
 11
64.781745930520145
 21
27.706242835976767
 31
0.0
  0
LINE
  8
0
  6
CONTINUOUS
 62
               4
  5
2C4
 10
64.781745930520145
 20
30.006242835976664
 30
0.0
 11
90.781745930520373
 21
30.006242835976664
 31
0.0
  0
ARC
  8
0
  6
CONTINUOUS
 62
               4
  5
2C5
 10
-1169.843359046034
 20
-554.7981599712906
 30
0.0
 40
687.72820158627314
 50
18.10848079046929
 51
28.098008730087844
  0
ARC
  8
0
  6
CONTINUOUS
 62
               4
  5
2C6
 10
-581.4896322825773
 20
-298.18438542650313
 30
0.0
 40
69.74273142123306
 50
332.35940834669276
 51
434.76997683383217
  0
LINE
  8
0
  6
CONTINUOUS
 62
               4
  5
2C7
 10
496.93020100659578
 20
27.706242835976411
 30
0.0
 11
505.17449748351311
 21
27.994140012868485
 31
0.0
  0
LINE
  8
0
  6
CONTINUOUS
 62
               4
  5
2C8
 10
703.06979899340581
 20
27.706242835976411
 30
0.0
 11
694.82550251648831
 21
27.994140012868343
 31
0.0
  0
ARC
  8
0
  6
CONTINUOUS
 62
               4
  5
2C9
 10
505.00000000000068
 20
32.991094147964048
 30
0.0
 40
5.0
 50
271.99999999999943
 51
359.99999999999915
  0
ARC
  8
0
  6
CONTINUOUS
 62
               4
  5
2CA
 10
695.00000000000068
 20
32.991094147963906
 30
0.0
 40
5.0
 50
179.99999999999957
 51
267.99999999999943
  0
ARC
  8
0
  6
CONTINUOUS
 62
               4
  5
2CB
 10
503.00000000000068
 20
32.921252608980467
 30
0.0
 40
5.0
 50
271.99999999999943
 51
359.99999999999915
  0
ARC
  8
0
  6
CONTINUOUS
 62
               4
  5
2CC
 10
697.00000000000068
 20
32.921252608980325
 30
0.0
 40
5.0
 50
179.99999999999957
 51
267.99999999999932
  0
LINE
  8
0
  6
CONTINUOUS
 62
               4
  5
2CD
 10
535.21825406948085
 20
30.006242835976309
 30
0.0
 11
535.21825406948085
 21
27.706242835976411
 31
0.0
  0
LINE
  8
0
  6
CONTINUOUS
 62
               4
  5
2CE
 10
535.21825406948085
 20
27.706242835976411
 30
0.0
 11
509.21825406948074
 21
27.706242835976411
 31
0.0
  0
LINE
  8
0
  6
CONTINUOUS
 62
               4
  5
2CF
 10
509.21825406948074
 20
27.706242835976411
 30
0.0
 11
509.21825406948074
 21
30.006242835976309
 31
0.0
  0
LINE
  8
0
  6
CONTINUOUS
 62
               4
  5
2D0
 10
509.21825406948074
 20
30.006242835976309
 30
0.0
 11
535.21825406948085
 21
30.006242835976309
 31
0.0
  0
LINE
  8
0
  6
CONTINUOUS
 62
               4
  5
2D1
 10
528.21825406948074
 20
40.006242835975172
 30
0.0
 11
528.21825406948074
 21
48.70624283597536
 31
0.0
  0
LINE
  8
0
  6
CONTINUOUS
 62
               4
  5
2D2
 10
516.21825406948074
 20
48.70624283597536
 30
0.0
 11
516.21825406948074
 21
40.006242835975172
 31
0.0
  0
LINE
  8
0
  6
CONTINUOUS
 62
               4
  5
2D3
 10
516.21825406948074
 20
48.70624283597536
 30
0.0
 11
528.21825406948074
 21
48.70624283597536
 31
0.0
  0
LINE
  8
0
  6
CONTINUOUS
 62
               4
  5
2D4
 10
690.78174593052154
 20
30.006242835976309
 30
0.0
 11
690.78174593052154
 21
27.706242835976411
 31
0.0
  0
LINE
  8
0
  6
CONTINUOUS
 62
               4
  5
2D5
 10
690.78174593052154
 20
27.706242835976411
 30
0.0
 11
664.78174593052142
 21
27.706242835976411
 31
0.0
  0
LINE
  8
0
  6
CONTINUOUS
 62
               4
  5
2D6
 10
664.78174593052142
 20
27.706242835976411
 30
0.0
 11
664.78174593052142
 21
30.006242835976309
 31
0.0
  0
LINE
  8
0
  6
CONTINUOUS
 62
               4
  5
2D7
 10
664.78174593052142
 20
30.006242835976309
 30
0.0
 11
690.78174593052154
 21
30.006242835976309
 31
0.0
  0
LINE
  8
0
  6
CONTINUOUS
 62
               4
  5
2D8
 10
683.78174593052154
 20
40.006242835975172
 30
0.0
 11
683.78174593052154
 21
48.70624283597536
 31
0.0
  0
LINE
  8
0
  6
CONTINUOUS
 62
               4
  5
2D9
 10
671.78174593052154
 20
48.70624283597536
 30
0.0
 11
671.78174593052154
 21
40.006242835975172
 31
0.0
  0
LINE
  8
0
  6
CONTINUOUS
 62
               4
  5
2DA
 10
671.78174593052154
 20
48.70624283597536
 30
0.0
 11
683.78174593052154
 21
48.70624283597536
 31
0.0
  0
LINE
  8
0
  6
CONTINUOUS
 62
               4
  5
2DB
 10
513.53103670873725
 20
-30.000000000000568
 30
0.0
 11
513.53103670873725
 21
-18.000000000000398
 31
0.0
  0
LINE
  8
0
  6
CONTINUOUS
 62
               4
  5
2DC
 10
525.34872974488349
 20
-30.000000000000568
 30
0.0
 11
525.34872974488349
 21
-18.000000000000398
 31
0.0
  0
LINE
  8
0
  6
CONTINUOUS
 62
               4
  5
2DD
 10
530.90547143022559
 20
-30.000000000000568
 30
0.0
 11
530.90547143022559
 21
-18.000000000000398
 31
0.0
  0
LINE
  8
0
  6
CONTINUOUS
 62
               4
  5
2DE
 10
530.90547143022559
 20
-30.000000000000568
 30
0.0
 11
513.53103670873725
 21
-30.000000000000568
 31
0.0
  0
LINE
  8
0
  6
CONTINUOUS
 62
               4
  5
2DF
 10
669.09452856977748
 20
-30.000000000000426
 30
0.0
 11
669.09452856977748
 21
-18.000000000000256
 31
0.0
  0
LINE
  8
0
  6
CONTINUOUS
 62
               4
  5
2E0
 10
680.91222160592383
 20
-30.000000000000426
 30
0.0
 11
680.91222160592383
 21
-18.000000000000256
 31
0.0
  0
LINE
  8
0
  6
CONTINUOUS
 62
               4
  5
2E1
 10
686.46896329126594
 20
-30.000000000000426
 30
0.0
 11
686.46896329126594
 21
-18.000000000000256
 31
0.0
  0
LINE
  8
0
  6
CONTINUOUS
 62
               4
  5
2E2
 10
686.46896329126594
 20
-30.000000000000426
 30
0.0
 11
669.09452856977748
 21
-30.000000000000426
 31
0.0
  0
ARC
  8
0
  6
CONTINUOUS
 62
               4
  5
2E3
 10
577.51175440469319
 20
-330.40698026500536
 30
0.0
 40
62.379470432471358
 50
153.87479529777323
 51
191.49340995899246
  0
ARC
  8
0
  6
CONTINUOUS
 62
               4
  5
2E4
 10
542.63468447666241
 20
-345.95473770877391
 30
0.0
 40
10.0
 50
324.2973694337847
 51
398.20421175366164
  0
LINE
  8
0
  6
CONTINUOUS
 62
               4
  5
2E5
 10
550.49279880155098
 20
-339.77007609660927
 30
0.0
 11
510.20094803717893
 21
-288.57601092010458
 31
0.0
  0
ARC
  8
0
  6
CONTINUOUS
 62
               4
  5
2E6
 10
535.296865291617
 20
-340.68146886441514
 30
0.0
 40
19.036091782253322
 50
186.49999999999949
 51
324.29736943378475
  0
ARC
  8
0
  6
CONTINUOUS
 62
               4
  5
2E7
 10
473.68129117649687
 20
-380.99881512935008
 30
0.0
 40
204.24864340422488
 50
353.49999999999915
 51
373.43680216747674
  0
ARC
  8
0
  6
CONTINUOUS
 62
               4
  5
2E8
 10
511.37230094455788
 20
-378.71439805994237
 30
0.0
 40
167.18634723772169
 50
351.25933879893398
 51
375.67746336854231
  0
ARC
  8
0
  6
CONTINUOUS
 62
               4
  5
2E9
 10
173.35934986435143
 20
-76.639683077967362
 30
0.0
 40
92.090694433536868
 50
155.07010252002911
 51
205.15144555831668
  0
LINE
  8
0
  6
CONTINUOUS
 62
               4
  5
2EA
 10
-11.727000000001084
 20
190.29756812677789
 30
0.0
 11
11.726999999999322
 21
190.29756812677789
 31
0.0
  0
LINE
  8
0
  6
CONTINUOUS
 62
               4
  5
2EB
 10
11.726999999999322
 20
185.29756812677789
 30
0.0
 11
11.726999999999322
 21
190.29756812677789
 31
0.0
  0
LINE
  8
0
  6
CONTINUOUS
 62
               4
  5
2EC
 10
-11.727000000001084
 20
185.29756812677789
 30
0.0
 11
-11.727000000001084
 21
190.29756812677789
 31
0.0
  0
LINE
  8
0
  6
CONTINUOUS
 62
               4
  5
2ED
 10
11.726999999999322
 20
190.29756812677789
 30
0.0
 11
5.9999999999993463
 21
185.29756812677789
 31
0.0
  0
LINE
  8
0
  6
CONTINUOUS
 62
               4
  5
2EE
 10
-6.00000000000054
 20
185.29756812677789
 30
0.0
 11
-11.727000000001084
 21
190.29756812677789
 31
0.0
  0
LINE
  8
0
  6
CONTINUOUS
 62
               4
  5
2EF
 10
5.9999999999993463
 20
185.29756812677789
 30
0.0
 11
-6.00000000000054
 21
185.29756812677789
 31
0.0
  0
ARC
  8
0
  6
CONTINUOUS
 62
               4
  5
2F0
 10
24.999999999999119
 20
174.67554049548238
 30
0.0
 40
17.0
 50
141.33064456990587
 51
179.99999999999963
  0
ARC
  8
0
  6
CONTINUOUS
 62
               4
  5
2F1
 10
-24.999999999999886
 20
174.67554049548238
 30
0.0
 40
17.0
 50
0.0
 51
38.669355430093773
  0
LINE
  8
0
  6
CONTINUOUS
 62
               4
  5
2F2
 10
690.00000000000023
 20
164.79756812677769
 30
0.0
 11
690.00000000000023
 21
32.991094147964013
 31
0.0
  0
LINE
  8
0
  6
CONTINUOUS
 62
               4
  5
2F3
 10
510.00000000000034
 20
164.79756812677769
 30
0.0
 11
510.00000000000034
 21
32.991094147964013
 31
0.0
  0
LINE
  8
0
  6
CONTINUOUS
 62
               4
  5
2F4
 10
692.00000000000023
 20
171.11357374475594
 30
0.0
 11
692.00000000000023
 21
32.921252608980431
 31
0.0
  0
LINE
  8
0
  6
CONTINUOUS
 62
               4
  5
2F5
 10
508.00000000000023
 20
171.11357374475509
 30
0.0
 11
508.00000000000023
 21
32.921252608980431
 31
0.0
  0
LINE
  8
0
  6
CONTINUOUS
 62
               4
  5
2F6
 10
57.000000000000036
 20
-542.0
 30
0.0
 11
-56.999999999999943
 21
-542.0
 31
0.0
  0
LINE
  8
0
  6
CONTINUOUS
 62
               4
  5
2F7
 10
58.053042823173413
 20
-540.94695717682646
 30
0.0
 11
-58.053042823173286
 21
-540.94695717682646
 31
0.0
  0
LINE
  8
0
  6
CONTINUOUS
 62
               4
  5
2F8
 10
-543.00000000000011
 20
-542.0
 30
0.0
 11
-657.0
 21
-542.0
 31
0.0
  0
LINE
  8
0
  6
CONTINUOUS
 62
               4
  5
2F9
 10
-541.94695717682669
 20
-540.94695717682646
 30
0.0
 11
-658.05304282317343
 21
-540.94695717682646
 31
0.0
  0
LINE
  8
0
  6
CONTINUOUS
 62
               4
  5
2FA
 10
657.00000000000023
 20
-542.00000000000023
 30
0.0
 11
543.00000000000023
 21
-542.00000000000023
 31
0.0
  0
LINE
  8
0
  6
CONTINUOUS
 62
               4
  5
2FB
 10
658.05304282317366
 20
-540.9469571768268
 30
0.0
 11
541.94695717682691
 21
-540.9469571768268
 31
0.0
  0
LINE
  8
0
  6
DASHED2
 62
               4
  5
2FC
 10
-56.999999999999986
 20
207.99999999999994
 30
0.0
 11
57.000000000000007
 21
207.99999999999994
 31
0.0
  0
LINE
  8
0
  6
DASHED2
 62
               4
  5
2FD
 10
-657.00000000000011
 20
207.99999999999994
 30
0.0
 11
-543.00000000000011
 21
207.99999999999994
 31
0.0
  0
LINE
  8
0
  6
DASHED2
 62
               4
  5
2FE
 10
543.00000000000034
 20
207.99999999999963
 30
0.0
 11
657.00000000000034
 21
207.99999999999963
 31
0.0
  0
LINE
  8
0
  6
CONTINUOUS
 62
               3
  5
2FF
 10
-151.9837436327586
 20
-16.499999999999915
 30
0.0
 11
-107.89530150989272
 21
-14.960397675377095
 31
0.0
  0
LINE
  8
0
  6
CONTINUOUS
 62
               3
  5
300
 10
-151.99999999999974
 20
-156.49999999999994
 30
0.0
 11
-104.29499600175355
 21
-158.16589544822574
 31
0.0
  0
LINE
  8
0
  6
CONTINUOUS
 62
               3
  5
301
 10
-100.93395957933325
 20
-159.62731567738845
 30
0.0
 11
-91.464466094066807
 21
-169.09680916265512
 31
0.0
  0
ARC
  8
0
  6
CONTINUOUS
 62
               3
  5
302
 10
-104.46949348526601
 20
-163.16284958332122
 30
0.0
 40
5.0
 50
44.999999999999901
 51
87.999999999999403
  0
ARC
  8
0
  6
CONTINUOUS
 62
               3
  5
303
 10
-94.999999999999716
 20
-172.63234306858777
 30
0.0
 40
5.0
 50
0.0
 51
44.999999999999446
  0
LINE
  8
0
  6
CONTINUOUS
 62
               3
  5
304
 10
97.000000000000028
 20
1.5000000000000568
 30
0.0
 11
67.000000000000028
 21
1.5000000000000568
 31
0.0
  0
LINE
  8
0
  6
CONTINUOUS
 62
               3
  5
305
 10
105.00000000000028
 20
0.0
 30
0.0
 11
105.00000000000028
 21
-15.000000000000071
 31
0.0
  0
LINE
  8
0
  6
CONTINUOUS
 62
               3
  5
306
 10
-151.9837436327586
 20
-16.499999999999915
 30
0.0
 11
-151.9837436327586
 21
-156.50056768485317
 31
0.0
  0
LINE
  8
0
  6
CONTINUOUS
 62
               3
  5
307
 10
97.000000000000028
 20
1.5000000000000568
 30
0.0
 11
97.5
 21
0.0
 31
0.0
  0
LINE
  8
0
  6
CONTINUOUS
 62
               3
  5
308
 10
67.000000000000028
 20
1.5000000000000568
 30
0.0
 11
65.500000000000114
 21
0.0
 31
0.0
  0
LINE
  8
0
  6
CONTINUOUS
 62
               3
  5
309
 10
97.5
 20
0.0
 30
0.0
 11
105.00000000000028
 21
0.0
 31
0.0
  0
LINE
  8
0
  6
CONTINUOUS
 62
               3
  5
30A
 10
-96.999999999999957
 20
1.5000000000000568
 30
0.0
 11
-66.999999999999957
 21
1.5000000000000568
 31
0.0
  0
LINE
  8
0
  6
CONTINUOUS
 62
               3
  5
30B
 10
-105.00000000000014
 20
0.0
 30
0.0
 11
-105.00000000000007
 21
-15.0
 31
0.0
  0
ARC
  8
0
  6
CONTINUOUS
 62
               3
  5
30C
 10
-102.00000000000003
 20
-15.0
 30
0.0
 40
3.0000000000000004
 50
179.9999999999996
 51
269.99999999999937
  0
LINE
  8
0
  6
CONTINUOUS
 62
               3
  5
30D
 10
-96.999999999999957
 20
1.5000000000000568
 30
0.0
 11
-97.499999999999929
 21
0.0
 31
0.0
  0
LINE
  8
0
  6
CONTINUOUS
 62
               3
  5
30E
 10
-66.999999999999957
 20
1.5000000000000568
 30
0.0
 11
-65.499999999999972
 21
0.0
 31
0.0
  0
LINE
  8
0
  6
CONTINUOUS
 62
               3
  5
30F
 10
-97.499999999999929
 20
0.0
 30
0.0
 11
-105.00000000000014
 21
0.0
 31
0.0
  0
ARC
  8
0
  6
CONTINUOUS
 62
               3
  5
310
 10
-108.00000000000018
 20
-11.9622251943197
 30
0.0
 40
3.0000000000000004
 50
271.99999999999864
 51
359.9999999999992
  0
LINE
  8
0
  6
CONTINUOUS
 62
               3
  5
311
 10
-89.999999999999716
 20
-172.63234306858777
 30
0.0
 11
-89.999999999999716
 21
-286.81231263320393
 31
0.0
  0
ARC
  8
0
  6
CONTINUOUS
 62
               3
  5
312
 10
-81.999999999999957
 20
-161.49999999999994
 30
0.0
 40
2.5
 50
89.999999999999801
 51
269.99999999999937
  0
LINE
  8
0
  6
CONTINUOUS
 62
               3
  5
313
 10
-65.499999999999972
 20
0.0
 30
0.0
 11
65.500000000000114
 21
0.0
 31
0.0
  0
LINE
  8
0
  6
CONTINUOUS
 62
               3
  5
314
 10
-81.999999999999957
 20
-163.99999999999994
 30
0.0
 11
0.0
 21
-163.99999999999994
 31
0.0
  0
LINE
  8
0
  6
CONTINUOUS
 62
               3
  5
315
 10
0.0
 20
-163.99999999999994
 30
0.0
 11
89.999999999998977
 21
-163.99999999999994
 31
0.0
  0
LINE
  8
0
  6
CONTINUOUS
 62
               3
  5
316
 10
-81.999999999999957
 20
-158.99999999999994
 30
0.0
 11
0.0
 21
-158.99999999999994
 31
0.0
  0
LINE
  8
0
  6
CONTINUOUS
 62
               3
  5
317
 10
0.0
 20
-158.99999999999994
 30
0.0
 11
89.999999999998977
 21
-158.99999999999994
 31
0.0
  0
LINE
  8
0
  6
CONTINUOUS
 62
               3
  5
318
 10
87.721287833967097
 20
-306.81231263320393
 30
0.0
 11
73.278712166032989
 21
-433.5731724137313
 31
0.0
  0
LINE
  8
0
  6
CONTINUOUS
 62
               3
  5
319
 10
-154.99999999999986
 20
-18.828443874035798
 30
0.0
 11
-154.31218750679449
 21
-18.828443874035798
 31
0.0
  0
LINE
  8
0
  6
CONTINUOUS
 62
               3
  5
31A
 10
-151.9837436327586
 20
-16.499999999999915
 30
0.0
 11
-154.31218750679449
 21
-18.828443874035798
 31
0.0
  0
LINE
  8
0
  6
CONTINUOUS
 62
               3
  5
31B
 10
-154.99999999999986
 20
-16.500000000000057
 30
0.0
 11
-157.49999999999986
 21
-16.500000000000057
 31
0.0
  0
ARC
  8
0
  6
CONTINUOUS
 62
               3
  5
31C
 10
-157.49999999999986
 20
-19.000000000000057
 30
0.0
 40
2.5
 50
89.999999999999801
 51
179.9999999999996
  0
LINE
  8
0
  6
CONTINUOUS
 62
               3
  5
31D
 10
-154.99999999999986
 20
-154.17155612596406
 30
0.0
 11
-154.31218750679449
 21
-154.17155612596406
 31
0.0
  0
LINE
  8
0
  6
CONTINUOUS
 62
               3
  5
31E
 10
-151.9837436327586
 20
-156.49999999999994
 30
0.0
 11
-154.31218750679449
 21
-154.17155612596406
 31
0.0
  0
LINE
  8
0
  6
CONTINUOUS
 62
               3
  5
31F
 10
-154.99999999999986
 20
-156.4999999999998
 30
0.0
 11
-157.49999999999986
 21
-156.4999999999998
 31
0.0
  0
ARC
  8
0
  6
CONTINUOUS
 62
               3
  5
320
 10
-157.49999999999986
 20
-153.9999999999998
 30
0.0
 40
2.5
 50
179.9999999999996
 51
269.99999999999937
  0
LINE
  8
0
  6
CONTINUOUS
 62
               3
  5
321
 10
-159.99999999999986
 20
-19.000000000000057
 30
0.0
 11
-159.99999999999986
 21
-153.9999999999998
 31
0.0
  0
LINE
  8
0
  6
CONTINUOUS
 62
               3
  5
322
 10
-154.99999999999986
 20
-156.4999999999998
 30
0.0
 11
-154.99999999999986
 21
-16.500000000000057
 31
0.0
  0
LINE
  8
0
  6
CONTINUOUS
 62
               3
  5
323
 10
-154.31218750679449
 20
-18.828443874035798
 30
0.0
 11
-154.31218750679449
 21
-154.17155612596406
 31
0.0
  0
LINE
  8
0
  6
CONTINUOUS
 62
               3
  5
324
 10
89.999999999999858
 20
-163.99999999999994
 30
0.0
 11
90.000000000000142
 21
-286.81231263320268
 31
0.0
  0
LINE
  8
0
  6
CONTINUOUS
 62
               3
  5
325
 10
-101.98374363275896
 20
-17.999999999999972
 30
0.0
 11
0.0
 21
-17.999999999999972
 31
0.0
  0
LINE
  8
0
  6
CONTINUOUS
 62
               3
  5
326
 10
0.0
 20
-17.999999999999961
 30
0.0
 11
102.00000000000017
 21
-18.000000000000043
 31
0.0
  0
LINE
  8
0
  6
CONTINUOUS
 62
               3
  5
327
 10
90.482497638531214
 20
-304.66166388985465
 30
0.0
 11
92.200921604771793
 21
-289.5792503068152
 31
0.0
  0
ARC
  8
0
  6
CONTINUOUS
 62
               3
  5
328
 10
89.716991965580348
 20
-289.29624227239538
 30
0.0
 40
2.5
 50
353.49999999999898
 51
443.49999999999903
  0
ARC
  8
0
  6
CONTINUOUS
 62
               3
  5
329
 10
88.004295868387032
 20
-304.32838299401237
 30
0.0
 40
2.5
 50
263.49999999999801
 51
353.49999999999898
  0
LINE
  8
0
  6
CONTINUOUS
 62
               3
  5
32A
 10
-90.482497638531143
 20
-304.66166388985465
 30
0.0
 11
-92.200921604771722
 21
-289.5792503068152
 31
0.0
  0
ARC
  8
0
  6
CONTINUOUS
 62
               3
  5
32B
 10
-89.716991965580206
 20
-289.29624227239538
 30
0.0
 40
2.5
 50
96.499999999999815
 51
186.4999999999998
  0
ARC
  8
0
  6
CONTINUOUS
 62
               3
  5
32C
 10
-88.00429586838689
 20
-304.32838299401237
 30
0.0
 40
2.5
 50
186.4999999999998
 51
276.5000000000008
  0
LINE
  8
0
  6
CONTINUOUS
 62
               3
  5
32D
 10
-87.721287833966954
 20
-306.81231263320393
 30
0.0
 11
-73.278712166032918
 21
-433.5731724137313
 31
0.0
  0
LINE
  8
0
  6
CONTINUOUS
 62
               3
  5
32E
 10
-104.99999999999993
 20
25.707461181938527
 30
0.0
 11
-104.99999999999993
 21
9.9987816540382113
 31
0.0
  0
LINE
  8
0
  6
CONTINUOUS
 62
               3
  5
32F
 10
105.0
 20
25.707461181938527
 30
0.0
 11
105.0
 21
9.9987816540382113
 31
0.0
  0
ARC
  8
0
  6
CONTINUOUS
 62
               3
  5
330
 10
-102.99999999999997
 20
9.9987816540382113
 30
0.0
 40
2.0
 50
179.9999999999996
 51
267.99999999999983
  0
ARC
  8
0
  6
CONTINUOUS
 62
               3
  5
331
 10
-497.00000000000017
 20
25.707461181938527
 30
0.0
 40
2.0
 50
0.0
 51
88.000000000001052
  0
ARC
  8
0
  6
CONTINUOUS
 62
               3
  5
332
 10
-703.00000000000023
 20
25.707461181938527
 30
0.0
 40
2.0
 50
91.999999999999673
 51
179.9999999999996
  0
ARC
  8
0
  6
CONTINUOUS
 62
               3
  5
333
 10
103.00000000000011
 20
9.9987816540382113
 30
0.0
 40
2.0
 50
271.99999999999937
 51
359.9999999999992
  0
LINE
  8
0
  6
CONTINUOUS
 62
               3
  5
334
 10
-103.06979899340469
 20
7.9999999999999716
 30
0.0
 11
103.0697989934049
 21
7.9999999999999716
 31
0.0
  0
LINE
  8
0
  6
CONTINUOUS
 62
               3
  5
335
 10
-496.93020100659521
 20
27.706242835976695
 30
0.0
 11
-703.06979899340513
 21
27.706242835976767
 31
0.0
  0
LINE
  8
0
  6
CONTINUOUS
 62
               3
  5
336
 10
-100.49999999999997
 20
7.9999999999999716
 30
0.0
 11
-100.49999999999997
 21
0.0
 31
0.0
  0
LINE
  8
0
  6
CONTINUOUS
 62
               3
  5
337
 10
100.50000000000011
 20
0.0
 30
0.0
 11
100.50000000000011
 21
7.9999999999999716
 31
0.0
  0
LINE
  8
0
  6
CONTINUOUS
 62
               3
  5
338
 10
-87.721287833966812
 20
-306.81231263320393
 30
0.0
 11
-33.734459031608353
 21
-306.81231263320399
 31
0.0
  0
LINE
  8
0
  6
CONTINUOUS
 62
               3
  5
339
 10
22.492816867468122
 20
-306.81231263320393
 30
0.0
 11
87.721287833967097
 21
-306.81231263320393
 31
0.0
  0
LINE
  8
0
  6
CONTINUOUS
 62
               3
  5
33A
 10
-89.999999999999716
 20
-286.81231263320393
 30
0.0
 11
-47.737285867135242
 21
-286.81231263320399
 31
0.0
  0
LINE
  8
0
  6
CONTINUOUS
 62
               3
  5
33B
 10
-1.1029583587460934
 20
-286.81231263320393
 30
0.0
 11
90.0
 21
-286.81231263320393
 31
0.0
  0
ARC
  8
0
  6
CONTINUOUS
 62
               3
  5
33C
 10
-77.78174593051979
 20
780.53212005642604
 30
0.0
 40
17.5
 50
97.698209707852925
 51
172.30179029214648
  0
ARC
  8
0
  6
CONTINUOUS
 62
               3
  5
33D
 10
77.781745930520572
 20
780.53212005642604
 30
0.0
 40
17.5
 50
7.6982097078531018
 51
82.301790292146663
  0
LINE
  8
0
  6
CONTINUOUS
 62
               3
  5
33E
 10
104.05367551208819
 20
716.81567228929839
 30
0.0
 11
95.124025182535163
 21
782.87633641699142
 31
0.0
  0
ARC
  8
0
  6
CONTINUOUS
 62
               3
  5
33F
 10
-77.78174593051979
 20
624.9686281953858
 30
0.0
 40
17.5
 50
187.6982097078527
 51
262.30179029214628
  0
LINE
  8
0
  6
CONTINUOUS
 62
               3
  5
340
 10
-80.125962291085173
 20
607.62634894337123
 30
0.0
 11
-14.065298163391944
 21
598.6966986138184
 31
0.0
  0
ARC
  8
0
  6
CONTINUOUS
 62
               3
  5
341
 10
77.781745930520572
 20
624.9686281953858
 30
0.0
 40
17.5
 50
277.69820970785253
 51
352.30179029214611
  0
LINE
  8
0
  6
CONTINUOUS
 62
               3
  5
342
 10
80.125962291085813
 20
607.62634894337123
 30
0.0
 11
14.065298163392583
 21
598.6966986138184
 31
0.0
  0
LINE
  8
0
  6
CONTINUOUS
 62
               3
  5
343
 10
104.05367551208819
 20
688.68507596251345
 30
0.0
 11
95.124025182535163
 21
622.62441183482042
 31
0.0
  0
ARC
  8
0
  6
CONTINUOUS
 62
               3
  5
344
 10
0.0000000000003553
 20
702.75037412590609
 30
0.0
 40
105.0
 50
262.30179029214634
 51
277.69820970785247
  0
ARC
  8
0
  6
CONTINUOUS
 62
               3
  5
345
 10
0.0000000000003553
 20
702.75037412590609
 30
0.0
 40
105.0
 50
352.30179029214605
 51
367.69820970785236
  0
LINE
  8
0
  6
CONTINUOUS
 62
               3
  5
346
 10
55.610007245089363
 20
622.39163375601993
 30
0.0
 11
65.407380961228156
 21
612.59426003988108
 31
0.0
  0
ARC
  8
0
  6
CONTINUOUS
 62
               3
  5
347
 10
77.781745930520572
 20
624.9686281953858
 30
0.0
 40
17.499997018320407
 50
225.00000737639829
 51
277.81644584208578
  0
LINE
  8
0
  6
CONTINUOUS
 62
               3
  5
348
 10
-55.610007245088653
 20
622.39163375601993
 30
0.0
 11
-65.407380961227446
 21
612.59426003988108
 31
0.0
  0
ARC
  8
0
  6
CONTINUOUS
 62
               3
  5
349
 10
-77.781745930519932
 20
624.9686281953858
 30
0.0
 40
17.499997018320407
 50
262.18355415791302
 51
314.99999262360052
  0
ARC
  8
0
  6
CONTINUOUS
 62
               3
  5
34A
 10
-77.781745930519932
 20
780.53212005642604
 30
0.0
 40
17.499997018320407
 50
45.000007376398706
 51
97.816445842086154
  0
ARC
  8
0
  6
CONTINUOUS
 62
               3
  5
34B
 10
77.781745930520572
 20
780.53212005642604
 30
0.0
 40
17.499997018320407
 50
82.183554157913434
 51
134.99999262360089
  0
LINE
  8
0
  6
CONTINUOUS
 62
               3
  5
34C
 10
55.610007245089648
 20
783.10911449579191
 30
0.0
 11
59.85357911843181
 21
787.35268636913463
 31
0.0
  0
LINE
  8
0
  6
CONTINUOUS
 62
               3
  5
34D
 10
65.407380961228156
 20
792.90648821193099
 30
0.0
 11
59.85357911843181
 21
787.35268636913463
 31
0.0
  0
LINE
  8
0
  6
CONTINUOUS
 62
               3
  5
34E
 10
-55.610007245090927
 20
783.10911449579282
 30
0.0
 11
-59.853579118430176
 21
787.35268636913543
 31
0.0
  0
LINE
  8
0
  6
CONTINUOUS
 62
               3
  5
34F
 10
-65.407380961227446
 20
792.90648821193099
 30
0.0
 11
-59.853579118430176
 21
787.35268636913543
 31
0.0
  0
LINE
  8
0
  6
CONTINUOUS
 62
               3
  5
350
 10
-96.229529997968726
 20
774.69792185329356
 30
0.0
 11
-95.124025182534453
 21
782.87633641699142
 31
0.0
  0
LINE
  8
0
  6
CONTINUOUS
 62
               3
  5
351
 10
-96.229529997968726
 20
774.69792185329356
 30
0.0
 11
-104.05367551208748
 21
716.81567228929839
 31
0.0
  0
ARC
  8
0
  6
CONTINUOUS
 62
               3
  5
352
 10
0.0000000000003553
 20
702.75037412590609
 30
0.0
 40
105.0
 50
172.30179029214639
 51
187.69820970785281
  0
LINE
  8
0
  6
CONTINUOUS
 62
               3
  5
353
 10
-96.229607097849126
 20
630.80339677575876
 30
0.0
 11
-95.124025182534453
 21
622.62441183482042
 31
0.0
  0
LINE
  8
0
  6
CONTINUOUS
 62
               3
  5
354
 10
-104.05367551208748
 20
688.68507596251345
 30
0.0
 11
-96.229607097849126
 21
630.80339677575876
 31
0.0
  0
LINE
  8
0
  6
CONTINUOUS
 62
               3
  5
355
 10
-59.388263356383177
 20
800.67758638764542
 30
0.0
 11
-14.065298163391944
 21
806.80404963799378
 31
0.0
  0
LINE
  8
0
  6
CONTINUOUS
 62
               3
  5
356
 10
-80.125962291085173
 20
797.87439930844084
 30
0.0
 11
-59.388263356383177
 21
800.67758638764542
 31
0.0
  0
ARC
  8
0
  6
CONTINUOUS
 62
               3
  5
357
 10
0.0000000000003553
 20
702.75037412590609
 30
0.0
 40
105.0
 50
82.301790292146691
 51
97.698209707852882
  0
LINE
  8
0
  6
CONTINUOUS
 62
               3
  5
358
 10
14.065298163392583
 20
806.80404963799378
 30
0.0
 11
59.278057624590375
 21
800.6924832807091
 31
0.0
  0
LINE
  8
0
  6
CONTINUOUS
 62
               3
  5
359
 10
80.125962291085813
 20
797.87439930844084
 30
0.0
 11
59.278057624590375
 21
800.6924832807091
 31
0.0
  0
CIRCLE
  8
0
  6
CONTINUOUS
 62
               3
  5
35A
 10
0.0000000000002842
 20
702.75037412590609
 30
0.0
 40
90.0
  0
ARC
  8
0
  6
CONTINUOUS
 62
               3
  5
35B
 10
-48.538939433223121
 20
615.3205659441544
 30
0.0
 40
10.0
 50
60.962012385961415
 51
134.99999999999991
  0
ARC
  8
0
  6
CONTINUOUS
 62
               3
  5
35C
 10
48.538939433223831
 20
615.32056594415462
 30
0.0
 40
10.0
 50
44.999999999999559
 51
119.03798761403854
  0
ARC
  8
0
  6
CONTINUOUS
 62
               3
  5
35D
 10
-48.538939433224186
 20
790.18018230765688
 30
0.0
 40
10.0
 50
224.999999999989
 51
299.03798761403857
  0
ARC
  8
0
  6
CONTINUOUS
 62
               3
  5
35E
 10
48.538939433224186
 20
790.18018230765722
 30
0.0
 40
10.0
 50
240.96201238596043
 51
314.99999999999955
  0
LINE
  8
0
  6
CONTINUOUS
 62
               3
  5
35F
 10
-151.98374363275832
 20
772.75037412590575
 30
0.0
 11
-151.98374363275832
 21
632.74980644105267
 31
0.0
  0
LINE
  8
0
  6
CONTINUOUS
 62
               3
  5
360
 10
-154.99999999999957
 20
770.42193025186987
 30
0.0
 11
-154.3121875067942
 21
770.42193025186987
 31
0.0
  0
LINE
  8
0
  6
CONTINUOUS
 62
               3
  5
361
 10
-151.98374363275832
 20
772.75037412590575
 30
0.0
 11
-154.3121875067942
 21
770.42193025186987
 31
0.0
  0
LINE
  8
0
  6
CONTINUOUS
 62
               3
  5
362
 10
-154.99999999999957
 20
772.75037412590575
 30
0.0
 11
-157.49999999999957
 21
772.75037412590575
 31
0.0
  0
ARC
  8
0
  6
CONTINUOUS
 62
               3
  5
363
 10
-157.49999999999957
 20
770.25037412590575
 30
0.0
 40
2.5
 50
89.999999999999801
 51
179.9999999999996
  0
LINE
  8
0
  6
CONTINUOUS
 62
               3
  5
364
 10
-154.99999999999957
 20
635.07881799994163
 30
0.0
 11
-154.3121875067942
 21
635.07881799994163
 31
0.0
  0
LINE
  8
0
  6
CONTINUOUS
 62
               3
  5
365
 10
-151.98374363275832
 20
632.75037412590575
 30
0.0
 11
-154.3121875067942
 21
635.07881799994163
 31
0.0
  0
LINE
  8
0
  6
CONTINUOUS
 62
               3
  5
366
 10
-154.99999999999957
 20
632.75037412590609
 30
0.0
 11
-157.49999999999957
 21
632.75037412590609
 31
0.0
  0
ARC
  8
0
  6
CONTINUOUS
 62
               3
  5
367
 10
-157.49999999999957
 20
635.25037412590609
 30
0.0
 40
2.5
 50
179.9999999999996
 51
269.99999999999937
  0
LINE
  8
0
  6
CONTINUOUS
 62
               3
  5
368
 10
-159.99999999999957
 20
770.25037412590575
 30
0.0
 11
-159.99999999999957
 21
635.25037412590609
 31
0.0
  0
LINE
  8
0
  6
CONTINUOUS
 62
               3
  5
369
 10
-154.99999999999957
 20
632.75037412590609
 30
0.0
 11
-154.99999999999957
 21
772.75037412590575
 31
0.0
  0
LINE
  8
0
  6
CONTINUOUS
 62
               3
  5
36A
 10
-154.3121875067942
 20
770.42193025186987
 30
0.0
 11
-154.3121875067942
 21
635.07881799994163
 31
0.0
  0
LINE
  8
0
  6
CONTINUOUS
 62
               3
  5
36B
 10
-151.98374363275832
 20
772.75037412590575
 30
0.0
 11
-96.229607097849339
 21
774.69735147605275
 31
0.0
  0
LINE
  8
0
  6
CONTINUOUS
 62
               3
  5
36C
 10
-151.99999999999946
 20
632.75037412590575
 30
0.0
 11
-96.229529997968513
 21
630.80282639851771
 31
0.0
  0
LINE
  8
0
  6
CONTINUOUS
 62
               3
  5
36D
 10
-696.99999999999977
 20
1.5000000000000568
 30
0.0
 11
-666.99999999999977
 21
1.5000000000000568
 31
0.0
  0
LINE
  8
0
  6
CONTINUOUS
 62
               3
  5
36E
 10
-705.0
 20
0.0000000000000711
 30
0.0
 11
-705.0
 21
-15.000000000000071
 31
0.0
  0
ARC
  8
0
  6
CONTINUOUS
 62
               3
  5
36F
 10
-505.26732947141141
 20
-22.748926895829626
 30
0.0
 40
4.7489268958295181
 50
89.999999999999801
 51
179.9999999999996
  0
LINE
  8
0
  6
CONTINUOUS
 62
               3
  5
370
 10
-696.99999999999977
 20
1.5000000000000568
 30
0.0
 11
-697.49999999999977
 21
0.0000000000000711
 31
0.0
  0
LINE
  8
0
  6
CONTINUOUS
 62
               3
  5
371
 10
-666.99999999999977
 20
1.5000000000000568
 30
0.0
 11
-665.49999999999977
 21
0.0000000000000711
 31
0.0
  0
LINE
  8
0
  6
CONTINUOUS
 62
               3
  5
372
 10
-697.49999999999977
 20
0.0000000000000711
 30
0.0
 11
-705.0
 21
0.0000000000000711
 31
0.0
  0
LINE
  8
0
  6
CONTINUOUS
 62
               3
  5
373
 10
-502.99999999999966
 20
1.4999999999999147
 30
0.0
 11
-532.99999999999966
 21
1.4999999999999147
 31
0.0
  0
LINE
  8
0
  6
CONTINUOUS
 62
               3
  5
374
 10
-494.99999999999955
 20
-0.0000000000000711
 30
0.0
 11
-494.99999999999966
 21
-15.000000000000091
 31
0.0
  0
ARC
  8
0
  6
CONTINUOUS
 62
               3
  5
375
 10
-497.99999999999966
 20
-15.000000000000142
 30
0.0
 40
3.0000000000000004
 50
269.99999999999932
 51
359.99999999999915
  0
LINE
  8
0
  6
CONTINUOUS
 62
               3
  5
376
 10
-502.99999999999966
 20
1.4999999999999147
 30
0.0
 11
-502.49999999999989
 21
-0.0000000000000711
 31
0.0
  0
LINE
  8
0
  6
CONTINUOUS
 62
               3
  5
377
 10
-532.99999999999966
 20
1.4999999999999147
 30
0.0
 11
-534.49999999999977
 21
0.0
 31
0.0
  0
LINE
  8
0
  6
CONTINUOUS
 62
               3
  5
378
 10
-502.49999999999989
 20
-0.0000000000000711
 30
0.0
 11
-494.99999999999955
 21
-0.0000000000000711
 31
0.0
  0
ARC
  8
0
  6
CONTINUOUS
 62
               3
  5
379
 10
-510.00000000000011
 20
-161.50000000000003
 30
0.0
 40
2.5
 50
269.99999999999932
 51
449.99999999999898
  0
LINE
  8
0
  6
CONTINUOUS
 62
               3
  5
37A
 10
-534.49999999999977
 20
0.0
 30
0.0
 11
-665.49999999999977
 21
0.0000000000000711
 31
0.0
  0
ARC
  8
0
  6
CONTINUOUS
 62
               3
  5
37B
 10
-556.71598155428399
 20
-161.5
 30
0.0
 40
2.5
 50
89.999999999999773
 51
269.99999999999932
  0
LINE
  8
0
  6
CONTINUOUS
 62
               3
  5
37C
 10
-510.00000000000011
 20
-164.00000000000003
 30
0.0
 11
-556.71598155428399
 21
-164.0
 31
0.0
  0
LINE
  8
0
  6
CONTINUOUS
 62
               3
  5
37D
 10
-643.2840184457159
 20
-163.99999999999994
 30
0.0
 11
-689.99999999999932
 21
-163.99999999999991
 31
0.0
  0
LINE
  8
0
  6
CONTINUOUS
 62
               3
  5
37E
 10
-510.00000000000011
 20
-159.00000000000003
 30
0.0
 11
-556.71598155428399
 21
-159.0
 31
0.0
  0
LINE
  8
0
  6
CONTINUOUS
 62
               3
  5
37F
 10
-643.2840184457159
 20
-158.99999999999994
 30
0.0
 11
-689.99999999999932
 21
-158.99999999999991
 31
0.0
  0
ARC
  8
0
  6
CONTINUOUS
 62
               3
  5
380
 10
-643.2840184457159
 20
-161.49999999999994
 30
0.0
 40
2.5
 50
269.99999999999932
 51
449.99999999999898
  0
LINE
  8
0
  6
CONTINUOUS
 62
               3
  5
381
 10
-687.72128783396693
 20
-306.81231263320393
 30
0.0
 11
-673.27871216603296
 21
-433.5731724137313
 31
0.0
  0
ARC
  8
0
  6
CONTINUOUS
 62
               3
  5
382
 10
-689.99999999999932
 20
-161.49999999999991
 30
0.0
 40
2.5
 50
89.999999999999758
 51
269.99999999999932
  0
LINE
  8
0
  6
CONTINUOUS
 62
               3
  5
383
 10
-509.99999999999989
 20
-22.748926895829626
 30
0.0
 11
-509.99999999999989
 21
-159.00000000000003
 31
0.0
  0
LINE
  8
0
  6
CONTINUOUS
 62
               3
  5
384
 10
-498.01625636724066
 20
-18.000000000000043
 30
0.0
 11
-583.32666799946662
 21
-18.000000000000043
 31
0.0
  0
LINE
  8
0
  6
CONTINUOUS
 62
               3
  5
385
 10
-616.67333200053361
 20
-18.000000000000043
 30
0.0
 11
-701.99999999999989
 21
-18.000000000000043
 31
0.0
  0
LINE
  8
0
  6
CONTINUOUS
 62
               3
  5
386
 10
-690.48249763853107
 20
-304.66166388985465
 30
0.0
 11
-692.20092160477168
 21
-289.57925030681514
 31
0.0
  0
ARC
  8
0
  6
CONTINUOUS
 62
               3
  5
387
 10
-689.71699196558018
 20
-289.29624227239538
 30
0.0
 40
2.5
 50
96.499999999999787
 51
186.49999999999977
  0
ARC
  8
0
  6
CONTINUOUS
 62
               3
  5
388
 10
-688.00429586838686
 20
-304.32838299401232
 30
0.0
 40
2.5
 50
186.49999999999977
 51
276.5000000000008
  0
LINE
  8
0
  6
CONTINUOUS
 62
               3
  5
389
 10
-494.99999999999989
 20
25.707461181938456
 30
0.0
 11
-494.99999999999989
 21
9.9987816540381402
 31
0.0
  0
LINE
  8
0
  6
CONTINUOUS
 62
               3
  5
38A
 10
-704.99999999999977
 20
25.707461181938598
 30
0.0
 11
-704.99999999999977
 21
9.9987816540382823
 31
0.0
  0
ARC
  8
0
  6
CONTINUOUS
 62
               3
  5
38B
 10
-496.99999999999977
 20
9.9987816540381402
 30
0.0
 40
2.0
 50
271.99999999999892
 51
359.99999999999915
  0
ARC
  8
0
  6
CONTINUOUS
 62
               3
  5
38C
 10
-103.00000000000043
 20
25.707461181938456
 30
0.0
 40
2.0
 50
91.999999999998593
 51
179.99999999999963
  0
ARC
  8
0
  6
CONTINUOUS
 62
               3
  5
38D
 10
102.99999999999966
 20
25.707461181938598
 30
0.0
 40
2.0
 50
0.0000000000000334
 51
87.999999999999972
  0
ARC
  8
0
  6
CONTINUOUS
 62
               3
  5
38E
 10
-702.99999999999977
 20
9.9987816540382823
 30
0.0
 40
2.0
 50
179.99999999999957
 51
267.99999999999937
  0
LINE
  8
0
  6
CONTINUOUS
 62
               3
  5
38F
 10
-496.93020100659498
 20
7.9999999999999005
 30
0.0
 11
-703.06979899340467
 21
8.0000000000000426
 31
0.0
  0
LINE
  8
0
  6
CONTINUOUS
 62
               3
  5
390
 10
-103.06979899340536
 20
27.706242835976624
 30
0.0
 11
103.06979899340459
 21
27.706242835976838
 31
0.0
  0
LINE
  8
0
  6
CONTINUOUS
 62
               3
  5
391
 10
-499.49999999999977
 20
7.9999999999999005
 30
0.0
 11
-499.49999999999977
 21
-0.0000000000000711
 31
0.0
  0
LINE
  8
0
  6
CONTINUOUS
 62
               3
  5
392
 10
-700.49999999999977
 20
0.0000000000000711
 30
0.0
 11
-700.49999999999977
 21
8.0000000000000426
 31
0.0
  0
LINE
  8
0
  6
CONTINUOUS
 62
               3
  5
393
 10
-528.38166979475818
 20
-306.81231263320342
 30
0.0
 11
-687.72128783396693
 21
-306.81231263320393
 31
0.0
  0
ARC
  8
0
  6
CONTINUOUS
 62
               3
  5
394
 10
-701.99999999999989
 20
-15.000000000000071
 30
0.0
 40
3.0000000000000004
 50
179.99999999999957
 51
269.99999999999937
  0
LINE
  8
0
  6
CONTINUOUS
 62
               3
  5
395
 10
-510.00000000000011
 20
-286.81231263320467
 30
0.0
 11
-510.00000000000011
 21
-164.00000000000003
 31
0.0
  0
LINE
  8
0
  6
CONTINUOUS
 62
               3
  5
396
 10
-689.99999999999932
 20
-163.99999999999991
 30
0.0
 11
-690.0
 21
-286.81231263320262
 31
0.0
  0
LINE
  8
0
  6
CONTINUOUS
 62
               3
  5
397
 10
-90.000000000001009
 20
164.79756812677797
 30
0.0
 11
-90.000000000000881
 21
32.991094147964048
 31
0.0
  0
ARC
  8
0
  6
CONTINUOUS
 62
               3
  5
398
 10
-94.999999999997186
 20
32.991094147963835
 30
0.0
 40
5.0
 50
271.99999999999949
 51
359.99999999999926
  0
LINE
  8
0
  6
CONTINUOUS
 62
               3
  5
399
 10
89.999999999998991
 20
164.79756812677815
 30
0.0
 11
89.999999999999119
 21
32.99109414796412
 31
0.0
  0
ARC
  8
0
  6
CONTINUOUS
 62
               3
  5
39A
 10
95.000000000002956
 20
32.991094147963906
 30
0.0
 40
5.0
 50
179.99999999999963
 51
267.99999999999949
  0
LINE
  8
0
  6
CONTINUOUS
 62
               3
  5
39B
 10
-103.06979899340209
 20
27.706242835976269
 30
0.0
 11
-94.825502516484647
 21
27.994140012868414
 31
0.0
  0
LINE
  8
0
  6
CONTINUOUS
 62
               3
  5
39C
 10
103.06979899340786
 20
27.706242835976411
 30
0.0
 11
94.825502516490275
 21
27.994140012868485
 31
0.0
  0
ARC
  8
0
  6
CONTINUOUS
 62
               3
  5
39D
 10
-694.99999999999909
 20
-23.000000000000043
 30
0.0
 40
5.0
 50
359.99999999999915
 51
449.99999999999898
  0
LINE
  8
0
  6
CONTINUOUS
 62
               3
  5
39E
 10
-689.99999999999909
 20
-23.000000000000043
 30
0.0
 11
-689.99999999999909
 21
-158.99999999999991
 31
0.0
  0
CIRCLE
  8
0
  6
CONTINUOUS
 62
               3
  5
39F
 10
-600.00000000000011
 20
-86.499999999999915
 30
0.0
 40
60.999999999999879
  0
CIRCLE
  8
0
  6
CONTINUOUS
 62
               3
  5
3A0
 10
-600.00000000000011
 20
-86.499999999999915
 30
0.0
 40
59.799999999999862
  0
CIRCLE
  8
0
  6
CONTINUOUS
 62
               3
  5
3A1
 10
-600.00000000000011
 20
-86.499999999999915
 30
0.0
 40
55.499999999999865
  0
CIRCLE
  8
0
  6
CONTINUOUS
 62
               3
  5
3A2
 10
-600.00000000000011
 20
-86.499999999999915
 30
0.0
 40
51.249999999999865
  0
ARC
  8
0
  6
CONTINUOUS
 62
               3
  5
3A3
 10
-600.00000000000011
 20
-86.499999999999915
 30
0.0
 40
57.499999999999865
 50
224.99999999999949
 51
314.99999999999932
  0
LINE
  8
0
  6
CONTINUOUS
 62
               3
  5
3A4
 10
-640.65863991822653
 20
-127.1586399182263
 30
0.0
 11
-642.28498551495568
 21
-128.78498551495537
 31
0.0
  0
LINE
  8
0
  6
CONTINUOUS
 62
               3
  5
3A5
 10
-559.3413600817737
 20
-127.1586399182263
 30
0.0
 11
-557.71501448504466
 21
-128.78498551495537
 31
0.0
  0
CIRCLE
  8
0
  6
CONTINUOUS
 62
               3
  5
3A6
 10
-600.00000000000011
 20
-86.499999999999915
 30
0.0
 40
70.5
  0
LINE
  8
0
  6
CONTINUOUS
 62
               3
  5
3A7
 10
-510.00000000000011
 20
-286.8123126332041
 30
0.0
 11
-512.68029754899499
 21
-286.8123126332041
 31
0.0
  0
LINE
  8
0
  6
CONTINUOUS
 62
               3
  5
3A8
 10
-536.47643152015075
 20
-286.81231263320421
 30
0.0
 11
-689.99999999999989
 21
-286.81231263320393
 31
0.0
  0
LINE
  8
0
  6
CONTINUOUS
 62
               3
  5
3A9
 10
-510.00000000000011
 20
-286.8123126332045
 30
0.0
 11
-512.1952172044289
 21
-306.07948676033868
 31
0.0
  0
LINE
  8
0
  6
CONTINUOUS
 62
               3
  5
3AA
 10
-516.17851711993058
 20
-341.04046142732727
 30
0.0
 11
-526.72128783396704
 21
-433.57317241373141
 31
0.0
  0
ARC
  8
0
  6
CONTINUOUS
 62
               3
  5
3AB
 10
497.00000000000057
 20
25.707461181938243
 30
0.0
 40
2.0
 50
91.999999999998522
 51
179.99999999999957
  0
ARC
  8
0
  6
CONTINUOUS
 62
               3
  5
3AC
 10
703.0000000000008
 20
25.7074611819381
 30
0.0
 40
2.0
 50
359.99999999999915
 51
447.99999999999915
  0
LINE
  8
0
  6
CONTINUOUS
 62
               3
  5
3AD
 10
496.93020100659567
 20
27.706242835976411
 30
0.0
 11
703.06979899340581
 21
27.706242835976411
 31
0.0
  0
LINE
  8
0
  6
CONTINUOUS
 62
               3
  5
3AE
 10
697.00000000000034
 20
1.4999999999996305
 30
0.0
 11
667.00000000000034
 21
1.4999999999996305
 31
0.0
  0
LINE
  8
0
  6
CONTINUOUS
 62
               3
  5
3AF
 10
705.00000000000057
 20
-0.0000000000002842
 30
0.0
 11
705.00000000000045
 21
-15.000000000000426
 31
0.0
  0
ARC
  8
0
  6
CONTINUOUS
 62
               3
  5
3B0
 10
498.00000000000023
 20
-15.000000000000426
 30
0.0
 40
3.0000000000000004
 50
179.99999999999957
 51
269.99999999999937
  0
ARC
  8
0
  6
CONTINUOUS
 62
               3
  5
3B1
 10
505.26732947141181
 20
-22.748926895829982
 30
0.0
 40
4.7489268958295181
 50
359.99999999999915
 51
449.99999999999898
  0
LINE
  8
0
  6
CONTINUOUS
 62
               3
  5
3B2
 10
697.00000000000034
 20
1.4999999999996305
 30
0.0
 11
697.50000000000023
 21
-0.0000000000002842
 31
0.0
  0
LINE
  8
0
  6
CONTINUOUS
 62
               3
  5
3B3
 10
667.00000000000034
 20
1.4999999999996305
 30
0.0
 11
665.50000000000045
 21
-0.0000000000002842
 31
0.0
  0
LINE
  8
0
  6
CONTINUOUS
 62
               3
  5
3B4
 10
697.50000000000023
 20
-0.0000000000002842
 30
0.0
 11
705.00000000000057
 21
-0.0000000000002842
 31
0.0
  0
LINE
  8
0
  6
CONTINUOUS
 62
               3
  5
3B5
 10
503.00000000000011
 20
1.4999999999996305
 30
0.0
 11
533.00000000000011
 21
1.4999999999996305
 31
0.0
  0
LINE
  8
0
  6
CONTINUOUS
 62
               3
  5
3B6
 10
495.0
 20
-0.0000000000004263
 30
0.0
 11
495.00000000000006
 21
-15.000000000000435
 31
0.0
  0
LINE
  8
0
  6
CONTINUOUS
 62
               3
  5
3B7
 10
503.00000000000011
 20
1.4999999999996305
 30
0.0
 11
502.50000000000028
 21
-0.0000000000004263
 31
0.0
  0
LINE
  8
0
  6
CONTINUOUS
 62
               3
  5
3B8
 10
533.00000000000011
 20
1.4999999999996305
 30
0.0
 11
534.50000000000023
 21
-0.0000000000002842
 31
0.0
  0
LINE
  8
0
  6
CONTINUOUS
 62
               3
  5
3B9
 10
502.50000000000028
 20
-0.0000000000004263
 30
0.0
 11
495.0
 21
-0.0000000000004263
 31
0.0
  0
LINE
  8
0
  6
CONTINUOUS
 62
               3
  5
3BA
 10
534.50000000000023
 20
-0.0000000000002842
 30
0.0
 11
665.50000000000045
 21
-0.0000000000002842
 31
0.0
  0
LINE
  8
0
  6
CONTINUOUS
 62
               3
  5
3BB
 10
600.00000000000023
 20
-164.00000000000031
 30
0.0
 11
689.99999999999977
 21
-164.00000000000031
 31
0.0
  0
LINE
  8
0
  6
CONTINUOUS
 62
               3
  5
3BC
 10
600.00000000000023
 20
-159.00000000000031
 30
0.0
 11
689.99999999999977
 21
-159.00000000000031
 31
0.0
  0
LINE
  8
0
  6
CONTINUOUS
 62
               3
  5
3BD
 10
687.72128783396727
 20
-306.81231263320433
 30
0.0
 11
673.2787121660333
 21
-433.57317241373164
 31
0.0
  0
ARC
  8
0
  6
CONTINUOUS
 62
               3
  5
3BE
 10
689.99999999999977
 20
-161.50000000000031
 30
0.0
 40
2.5
 50
269.99999999999937
 51
449.99999999999898
  0
LINE
  8
0
  6
CONTINUOUS
 62
               3
  5
3BF
 10
498.01625636724111
 20
-18.000000000000398
 30
0.0
 11
600.00000000000023
 21
-18.000000000000316
 31
0.0
  0
LINE
  8
0
  6
CONTINUOUS
 62
               3
  5
3C0
 10
600.00000000000023
 20
-18.000000000000231
 30
0.0
 11
702.00000000000034
 21
-18.000000000000398
 31
0.0
  0
LINE
  8
0
  6
CONTINUOUS
 62
               3
  5
3C1
 10
495.00000000000028
 20
25.7074611819381
 30
0.0
 11
495.00000000000028
 21
9.998781654037856
 31
0.0
  0
LINE
  8
0
  6
CONTINUOUS
 62
               3
  5
3C2
 10
705.00000000000023
 20
25.707461181938243
 30
0.0
 11
705.00000000000023
 21
9.998781654037856
 31
0.0
  0
ARC
  8
0
  6
CONTINUOUS
 62
               3
  5
3C3
 10
497.00000000000017
 20
9.998781654037856
 30
0.0
 40
2.0
 50
179.9999999999996
 51
267.99999999999983
  0
ARC
  8
0
  6
CONTINUOUS
 62
               3
  5
3C4
 10
703.00000000000045
 20
9.998781654037856
 30
0.0
 40
2.0
 50
271.99999999999937
 51
359.9999999999992
  0
LINE
  8
0
  6
CONTINUOUS
 62
               3
  5
3C5
 10
496.93020100659538
 20
7.9999999999995453
 30
0.0
 11
703.06979899340513
 21
7.9999999999996874
 31
0.0
  0
LINE
  8
0
  6
CONTINUOUS
 62
               3
  5
3C6
 10
499.50000000000017
 20
7.9999999999995453
 30
0.0
 11
499.50000000000017
 21
-0.0000000000004263
 31
0.0
  0
LINE
  8
0
  6
CONTINUOUS
 62
               3
  5
3C7
 10
700.50000000000045
 20
-0.0000000000002842
 30
0.0
 11
700.50000000000045
 21
7.9999999999996874
 31
0.0
  0
ARC
  8
0
  6
CONTINUOUS
 62
               3
  5
3C8
 10
702.00000000000045
 20
-15.000000000000426
 30
0.0
 40
3.0000000000000004
 50
269.99999999999932
 51
359.99999999999915
  0
LINE
  8
0
  6
CONTINUOUS
 62
               3
  5
3C9
 10
510.00000000000045
 20
-286.81231263320501
 30
0.0
 11
510.00000000000045
 21
-164.00000000000028
 31
0.0
  0
LINE
  8
0
  6
CONTINUOUS
 62
               3
  5
3CA
 10
689.99999999999977
 20
-164.00000000000031
 30
0.0
 11
690.00000000000023
 21
-286.81231263320302
 31
0.0
  0
ARC
  8
0
  6
CONTINUOUS
 62
               3
  5
3CB
 10
694.99999999999955
 20
-23.000000000000398
 30
0.0
 40
5.0
 50
89.999999999999801
 51
179.9999999999996
  0
LINE
  8
0
  6
CONTINUOUS
 62
               3
  5
3CC
 10
689.99999999999955
 20
-23.000000000000398
 30
0.0
 11
689.99999999999955
 21
-159.00000000000031
 31
0.0
  0
LINE
  8
0
  6
CONTINUOUS
 62
               3
  5
3CD
 10
516.1785171199308
 20
-341.04046142732761
 30
0.0
 11
526.72128783396727
 21
-433.57317241373164
 31
0.0
  0
LINE
  8
0
  6
CONTINUOUS
 62
               3
  5
3CE
 10
690.48249763853153
 20
-304.66166388985505
 30
0.0
 11
692.20092160477202
 21
-289.5792503068156
 31
0.0
  0
ARC
  8
0
  6
CONTINUOUS
 62
               3
  5
3CF
 10
689.71699196558063
 20
-289.29624227239577
 30
0.0
 40
2.5
 50
353.49999999999898
 51
443.49999999999903
  0
ARC
  8
0
  6
CONTINUOUS
 62
               3
  5
3D0
 10
688.00429586838732
 20
-304.32838299401277
 30
0.0
 40
2.5
 50
263.49999999999801
 51
353.49999999999898
  0
LINE
  8
0
  6
CONTINUOUS
 62
               3
  5
3D1
 10
524.55367319359993
 20
-306.81231263320444
 30
0.0
 11
687.72128783396738
 21
-306.81231263320433
 31
0.0
  0
LINE
  8
0
  6
CONTINUOUS
 62
               3
  5
3D2
 10
510.00000000000057
 20
-286.81231263320444
 30
0.0
 11
690.00000000000023
 21
-286.81231263320433
 31
0.0
  0
LINE
  8
0
  6
CONTINUOUS
 62
               3
  5
3D3
 10
510.00000000000057
 20
-286.81231263320501
 30
0.0
 11
510.20094803717893
 21
-288.57601092010458
 31
0.0
  0
ARC
  8
0
  6
CONTINUOUS
 62
               3
  5
3D4
 10
94.999999999998977
 20
-23.000000000000043
 30
0.0
 40
5.0
 50
89.999999999999844
 51
179.99999999999963
  0
LINE
  8
0
  6
CONTINUOUS
 62
               3
  5
3D5
 10
89.999999999998977
 20
-23.000000000000043
 30
0.0
 11
89.999999999998977
 21
-32.392189970030998
 31
0.0
  0
LINE
  8
0
  6
CONTINUOUS
 62
               3
  5
3D6
 10
97.034899496701996
 20
-115.53370205221277
 30
0.0
 11
94.82550251648729
 21
-115.61085589487419
 31
0.0
  0
ARC
  8
0
  6
CONTINUOUS
 62
               3
  5
3D7
 10
95.0
 20
-120.60781002996968
 30
0.0
 40
5.0
 50
91.99999999999946
 51
179.99999999999955
  0
LINE
  8
0
  6
CONTINUOUS
 62
               3
  5
3D8
 10
97.034899496701883
 20
-37.466297947787766
 30
0.0
 11
94.825502516487632
 21
-37.389144105126491
 31
0.0
  0
ARC
  8
0
  6
CONTINUOUS
 62
               3
  5
3D9
 10
95.000000000000114
 20
-32.392189970030998
 30
0.0
 40
5.0
 50
179.99999999999955
 51
267.9999999999996
  0
LINE
  8
0
  6
CONTINUOUS
 62
               3
  5
3DA
 10
97.999999999999545
 20
-114.53431122519369
 30
0.0
 11
97.999999999999545
 21
-38.46568877480685
 31
0.0
  0
ARC
  8
0
  6
CONTINUOUS
 62
               3
  5
3DB
 10
96.999999999999659
 20
-114.53431122519369
 30
0.0
 40
1.0
 50
271.99999999999329
 51
359.99999999999926
  0
ARC
  8
0
  6
CONTINUOUS
 62
               3
  5
3DC
 10
96.999999999999659
 20
-38.46568877480685
 30
0.0
 40
1.0
 50
0.0000000000000334
 51
88.000000000014111
  0
LINE
  8
0
  6
CONTINUOUS
 62
               3
  5
3DD
 10
89.999999999998977
 20
-120.60781002996968
 30
0.0
 11
89.999999999999204
 21
-158.99999999999991
 31
0.0
  0
ARC
  8
0
  6
CONTINUOUS
 62
               3
  5
3DE
 10
89.999999999999204
 20
-161.49999999999991
 30
0.0
 40
2.5
 50
269.99999999999943
 51
449.99999999999903
  0
ARC
  8
0
  6
CONTINUOUS
 62
               3
  5
3DF
 10
101.99999999999977
 20
-15.000000000000071
 30
0.0
 40
3.0000000000000004
 50
269.99999999999937
 51
359.99999999999926
  0
LINE
  8
0
  6
CONTINUOUS
 62
               3
  5
3E0
 10
600.00000000000023
 20
-164.00000000000034
 30
0.0
 11
510.00000000000102
 21
-164.00000000000028
 31
0.0
  0
LINE
  8
0
  6
CONTINUOUS
 62
               3
  5
3E1
 10
600.00000000000023
 20
-159.00000000000034
 30
0.0
 11
510.00000000000102
 21
-159.00000000000028
 31
0.0
  0
ARC
  8
0
  6
CONTINUOUS
 62
               3
  5
3E2
 10
510.00000000000102
 20
-161.50000000000028
 30
0.0
 40
2.5
 50
89.999999999999758
 51
269.99999999999932
  0
LINE
  8
0
  6
CONTINUOUS
 62
               3
  5
3E3
 10
510.00000000000136
 20
-23.000000000000373
 30
0.0
 11
510.00000000000125
 21
-159.00000000000028
 31
0.0
  0
CIRCLE
  8
0
  6
CONTINUOUS
 62
               3
  5
3E4
 10
600.0
 20
-76.500000000000682
 30
0.0
 40
39.0
  0
CIRCLE
  8
0
  6
CONTINUOUS
 62
               3
  5
3E5
 10
0.0000000000003553
 20
702.75037412590609
 30
0.0
 40
52.5
  0
LINE
  8
0
  6
CONTINUOUS
 62
               3
  5
3E6
 10
86.210498200624812
 20
682.75037412590609
 30
0.0
 11
72.284161474004478
 21
682.75037412590609
 31
0.0
  0
LINE
  8
0
  6
CONTINUOUS
 62
               3
  5
3E7
 10
72.284161474004478
 20
722.75037412590609
 30
0.0
 11
86.210498200624812
 21
722.75037412590609
 31
0.0
  0
ARC
  8
0
  6
CONTINUOUS
 62
               3
  5
3E8
 10
0.0000000000003553
 20
702.75037412590609
 30
0.0
 40
88.5
 50
346.93897588519866
 51
373.06102411479969
  0
LINE
  8
0
  6
CONTINUOUS
 62
               3
  5
3E9
 10
-86.210498200624983
 20
722.75037412590609
 30
0.0
 11
-72.284161474005117
 21
722.75037412590609
 31
0.0
  0
ARC
  8
0
  6
CONTINUOUS
 62
               3
  5
3EA
 10
0.0000000000003553
 20
702.75037412590609
 30
0.0
 40
88.5
 50
166.93897588519908
 51
193.06102411480012
  0
LINE
  8
0
  6
CONTINUOUS
 62
               3
  5
3EB
 10
-72.284161474005117
 20
682.75037412590609
 30
0.0
 11
-86.210498200624983
 21
682.75037412590609
 31
0.0
  0
LINE
  8
0
  6
CONTINUOUS
 62
               3
  5
3EC
 10
20.000000000000355
 20
788.96087232653167
 30
0.0
 11
20.000000000000355
 21
775.0345355999109
 31
0.0
  0
ARC
  8
0
  6
CONTINUOUS
 62
               3
  5
3ED
 10
0.0000000000003553
 20
702.75037412590609
 30
0.0
 40
88.5
 50
76.938975885199284
 51
103.06102411480033
  0
LINE
  8
0
  6
CONTINUOUS
 62
               3
  5
3EE
 10
-19.999999999999638
 20
775.0345355999109
 30
0.0
 11
-19.999999999999638
 21
788.96087232653167
 31
0.0
  0
LINE
  8
0
  6
CONTINUOUS
 62
               3
  5
3EF
 10
-19.999999999999638
 20
616.53987592528119
 30
0.0
 11
-19.999999999999638
 21
630.46621265190106
 31
0.0
  0
ARC
  8
0
  6
CONTINUOUS
 62
               3
  5
3F0
 10
0.0000000000003553
 20
702.75037412590609
 30
0.0
 40
88.5
 50
256.93897588519889
 51
283.06102411479992
  0
LINE
  8
0
  6
CONTINUOUS
 62
               3
  5
3F1
 10
20.000000000000355
 20
630.46621265190106
 30
0.0
 11
20.000000000000355
 21
616.53987592528119
 31
0.0
  0
CIRCLE
  8
0
  6
CONTINUOUS
 62
               3
  5
3F2
 10
0.0000000000003553
 20
702.75037412590609
 30
0.0
 40
75.0
  0
CIRCLE
  8
0
  6
CONTINUOUS
 62
               3
  5
3F3
 10
0.0000000000001422
 20
702.75037412590598
 30
0.0
 40
59.0
  0
LINE
  8
0
  6
CONTINUOUS
 62
               3
  5
3F4
 10
-71.000000000000014
 20
-453.57317241373073
 30
0.0
 11
70.999999999999943
 21
-453.57317241373204
 31
0.0
  0
LINE
  8
0
  6
CONTINUOUS
 62
               3
  5
3F5
 10
-73.278712166032776
 20
-433.5731724137313
 30
0.0
 11
73.278712166032989
 21
-433.5731724137313
 31
0.0
  0
LINE
  8
0
  6
CONTINUOUS
 62
               3
  5
3F6
 10
73.761209804564061
 20
-451.42252367038287
 30
0.0
 11
75.479633770804639
 21
-436.34011008734342
 31
0.0
  0
ARC
  8
0
  6
CONTINUOUS
 62
               3
  5
3F7
 10
72.995704131613195
 20
-436.0571020529236
 30
0.0
 40
2.5
 50
353.49999999999898
 51
443.49999999999903
  0
ARC
  8
0
  6
CONTINUOUS
 62
               3
  5
3F8
 10
71.283008034419879
 20
-451.08924277454059
 30
0.0
 40
2.5
 50
263.49999999999801
 51
353.49999999999898
  0
LINE
  8
0
  6
CONTINUOUS
 62
               3
  5
3F9
 10
-73.76120980456399
 20
-451.42252367038287
 30
0.0
 11
-75.479633770804568
 21
-436.34011008734342
 31
0.0
  0
ARC
  8
0
  6
CONTINUOUS
 62
               3
  5
3FA
 10
-72.995704131613053
 20
-436.0571020529236
 30
0.0
 40
2.5
 50
96.499999999999815
 51
186.4999999999998
  0
ARC
  8
0
  6
CONTINUOUS
 62
               3
  5
3FB
 10
-71.283008034419737
 20
-451.08924277454059
 30
0.0
 40
2.5
 50
186.4999999999998
 51
276.5000000000008
  0
LINE
  8
0
  6
CONTINUOUS
 62
               3
  5
3FC
 10
-70.999999999999659
 20
-453.5731724137321
 30
0.0
 11
-70.999999999999801
 21
-506.28645844336251
 31
0.0
  0
LINE
  8
0
  6
CONTINUOUS
 62
               3
  5
3FD
 10
70.999999999999943
 20
-453.5731724137321
 30
0.0
 11
70.999999999999943
 21
-506.28645844336251
 31
0.0
  0
LINE
  8
0
  6
CONTINUOUS
 62
               3
  5
3FE
 10
-76.499999999999858
 20
250.5266586437952
 30
0.0
 11
-76.500000000001734
 21
272.99999999999994
 31
0.0
  0
LINE
  8
0
  6
CONTINUOUS
 62
               3
  5
3FF
 10
76.499999999999901
 20
250.52665864379532
 30
0.0
 11
76.499999999999901
 21
272.99999999999994
 31
0.0
  0
LINE
  8
0
  6
CONTINUOUS
 62
               3
  5
400
 10
-71.999999999999972
 20
245.52970450869958
 30
0.0
 11
-71.999999999999972
 21
185.29756812677789
 31
0.0
  0
ARC
  8
0
  6
CONTINUOUS
 62
               3
  5
401
 10
-76.999999999999972
 20
245.52970450869958
 30
0.0
 40
5.0
 50
0.0000000000000334
 51
87.999999999999858
  0
LINE
  8
0
  6
CONTINUOUS
 62
               3
  5
402
 10
72.000000000000156
 20
245.9594038938157
 30
0.0
 11
72.000000000000156
 21
185.29756812677789
 31
0.0
  0
LINE
  8
0
  6
CONTINUOUS
 62
               3
  5
403
 10
-88.499999999999915
 20
250.93434107934883
 30
0.0
 11
-88.499999999999915
 21
257.93434107934848
 31
0.0
  0
LINE
  8
0
  6
CONTINUOUS
 62
               3
  5
404
 10
-88.499999999999744
 20
250.93434107934883
 30
0.0
 11
-76.825502516487603
 21
250.52665864379497
 31
0.0
  0
ARC
  8
0
  6
CONTINUOUS
 62
               3
  5
405
 10
77.000000000000014
 20
245.52970450869969
 30
0.0
 40
5.0
 50
91.999999999999815
 51
179.99999999999963
  0
LINE
  8
0
  6
CONTINUOUS
 62
               3
  5
406
 10
88.499999999999915
 20
250.93434107934894
 30
0.0
 11
88.499999999999915
 21
257.93434107934871
 31
0.0
  0
LINE
  8
0
  6
CONTINUOUS
 62
               3
  5
407
 10
88.499999999999773
 20
250.93434107934894
 30
0.0
 11
76.825502516487475
 21
250.5266586437952
 31
0.0
  0
LINE
  8
0
  6
CONTINUOUS
 62
               3
  5
408
 10
-69.500000000001023
 20
185.29756812677789
 30
0.0
 11
-11.727000000000089
 21
185.29756812677789
 31
0.0
  0
LINE
  8
0
  6
CONTINUOUS
 62
               3
  5
409
 10
11.726999999999322
 20
185.29756812677789
 30
0.0
 11
69.499999999998977
 21
185.29756812677789
 31
0.0
  0
ARC
  8
0
  6
CONTINUOUS
 62
               3
  5
40A
 10
-69.500000000001023
 20
164.797568126778
 30
0.0
 40
20.5
 50
89.999999999999801
 51
179.9999999999996
  0
ARC
  8
0
  6
CONTINUOUS
 62
               3
  5
40B
 10
69.499999999998977
 20
164.79756812677812
 30
0.0
 40
20.5
 50
0.0
 51
89.999999999999801
  0
LINE
  8
0
  6
CONTINUOUS
 62
               3
  5
40C
 10
-669.50000000000114
 20
185.297568126778
 30
0.0
 11
-530.49999999999852
 21
185.297568126778
 31
0.0
  0
LINE
  8
0
  6
CONTINUOUS
 62
               3
  5
40D
 10
-676.5
 20
250.5266586437952
 30
0.0
 11
-676.50000000000171
 21
272.99999999999994
 31
0.0
  0
LINE
  8
0
  6
CONTINUOUS
 62
               3
  5
40E
 10
-523.50000000000011
 20
250.52665864379532
 30
0.0
 11
-523.50000000000011
 21
272.99999999999994
 31
0.0
  0
ARC
  8
0
  6
CONTINUOUS
 62
               3
  5
40F
 10
-677.00000000000011
 20
245.52970450869969
 30
0.0
 40
5.0
 50
0.0000000000000334
 51
87.999999999999858
  0
LINE
  8
0
  6
CONTINUOUS
 62
               3
  5
410
 10
-688.49999999999989
 20
250.93434107934883
 30
0.0
 11
-688.49999999999989
 21
257.9343410793486
 31
0.0
  0
LINE
  8
0
  6
CONTINUOUS
 62
               3
  5
411
 10
-688.49999999999989
 20
250.93434107934883
 30
0.0
 11
-676.82550251648752
 21
250.52665864379509
 31
0.0
  0
ARC
  8
0
  6
CONTINUOUS
 62
               3
  5
412
 10
-523.00000000000011
 20
245.52970450869969
 30
0.0
 40
5.0
 50
91.999999999999815
 51
179.99999999999963
  0
LINE
  8
0
  6
CONTINUOUS
 62
               3
  5
413
 10
-511.50000000000011
 20
250.93434107934894
 30
0.0
 11
-511.50000000000011
 21
257.93434107934871
 31
0.0
  0
LINE
  8
0
  6
CONTINUOUS
 62
               3
  5
414
 10
-511.50000000000034
 20
250.93434107934894
 30
0.0
 11
-523.1744974835126
 21
250.5266586437952
 31
0.0
  0
LINE
  8
0
  6
CONTINUOUS
 62
               3
  5
415
 10
-527.99999999999989
 20
245.95940389381582
 30
0.0
 11
-527.99999999999989
 21
185.14455807615394
 31
0.0
  0
LINE
  8
0
  6
CONTINUOUS
 62
               3
  5
416
 10
-672.00000000000011
 20
245.52970450869969
 30
0.0
 11
-672.00000000000011
 21
185.14455807615383
 31
0.0
  0
ARC
  8
0
  6
CONTINUOUS
 62
               3
  5
417
 10
-669.50000000000114
 20
164.797568126778
 30
0.0
 40
20.5
 50
89.999999999999801
 51
179.9999999999996
  0
ARC
  8
0
  6
CONTINUOUS
 62
               3
  5
418
 10
-530.49999999999852
 20
164.797568126778
 30
0.0
 40
20.5
 50
359.99999999999915
 51
449.99999999999898
  0
LINE
  8
0
  6
CONTINUOUS
 62
               3
  5
419
 10
530.49999999999932
 20
185.29756812677769
 30
0.0
 11
669.50000000000193
 21
185.29756812677769
 31
0.0
  0
LINE
  8
0
  6
CONTINUOUS
 62
               3
  5
41A
 10
523.50000000000045
 20
250.52665864379489
 30
0.0
 11
523.49999999999875
 21
272.9999999999996
 31
0.0
  0
LINE
  8
0
  6
CONTINUOUS
 62
               3
  5
41B
 10
676.50000000000034
 20
250.526658643795
 30
0.0
 11
676.50000000000034
 21
272.9999999999996
 31
0.0
  0
ARC
  8
0
  6
CONTINUOUS
 62
               3
  5
41C
 10
523.00000000000034
 20
245.52970450869938
 30
0.0
 40
5.0
 50
0.0000000000000334
 51
87.999999999999858
  0
LINE
  8
0
  6
CONTINUOUS
 62
               3
  5
41D
 10
511.50000000000057
 20
250.93434107934851
 30
0.0
 11
511.50000000000057
 21
257.93434107934826
 31
0.0
  0
LINE
  8
0
  6
CONTINUOUS
 62
               3
  5
41E
 10
511.50000000000057
 20
250.93434107934851
 30
0.0
 11
523.17449748351294
 21
250.52665864379478
 31
0.0
  0
ARC
  8
0
  6
CONTINUOUS
 62
               3
  5
41F
 10
677.00000000000034
 20
245.52970450869938
 30
0.0
 40
5.0
 50
91.999999999999815
 51
179.99999999999963
  0
LINE
  8
0
  6
CONTINUOUS
 62
               3
  5
420
 10
688.50000000000034
 20
250.93434107934863
 30
0.0
 11
688.50000000000034
 21
257.93434107934837
 31
0.0
  0
LINE
  8
0
  6
CONTINUOUS
 62
               3
  5
421
 10
688.50000000000011
 20
250.93434107934863
 30
0.0
 11
676.82550251648786
 21
250.52665864379489
 31
0.0
  0
LINE
  8
0
  6
CONTINUOUS
 62
               3
  5
422
 10
672.00000000000057
 20
245.95940389381551
 30
0.0
 11
672.00000000000057
 21
185.14455807615363
 31
0.0
  0
LINE
  8
0
  6
CONTINUOUS
 62
               3
  5
423
 10
528.00000000000034
 20
245.52970450869938
 30
0.0
 11
528.00000000000034
 21
185.14455807615352
 31
0.0
  0
ARC
  8
0
  6
CONTINUOUS
 62
               3
  5
424
 10
530.49999999999932
 20
164.79756812677769
 30
0.0
 40
20.5
 50
89.999999999999801
 51
179.9999999999996
  0
ARC
  8
0
  6
CONTINUOUS
 62
               3
  5
425
 10
669.50000000000193
 20
164.79756812677769
 30
0.0
 40
20.5
 50
359.99999999999915
 51
449.99999999999898
  0
LINE
  8
0
  6
CONTINUOUS
 62
               3
  5
426
 10
-55.0
 20
-642.0
 30
0.0
 11
55.000000000000007
 21
-642.0
 31
0.0
  0
LINE
  8
0
  6
CONTINUOUS
 62
               3
  5
427
 10
57.000000000000036
 20
-639.99999999999977
 30
0.0
 11
57.000000000000036
 21
-542.0
 31
0.0
  0
LINE
  8
0
  6
CONTINUOUS
 62
               3
  5
428
 10
-56.999999999999943
 20
-639.99999999999977
 30
0.0
 11
-56.999999999999943
 21
-542.0
 31
0.0
  0
LINE
  8
0
  6
CONTINUOUS
 62
               3
  5
429
 10
57.000000000000036
 20
-542.0
 30
0.0
 11
58.053042823173449
 21
-540.94695717682634
 31
0.0
  0
LINE
  8
0
  6
CONTINUOUS
 62
               3
  5
42A
 10
-56.999999999999943
 20
-542.0
 30
0.0
 11
-58.053042823173229
 21
-540.94695717682646
 31
0.0
  0
LINE
  8
0
  6
CONTINUOUS
 62
               3
  5
42B
 10
-55.0
 20
-642.0
 30
0.0
 11
-56.999999999999943
 21
-639.99999999999977
 31
0.0
  0
LINE
  8
0
  6
CONTINUOUS
 62
               3
  5
42C
 10
55.000000000000007
 20
-642.0
 30
0.0
 11
57.000000000000036
 21
-639.99999999999977
 31
0.0
  0
LINE
  8
0
  6
CONTINUOUS
 62
               3
  5
42D
 10
58.053042823173413
 20
-540.94695717682646
 30
0.0
 11
58.053042823173413
 21
-536.88369644619434
 31
0.0
  0
ARC
  8
0
  6
CONTINUOUS
 62
               3
  5
42E
 10
68.053042823173413
 20
-536.88369644619434
 30
0.0
 40
10.0
 50
149.99999999999974
 51
179.9999999999996
  0
LINE
  8
0
  6
CONTINUOUS
 62
               3
  5
42F
 10
-58.053042823173335
 20
-540.94695717682646
 30
0.0
 11
-58.053042823173335
 21
-536.88369644619434
 31
0.0
  0
ARC
  8
0
  6
CONTINUOUS
 62
               3
  5
430
 10
-68.053042823173328
 20
-536.88369644619434
 30
0.0
 40
10.0
 50
359.99999999999915
 51
389.99999999999903
  0
LINE
  8
0
  6
CONTINUOUS
 62
               3
  5
431
 10
-671.00000000000011
 20
-453.57317241373067
 30
0.0
 11
-529.00000000000023
 21
-453.57317241373198
 31
0.0
  0
LINE
  8
0
  6
CONTINUOUS
 62
               3
  5
432
 10
-673.27871216603285
 20
-433.57317241373124
 30
0.0
 11
-526.72128783396715
 21
-433.57317241373124
 31
0.0
  0
LINE
  8
0
  6
CONTINUOUS
 62
               3
  5
433
 10
-526.23879019543608
 20
-451.42252367038282
 30
0.0
 11
-524.52036622919547
 21
-436.34011008734336
 31
0.0
  0
ARC
  8
0
  6
CONTINUOUS
 62
               3
  5
434
 10
-527.00429586838686
 20
-436.05710205292354
 30
0.0
 40
2.5
 50
353.49999999999898
 51
443.49999999999903
  0
ARC
  8
0
  6
CONTINUOUS
 62
               3
  5
435
 10
-528.71699196558029
 20
-451.08924277454054
 30
0.0
 40
2.5
 50
263.49999999999801
 51
353.49999999999898
  0
LINE
  8
0
  6
CONTINUOUS
 62
               3
  5
436
 10
-673.76120980456415
 20
-451.42252367038282
 30
0.0
 11
-675.47963377080464
 21
-436.34011008734336
 31
0.0
  0
ARC
  8
0
  6
CONTINUOUS
 62
               3
  5
437
 10
-672.99570413161314
 20
-436.05710205292354
 30
0.0
 40
2.5
 50
96.499999999999815
 51
186.4999999999998
  0
ARC
  8
0
  6
CONTINUOUS
 62
               3
  5
438
 10
-671.28300803441982
 20
-451.08924277454054
 30
0.0
 40
2.5
 50
186.4999999999998
 51
276.5000000000008
  0
LINE
  8
0
  6
CONTINUOUS
 62
               3
  5
439
 10
-670.99999999999977
 20
-453.57317241373204
 30
0.0
 11
-670.99999999999989
 21
-506.28645844336245
 31
0.0
  0
LINE
  8
0
  6
CONTINUOUS
 62
               3
  5
43A
 10
-529.00000000000023
 20
-453.57317241373204
 30
0.0
 11
-529.00000000000023
 21
-506.28645844336245
 31
0.0
  0
LINE
  8
0
  6
CONTINUOUS
 62
               3
  5
43B
 10
-655.00000000000011
 20
-642.0
 30
0.0
 11
-545.00000000000011
 21
-642.0
 31
0.0
  0
LINE
  8
0
  6
CONTINUOUS
 62
               3
  5
43C
 10
-543.00000000000011
 20
-639.99999999999977
 30
0.0
 11
-543.00000000000011
 21
-542.0
 31
0.0
  0
LINE
  8
0
  6
CONTINUOUS
 62
               3
  5
43D
 10
-657.0
 20
-639.99999999999977
 30
0.0
 11
-657.0
 21
-542.0
 31
0.0
  0
LINE
  8
0
  6
CONTINUOUS
 62
               3
  5
43E
 10
-543.00000000000011
 20
-542.0
 30
0.0
 11
-541.94695717682669
 21
-540.94695717682634
 31
0.0
  0
LINE
  8
0
  6
CONTINUOUS
 62
               3
  5
43F
 10
-657.0
 20
-542.0
 30
0.0
 11
-658.05304282317331
 21
-540.94695717682646
 31
0.0
  0
LINE
  8
0
  6
CONTINUOUS
 62
               3
  5
440
 10
-655.00000000000011
 20
-642.0
 30
0.0
 11
-657.0
 21
-639.99999999999977
 31
0.0
  0
LINE
  8
0
  6
CONTINUOUS
 62
               3
  5
441
 10
-545.00000000000011
 20
-642.0
 30
0.0
 11
-543.00000000000011
 21
-639.99999999999977
 31
0.0
  0
LINE
  8
0
  6
CONTINUOUS
 62
               3
  5
442
 10
-541.94695717682669
 20
-540.94695717682646
 30
0.0
 11
-541.94695717682669
 21
-536.88369644619434
 31
0.0
  0
ARC
  8
0
  6
CONTINUOUS
 62
               3
  5
443
 10
-531.94695717682669
 20
-536.88369644619434
 30
0.0
 40
10.0
 50
149.99999999999974
 51
179.9999999999996
  0
LINE
  8
0
  6
CONTINUOUS
 62
               3
  5
444
 10
-658.05304282317343
 20
-540.94695717682646
 30
0.0
 11
-658.05304282317343
 21
-536.88369644619434
 31
0.0
  0
ARC
  8
0
  6
CONTINUOUS
 62
               3
  5
445
 10
-668.05304282317343
 20
-536.88369644619434
 30
0.0
 40
10.0
 50
359.99999999999915
 51
389.99999999999903
  0
LINE
  8
0
  6
CONTINUOUS
 62
               3
  5
446
 10
529.00000000000023
 20
-453.57317241373102
 30
0.0
 11
671.00000000000023
 21
-453.57317241373232
 31
0.0
  0
LINE
  8
0
  6
CONTINUOUS
 62
               3
  5
447
 10
526.72128783396749
 20
-433.57317241373158
 30
0.0
 11
673.27871216603319
 21
-433.57317241373158
 31
0.0
  0
LINE
  8
0
  6
CONTINUOUS
 62
               3
  5
448
 10
673.76120980456426
 20
-451.42252367038316
 30
0.0
 11
675.47963377080487
 21
-436.3401100873437
 31
0.0
  0
ARC
  8
0
  6
CONTINUOUS
 62
               3
  5
449
 10
672.99570413161337
 20
-436.05710205292388
 30
0.0
 40
2.5
 50
353.49999999999898
 51
443.49999999999903
  0
ARC
  8
0
  6
CONTINUOUS
 62
               3
  5
44A
 10
671.28300803442016
 20
-451.08924277454088
 30
0.0
 40
2.5
 50
263.49999999999801
 51
353.49999999999898
  0
LINE
  8
0
  6
CONTINUOUS
 62
               3
  5
44B
 10
526.2387901954362
 20
-451.42252367038316
 30
0.0
 11
524.5203662291957
 21
-436.3401100873437
 31
0.0
  0
ARC
  8
0
  6
CONTINUOUS
 62
               3
  5
44C
 10
527.0042958683872
 20
-436.05710205292388
 30
0.0
 40
2.5
 50
96.499999999999815
 51
186.4999999999998
  0
ARC
  8
0
  6
CONTINUOUS
 62
               3
  5
44D
 10
528.71699196558052
 20
-451.08924277454088
 30
0.0
 40
2.5
 50
186.4999999999998
 51
276.5000000000008
  0
LINE
  8
0
  6
CONTINUOUS
 62
               3
  5
44E
 10
529.00000000000057
 20
-453.57317241373238
 30
0.0
 11
529.00000000000045
 21
-506.28645844336279
 31
0.0
  0
LINE
  8
0
  6
CONTINUOUS
 62
               3
  5
44F
 10
671.00000000000023
 20
-453.57317241373238
 30
0.0
 11
671.00000000000023
 21
-506.28645844336279
 31
0.0
  0
LINE
  8
0
  6
CONTINUOUS
 62
               3
  5
450
 10
545.00000000000023
 20
-642.00000000000023
 30
0.0
 11
655.00000000000023
 21
-642.00000000000023
 31
0.0
  0
LINE
  8
0
  6
CONTINUOUS
 62
               3
  5
451
 10
657.00000000000023
 20
-640.0
 30
0.0
 11
657.00000000000023
 21
-542.00000000000023
 31
0.0
  0
LINE
  8
0
  6
CONTINUOUS
 62
               3
  5
452
 10
543.00000000000023
 20
-640.0
 30
0.0
 11
543.00000000000023
 21
-542.00000000000023
 31
0.0
  0
LINE
  8
0
  6
CONTINUOUS
 62
               3
  5
453
 10
657.00000000000023
 20
-542.00000000000023
 30
0.0
 11
658.05304282317366
 21
-540.94695717682657
 31
0.0
  0
LINE
  8
0
  6
CONTINUOUS
 62
               3
  5
454
 10
543.00000000000023
 20
-542.00000000000023
 30
0.0
 11
541.94695717682703
 21
-540.9469571768268
 31
0.0
  0
LINE
  8
0
  6
CONTINUOUS
 62
               3
  5
455
 10
545.00000000000023
 20
-642.00000000000023
 30
0.0
 11
543.00000000000023
 21
-640.0
 31
0.0
  0
LINE
  8
0
  6
CONTINUOUS
 62
               3
  5
456
 10
655.00000000000023
 20
-642.00000000000023
 30
0.0
 11
657.00000000000023
 21
-640.0
 31
0.0
  0
LINE
  8
0
  6
CONTINUOUS
 62
               3
  5
457
 10
658.05304282317366
 20
-540.9469571768268
 30
0.0
 11
658.05304282317366
 21
-536.88369644619456
 31
0.0
  0
ARC
  8
0
  6
CONTINUOUS
 62
               3
  5
458
 10
668.05304282317366
 20
-536.88369644619456
 30
0.0
 40
10.0
 50
149.99999999999974
 51
179.9999999999996
  0
LINE
  8
0
  6
CONTINUOUS
 62
               3
  5
459
 10
541.94695717682691
 20
-540.9469571768268
 30
0.0
 11
541.94695717682691
 21
-536.88369644619456
 31
0.0
  0
ARC
  8
0
  6
CONTINUOUS
 62
               3
  5
45A
 10
531.94695717682691
 20
-536.88369644619456
 30
0.0
 40
10.0
 50
359.99999999999915
 51
389.99999999999903
  0
LINE
  8
0
  6
DASHED2
 62
               3
  5
45B
 10
-51.500000000000199
 20
-642.0
 30
0.0
 11
-51.500000000000199
 21
-562.0
 31
0.0
  0
LINE
  8
0
  6
DASHED2
 62
               3
  5
45C
 10
51.499999999999709
 20
-642.0
 30
0.0
 11
51.499999999999709
 21
-562.0
 31
0.0
  0
LINE
  8
0
  6
DASHED2
 62
               3
  5
45D
 10
-651.50000000000034
 20
-642.0
 30
0.0
 11
-651.50000000000034
 21
-562.0
 31
0.0
  0
LINE
  8
0
  6
DASHED2
 62
               3
  5
45E
 10
-548.50000000000045
 20
-642.0
 30
0.0
 11
-548.50000000000045
 21
-562.0
 31
0.0
  0
LINE
  8
0
  6
DASHED2
 62
               3
  5
45F
 10
548.5
 20
-642.00000000000023
 30
0.0
 11
548.5
 21
-562.00000000000023
 31
0.0
  0
LINE
  8
0
  6
DASHED2
 62
               3
  5
460
 10
651.49999999999989
 20
-642.00000000000023
 30
0.0
 11
651.49999999999989
 21
-562.00000000000023
 31
0.0
  0
INSERT
  8
0
  6
CONTINUOUS
  5
461
  2
GROUP_1
 10
0.0
 20
0.0
 30
0.0
  0
INSERT
  8
0
  6
CONTINUOUS
  5
462
  2
GROUP_2
 10
0.0
 20
0.0
 30
0.0
  0
INSERT
  8
0
  6
CONTINUOUS
  5
463
  2
GROUP_3
 10
0.0
 20
0.0
 30
0.0
  0
INSERT
  8
0
  6
CONTINUOUS
  5
464
  2
GROUP_4
 10
0.0
 20
0.0
 30
0.0
  0
INSERT
  8
0
  6
CONTINUOUS
  5
465
  2
GROUP_5
 10
0.0
 20
0.0
 30
0.0
  0
INSERT
  8
0
  6
CONTINUOUS
  5
466
  2
GROUP_6
 10
0.0
 20
0.0
 30
0.0
  0
INSERT
  8
0
  6
CONTINUOUS
  5
467
  2
GROUP_7
 10
0.0
 20
0.0
 30
0.0
  0
INSERT
  8
0
  6
CONTINUOUS
  5
468
  2
GROUP_8
 10
0.0
 20
0.0
 30
0.0
  0
INSERT
  8
0
  6
CONTINUOUS
  5
469
  2
GROUP_9
 10
0.0
 20
0.0
 30
0.0
  0
INSERT
  8
0
  6
CONTINUOUS
  5
46A
  2
GROUP_10
 10
0.0
 20
0.0
 30
0.0
  0
INSERT
  8
0
  6
CONTINUOUS
  5
46B
  2
GROUP_11
 10
0.0
 20
0.0
 30
0.0
  0
INSERT
  8
0
  6
CONTINUOUS
  5
46C
  2
GROUP_12
 10
0.0
 20
0.0
 30
0.0
  0
LINE
  8
LAYER192
  6
CONTINUOUS
 62
               3
  5
46D
 10
-26.499999999999908
 20
657.42929735140774
 30
0.0
 11
-26.499999999999694
 21
702.75037412590632
 31
0.0
  0
LINE
  8
LAYER192
  6
CONTINUOUS
 62
               3
  5
46E
 10
-26.499999999999694
 20
702.75037412590632
 30
0.0
 11
-46.672333534819664
 21
726.79082508703664
 31
0.0
  0
LINE
  8
LAYER192
  6
CONTINUOUS
 62
               3
  5
46F
 10
-26.499999999999979
 20
675.25037412590109
 30
0.0
 11
44.721359549990268
 21
675.25037412589654
 31
0.0
  0
LINE
  8
LAYER192
  6
CONTINUOUS
 62
               3
  5
470
 10
-16.007810593583152
 20
752.75037412590564
 30
0.0
 11
16.007810593585546
 21
752.75037412590518
 31
0.0
  0
LINE
  8
LAYER192
  6
CONTINUOUS
 62
               3
  5
471
 10
-68.253520777581116
 20
-516.53645844336233
 30
0.0
 11
-59.339745962155483
 21
-531.97556931090753
 31
0.0
  0
ARC
  8
LAYER192
  6
CONTINUOUS
 62
               3
  5
472
 10
-50.500000000000107
 20
-506.28645844336251
 30
0.0
 40
20.500000000000004
 50
179.99999999999955
 51
209.99999999999943
  0
LINE
  8
LAYER192
  6
CONTINUOUS
 62
               3
  5
473
 10
68.253520777581258
 20
-516.53645844336233
 30
0.0
 11
59.392788785329003
 21
-531.88369644619434
 31
0.0
  0
ARC
  8
LAYER192
  6
CONTINUOUS
 62
               3
  5
474
 10
50.500000000000263
 20
-506.28645844336251
 30
0.0
 40
20.500000000000004
 50
329.99999999999932
 51
359.99999999999926
  0
LINE
  8
LAYER192
  6
CONTINUOUS
 62
               3
  5
475
 10
-88.499999999999915
 20
257.93434107934848
 30
0.0
 11
-76.499999999999858
 21
272.99999999999972
 31
0.0
  0
LINE
  8
LAYER192
  6
CONTINUOUS
 62
               3
  5
476
 10
88.499999999999915
 20
257.93434107934871
 30
0.0
 11
76.499999999999901
 21
272.99999999999994
 31
0.0
  0
LINE
  8
LAYER192
  6
CONTINUOUS
 62
               3
  5
477
 10
-76.499999999999602
 20
272.99999999999994
 30
0.0
 11
76.499999999999901
 21
272.99999999999994
 31
0.0
  0
LINE
  8
LAYER192
  6
CONTINUOUS
 62
               3
  5
478
 10
-88.500000000001279
 20
250.93434107934883
 30
0.0
 11
88.499999999999957
 21
250.93434107934894
 31
0.0
  0
LINE
  8
LAYER192
  6
CONTINUOUS
 62
               3
  5
479
 10
-20.000000000000597
 20
257.93434107934894
 30
0.0
 11
-20.000000000000597
 21
250.93434107934883
 31
0.0
  0
LINE
  8
LAYER192
  6
CONTINUOUS
 62
               3
  5
47A
 10
19.999999999999403
 20
257.93434107934894
 30
0.0
 11
19.999999999999403
 21
250.93434107934883
 31
0.0
  0
LINE
  8
LAYER192
  6
CONTINUOUS
 62
               3
  5
47B
 10
-20.500000000000426
 20
272.99999999999994
 30
0.0
 11
-20.500000000000426
 21
250.93434107934883
 31
0.0
  0
LINE
  8
LAYER192
  6
CONTINUOUS
 62
               3
  5
47C
 10
20.499999999999517
 20
272.99999999999994
 30
0.0
 11
20.499999999999517
 21
250.93434107934883
 31
0.0
  0
LINE
  8
LAYER192
  6
CONTINUOUS
 62
               3
  5
47D
 10
-20.000000000000597
 20
257.93434107934848
 30
0.0
 11
19.999999999999403
 21
257.93434107934894
 31
0.0
  0
LINE
  8
LAYER192
  6
CONTINUOUS
 62
               3
  5
47E
 10
-20.000000000000597
 20
257.93434107934848
 30
0.0
 11
-20.500000000000426
 21
272.99999999999994
 31
0.0
  0
LINE
  8
LAYER192
  6
CONTINUOUS
 62
               3
  5
47F
 10
19.999999999999403
 20
257.93434107934848
 30
0.0
 11
20.499999999999517
 21
272.99999999999994
 31
0.0
  0
LINE
  8
LAYER192
  6
CONTINUOUS
 62
               3
  5
480
 10
-688.49999999999989
 20
257.9343410793486
 30
0.0
 11
-676.5
 21
272.99999999999972
 31
0.0
  0
LINE
  8
LAYER192
  6
CONTINUOUS
 62
               3
  5
481
 10
-511.50000000000011
 20
257.93434107934871
 30
0.0
 11
-523.50000000000011
 21
272.99999999999994
 31
0.0
  0
LINE
  8
LAYER192
  6
CONTINUOUS
 62
               3
  5
482
 10
-676.49999999999966
 20
272.99999999999994
 30
0.0
 11
-523.50000000000011
 21
272.99999999999994
 31
0.0
  0
LINE
  8
LAYER192
  6
CONTINUOUS
 62
               3
  5
483
 10
-688.50000000000125
 20
250.93434107934894
 30
0.0
 11
-511.50000000000011
 21
250.93434107934894
 31
0.0
  0
LINE
  8
LAYER192
  6
CONTINUOUS
 62
               3
  5
484
 10
-620.00000000000068
 20
257.93434107934905
 30
0.0
 11
-620.00000000000068
 21
250.93434107934883
 31
0.0
  0
LINE
  8
LAYER192
  6
CONTINUOUS
 62
               3
  5
485
 10
-580.00000000000068
 20
257.93434107934905
 30
0.0
 11
-580.00000000000068
 21
250.93434107934883
 31
0.0
  0
LINE
  8
LAYER192
  6
CONTINUOUS
 62
               3
  5
486
 10
-620.50000000000045
 20
272.99999999999994
 30
0.0
 11
-620.50000000000045
 21
250.93434107934883
 31
0.0
  0
LINE
  8
LAYER192
  6
CONTINUOUS
 62
               3
  5
487
 10
-579.50000000000057
 20
272.99999999999994
 30
0.0
 11
-579.50000000000057
 21
250.93434107934883
 31
0.0
  0
LINE
  8
LAYER192
  6
CONTINUOUS
 62
               3
  5
488
 10
-620.00000000000068
 20
257.9343410793486
 30
0.0
 11
-580.00000000000068
 21
257.93434107934905
 31
0.0
  0
LINE
  8
LAYER192
  6
CONTINUOUS
 62
               3
  5
489
 10
-620.00000000000068
 20
257.9343410793486
 30
0.0
 11
-620.50000000000045
 21
272.99999999999994
 31
0.0
  0
LINE
  8
LAYER192
  6
CONTINUOUS
 62
               3
  5
48A
 10
-580.00000000000068
 20
257.9343410793486
 30
0.0
 11
-579.50000000000057
 21
272.99999999999994
 31
0.0
  0
LINE
  8
LAYER192
  6
CONTINUOUS
 62
               3
  5
48B
 10
511.50000000000057
 20
257.93434107934826
 30
0.0
 11
523.50000000000045
 21
272.99999999999937
 31
0.0
  0
LINE
  8
LAYER192
  6
CONTINUOUS
 62
               3
  5
48C
 10
688.50000000000034
 20
257.93434107934837
 30
0.0
 11
676.50000000000034
 21
272.9999999999996
 31
0.0
  0
LINE
  8
LAYER192
  6
CONTINUOUS
 62
               3
  5
48D
 10
523.5000000000008
 20
272.9999999999996
 30
0.0
 11
676.50000000000034
 21
272.9999999999996
 31
0.0
  0
LINE
  8
LAYER192
  6
CONTINUOUS
 62
               3
  5
48E
 10
511.4999999999992
 20
250.93434107934863
 30
0.0
 11
688.50000000000034
 21
250.93434107934863
 31
0.0
  0
LINE
  8
LAYER192
  6
CONTINUOUS
 62
               3
  5
48F
 10
579.99999999999977
 20
257.93434107934871
 30
0.0
 11
579.99999999999977
 21
250.93434107934851
 31
0.0
  0
LINE
  8
LAYER192
  6
CONTINUOUS
 62
               3
  5
490
 10
619.99999999999977
 20
257.93434107934871
 30
0.0
 11
619.99999999999977
 21
250.93434107934851
 31
0.0
  0
LINE
  8
LAYER192
  6
CONTINUOUS
 62
               3
  5
491
 10
579.5
 20
272.9999999999996
 30
0.0
 11
579.5
 21
250.93434107934851
 31
0.0
  0
LINE
  8
LAYER192
  6
CONTINUOUS
 62
               3
  5
492
 10
620.49999999999989
 20
272.9999999999996
 30
0.0
 11
620.49999999999989
 21
250.93434107934851
 31
0.0
  0
LINE
  8
LAYER192
  6
CONTINUOUS
 62
               3
  5
493
 10
579.99999999999977
 20
257.93434107934826
 30
0.0
 11
619.99999999999977
 21
257.93434107934871
 31
0.0
  0
LINE
  8
LAYER192
  6
CONTINUOUS
 62
               3
  5
494
 10
579.99999999999977
 20
257.93434107934826
 30
0.0
 11
579.5
 21
272.9999999999996
 31
0.0
  0
LINE
  8
LAYER192
  6
CONTINUOUS
 62
               3
  5
495
 10
619.99999999999977
 20
257.93434107934826
 30
0.0
 11
620.49999999999989
 21
272.9999999999996
 31
0.0
  0
LINE
  8
LAYER192
  6
CONTINUOUS
 62
               3
  5
496
 10
-668.25352077758123
 20
-516.53645844336233
 30
0.0
 11
-659.33974596215558
 21
-531.97556931090753
 31
0.0
  0
ARC
  8
LAYER192
  6
CONTINUOUS
 62
               3
  5
497
 10
-650.50000000000023
 20
-506.28645844336245
 30
0.0
 40
20.500000000000004
 50
179.99999999999955
 51
209.99999999999943
  0
LINE
  8
LAYER192
  6
CONTINUOUS
 62
               3
  5
498
 10
-531.74647922241888
 20
-516.53645844336233
 30
0.0
 11
-540.60721121467111
 21
-531.88369644619434
 31
0.0
  0
ARC
  8
LAYER192
  6
CONTINUOUS
 62
               3
  5
499
 10
-549.49999999999989
 20
-506.28645844336245
 30
0.0
 40
20.500000000000004
 50
329.99999999999932
 51
359.99999999999926
  0
LINE
  8
LAYER192
  6
CONTINUOUS
 62
               3
  5
49A
 10
531.74647922241911
 20
-516.53645844336256
 30
0.0
 11
540.66025403784477
 21
-531.97556931090776
 31
0.0
  0
ARC
  8
LAYER192
  6
CONTINUOUS
 62
               3
  5
49B
 10
549.50000000000011
 20
-506.28645844336279
 30
0.0
 40
20.500000000000004
 50
179.99999999999955
 51
209.99999999999943
  0
LINE
  8
LAYER192
  6
CONTINUOUS
 62
               3
  5
49C
 10
668.25352077758146
 20
-516.53645844336256
 30
0.0
 11
659.39278878532923
 21
-531.88369644619456
 31
0.0
  0
ARC
  8
LAYER192
  6
CONTINUOUS
 62
               3
  5
49D
 10
650.50000000000045
 20
-506.28645844336279
 30
0.0
 40
20.500000000000004
 50
329.99999999999932
 51
359.99999999999926
  0
LINE
  8
LAYER192
  6
CONTINUOUS
 62
               4
  5
49E
 10
-685.50000000000011
 20
177.61357374475557
 30
0.0
 11
-692.00000000000011
 21
171.11357374475546
 31
0.0
  0
LINE
  8
LAYER192
  6
CONTINUOUS
 62
               4
  5
49F
 10
-514.49999999999955
 20
177.61357374475557
 30
0.0
 11
-507.99999999999943
 21
171.11357374475546
 31
0.0
  0
LINE
  8
LAYER192
  6
CONTINUOUS
 62
               4
  5
4A0
 10
514.50000000000034
 20
177.61357374475526
 30
0.0
 11
508.00000000000034
 21
171.11357374475514
 31
0.0
  0
LINE
  8
LAYER192
  6
CONTINUOUS
 62
               4
  5
4A1
 10
685.50000000000091
 20
177.61357374475526
 30
0.0
 11
692.00000000000102
 21
171.11357374475514
 31
0.0
  0
ENDSEC
  0
EOF
