  0
SECTION
  2
HEADER
  9
$ACADVER
  1
AC1009
  9
$INSBASE
 10
0.0
 20
0.0
 30
0.0
  9
$EXTMIN
 10
-738.60051192420576
 20
-1758.8718198374766
 30
0.0
  9
$EXTMAX
 10
746.34313174847478
 20
794.33876046372495
 30
0.0
  9
$LIMMIN
 10
-785.00500078897699
 20
-1838.6596504718891
  9
$LIMMAX
 10
792.747620613246
 20
874.12659109813751
  9
$ORTHOMODE
 70
               0
  9
$REGENMODE
 70
               1
  9
$FILLMODE
 70
               1
  9
$QTEXTMODE
 70
               0
  9
$MIRRTEXT
 70
               1
  9
$DRAGMODE
 70
               2
  9
$LTSCALE
 40
1.0
  9
$OSMODE
 70
               0
  9
$ATTMODE
 70
               1
  9
$TEXTSIZE
 40
0.2
  9
$TRACEWID
 40
0.05
  9
$TEXTSTYLE
  7
STANDARD
  9
$CLAYER
  8
0
  9
$CELTYPE
  6
CONTINUOUS
  9
$CECOLOR
 62
             256
  9
$DIMSCALE
 40
1.0
  9
$DIMASZ
 40
0.18
  9
$DIMEXO
 40
0.0625
  9
$DIMDLI
 40
0.38
  9
$DIMRND
 40
0.0
  9
$DIMDLE
 40
0.0
  9
$DIMEXE
 40
0.18
  9
$DIMTP
 40
0.0
  9
$DIMTM
 40
0.0
  9
$DIMTXT
 40
0.18
  9
$DIMCEN
 40
0.09
  9
$DIMTSZ
 40
0.0
  9
$DIMTOL
 70
               0
  9
$DIMLIM
 70
               0
  9
$DIMTIH
 70
               1
  9
$DIMTOH
 70
               1
  9
$DIMSE1
 70
               0
  9
$DIMSE2
 70
               0
  9
$DIMTAD
 70
               0
  9
$DIMZIN
 70
               0
  9
$DIMBLK
  1

  9
$DIMASO
 70
               1
  9
$DIMSHO
 70
               1
  9
$DIMPOST
  1

  9
$DIMAPOST
  1

  9
$DIMALT
 70
               0
  9
$DIMALTD
 70
               2
  9
$DIMALTF
 40
25.399999999999999
  9
$DIMLFAC
 40
1.0
  9
$DIMTOFL
 70
               0
  9
$DIMTVP
 40
0.0
  9
$DIMTIX
 70
               0
  9
$DIMSOXD
 70
               0
  9
$DIMSAH
 70
               0
  9
$DIMBLK1
  1

  9
$DIMBLK2
  1

  9
$DIMSTYLE
  2
STANDARD
  9
$DIMCLRD
 70
               0
  9
$DIMCLRE
 70
               0
  9
$DIMCLRT
 70
               0
  9
$DIMTFAC
 40
1.0
  9
$DIMGAP
 40
0.09
  9
$LUNITS
 70
               2
  9
$LUPREC
 70
               4
  9
$AXISMODE
 70
               0
  9
$AXISUNIT
 10
0.0
 20
0.0
  9
$SKETCHINC
 40
0.1
  9
$FILLETRAD
 40
0.0
  9
$AUNITS
 70
               0
  9
$AUPREC
 70
               0
  9
$MENU
  1
acad
  9
$ELEVATION
 40
0.0
  9
$PELEVATION
 40
0.0
  9
$THICKNESS
 40
0.0
  9
$LIMCHECK
 70
               0
  9
$BLIPMODE
 70
               1
  9
$CHAMFERA
 40
0.0
  9
$CHAMFERB
 40
0.0
  9
$SKPOLY
 70
               0
  9
$TDCREATE
 40
0.000000000
  9
$TDUPDATE
 40
0.000000000
  9
$TDINDWG
 40
0.0000000000
  9
$TDUSRTIMER
 40
0.0000000000
  9
$USRTIMER
 70
               1
  9
$ANGBASE
 50
0.0
  9
$ANGDIR
 70
               0
  9
$PDMODE
 70
               0
  9
$PDSIZE
 40
1.0
  9
$PLINEWID
 40
0.0
  9
$COORDS
 70
               1
  9
$SPLFRAME
 70
               0
  9
$SPLINETYPE
 70
               6
  9
$SPLINESEGS
 70
               8
  9
$ATTDIA
 70
               0
  9
$ATTREQ
 70
               1
  9
$HANDLING
 70
               1
  9
$HANDSEED
  5
5A4
  9
$SURFTAB1
 70
               6
  9
$SURFTAB2
 70
               6
  9
$SURFTYPE
 70
               6
  9
$SURFU
 70
               6
  9
$SURFV
 70
               6
  9
$UCSNAME
  2

  9
$UCSORG
 10
0.0
 20
0.0
 30
0.0
  9
$UCSXDIR
 10
1.0
 20
0.0
 30
0.0
  9
$UCSYDIR
 10
0.0
 20
1.0
 30
0.0
  9
$PUCSNAME
  2

  9
$PUCSORG
 10
0.0
 20
0.0
 30
0.0
  9
$PUCSXDIR
 10
1.0
 20
0.0
 30
0.0
  9
$PUCSYDIR
 10
0.0
 20
1.0
 30
0.0
  9
$USERI1
 70
               0
  9
$USERI2
 70
               0
  9
$USERI3
 70
               0
  9
$USERI4
 70
               0
  9
$USERI5
 70
               0
  9
$USERR1
 40
0.0
  9
$USERR2
 40
0.0
  9
$USERR3
 40
0.0
  9
$USERR4
 40
0.0
  9
$USERR5
 40
0.0
  9
$WORLDVIEW
 70
               1
  9
$SHADEDGE
 70
               3
  9
$SHADEDIF
 70
              70
  9
$TILEMODE
 70
               1
  9
$MAXACTVP
 70
              16
  9
$PINSBASE
 10
0.0
 20
0.0
 30
0.0
  9
$PLIMCHECK
 70
               0
  9
$PEXTMIN
 10
1.0000000000000000E+20
 20
1.0000000000000000E+20
 30
1.0000000000000000E+20
  9
$PEXTMAX
 10
-1.0000000000000000E+20
 20
-1.0000000000000000E+20
 30
-1.0000000000000000E+20
  9
$PLIMMIN
 10
0.0
 20
0.0
  9
$PLIMMAX
 10
12.0
 20
9.0
  9
$UNITMODE
 70
               0
  9
$VISRETAIN
 70
               0
  9
$PLINEGEN
 70
               1
  9
$PSLTSCALE
 70
               0
  9
$TREEDEPTH
 70
            3020
  9
$DWGCODEPAGE
  3
dos932
  0
ENDSEC
  0
SECTION
  2
TABLES
  0
TABLE
  2
VPORT
 70
               1
  0
VPORT
  2
*ACTIVE
 70
               0
 10
0.0
 20
0.0
 11
1.0
 21
1.0
 12
3.8713099121345067
 22
-482.2665296868758
 13
0.0
 23
0.0
 14
1.0
 24
1.0
 15
0.0
 25
0.0
 16
0.0
 26
0.0
 36
1.0
 17
0.0
 27
0.0
 37
0.0
 40
2712.7862415700265
 41
0.5815985783270185
 42
50.0
 43
0.0
 44
0.0
 50
0.0
 51
0.0
 71
               0
 72
             100
 73
               1
 74
               1
 75
               0
 76
               0
 77
               0
 78
               0
  0
ENDTAB
  0
TABLE
  2
LTYPE
 70
              26
  0
LTYPE
  2
CONTINUOUS
 70
               0
  3
Solid line
 72
              65
 73
               0
 40
0.0
  0
LTYPE
  2
HIDDENX2
 70
               0
  3
CADPAC FUSION LINETYPE
 72
              65
 73
               2
 40
47.560000000000002
 49
35.670000000000002
 49
-11.890000000000001
  0
LTYPE
  2
HIDDEN
 70
               0
  3
CADPAC FUSION LINETYPE
 72
              65
 73
               2
 40
35.670000000000002
 49
23.780000000000001
 49
-11.890000000000001
  0
LTYPE
  2
HIDDEN2
 70
               0
  3
CADPAC FUSION LINETYPE
 72
              65
 73
               2
 40
29.725000000000001
 49
17.835000000000001
 49
-11.890000000000001
  0
LTYPE
  2
DASHED
 70
               0
  3
CADPAC FUSION LINETYPE
 72
              65
 73
               2
 40
35.670000000000002
 49
23.780000000000001
 49
-11.890000000000001
  0
LTYPE
  2
DASHED2
 70
               0
  3
CADPAC FUSION LINETYPE
 72
              65
 73
               2
 40
26.752500000000001
 49
17.835000000000001
 49
-8.9175000000000004
  0
LTYPE
  2
DASHEDX2
 70
               0
  3
CADPAC FUSION LINETYPE
 72
              65
 73
               2
 40
53.505000000000003
 49
35.670000000000002
 49
-17.835000000000001
  0
LTYPE
  2
DOTX2
 70
               0
  3
CADPAC FUSION LINETYPE
 72
              65
 73
               2
 40
14.862500000000001
 49
0.0
 49
-14.862500000000001
  0
LTYPE
  2
DOT
 70
               0
  3
CADPAC FUSION LINETYPE
 72
              65
 73
               2
 40
11.890000000000001
 49
0.0
 49
-11.890000000000001
  0
LTYPE
  2
DOTS
 70
               0
  3
CADPAC FUSION LINETYPE
 72
              65
 73
               2
 40
11.890000000000001
 49
0.0
 49
-11.890000000000001
  0
LTYPE
  2
DOT2
 70
               0
  3
CADPAC FUSION LINETYPE
 72
              65
 73
               2
 40
8.9175000000000004
 49
0.0
 49
-8.9175000000000004
  0
LTYPE
  2
CENTERX2
 70
               0
  3
CADPAC FUSION LINETYPE
 72
              65
 73
               4
 40
71.340000000000003
 49
29.725000000000001
 49
-14.862500000000001
 49
11.890000000000001
 49
-14.862500000000001
  0
LTYPE
  2
CENTER
 70
               0
  3
CADPAC FUSION LINETYPE
 72
              65
 73
               4
 40
54.694000000000003
 49
23.780000000000001
 49
-11.890000000000001
 49
7.1340000000000003
 49
-11.890000000000001
  0
LTYPE
  2
CENTER2
 70
               0
  3
CADPAC FUSION LINETYPE
 72
              65
 73
               4
 40
38.048000000000002
 49
17.835000000000001
 49
-8.9175000000000004
 49
2.3780000000000001
 49
-8.9175000000000004
  0
LTYPE
  2
DASHDOTX2
 70
               0
  3
CADPAC FUSION LINETYPE
 72
              65
 73
               4
 40
59.450000000000003
 49
29.725000000000001
 49
-14.862500000000001
 49
0.0
 49
-14.862500000000001
  0
LTYPE
  2
DASHDOT
 70
               0
  3
CADPAC FUSION LINETYPE
 72
              65
 73
               4
 40
47.560000000000002
 49
23.780000000000001
 49
-11.890000000000001
 49
0.0
 49
-11.890000000000001
  0
LTYPE
  2
DASHDOT2
 70
               0
  3
CADPAC FUSION LINETYPE
 72
              65
 73
               4
 40
35.670000000000002
 49
17.835000000000001
 49
-8.9175000000000004
 49
0.0
 49
-8.9175000000000004
  0
LTYPE
  2
DIVIDEX2
 70
               0
  3
CADPAC FUSION LINETYPE
 72
              65
 73
               6
 40
74.3125
 49
29.725000000000001
 49
-14.862500000000001
 49
0.0
 49
-14.862500000000001
 49
0.0
 49
-14.862500000000001
  0
LTYPE
  2
DIVIDE
 70
               0
  3
CADPAC FUSION LINETYPE
 72
              65
 73
               6
 40
59.450000000000003
 49
23.780000000000001
 49
-11.890000000000001
 49
0.0
 49
-11.890000000000001
 49
0.0
 49
-11.890000000000001
  0
LTYPE
  2
DIVIDE2
 70
               0
  3
CADPAC FUSION LINETYPE
 72
              65
 73
               6
 40
44.587500000000006
 49
17.835000000000001
 49
-8.9175000000000004
 49
0.0
 49
-8.9175000000000004
 49
0.0
 49
-8.9175000000000004
  0
LTYPE
  2
BORDERX2
 70
               0
  3
CADPAC FUSION LINETYPE
 72
              65
 73
               6
 40
104.03750000000001
 49
29.725000000000001
 49
-14.862500000000001
 49
29.725000000000001
 49
-14.862500000000001
 49
0.0
 49
-14.862500000000001
  0
LTYPE
  2
BORDER
 70
               0
  3
CADPAC FUSION LINETYPE
 72
              65
 73
               6
 40
83.230000000000004
 49
23.780000000000001
 49
-11.890000000000001
 49
23.780000000000001
 49
-11.890000000000001
 49
0.0
 49
-11.890000000000001
  0
LTYPE
  2
BORDER2
 70
               0
  3
CADPAC FUSION LINETYPE
 72
              65
 73
               6
 40
62.422499999999999
 49
17.835000000000001
 49
-8.9175000000000004
 49
17.835000000000001
 49
-8.9175000000000004
 49
0.0
 49
-8.9175000000000004
  0
LTYPE
  2
PHANTOMX2
 70
               0
  3
CADPAC FUSION LINETYPE
 72
              65
 73
               6
 40
89.175000000000011
 49
29.725000000000001
 49
-11.890000000000001
 49
11.890000000000001
 49
-11.890000000000001
 49
11.890000000000001
 49
-11.890000000000001
  0
LTYPE
  2
PHANTOM
 70
               0
  3
CADPAC FUSION LINETYPE
 72
              65
 73
               6
 40
73.718000000000004
 49
23.780000000000001
 49
-11.890000000000001
 49
7.1340000000000003
 49
-11.890000000000001
 49
7.1340000000000003
 49
-11.890000000000001
  0
LTYPE
  2
PHANTOM2
 70
               0
  3
CADPAC FUSION LINETYPE
 72
              65
 73
               6
 40
63.017000000000003
 49
17.835000000000001
 49
-11.890000000000001
 49
4.7560000000000002
 49
-11.890000000000001
 49
4.7560000000000002
 49
-11.890000000000001
  0
ENDTAB
  0
TABLE
  2
LAYER
 70
             256
  0
LAYER
  2
0
 70
               0
 62
               7
  6
CONTINUOUS
  0
LAYER
  2
LAYER001
 70
               0
 62
               7
  6
CONTINUOUS
  0
LAYER
  2
LAYER002
 70
               0
 62
               7
  6
CONTINUOUS
  0
LAYER
  2
LAYER003
 70
               0
 62
               7
  6
CONTINUOUS
  0
LAYER
  2
LAYER004
 70
               0
 62
               7
  6
CONTINUOUS
  0
LAYER
  2
LAYER005
 70
               0
 62
               7
  6
CONTINUOUS
  0
LAYER
  2
LAYER006
 70
               0
 62
               7
  6
CONTINUOUS
  0
LAYER
  2
LAYER007
 70
               0
 62
               7
  6
CONTINUOUS
  0
LAYER
  2
LAYER008
 70
               0
 62
               7
  6
CONTINUOUS
  0
LAYER
  2
LAYER009
 70
               0
 62
               7
  6
CONTINUOUS
  0
LAYER
  2
LAYER010
 70
               0
 62
               7
  6
CONTINUOUS
  0
LAYER
  2
LAYER011
 70
               0
 62
               7
  6
CONTINUOUS
  0
LAYER
  2
LAYER012
 70
               0
 62
               7
  6
CONTINUOUS
  0
LAYER
  2
LAYER013
 70
               0
 62
               7
  6
CONTINUOUS
  0
LAYER
  2
LAYER014
 70
               0
 62
               7
  6
CONTINUOUS
  0
LAYER
  2
LAYER015
 70
               0
 62
               7
  6
CONTINUOUS
  0
LAYER
  2
LAYER016
 70
               0
 62
               7
  6
CONTINUOUS
  0
LAYER
  2
LAYER017
 70
               0
 62
               7
  6
CONTINUOUS
  0
LAYER
  2
LAYER018
 70
               0
 62
               7
  6
CONTINUOUS
  0
LAYER
  2
LAYER019
 70
               0
 62
               7
  6
CONTINUOUS
  0
LAYER
  2
LAYER020
 70
               0
 62
               7
  6
CONTINUOUS
  0
LAYER
  2
LAYER021
 70
               0
 62
               7
  6
CONTINUOUS
  0
LAYER
  2
LAYER022
 70
               0
 62
               7
  6
CONTINUOUS
  0
LAYER
  2
LAYER023
 70
               0
 62
               7
  6
CONTINUOUS
  0
LAYER
  2
LAYER024
 70
               0
 62
               7
  6
CONTINUOUS
  0
LAYER
  2
LAYER025
 70
               0
 62
               7
  6
CONTINUOUS
  0
LAYER
  2
LAYER026
 70
               0
 62
               7
  6
CONTINUOUS
  0
LAYER
  2
LAYER027
 70
               0
 62
               7
  6
CONTINUOUS
  0
LAYER
  2
LAYER028
 70
               0
 62
               7
  6
CONTINUOUS
  0
LAYER
  2
LAYER029
 70
               0
 62
               7
  6
CONTINUOUS
  0
LAYER
  2
LAYER030
 70
               0
 62
               7
  6
CONTINUOUS
  0
LAYER
  2
LAYER031
 70
               0
 62
               7
  6
CONTINUOUS
  0
LAYER
  2
LAYER032
 70
               0
 62
               7
  6
CONTINUOUS
  0
LAYER
  2
LAYER033
 70
               0
 62
               7
  6
CONTINUOUS
  0
LAYER
  2
LAYER034
 70
               0
 62
               7
  6
CONTINUOUS
  0
LAYER
  2
LAYER035
 70
               0
 62
               7
  6
CONTINUOUS
  0
LAYER
  2
LAYER036
 70
               0
 62
               7
  6
CONTINUOUS
  0
LAYER
  2
LAYER037
 70
               0
 62
               7
  6
CONTINUOUS
  0
LAYER
  2
LAYER038
 70
               0
 62
               7
  6
CONTINUOUS
  0
LAYER
  2
LAYER039
 70
               0
 62
               7
  6
CONTINUOUS
  0
LAYER
  2
LAYER040
 70
               0
 62
               7
  6
CONTINUOUS
  0
LAYER
  2
LAYER041
 70
               0
 62
               7
  6
CONTINUOUS
  0
LAYER
  2
LAYER042
 70
               0
 62
               7
  6
CONTINUOUS
  0
LAYER
  2
LAYER043
 70
               0
 62
               7
  6
CONTINUOUS
  0
LAYER
  2
LAYER044
 70
               0
 62
               7
  6
CONTINUOUS
  0
LAYER
  2
LAYER045
 70
               0
 62
               7
  6
CONTINUOUS
  0
LAYER
  2
LAYER046
 70
               0
 62
               7
  6
CONTINUOUS
  0
LAYER
  2
LAYER047
 70
               0
 62
               7
  6
CONTINUOUS
  0
LAYER
  2
LAYER048
 70
               0
 62
               7
  6
CONTINUOUS
  0
LAYER
  2
LAYER049
 70
               0
 62
               7
  6
CONTINUOUS
  0
LAYER
  2
LAYER050
 70
               0
 62
               7
  6
CONTINUOUS
  0
LAYER
  2
LAYER051
 70
               0
 62
               7
  6
CONTINUOUS
  0
LAYER
  2
LAYER052
 70
               0
 62
               7
  6
CONTINUOUS
  0
LAYER
  2
LAYER053
 70
               0
 62
               7
  6
CONTINUOUS
  0
LAYER
  2
LAYER054
 70
               0
 62
               7
  6
CONTINUOUS
  0
LAYER
  2
LAYER055
 70
               0
 62
               7
  6
CONTINUOUS
  0
LAYER
  2
LAYER056
 70
               0
 62
               7
  6
CONTINUOUS
  0
LAYER
  2
LAYER057
 70
               0
 62
               7
  6
CONTINUOUS
  0
LAYER
  2
LAYER058
 70
               0
 62
               7
  6
CONTINUOUS
  0
LAYER
  2
LAYER059
 70
               0
 62
               7
  6
CONTINUOUS
  0
LAYER
  2
LAYER060
 70
               0
 62
               7
  6
CONTINUOUS
  0
LAYER
  2
LAYER061
 70
               0
 62
               7
  6
CONTINUOUS
  0
LAYER
  2
LAYER062
 70
               0
 62
               7
  6
CONTINUOUS
  0
LAYER
  2
LAYER063
 70
               0
 62
               7
  6
CONTINUOUS
  0
LAYER
  2
LAYER064
 70
               0
 62
               7
  6
CONTINUOUS
  0
LAYER
  2
LAYER065
 70
               0
 62
               7
  6
CONTINUOUS
  0
LAYER
  2
LAYER066
 70
               0
 62
               7
  6
CONTINUOUS
  0
LAYER
  2
LAYER067
 70
               0
 62
               7
  6
CONTINUOUS
  0
LAYER
  2
LAYER068
 70
               0
 62
               7
  6
CONTINUOUS
  0
LAYER
  2
LAYER069
 70
               0
 62
               7
  6
CONTINUOUS
  0
LAYER
  2
LAYER070
 70
               0
 62
               7
  6
CONTINUOUS
  0
LAYER
  2
LAYER071
 70
               0
 62
               7
  6
CONTINUOUS
  0
LAYER
  2
LAYER072
 70
               0
 62
               7
  6
CONTINUOUS
  0
LAYER
  2
LAYER073
 70
               0
 62
               7
  6
CONTINUOUS
  0
LAYER
  2
LAYER074
 70
               0
 62
               7
  6
CONTINUOUS
  0
LAYER
  2
LAYER075
 70
               0
 62
               7
  6
CONTINUOUS
  0
LAYER
  2
LAYER076
 70
               0
 62
               7
  6
CONTINUOUS
  0
LAYER
  2
LAYER077
 70
               0
 62
               7
  6
CONTINUOUS
  0
LAYER
  2
LAYER078
 70
               0
 62
               7
  6
CONTINUOUS
  0
LAYER
  2
LAYER079
 70
               0
 62
               7
  6
CONTINUOUS
  0
LAYER
  2
LAYER080
 70
               0
 62
               7
  6
CONTINUOUS
  0
LAYER
  2
LAYER081
 70
               0
 62
               7
  6
CONTINUOUS
  0
LAYER
  2
LAYER082
 70
               0
 62
               7
  6
CONTINUOUS
  0
LAYER
  2
LAYER083
 70
               0
 62
               7
  6
CONTINUOUS
  0
LAYER
  2
LAYER084
 70
               0
 62
               7
  6
CONTINUOUS
  0
LAYER
  2
LAYER085
 70
               0
 62
               7
  6
CONTINUOUS
  0
LAYER
  2
LAYER086
 70
               0
 62
               7
  6
CONTINUOUS
  0
LAYER
  2
LAYER087
 70
               0
 62
               7
  6
CONTINUOUS
  0
LAYER
  2
LAYER088
 70
               0
 62
               7
  6
CONTINUOUS
  0
LAYER
  2
LAYER089
 70
               0
 62
               7
  6
CONTINUOUS
  0
LAYER
  2
LAYER090
 70
               0
 62
               7
  6
CONTINUOUS
  0
LAYER
  2
LAYER091
 70
               0
 62
               7
  6
CONTINUOUS
  0
LAYER
  2
LAYER092
 70
               0
 62
               7
  6
CONTINUOUS
  0
LAYER
  2
LAYER093
 70
               0
 62
               7
  6
CONTINUOUS
  0
LAYER
  2
LAYER094
 70
               0
 62
               7
  6
CONTINUOUS
  0
LAYER
  2
LAYER095
 70
               0
 62
               7
  6
CONTINUOUS
  0
LAYER
  2
LAYER096
 70
               0
 62
               7
  6
CONTINUOUS
  0
LAYER
  2
LAYER097
 70
               0
 62
               7
  6
CONTINUOUS
  0
LAYER
  2
LAYER098
 70
               0
 62
               7
  6
CONTINUOUS
  0
LAYER
  2
LAYER099
 70
               0
 62
               7
  6
CONTINUOUS
  0
LAYER
  2
LAYER100
 70
               0
 62
               7
  6
CONTINUOUS
  0
LAYER
  2
LAYER101
 70
               0
 62
               7
  6
CONTINUOUS
  0
LAYER
  2
LAYER102
 70
               0
 62
               7
  6
CONTINUOUS
  0
LAYER
  2
LAYER103
 70
               0
 62
               7
  6
CONTINUOUS
  0
LAYER
  2
LAYER104
 70
               0
 62
               7
  6
CONTINUOUS
  0
LAYER
  2
LAYER105
 70
               0
 62
               7
  6
CONTINUOUS
  0
LAYER
  2
LAYER106
 70
               0
 62
               7
  6
CONTINUOUS
  0
LAYER
  2
LAYER107
 70
               0
 62
               7
  6
CONTINUOUS
  0
LAYER
  2
LAYER108
 70
               0
 62
               7
  6
CONTINUOUS
  0
LAYER
  2
LAYER109
 70
               0
 62
               7
  6
CONTINUOUS
  0
LAYER
  2
LAYER110
 70
               0
 62
               7
  6
CONTINUOUS
  0
LAYER
  2
LAYER111
 70
               0
 62
               7
  6
CONTINUOUS
  0
LAYER
  2
LAYER112
 70
               0
 62
               7
  6
CONTINUOUS
  0
LAYER
  2
LAYER113
 70
               0
 62
               7
  6
CONTINUOUS
  0
LAYER
  2
LAYER114
 70
               0
 62
               7
  6
CONTINUOUS
  0
LAYER
  2
LAYER115
 70
               0
 62
               7
  6
CONTINUOUS
  0
LAYER
  2
LAYER116
 70
               0
 62
               7
  6
CONTINUOUS
  0
LAYER
  2
LAYER117
 70
               0
 62
               7
  6
CONTINUOUS
  0
LAYER
  2
LAYER118
 70
               0
 62
               7
  6
CONTINUOUS
  0
LAYER
  2
LAYER119
 70
               0
 62
               7
  6
CONTINUOUS
  0
LAYER
  2
LAYER120
 70
               0
 62
               7
  6
CONTINUOUS
  0
LAYER
  2
LAYER121
 70
               0
 62
               7
  6
CONTINUOUS
  0
LAYER
  2
LAYER122
 70
               0
 62
               7
  6
CONTINUOUS
  0
LAYER
  2
LAYER123
 70
               0
 62
               7
  6
CONTINUOUS
  0
LAYER
  2
LAYER124
 70
               0
 62
               7
  6
CONTINUOUS
  0
LAYER
  2
LAYER125
 70
               0
 62
               7
  6
CONTINUOUS
  0
LAYER
  2
LAYER126
 70
               0
 62
               7
  6
CONTINUOUS
  0
LAYER
  2
LAYER127
 70
               0
 62
               7
  6
CONTINUOUS
  0
LAYER
  2
LAYER128
 70
               0
 62
               7
  6
CONTINUOUS
  0
LAYER
  2
LAYER129
 70
               0
 62
               7
  6
CONTINUOUS
  0
LAYER
  2
LAYER130
 70
               0
 62
               7
  6
CONTINUOUS
  0
LAYER
  2
LAYER131
 70
               0
 62
               7
  6
CONTINUOUS
  0
LAYER
  2
LAYER132
 70
               0
 62
               7
  6
CONTINUOUS
  0
LAYER
  2
LAYER133
 70
               0
 62
               7
  6
CONTINUOUS
  0
LAYER
  2
LAYER134
 70
               0
 62
               7
  6
CONTINUOUS
  0
LAYER
  2
LAYER135
 70
               0
 62
               7
  6
CONTINUOUS
  0
LAYER
  2
LAYER136
 70
               0
 62
               7
  6
CONTINUOUS
  0
LAYER
  2
LAYER137
 70
               0
 62
               7
  6
CONTINUOUS
  0
LAYER
  2
LAYER138
 70
               0
 62
               7
  6
CONTINUOUS
  0
LAYER
  2
LAYER139
 70
               0
 62
               7
  6
CONTINUOUS
  0
LAYER
  2
LAYER140
 70
               0
 62
               7
  6
CONTINUOUS
  0
LAYER
  2
LAYER141
 70
               0
 62
               7
  6
CONTINUOUS
  0
LAYER
  2
LAYER142
 70
               0
 62
               7
  6
CONTINUOUS
  0
LAYER
  2
LAYER143
 70
               0
 62
               7
  6
CONTINUOUS
  0
LAYER
  2
LAYER144
 70
               0
 62
               7
  6
CONTINUOUS
  0
LAYER
  2
LAYER145
 70
               0
 62
               7
  6
CONTINUOUS
  0
LAYER
  2
LAYER146
 70
               0
 62
               7
  6
CONTINUOUS
  0
LAYER
  2
LAYER147
 70
               0
 62
               7
  6
CONTINUOUS
  0
LAYER
  2
LAYER148
 70
               0
 62
               7
  6
CONTINUOUS
  0
LAYER
  2
LAYER149
 70
               0
 62
               7
  6
CONTINUOUS
  0
LAYER
  2
LAYER150
 70
               0
 62
               7
  6
CONTINUOUS
  0
LAYER
  2
LAYER151
 70
               0
 62
               7
  6
CONTINUOUS
  0
LAYER
  2
LAYER152
 70
               0
 62
               7
  6
CONTINUOUS
  0
LAYER
  2
LAYER153
 70
               0
 62
               7
  6
CONTINUOUS
  0
LAYER
  2
LAYER154
 70
               0
 62
               7
  6
CONTINUOUS
  0
LAYER
  2
LAYER155
 70
               0
 62
               7
  6
CONTINUOUS
  0
LAYER
  2
LAYER156
 70
               0
 62
               7
  6
CONTINUOUS
  0
LAYER
  2
LAYER157
 70
               0
 62
               7
  6
CONTINUOUS
  0
LAYER
  2
LAYER158
 70
               0
 62
               7
  6
CONTINUOUS
  0
LAYER
  2
LAYER159
 70
               0
 62
               7
  6
CONTINUOUS
  0
LAYER
  2
LAYER160
 70
               0
 62
               7
  6
CONTINUOUS
  0
LAYER
  2
LAYER161
 70
               0
 62
               7
  6
CONTINUOUS
  0
LAYER
  2
LAYER162
 70
               0
 62
               7
  6
CONTINUOUS
  0
LAYER
  2
LAYER163
 70
               0
 62
               7
  6
CONTINUOUS
  0
LAYER
  2
LAYER164
 70
               0
 62
               7
  6
CONTINUOUS
  0
LAYER
  2
LAYER165
 70
               0
 62
               7
  6
CONTINUOUS
  0
LAYER
  2
LAYER166
 70
               0
 62
               7
  6
CONTINUOUS
  0
LAYER
  2
LAYER167
 70
               0
 62
               7
  6
CONTINUOUS
  0
LAYER
  2
LAYER168
 70
               0
 62
               7
  6
CONTINUOUS
  0
LAYER
  2
LAYER169
 70
               0
 62
               7
  6
CONTINUOUS
  0
LAYER
  2
LAYER170
 70
               0
 62
               7
  6
CONTINUOUS
  0
LAYER
  2
LAYER171
 70
               0
 62
               7
  6
CONTINUOUS
  0
LAYER
  2
LAYER172
 70
               0
 62
               7
  6
CONTINUOUS
  0
LAYER
  2
LAYER173
 70
               0
 62
               7
  6
CONTINUOUS
  0
LAYER
  2
LAYER174
 70
               0
 62
               7
  6
CONTINUOUS
  0
LAYER
  2
LAYER175
 70
               0
 62
               7
  6
CONTINUOUS
  0
LAYER
  2
LAYER176
 70
               0
 62
               7
  6
CONTINUOUS
  0
LAYER
  2
LAYER177
 70
               0
 62
               7
  6
CONTINUOUS
  0
LAYER
  2
LAYER178
 70
               0
 62
               7
  6
CONTINUOUS
  0
LAYER
  2
LAYER179
 70
               0
 62
               7
  6
CONTINUOUS
  0
LAYER
  2
LAYER180
 70
               0
 62
               7
  6
CONTINUOUS
  0
LAYER
  2
LAYER181
 70
               0
 62
               7
  6
CONTINUOUS
  0
LAYER
  2
LAYER182
 70
               0
 62
               7
  6
CONTINUOUS
  0
LAYER
  2
LAYER183
 70
               0
 62
               7
  6
CONTINUOUS
  0
LAYER
  2
LAYER184
 70
               0
 62
               7
  6
CONTINUOUS
  0
LAYER
  2
LAYER185
 70
               0
 62
               7
  6
CONTINUOUS
  0
LAYER
  2
LAYER186
 70
               0
 62
               7
  6
CONTINUOUS
  0
LAYER
  2
LAYER187
 70
               0
 62
               7
  6
CONTINUOUS
  0
LAYER
  2
LAYER188
 70
               0
 62
               7
  6
CONTINUOUS
  0
LAYER
  2
LAYER189
 70
               0
 62
               7
  6
CONTINUOUS
  0
LAYER
  2
LAYER190
 70
               0
 62
               7
  6
CONTINUOUS
  0
LAYER
  2
LAYER191
 70
               0
 62
               7
  6
CONTINUOUS
  0
LAYER
  2
LAYER192
 70
               0
 62
               7
  6
CONTINUOUS
  0
LAYER
  2
LAYER193
 70
               0
 62
               7
  6
CONTINUOUS
  0
LAYER
  2
LAYER194
 70
               0
 62
               7
  6
CONTINUOUS
  0
LAYER
  2
LAYER195
 70
               0
 62
               7
  6
CONTINUOUS
  0
LAYER
  2
LAYER196
 70
               0
 62
               7
  6
CONTINUOUS
  0
LAYER
  2
LAYER197
 70
               0
 62
               7
  6
CONTINUOUS
  0
LAYER
  2
LAYER198
 70
               0
 62
               7
  6
CONTINUOUS
  0
LAYER
  2
LAYER199
 70
               0
 62
               7
  6
CONTINUOUS
  0
LAYER
  2
LAYER200
 70
               0
 62
               7
  6
CONTINUOUS
  0
LAYER
  2
LAYER201
 70
               0
 62
               7
  6
CONTINUOUS
  0
LAYER
  2
LAYER202
 70
               0
 62
               7
  6
CONTINUOUS
  0
LAYER
  2
LAYER203
 70
               0
 62
               7
  6
CONTINUOUS
  0
LAYER
  2
LAYER204
 70
               0
 62
               7
  6
CONTINUOUS
  0
LAYER
  2
LAYER205
 70
               0
 62
               7
  6
CONTINUOUS
  0
LAYER
  2
LAYER206
 70
               0
 62
               7
  6
CONTINUOUS
  0
LAYER
  2
LAYER207
 70
               0
 62
               7
  6
CONTINUOUS
  0
LAYER
  2
LAYER208
 70
               0
 62
               7
  6
CONTINUOUS
  0
LAYER
  2
LAYER209
 70
               0
 62
               7
  6
CONTINUOUS
  0
LAYER
  2
LAYER210
 70
               0
 62
               7
  6
CONTINUOUS
  0
LAYER
  2
LAYER211
 70
               0
 62
               7
  6
CONTINUOUS
  0
LAYER
  2
LAYER212
 70
               0
 62
               7
  6
CONTINUOUS
  0
LAYER
  2
LAYER213
 70
               0
 62
               7
  6
CONTINUOUS
  0
LAYER
  2
LAYER214
 70
               0
 62
               7
  6
CONTINUOUS
  0
LAYER
  2
LAYER215
 70
               0
 62
               7
  6
CONTINUOUS
  0
LAYER
  2
LAYER216
 70
               0
 62
               7
  6
CONTINUOUS
  0
LAYER
  2
LAYER217
 70
               0
 62
               7
  6
CONTINUOUS
  0
LAYER
  2
LAYER218
 70
               0
 62
               7
  6
CONTINUOUS
  0
LAYER
  2
LAYER219
 70
               0
 62
               7
  6
CONTINUOUS
  0
LAYER
  2
LAYER220
 70
               0
 62
               7
  6
CONTINUOUS
  0
LAYER
  2
LAYER221
 70
               0
 62
               7
  6
CONTINUOUS
  0
LAYER
  2
LAYER222
 70
               0
 62
               7
  6
CONTINUOUS
  0
LAYER
  2
LAYER223
 70
               0
 62
               7
  6
CONTINUOUS
  0
LAYER
  2
LAYER224
 70
               0
 62
               7
  6
CONTINUOUS
  0
LAYER
  2
LAYER225
 70
               0
 62
               7
  6
CONTINUOUS
  0
LAYER
  2
LAYER226
 70
               0
 62
               7
  6
CONTINUOUS
  0
LAYER
  2
LAYER227
 70
               0
 62
               7
  6
CONTINUOUS
  0
LAYER
  2
LAYER228
 70
               0
 62
               7
  6
CONTINUOUS
  0
LAYER
  2
LAYER229
 70
               0
 62
               7
  6
CONTINUOUS
  0
LAYER
  2
LAYER230
 70
               0
 62
               7
  6
CONTINUOUS
  0
LAYER
  2
LAYER231
 70
               0
 62
               7
  6
CONTINUOUS
  0
LAYER
  2
LAYER232
 70
               0
 62
               7
  6
CONTINUOUS
  0
LAYER
  2
LAYER233
 70
               0
 62
               7
  6
CONTINUOUS
  0
LAYER
  2
LAYER234
 70
               0
 62
               7
  6
CONTINUOUS
  0
LAYER
  2
LAYER235
 70
               0
 62
               7
  6
CONTINUOUS
  0
LAYER
  2
LAYER236
 70
               0
 62
               7
  6
CONTINUOUS
  0
LAYER
  2
LAYER237
 70
               0
 62
               7
  6
CONTINUOUS
  0
LAYER
  2
LAYER238
 70
               0
 62
               7
  6
CONTINUOUS
  0
LAYER
  2
LAYER239
 70
               0
 62
               7
  6
CONTINUOUS
  0
LAYER
  2
LAYER240
 70
               0
 62
               7
  6
CONTINUOUS
  0
LAYER
  2
LAYER241
 70
               0
 62
               7
  6
CONTINUOUS
  0
LAYER
  2
LAYER242
 70
               0
 62
               7
  6
CONTINUOUS
  0
LAYER
  2
LAYER243
 70
               0
 62
               7
  6
CONTINUOUS
  0
LAYER
  2
LAYER244
 70
               0
 62
               7
  6
CONTINUOUS
  0
LAYER
  2
LAYER245
 70
               0
 62
               7
  6
CONTINUOUS
  0
LAYER
  2
LAYER246
 70
               0
 62
               7
  6
CONTINUOUS
  0
LAYER
  2
LAYER247
 70
               0
 62
               7
  6
CONTINUOUS
  0
LAYER
  2
LAYER248
 70
               0
 62
               7
  6
CONTINUOUS
  0
LAYER
  2
LAYER249
 70
               0
 62
               7
  6
CONTINUOUS
  0
LAYER
  2
LAYER250
 70
               0
 62
               7
  6
CONTINUOUS
  0
LAYER
  2
LAYER251
 70
               0
 62
               7
  6
CONTINUOUS
  0
LAYER
  2
LAYER252
 70
               0
 62
               7
  6
CONTINUOUS
  0
LAYER
  2
LAYER253
 70
               0
 62
               7
  6
CONTINUOUS
  0
LAYER
  2
LAYER254
 70
               0
 62
               7
  6
CONTINUOUS
  0
LAYER
  2
LAYER255
 70
               0
 62
               7
  6
CONTINUOUS
  0
ENDTAB
  0
TABLE
  2
STYLE
 70
               1
  0
STYLE
  2
STANDARD
 70
               0
 40
0.0
 41
0.8
 50
0.0
 71
               0
 42
40.0
  3
MS PGothic.ttf
  4

  0
ENDTAB
  0
TABLE
  2
VIEW
 70
               0
  0
VIEW
  2
QQQQ
 70
               0
 40
2712.7862415700265
 10
3.8713099121345067
 20
-482.2665296868758
 41
1577.752621402223
 11
0.0
 21
0.0
 31
1.0
 12
100.0
 22
100.0
 32
0.0
 42
50.0
 43
0.0
 44
0.0
 50
0.0
 71
               0
  0
ENDTAB
  0
TABLE
  2
UCS
 70
               0
  0
ENDTAB
  0
TABLE
  2
APPID
 70
               1
  0
APPID
  2
ACAD
 70
               0
  0
ENDTAB
  0
TABLE
  2
DIMSTYLE
 70
               1
  0
DIMSTYLE
  2
STANDARD
 70
               0
  3

  4

  5

  6

  7

 40
1.0
 41
0.18
 42
0.0625
 43
0.38
 44
0.18
 45
0.0
 46
0.0
 47
0.0
 48
0.0
140
0.18
141
0.09
142
0.0
143
25.399999999999999
144
1.0
145
0.0
146
1.0
147
0.09
 71
               0
 72
               0
 73
               1
 74
               1
 75
               0
 76
               0
 77
               0
 78
               0
170
               0
171
               2
172
               0
173
               0
174
               0
175
               0
176
               0
177
               0
178
               0
  0
ENDTAB
  0
ENDSEC
  0
SECTION
  2
BLOCKS
  0
BLOCK
  8
0
  5
140
  2
GROUP_1
 70
               0
 10
0.0
 20
0.0
 30
0.0
  3
GROUP_1
  0
LINE
  8
0
  6
CONTINUOUS
 62
               4
  5
141
 10
-88.731745930520162
 20
-41.408773670776441
 30
0.0
 11
-88.731745930520162
 21
-32.534606695696141
 31
0.0
  0
LINE
  8
0
  6
CONTINUOUS
 62
               4
  5
142
 10
-83.246918373218818
 20
-41.408773670776441
 30
0.0
 11
-83.246918373218818
 21
-32.534606695696141
 31
0.0
  0
LINE
  8
0
  6
CONTINUOUS
 62
               4
  5
143
 10
-88.731745930520162
 20
-41.408773670776441
 30
0.0
 11
-66.831745930520469
 21
-41.408773670776441
 31
0.0
  0
LINE
  8
0
  6
CONTINUOUS
 62
               4
  5
144
 10
-85.98933215186949
 20
-31.408773670776441
 30
0.0
 11
-69.574159709171141
 21
-31.408773670776441
 31
0.0
  0
LINE
  8
0
  6
CONTINUOUS
 62
               4
  5
145
 10
-66.831745930520469
 20
-41.408773670776441
 30
0.0
 11
-66.831745930520469
 21
-32.534606695696141
 31
0.0
  0
LINE
  8
0
  6
CONTINUOUS
 62
               4
  5
146
 10
-72.316573487821813
 20
-41.408773670776441
 30
0.0
 11
-72.316573487821813
 21
-32.534606695696141
 31
0.0
  0
ARC
  8
0
  6
CONTINUOUS
 62
               4
  5
147
 10
-85.98933215186949
 20
-35.311809529028807
 30
0.0
 40
3.9030358582523994
 50
45.36111921404234
 51
134.63888078592547
  0
ARC
  8
0
  6
CONTINUOUS
 62
               4
  5
148
 10
-69.574159709171141
 20
-35.311809529028807
 30
0.0
 40
3.9030358582525593
 50
45.361119214039817
 51
134.63888078592296
  0
ARC
  8
0
  6
CONTINUOUS
 62
               4
  5
149
 10
-77.781745930520316
 20
-45.236583452182458
 30
0.0
 40
13.827809781406303
 50
66.719648257516582
 51
113.28035174244872
  0
ENDBLK
  8
0
  5
14A
  0
BLOCK
  8
0
  5
14B
  2
GROUP_2
 70
               0
 10
0.0
 20
0.0
 30
0.0
  3
GROUP_2
  0
LINE
  8
0
  6
CONTINUOUS
 62
               4
  5
14C
 10
66.83174593052027
 20
-41.408773670776384
 30
0.0
 11
66.83174593052027
 21
-32.534606695696084
 31
0.0
  0
LINE
  8
0
  6
CONTINUOUS
 62
               4
  5
14D
 10
72.316573487821614
 20
-41.408773670776384
 30
0.0
 11
72.316573487821614
 21
-32.534606695696084
 31
0.0
  0
LINE
  8
0
  6
CONTINUOUS
 62
               4
  5
14E
 10
66.83174593052027
 20
-41.408773670776384
 30
0.0
 11
88.731745930519963
 21
-41.408773670776384
 31
0.0
  0
LINE
  8
0
  6
CONTINUOUS
 62
               4
  5
14F
 10
69.574159709171084
 20
-31.408773670776384
 30
0.0
 11
85.989332151869434
 21
-31.408773670776384
 31
0.0
  0
LINE
  8
0
  6
CONTINUOUS
 62
               4
  5
150
 10
88.731745930519963
 20
-41.408773670776384
 30
0.0
 11
88.731745930519963
 21
-32.534606695696084
 31
0.0
  0
LINE
  8
0
  6
CONTINUOUS
 62
               4
  5
151
 10
83.24691837321862
 20
-41.408773670776384
 30
0.0
 11
83.24691837321862
 21
-32.534606695696084
 31
0.0
  0
ARC
  8
0
  6
CONTINUOUS
 62
               4
  5
152
 10
69.574159709171084
 20
-35.311809529028721
 30
0.0
 40
3.9030358582523994
 50
45.36111921404234
 51
134.63888078592547
  0
ARC
  8
0
  6
CONTINUOUS
 62
               4
  5
153
 10
85.989332151869434
 20
-35.311809529028721
 30
0.0
 40
3.9030358582525593
 50
45.361119214039817
 51
134.63888078592296
  0
ARC
  8
0
  6
CONTINUOUS
 62
               4
  5
154
 10
77.781745930520259
 20
-45.236583452182401
 30
0.0
 40
13.827809781406303
 50
66.719648257516582
 51
113.28035174244872
  0
ENDBLK
  8
0
  5
155
  0
BLOCK
  8
0
  5
156
  2
GROUP_3
 70
               0
 10
0.0
 20
0.0
 30
0.0
  3
GROUP_3
  0
CIRCLE
  8
0
  6
CONTINUOUS
 62
               4
  5
157
 10
77.781745930520287
 20
553.55361168863396
 30
0.0
 40
9.5
  0
LINE
  8
0
  6
CONTINUOUS
 62
               4
  5
158
 10
88.75140104512333
 20
553.55361168863396
 30
0.0
 11
83.26657348782156
 21
563.05361168863374
 31
0.0
  0
LINE
  8
0
  6
CONTINUOUS
 62
               4
  5
159
 10
83.26657348782156
 20
563.05361168863374
 30
0.0
 11
72.296918373218588
 21
563.05361168863374
 31
0.0
  0
LINE
  8
0
  6
CONTINUOUS
 62
               4
  5
15A
 10
72.296918373218588
 20
563.05361168863374
 30
0.0
 11
66.812090815917244
 21
553.55361168863396
 31
0.0
  0
LINE
  8
0
  6
CONTINUOUS
 62
               4
  5
15B
 10
66.812090815917244
 20
553.55361168863396
 30
0.0
 11
72.296918373218588
 21
544.05361168863374
 31
0.0
  0
LINE
  8
0
  6
CONTINUOUS
 62
               4
  5
15C
 10
72.296918373218588
 20
544.05361168863374
 30
0.0
 11
83.26657348782156
 21
544.05361168863374
 31
0.0
  0
LINE
  8
0
  6
CONTINUOUS
 62
               4
  5
15D
 10
83.26657348782156
 20
544.05361168863374
 30
0.0
 11
88.75140104512333
 21
553.55361168863396
 31
0.0
  0
CIRCLE
  8
0
  6
CONTINUOUS
 62
               4
  5
15E
 10
77.781745930520287
 20
553.55361168863396
 30
0.0
 40
5.1250000000000009
  0
CIRCLE
  8
0
  6
CONTINUOUS
 62
               4
  5
15F
 10
77.781745930520287
 20
553.55361168863396
 30
0.0
 40
6.0000000000000009
  0
ENDBLK
  8
0
  5
160
  0
BLOCK
  8
0
  5
161
  2
GROUP_4
 70
               0
 10
0.0
 20
0.0
 30
0.0
  3
GROUP_4
  0
CIRCLE
  8
0
  6
CONTINUOUS
 62
               4
  5
162
 10
77.781745930520358
 20
709.11710354967454
 30
0.0
 40
9.5
  0
LINE
  8
0
  6
CONTINUOUS
 62
               4
  5
163
 10
88.751401045123401
 20
709.11710354967454
 30
0.0
 11
83.266573487821631
 21
718.61710354967431
 31
0.0
  0
LINE
  8
0
  6
CONTINUOUS
 62
               4
  5
164
 10
83.266573487821631
 20
718.61710354967431
 30
0.0
 11
72.296918373218588
 21
718.61710354967431
 31
0.0
  0
LINE
  8
0
  6
CONTINUOUS
 62
               4
  5
165
 10
72.296918373218588
 20
718.61710354967431
 30
0.0
 11
66.812090815917315
 21
709.11710354967454
 31
0.0
  0
LINE
  8
0
  6
CONTINUOUS
 62
               4
  5
166
 10
66.812090815917315
 20
709.11710354967454
 30
0.0
 11
72.296918373218588
 21
699.61710354967431
 31
0.0
  0
LINE
  8
0
  6
CONTINUOUS
 62
               4
  5
167
 10
72.296918373218588
 20
699.61710354967431
 30
0.0
 11
83.266573487821631
 21
699.61710354967431
 31
0.0
  0
LINE
  8
0
  6
CONTINUOUS
 62
               4
  5
168
 10
83.266573487821631
 20
699.61710354967431
 30
0.0
 11
88.751401045123401
 21
709.11710354967454
 31
0.0
  0
CIRCLE
  8
0
  6
CONTINUOUS
 62
               4
  5
169
 10
77.781745930520358
 20
709.11710354967454
 30
0.0
 40
5.1250000000000009
  0
CIRCLE
  8
0
  6
CONTINUOUS
 62
               4
  5
16A
 10
77.781745930520358
 20
709.11710354967454
 30
0.0
 40
6.0000000000000009
  0
ENDBLK
  8
0
  5
16B
  0
BLOCK
  8
0
  5
16C
  2
GROUP_5
 70
               0
 10
0.0
 20
0.0
 30
0.0
  3
GROUP_5
  0
CIRCLE
  8
0
  6
CONTINUOUS
 62
               4
  5
16D
 10
-77.781745930520216
 20
709.11710354967408
 30
0.0
 40
9.5
  0
LINE
  8
0
  6
CONTINUOUS
 62
               4
  5
16E
 10
-66.812090815917173
 20
709.11710354967408
 30
0.0
 11
-72.296918373218944
 21
718.61710354967408
 31
0.0
  0
LINE
  8
0
  6
CONTINUOUS
 62
               4
  5
16F
 10
-72.296918373218944
 20
718.61710354967408
 30
0.0
 11
-83.266573487821987
 21
718.61710354967408
 31
0.0
  0
LINE
  8
0
  6
CONTINUOUS
 62
               4
  5
170
 10
-83.266573487821987
 20
718.61710354967408
 30
0.0
 11
-88.751401045123188
 21
709.11710354967408
 31
0.0
  0
LINE
  8
0
  6
CONTINUOUS
 62
               4
  5
171
 10
-88.751401045123188
 20
709.11710354967408
 30
0.0
 11
-83.266573487821987
 21
699.61710354967408
 31
0.0
  0
LINE
  8
0
  6
CONTINUOUS
 62
               4
  5
172
 10
-83.266573487821987
 20
699.61710354967408
 30
0.0
 11
-72.296918373218944
 21
699.61710354967408
 31
0.0
  0
LINE
  8
0
  6
CONTINUOUS
 62
               4
  5
173
 10
-72.296918373218944
 20
699.61710354967408
 30
0.0
 11
-66.812090815917173
 21
709.11710354967408
 31
0.0
  0
CIRCLE
  8
0
  6
CONTINUOUS
 62
               4
  5
174
 10
-77.781745930520216
 20
709.11710354967408
 30
0.0
 40
5.1250000000000009
  0
CIRCLE
  8
0
  6
CONTINUOUS
 62
               4
  5
175
 10
-77.781745930520216
 20
709.11710354967408
 30
0.0
 40
6.0000000000000009
  0
ENDBLK
  8
0
  5
176
  0
BLOCK
  8
0
  5
177
  2
GROUP_6
 70
               0
 10
0.0
 20
0.0
 30
0.0
  3
GROUP_6
  0
CIRCLE
  8
0
  6
CONTINUOUS
 62
               4
  5
178
 10
-77.781745930520074
 20
553.55361168863396
 30
0.0
 40
9.5
  0
LINE
  8
0
  6
CONTINUOUS
 62
               4
  5
179
 10
-66.812090815917031
 20
553.55361168863396
 30
0.0
 11
-72.296918373218801
 21
563.05361168863374
 31
0.0
  0
LINE
  8
0
  6
CONTINUOUS
 62
               4
  5
17A
 10
-72.296918373218801
 20
563.05361168863374
 30
0.0
 11
-83.266573487821844
 21
563.05361168863374
 31
0.0
  0
LINE
  8
0
  6
CONTINUOUS
 62
               4
  5
17B
 10
-83.266573487821844
 20
563.05361168863374
 30
0.0
 11
-88.751401045123046
 21
553.55361168863396
 31
0.0
  0
LINE
  8
0
  6
CONTINUOUS
 62
               4
  5
17C
 10
-88.751401045123046
 20
553.55361168863396
 30
0.0
 11
-83.266573487821844
 21
544.05361168863374
 31
0.0
  0
LINE
  8
0
  6
CONTINUOUS
 62
               4
  5
17D
 10
-83.266573487821844
 20
544.05361168863374
 30
0.0
 11
-72.296918373218801
 21
544.05361168863374
 31
0.0
  0
LINE
  8
0
  6
CONTINUOUS
 62
               4
  5
17E
 10
-72.296918373218801
 20
544.05361168863374
 30
0.0
 11
-66.812090815917031
 21
553.55361168863396
 31
0.0
  0
CIRCLE
  8
0
  6
CONTINUOUS
 62
               4
  5
17F
 10
-77.781745930520074
 20
553.55361168863396
 30
0.0
 40
5.1250000000000009
  0
CIRCLE
  8
0
  6
CONTINUOUS
 62
               4
  5
180
 10
-77.781745930520074
 20
553.55361168863396
 30
0.0
 40
6.0000000000000009
  0
ENDBLK
  8
0
  5
181
  0
BLOCK
  8
0
  5
182
  2
GROUP_7
 70
               0
 10
0.0
 20
0.0
 30
0.0
  3
GROUP_7
  0
LINE
  8
0
  6
CONTINUOUS
 62
               4
  5
183
 10
-511.26825406948097
 20
-41.408773670776384
 30
0.0
 11
-511.26825406948097
 21
-32.534606695696084
 31
0.0
  0
LINE
  8
0
  6
CONTINUOUS
 62
               4
  5
184
 10
-516.75308162678243
 20
-41.408773670776384
 30
0.0
 11
-516.75308162678243
 21
-32.534606695696084
 31
0.0
  0
LINE
  8
0
  6
CONTINUOUS
 62
               4
  5
185
 10
-511.26825406948097
 20
-41.408773670776384
 30
0.0
 11
-533.16825406948078
 21
-41.408773670776384
 31
0.0
  0
LINE
  8
0
  6
CONTINUOUS
 62
               4
  5
186
 10
-514.01066784813156
 20
-31.408773670776384
 30
0.0
 11
-530.42584029082991
 21
-31.408773670776384
 31
0.0
  0
LINE
  8
0
  6
CONTINUOUS
 62
               4
  5
187
 10
-533.16825406948078
 20
-41.408773670776384
 30
0.0
 11
-533.16825406948078
 21
-32.534606695696084
 31
0.0
  0
LINE
  8
0
  6
CONTINUOUS
 62
               4
  5
188
 10
-527.68342651217927
 20
-41.408773670776384
 30
0.0
 11
-527.68342651217927
 21
-32.534606695696084
 31
0.0
  0
ARC
  8
0
  6
CONTINUOUS
 62
               4
  5
189
 10
-514.01066784813156
 20
-35.311809529028721
 30
0.0
 40
3.9030358582523994
 50
45.36111921404013
 51
134.63888078592291
  0
ARC
  8
0
  6
CONTINUOUS
 62
               4
  5
18A
 10
-530.42584029082991
 20
-35.311809529028721
 30
0.0
 40
3.9030358582525593
 50
45.361119214041885
 51
134.63888078592535
  0
ARC
  8
0
  6
CONTINUOUS
 62
               4
  5
18B
 10
-522.21825406948074
 20
-45.236583452182401
 30
0.0
 40
13.827809781406303
 50
66.719648257516468
 51
113.28035174244877
  0
ENDBLK
  8
0
  5
18C
  0
BLOCK
  8
0
  5
18D
  2
GROUP_8
 70
               0
 10
0.0
 20
0.0
 30
0.0
  3
GROUP_8
  0
LINE
  8
0
  6
CONTINUOUS
 62
               4
  5
18E
 10
-666.83174593052149
 20
-41.408773670776384
 30
0.0
 11
-666.83174593052149
 21
-32.534606695696084
 31
0.0
  0
LINE
  8
0
  6
CONTINUOUS
 62
               4
  5
18F
 10
-672.31657348782301
 20
-41.408773670776384
 30
0.0
 11
-672.31657348782301
 21
-32.534606695696084
 31
0.0
  0
LINE
  8
0
  6
CONTINUOUS
 62
               4
  5
190
 10
-666.83174593052149
 20
-41.408773670776384
 30
0.0
 11
-688.73174593052136
 21
-41.408773670776384
 31
0.0
  0
LINE
  8
0
  6
CONTINUOUS
 62
               4
  5
191
 10
-669.57415970917214
 20
-31.408773670776384
 30
0.0
 11
-685.98933215187049
 21
-31.408773670776384
 31
0.0
  0
LINE
  8
0
  6
CONTINUOUS
 62
               4
  5
192
 10
-688.73174593052136
 20
-41.408773670776384
 30
0.0
 11
-688.73174593052136
 21
-32.534606695696084
 31
0.0
  0
LINE
  8
0
  6
CONTINUOUS
 62
               4
  5
193
 10
-683.24691837321984
 20
-41.408773670776384
 30
0.0
 11
-683.24691837321984
 21
-32.534606695696084
 31
0.0
  0
ARC
  8
0
  6
CONTINUOUS
 62
               4
  5
194
 10
-669.57415970917214
 20
-35.311809529028721
 30
0.0
 40
3.9030358582523994
 50
45.36111921403954
 51
134.63888078592291
  0
ARC
  8
0
  6
CONTINUOUS
 62
               4
  5
195
 10
-685.98933215187049
 20
-35.311809529028721
 30
0.0
 40
3.9030358582525593
 50
45.361119214041885
 51
134.63888078592535
  0
ARC
  8
0
  6
CONTINUOUS
 62
               4
  5
196
 10
-677.78174593052131
 20
-45.236583452182401
 30
0.0
 40
13.827809781406303
 50
66.719648257516468
 51
113.28035174244877
  0
ENDBLK
  8
0
  5
197
  0
BLOCK
  8
0
  5
198
  2
GROUP_9
 70
               0
 10
0.0
 20
0.0
 30
0.0
  3
GROUP_9
  0
LINE
  8
0
  6
CONTINUOUS
 62
               4
  5
199
 10
511.26825406948086
 20
-41.408773670776725
 30
0.0
 11
511.26825406948086
 21
-32.534606695696425
 31
0.0
  0
LINE
  8
0
  6
CONTINUOUS
 62
               4
  5
19A
 10
516.7530816267822
 20
-41.408773670776725
 30
0.0
 11
516.7530816267822
 21
-32.534606695696425
 31
0.0
  0
LINE
  8
0
  6
CONTINUOUS
 62
               4
  5
19B
 10
511.26825406948086
 20
-41.408773670776725
 30
0.0
 11
533.16825406948055
 21
-41.408773670776725
 31
0.0
  0
LINE
  8
0
  6
CONTINUOUS
 62
               4
  5
19C
 10
514.01066784813156
 20
-31.408773670776725
 30
0.0
 11
530.42584029082991
 21
-31.408773670776725
 31
0.0
  0
LINE
  8
0
  6
CONTINUOUS
 62
               4
  5
19D
 10
533.16825406948055
 20
-41.408773670776725
 30
0.0
 11
533.16825406948055
 21
-32.534606695696425
 31
0.0
  0
LINE
  8
0
  6
CONTINUOUS
 62
               4
  5
19E
 10
527.68342651217927
 20
-41.408773670776725
 30
0.0
 11
527.68342651217927
 21
-32.534606695696425
 31
0.0
  0
ARC
  8
0
  6
CONTINUOUS
 62
               4
  5
19F
 10
514.01066784813156
 20
-35.311809529029091
 30
0.0
 40
3.9030358582523994
 50
45.361119214041821
 51
134.63888078592527
  0
ARC
  8
0
  6
CONTINUOUS
 62
               4
  5
1A0
 10
530.42584029082991
 20
-35.311809529029091
 30
0.0
 40
3.9030358582525593
 50
45.361119214039448
 51
134.63888078592291
  0
ARC
  8
0
  6
CONTINUOUS
 62
               4
  5
1A1
 10
522.21825406948074
 20
-45.236583452182742
 30
0.0
 40
13.827809781406303
 50
66.719648257516468
 51
113.28035174244877
  0
ENDBLK
  8
0
  5
1A2
  0
BLOCK
  8
0
  5
1A3
  2
GROUP_10
 70
               0
 10
0.0
 20
0.0
 30
0.0
  3
GROUP_10
  0
LINE
  8
0
  6
CONTINUOUS
 62
               4
  5
1A4
 10
666.83174593052149
 20
-41.408773670776725
 30
0.0
 11
666.83174593052149
 21
-32.534606695696425
 31
0.0
  0
LINE
  8
0
  6
CONTINUOUS
 62
               4
  5
1A5
 10
672.31657348782301
 20
-41.408773670776725
 30
0.0
 11
672.31657348782301
 21
-32.534606695696425
 31
0.0
  0
LINE
  8
0
  6
CONTINUOUS
 62
               4
  5
1A6
 10
666.83174593052149
 20
-41.408773670776725
 30
0.0
 11
688.73174593052136
 21
-41.408773670776725
 31
0.0
  0
LINE
  8
0
  6
CONTINUOUS
 62
               4
  5
1A7
 10
669.57415970917236
 20
-31.408773670776725
 30
0.0
 11
685.98933215187071
 21
-31.408773670776725
 31
0.0
  0
LINE
  8
0
  6
CONTINUOUS
 62
               4
  5
1A8
 10
688.73174593052136
 20
-41.408773670776725
 30
0.0
 11
688.73174593052136
 21
-32.534606695696425
 31
0.0
  0
LINE
  8
0
  6
CONTINUOUS
 62
               4
  5
1A9
 10
683.24691837321984
 20
-41.408773670776725
 30
0.0
 11
683.24691837321984
 21
-32.534606695696425
 31
0.0
  0
ARC
  8
0
  6
CONTINUOUS
 62
               4
  5
1AA
 10
669.57415970917236
 20
-35.311809529029091
 30
0.0
 40
3.9030358582523994
 50
45.361119214041821
 51
134.63888078592527
  0
ARC
  8
0
  6
CONTINUOUS
 62
               4
  5
1AB
 10
685.98933215187071
 20
-35.311809529029091
 30
0.0
 40
3.9030358582525593
 50
45.361119214039448
 51
134.63888078592291
  0
ARC
  8
0
  6
CONTINUOUS
 62
               4
  5
1AC
 10
677.78174593052154
 20
-45.236583452182742
 30
0.0
 40
13.827809781406303
 50
66.719648257516468
 51
113.28035174244877
  0
ENDBLK
  8
0
  5
1AD
  0
ENDSEC
  0
SECTION
  2
ENTITIES
  0
POINT
  8
0
  6
CONTINUOUS
 62
               4
  5
1AE
 10
0.0000000000000711
 20
631.33535761915414
 30
0.0
  0
POINT
  8
0
  6
CONTINUOUS
 62
               4
  5
1AF
 10
-0.0000000000002842
 20
201.58498349324805
 30
0.0
  0
POINT
  8
0
  6
CONTINUOUS
 62
               4
  5
1B0
 10
-600.00000000000045
 20
201.58498349324805
 30
0.0
  0
POINT
  8
0
  6
CONTINUOUS
 62
               4
  5
1B1
 10
600.0
 20
201.58498349324771
 30
0.0
  0
LINE
  8
0
  6
CONTINUOUS
 62
               4
  5
1B2
 10
-6.0000000000012577
 20
113.88255162002639
 30
0.0
 11
-6.0000000000011156
 21
-43.708773670775628
 31
0.0
  0
LINE
  8
0
  6
CONTINUOUS
 62
               4
  5
1B3
 10
5.9999999999989129
 20
113.88255162002582
 30
0.0
 11
5.999999999999055
 21
-43.708773670775628
 31
0.0
  0
LINE
  8
0
  6
CONTINUOUS
 62
               4
  5
1B4
 10
-8.000000000001144
 20
103.26052398873054
 30
0.0
 11
-8.0000000000010019
 21
-43.708773670775628
 31
0.0
  0
LINE
  8
0
  6
CONTINUOUS
 62
               4
  5
1B5
 10
7.9999999999987992
 20
103.26052398873054
 30
0.0
 11
7.9999999999989413
 21
-43.708773670775628
 31
0.0
  0
LINE
  8
0
  6
CONTINUOUS
 62
               4
  5
1B6
 10
-86.468963291263492
 20
-101.41501650675204
 30
0.0
 11
-86.468963291263492
 21
-89.415016506751869
 31
0.0
  0
LINE
  8
0
  6
CONTINUOUS
 62
               4
  5
1B7
 10
-74.651270255117197
 20
-101.41501650675204
 30
0.0
 11
-74.651270255117197
 21
-89.415016506751869
 31
0.0
  0
LINE
  8
0
  6
CONTINUOUS
 62
               4
  5
1B8
 10
-69.094528569775093
 20
-101.41501650675204
 30
0.0
 11
-69.094528569775093
 21
-89.415016506751869
 31
0.0
  0
LINE
  8
0
  6
CONTINUOUS
 62
               4
  5
1B9
 10
-69.094528569775093
 20
-101.41501650675204
 30
0.0
 11
-86.468963291263492
 21
-101.41501650675204
 31
0.0
  0
LINE
  8
0
  6
CONTINUOUS
 62
               4
  5
1BA
 10
69.094528569777012
 20
-101.41501650675204
 30
0.0
 11
69.094528569777012
 21
-89.415016506751869
 31
0.0
  0
LINE
  8
0
  6
CONTINUOUS
 62
               4
  5
1BB
 10
80.912221605923307
 20
-101.41501650675204
 30
0.0
 11
80.912221605923307
 21
-89.415016506751869
 31
0.0
  0
LINE
  8
0
  6
CONTINUOUS
 62
               4
  5
1BC
 10
86.46896329126541
 20
-101.41501650675204
 30
0.0
 11
86.46896329126541
 21
-89.415016506751869
 31
0.0
  0
LINE
  8
0
  6
CONTINUOUS
 62
               4
  5
1BD
 10
86.46896329126541
 20
-101.41501650675204
 30
0.0
 11
69.094528569777012
 21
-101.41501650675204
 31
0.0
  0
LINE
  8
0
  6
CONTINUOUS
 62
               4
  5
1BE
 10
-64.781745930520486
 20
-41.408773670775304
 30
0.0
 11
-64.781745930520486
 21
-43.708773670775201
 31
0.0
  0
LINE
  8
0
  6
CONTINUOUS
 62
               4
  5
1BF
 10
-64.781745930520486
 20
-43.708773670775201
 30
0.0
 11
-90.781745930520572
 21
-43.708773670775201
 31
0.0
  0
LINE
  8
0
  6
CONTINUOUS
 62
               4
  5
1C0
 10
-90.781745930520572
 20
-43.708773670775201
 30
0.0
 11
-90.781745930520572
 21
-41.408773670775304
 31
0.0
  0
LINE
  8
0
  6
CONTINUOUS
 62
               4
  5
1C1
 10
-90.781745930520572
 20
-41.408773670775304
 30
0.0
 11
-64.781745930520486
 21
-41.408773670775304
 31
0.0
  0
LINE
  8
0
  6
CONTINUOUS
 62
               4
  5
1C2
 10
-71.781745930520515
 20
-31.408773670776441
 30
0.0
 11
-71.781745930520515
 21
-22.708773670776253
 31
0.0
  0
LINE
  8
0
  6
CONTINUOUS
 62
               4
  5
1C3
 10
-83.781745930520543
 20
-22.708773670776253
 30
0.0
 11
-83.781745930520543
 21
-31.408773670776441
 31
0.0
  0
LINE
  8
0
  6
CONTINUOUS
 62
               4
  5
1C4
 10
-83.781745930520543
 20
-22.708773670776253
 30
0.0
 11
-71.781745930520515
 21
-22.708773670776253
 31
0.0
  0
LINE
  8
0
  6
CONTINUOUS
 62
               4
  5
1C5
 10
64.781745930519861
 20
-43.708773670775145
 30
0.0
 11
64.781745930519861
 21
-41.408773670775247
 31
0.0
  0
LINE
  8
0
  6
CONTINUOUS
 62
               4
  5
1C6
 10
83.781745930519918
 20
-31.408773670776384
 30
0.0
 11
83.781745930519918
 21
-22.708773670776168
 31
0.0
  0
LINE
  8
0
  6
CONTINUOUS
 62
               4
  5
1C7
 10
71.781745930520032
 20
-22.708773670776168
 30
0.0
 11
71.781745930520032
 21
-31.408773670776384
 31
0.0
  0
LINE
  8
0
  6
CONTINUOUS
 62
               4
  5
1C8
 10
71.781745930520032
 20
-22.708773670776168
 30
0.0
 11
83.781745930519918
 21
-22.708773670776168
 31
0.0
  0
LINE
  8
0
  6
CONTINUOUS
 62
               4
  5
1C9
 10
90.781745930520088
 20
-41.408773670775247
 30
0.0
 11
90.781745930520088
 21
-43.708773670775145
 31
0.0
  0
LINE
  8
0
  6
CONTINUOUS
 62
               4
  5
1CA
 10
90.781745930520088
 20
-43.708773670775145
 30
0.0
 11
64.781745930519861
 21
-43.708773670775145
 31
0.0
  0
LINE
  8
0
  6
CONTINUOUS
 62
               4
  5
1CB
 10
64.781745930519861
 20
-41.408773670775247
 30
0.0
 11
90.781745930520088
 21
-41.408773670775247
 31
0.0
  0
LINE
  8
0
  6
CONTINUOUS
 62
               4
  5
1CC
 10
-11.727000000001368
 20
118.88255162002599
 30
0.0
 11
11.726999999999038
 21
118.88255162002599
 31
0.0
  0
LINE
  8
0
  6
CONTINUOUS
 62
               4
  5
1CD
 10
11.726999999999038
 20
113.88255162002599
 30
0.0
 11
11.726999999999038
 21
118.88255162002599
 31
0.0
  0
LINE
  8
0
  6
CONTINUOUS
 62
               4
  5
1CE
 10
-11.727000000001368
 20
113.88255162002599
 30
0.0
 11
-11.727000000001368
 21
118.88255162002599
 31
0.0
  0
LINE
  8
0
  6
CONTINUOUS
 62
               4
  5
1CF
 10
11.726999999999038
 20
118.88255162002599
 30
0.0
 11
5.9999999999990621
 21
113.88255162002599
 31
0.0
  0
LINE
  8
0
  6
CONTINUOUS
 62
               4
  5
1D0
 10
-6.0000000000008242
 20
113.88255162002599
 30
0.0
 11
-11.727000000001368
 21
118.88255162002599
 31
0.0
  0
LINE
  8
0
  6
CONTINUOUS
 62
               4
  5
1D1
 10
5.9999999999990621
 20
113.88255162002599
 30
0.0
 11
-6.0000000000008242
 21
113.88255162002599
 31
0.0
  0
ARC
  8
0
  6
CONTINUOUS
 62
               4
  5
1D2
 10
24.999999999998835
 20
103.26052398873048
 30
0.0
 40
17.0
 50
141.33064456987887
 51
179.99999999996521
  0
ARC
  8
0
  6
CONTINUOUS
 62
               4
  5
1D3
 10
-25.000000000000171
 20
103.26052398873048
 30
0.0
 40
17.0
 50
0.0
 51
38.669355430086384
  0
LINE
  8
0
  6
CONTINUOUS
 62
               4
  5
1D4
 10
23.580847421121405
 20
-497.01225019306918
 30
0.0
 11
-39.704824739235335
 21
-387.39825062018468
 31
0.0
  0
ARC
  8
0
  6
CONTINUOUS
 62
               4
  5
1D5
 10
325.71848239240779
 20
-249.49700559482301
 30
0.0
 40
390.57770900881167
 50
200.67520123187933
 51
219.32479876803959
  0
ARC
  8
0
  6
CONTINUOUS
 62
               4
  5
1D6
 10
-935.13496319899855
 20
-977.45108181568685
 30
0.0
 40
1072.3607025921351
 50
26.616707427993422
 51
33.3832925719949
  0
LINE
  8
0
  6
CONTINUOUS
 62
               4
  5
1D7
 10
56.999999999999751
 20
-613.41501650675195
 30
0.0
 11
-57.000000000000227
 21
-613.41501650675195
 31
0.0
  0
LINE
  8
0
  6
CONTINUOUS
 62
               4
  5
1D8
 10
58.053042823173129
 20
-612.3619736835783
 30
0.0
 11
-58.05304282317357
 21
-612.3619736835783
 31
0.0
  0
CIRCLE
  8
0
  6
CONTINUOUS
 62
               4
  5
1D9
 10
77.781745930520287
 20
553.55361168863396
 30
0.0
 40
13.0
  0
CIRCLE
  8
0
  6
CONTINUOUS
 62
               4
  5
1DA
 10
77.781745930520358
 20
709.11710354967454
 30
0.0
 40
13.0
  0
CIRCLE
  8
0
  6
CONTINUOUS
 62
               4
  5
1DB
 10
-77.781745930520216
 20
709.11710354967408
 30
0.0
 40
13.0
  0
CIRCLE
  8
0
  6
CONTINUOUS
 62
               4
  5
1DC
 10
-77.781745930520074
 20
553.55361168863396
 30
0.0
 40
13.0
  0
LINE
  8
0
  6
CONTINUOUS
 62
               4
  5
1DD
 10
-510.00000000000057
 20
93.382551620026106
 30
0.0
 11
-510.00000000000057
 21
-38.423922358787564
 31
0.0
  0
LINE
  8
0
  6
CONTINUOUS
 62
               4
  5
1DE
 10
-690.00000000000045
 20
93.382551620026106
 30
0.0
 11
-690.00000000000045
 21
-38.423922358787564
 31
0.0
  0
LINE
  8
0
  6
CONTINUOUS
 62
               4
  5
1DF
 10
-496.93020100659567
 20
-43.708773670775201
 30
0.0
 11
-505.17449748351299
 21
-43.420876493883128
 31
0.0
  0
LINE
  8
0
  6
CONTINUOUS
 62
               4
  5
1E0
 10
-703.06979899340536
 20
-43.708773670775145
 30
0.0
 11
-694.82550251648809
 21
-43.420876493883128
 31
0.0
  0
ARC
  8
0
  6
CONTINUOUS
 62
               4
  5
1E1
 10
-505.00000000000057
 20
-38.423922358787564
 30
0.0
 40
5.0
 50
179.99999999996524
 51
267.99999999994816
  0
ARC
  8
0
  6
CONTINUOUS
 62
               4
  5
1E2
 10
-695.00000000000045
 20
-38.423922358787564
 30
0.0
 40
5.0
 50
271.99999999994702
 51
359.99999999993037
  0
LINE
  8
0
  6
CONTINUOUS
 62
               4
  5
1E3
 10
-508.00000000000051
 20
99.698557238004355
 30
0.0
 11
-508.00000000000051
 21
-38.493763897771146
 31
0.0
  0
ARC
  8
0
  6
CONTINUOUS
 62
               4
  5
1E4
 10
-503.00000000000051
 20
-38.493763897771146
 30
0.0
 40
5.0
 50
179.99999999996524
 51
267.99999999994816
  0
LINE
  8
0
  6
CONTINUOUS
 62
               4
  5
1E5
 10
-692.00000000000045
 20
99.698557238003502
 30
0.0
 11
-692.00000000000045
 21
-38.493763897771146
 31
0.0
  0
ARC
  8
0
  6
CONTINUOUS
 62
               4
  5
1E6
 10
-697.00000000000045
 20
-38.493763897771146
 30
0.0
 40
5.0
 50
271.99999999994702
 51
359.99999999993037
  0
LINE
  8
0
  6
CONTINUOUS
 62
               4
  5
1E7
 10
-535.21825406948074
 20
-41.408773670775247
 30
0.0
 11
-535.21825406948074
 21
-43.708773670775145
 31
0.0
  0
LINE
  8
0
  6
CONTINUOUS
 62
               4
  5
1E8
 10
-535.21825406948074
 20
-43.708773670775145
 30
0.0
 11
-509.21825406948057
 21
-43.708773670775145
 31
0.0
  0
LINE
  8
0
  6
CONTINUOUS
 62
               4
  5
1E9
 10
-509.21825406948057
 20
-43.708773670775145
 30
0.0
 11
-509.21825406948057
 21
-41.408773670775247
 31
0.0
  0
LINE
  8
0
  6
CONTINUOUS
 62
               4
  5
1EA
 10
-509.21825406948057
 20
-41.408773670775247
 30
0.0
 11
-535.21825406948074
 21
-41.408773670775247
 31
0.0
  0
LINE
  8
0
  6
CONTINUOUS
 62
               4
  5
1EB
 10
-528.21825406948074
 20
-31.408773670776384
 30
0.0
 11
-528.21825406948074
 21
-22.708773670776168
 31
0.0
  0
LINE
  8
0
  6
CONTINUOUS
 62
               4
  5
1EC
 10
-516.21825406948051
 20
-22.708773670776168
 30
0.0
 11
-516.21825406948051
 21
-31.408773670776384
 31
0.0
  0
LINE
  8
0
  6
CONTINUOUS
 62
               4
  5
1ED
 10
-516.21825406948051
 20
-22.708773670776168
 30
0.0
 11
-528.21825406948074
 21
-22.708773670776168
 31
0.0
  0
LINE
  8
0
  6
CONTINUOUS
 62
               4
  5
1EE
 10
-690.78174593052131
 20
-41.408773670775247
 30
0.0
 11
-690.78174593052131
 21
-43.708773670775145
 31
0.0
  0
LINE
  8
0
  6
CONTINUOUS
 62
               4
  5
1EF
 10
-690.78174593052131
 20
-43.708773670775145
 30
0.0
 11
-664.78174593052108
 21
-43.708773670775145
 31
0.0
  0
LINE
  8
0
  6
CONTINUOUS
 62
               4
  5
1F0
 10
-664.78174593052108
 20
-43.708773670775145
 30
0.0
 11
-664.78174593052108
 21
-41.408773670775247
 31
0.0
  0
LINE
  8
0
  6
CONTINUOUS
 62
               4
  5
1F1
 10
-664.78174593052108
 20
-41.408773670775247
 30
0.0
 11
-690.78174593052131
 21
-41.408773670775247
 31
0.0
  0
LINE
  8
0
  6
CONTINUOUS
 62
               4
  5
1F2
 10
-683.78174593052131
 20
-31.408773670776384
 30
0.0
 11
-683.78174593052131
 21
-22.708773670776168
 31
0.0
  0
LINE
  8
0
  6
CONTINUOUS
 62
               4
  5
1F3
 10
-671.78174593052108
 20
-22.708773670776168
 30
0.0
 11
-671.78174593052108
 21
-31.408773670776384
 31
0.0
  0
LINE
  8
0
  6
CONTINUOUS
 62
               4
  5
1F4
 10
-671.78174593052108
 20
-22.708773670776168
 30
0.0
 11
-683.78174593052131
 21
-22.708773670776168
 31
0.0
  0
LINE
  8
0
  6
CONTINUOUS
 62
               4
  5
1F5
 10
-686.46896329126344
 20
-101.41501650675204
 30
0.0
 11
-686.46896329126344
 21
-89.415016506751869
 31
0.0
  0
LINE
  8
0
  6
CONTINUOUS
 62
               4
  5
1F6
 10
-674.6512702551172
 20
-101.41501650675204
 30
0.0
 11
-674.6512702551172
 21
-89.415016506751869
 31
0.0
  0
LINE
  8
0
  6
CONTINUOUS
 62
               4
  5
1F7
 10
-669.09452856977509
 20
-101.41501650675204
 30
0.0
 11
-669.09452856977509
 21
-89.415016506751869
 31
0.0
  0
LINE
  8
0
  6
CONTINUOUS
 62
               4
  5
1F8
 10
-669.09452856977509
 20
-101.41501650675204
 30
0.0
 11
-686.46896329126344
 21
-101.41501650675204
 31
0.0
  0
LINE
  8
0
  6
CONTINUOUS
 62
               4
  5
1F9
 10
-530.90547143022309
 20
-101.41501650675204
 30
0.0
 11
-530.90547143022309
 21
-89.415016506751869
 31
0.0
  0
LINE
  8
0
  6
CONTINUOUS
 62
               4
  5
1FA
 10
-519.08777839407685
 20
-101.41501650675204
 30
0.0
 11
-519.08777839407685
 21
-89.415016506751869
 31
0.0
  0
LINE
  8
0
  6
CONTINUOUS
 62
               4
  5
1FB
 10
-513.53103670873475
 20
-101.41501650675204
 30
0.0
 11
-513.53103670873475
 21
-89.415016506751869
 31
0.0
  0
LINE
  8
0
  6
CONTINUOUS
 62
               4
  5
1FC
 10
-513.53103670873475
 20
-101.41501650675204
 30
0.0
 11
-530.90547143022309
 21
-101.41501650675204
 31
0.0
  0
ARC
  8
0
  6
CONTINUOUS
 62
               4
  5
1FD
 10
-773.35934986435154
 20
-148.05469958471929
 30
0.0
 40
92.090694433536868
 50
334.84855444161809
 51
384.92989747989617
  0
ARC
  8
0
  6
CONTINUOUS
 62
               4
  5
1FE
 10
-622.48824559530749
 20
-401.82199677175697
 30
0.0
 40
62.379470432471358
 50
153.87479529774379
 51
191.49340995895585
  0
ARC
  8
0
  6
CONTINUOUS
 62
               4
  5
1FF
 10
-657.36531552333827
 20
-417.36975421552552
 30
0.0
 40
10.0
 50
324.29736943372262
 51
398.20421175358553
  0
LINE
  8
0
  6
CONTINUOUS
 62
               4
  5
200
 10
-649.50720119844959
 20
-411.18509260336089
 30
0.0
 11
-689.79905196282175
 21
-359.99102742685619
 31
0.0
  0
ARC
  8
0
  6
CONTINUOUS
 62
               4
  5
201
 10
-664.70313470838369
 20
-412.09648537116675
 30
0.0
 40
19.036091782253322
 50
186.49999999996379
 51
324.29736943372262
  0
ARC
  8
0
  6
CONTINUOUS
 62
               4
  5
202
 10
-726.31870882350381
 20
-452.41383163610169
 30
0.0
 40
204.24864340422488
 50
353.49999999993162
 51
373.4368021674054
  0
ARC
  8
0
  6
CONTINUOUS
 62
               4
  5
203
 10
-688.62769905544269
 20
-450.12941456669398
 30
0.0
 40
167.18634723772169
 50
351.25933879886691
 51
375.67746336847057
  0
LINE
  8
0
  6
CONTINUOUS
 62
               4
  5
204
 10
-543.00000000000045
 20
-613.41501650675195
 30
0.0
 11
-657.00000000000023
 21
-613.41501650675195
 31
0.0
  0
LINE
  8
0
  6
CONTINUOUS
 62
               4
  5
205
 10
-541.94695717682703
 20
-612.3619736835783
 30
0.0
 11
-658.05304282317366
 21
-612.3619736835783
 31
0.0
  0
LINE
  8
0
  6
CONTINUOUS
 62
               4
  5
206
 10
496.9302010065955
 20
-43.708773670775486
 30
0.0
 11
505.17449748351282
 21
-43.420876493883412
 31
0.0
  0
LINE
  8
0
  6
CONTINUOUS
 62
               4
  5
207
 10
703.06979899340558
 20
-43.708773670775486
 30
0.0
 11
694.82550251648809
 21
-43.420876493883554
 31
0.0
  0
ARC
  8
0
  6
CONTINUOUS
 62
               4
  5
208
 10
505.0000000000004
 20
-38.423922358787848
 30
0.0
 40
5.0
 50
271.99999999994765
 51
359.99999999993031
  0
ARC
  8
0
  6
CONTINUOUS
 62
               4
  5
209
 10
695.00000000000045
 20
-38.423922358787991
 30
0.0
 40
5.0
 50
179.99999999996518
 51
267.99999999994884
  0
ARC
  8
0
  6
CONTINUOUS
 62
               4
  5
20A
 10
503.0000000000004
 20
-38.49376389777143
 30
0.0
 40
5.0
 50
271.99999999994765
 51
359.99999999993031
  0
ARC
  8
0
  6
CONTINUOUS
 62
               4
  5
20B
 10
697.00000000000045
 20
-38.493763897771572
 30
0.0
 40
5.0
 50
179.99999999996518
 51
267.99999999994753
  0
LINE
  8
0
  6
CONTINUOUS
 62
               4
  5
20C
 10
535.21825406948051
 20
-41.408773670775588
 30
0.0
 11
535.21825406948051
 21
-43.708773670775486
 31
0.0
  0
LINE
  8
0
  6
CONTINUOUS
 62
               4
  5
20D
 10
535.21825406948051
 20
-43.708773670775486
 30
0.0
 11
509.21825406948045
 21
-43.708773670775486
 31
0.0
  0
LINE
  8
0
  6
CONTINUOUS
 62
               4
  5
20E
 10
509.21825406948045
 20
-43.708773670775486
 30
0.0
 11
509.21825406948045
 21
-41.408773670775588
 31
0.0
  0
LINE
  8
0
  6
CONTINUOUS
 62
               4
  5
20F
 10
509.21825406948045
 20
-41.408773670775588
 30
0.0
 11
535.21825406948051
 21
-41.408773670775588
 31
0.0
  0
LINE
  8
0
  6
CONTINUOUS
 62
               4
  5
210
 10
528.21825406948051
 20
-31.408773670776725
 30
0.0
 11
528.21825406948051
 21
-22.708773670776537
 31
0.0
  0
LINE
  8
0
  6
CONTINUOUS
 62
               4
  5
211
 10
516.21825406948051
 20
-22.708773670776537
 30
0.0
 11
516.21825406948051
 21
-31.408773670776725
 31
0.0
  0
LINE
  8
0
  6
CONTINUOUS
 62
               4
  5
212
 10
516.21825406948051
 20
-22.708773670776537
 30
0.0
 11
528.21825406948051
 21
-22.708773670776537
 31
0.0
  0
LINE
  8
0
  6
CONTINUOUS
 62
               4
  5
213
 10
690.78174593052131
 20
-41.408773670775588
 30
0.0
 11
690.78174593052131
 21
-43.708773670775486
 31
0.0
  0
LINE
  8
0
  6
CONTINUOUS
 62
               4
  5
214
 10
690.78174593052131
 20
-43.708773670775486
 30
0.0
 11
664.78174593052108
 21
-43.708773670775486
 31
0.0
  0
LINE
  8
0
  6
CONTINUOUS
 62
               4
  5
215
 10
664.78174593052108
 20
-43.708773670775486
 30
0.0
 11
664.78174593052108
 21
-41.408773670775588
 31
0.0
  0
LINE
  8
0
  6
CONTINUOUS
 62
               4
  5
216
 10
664.78174593052108
 20
-41.408773670775588
 30
0.0
 11
690.78174593052131
 21
-41.408773670775588
 31
0.0
  0
LINE
  8
0
  6
CONTINUOUS
 62
               4
  5
217
 10
683.78174593052131
 20
-31.408773670776725
 30
0.0
 11
683.78174593052131
 21
-22.708773670776537
 31
0.0
  0
LINE
  8
0
  6
CONTINUOUS
 62
               4
  5
218
 10
671.78174593052131
 20
-22.708773670776537
 30
0.0
 11
671.78174593052131
 21
-31.408773670776725
 31
0.0
  0
LINE
  8
0
  6
CONTINUOUS
 62
               4
  5
219
 10
671.78174593052131
 20
-22.708773670776537
 30
0.0
 11
683.78174593052131
 21
-22.708773670776537
 31
0.0
  0
LINE
  8
0
  6
CONTINUOUS
 62
               4
  5
21A
 10
690.0
 20
93.382551620025822
 30
0.0
 11
690.0
 21
-38.423922358787877
 31
0.0
  0
LINE
  8
0
  6
CONTINUOUS
 62
               4
  5
21B
 10
510.00000000000006
 20
93.382551620025822
 30
0.0
 11
510.00000000000006
 21
-38.423922358787877
 31
0.0
  0
LINE
  8
0
  6
CONTINUOUS
 62
               4
  5
21C
 10
692.0
 20
99.698557238004071
 30
0.0
 11
692.0
 21
-38.493763897771458
 31
0.0
  0
LINE
  8
0
  6
CONTINUOUS
 62
               4
  5
21D
 10
507.99999999999994
 20
99.698557238003161
 30
0.0
 11
507.99999999999994
 21
-38.493763897771458
 31
0.0
  0
ARC
  8
0
  6
CONTINUOUS
 62
               4
  5
21E
 10
773.35934986435154
 20
-148.05469958471971
 30
0.0
 40
92.090694433536868
 50
155.07010251999944
 51
205.15144555827743
  0
LINE
  8
0
  6
CONTINUOUS
 62
               4
  5
21F
 10
669.09452856977714
 20
-101.41501650675232
 30
0.0
 11
669.09452856977714
 21
-89.415016506752153
 31
0.0
  0
LINE
  8
0
  6
CONTINUOUS
 62
               4
  5
220
 10
680.91222160592361
 20
-101.41501650675232
 30
0.0
 11
680.91222160592361
 21
-89.415016506752153
 31
0.0
  0
LINE
  8
0
  6
CONTINUOUS
 62
               4
  5
221
 10
686.46896329126571
 20
-101.41501650675232
 30
0.0
 11
686.46896329126571
 21
-89.415016506752153
 31
0.0
  0
LINE
  8
0
  6
CONTINUOUS
 62
               4
  5
222
 10
686.46896329126571
 20
-101.41501650675232
 30
0.0
 11
669.09452856977714
 21
-101.41501650675232
 31
0.0
  0
ARC
  8
0
  6
CONTINUOUS
 62
               4
  5
223
 10
30.156640953966019
 20
-626.2131764780429
 30
0.0
 40
687.72820158627314
 50
18.108480790465826
 51
28.098008730082476
  0
ARC
  8
0
  6
CONTINUOUS
 62
               4
  5
224
 10
618.5103677174227
 20
-369.59940193325531
 30
0.0
 40
69.74273142123306
 50
332.35940834662927
 51
434.76997683374913
  0
LINE
  8
0
  6
CONTINUOUS
 62
               4
  5
225
 10
513.53103670873679
 20
-101.41501650675238
 30
0.0
 11
513.53103670873679
 21
-89.41501650675221
 31
0.0
  0
LINE
  8
0
  6
CONTINUOUS
 62
               4
  5
226
 10
525.34872974488303
 20
-101.41501650675238
 30
0.0
 11
525.34872974488303
 21
-89.41501650675221
 31
0.0
  0
LINE
  8
0
  6
CONTINUOUS
 62
               4
  5
227
 10
530.90547143022513
 20
-101.41501650675238
 30
0.0
 11
530.90547143022513
 21
-89.41501650675221
 31
0.0
  0
LINE
  8
0
  6
CONTINUOUS
 62
               4
  5
228
 10
530.90547143022513
 20
-101.41501650675238
 30
0.0
 11
513.53103670873679
 21
-101.41501650675238
 31
0.0
  0
LINE
  8
0
  6
CONTINUOUS
 62
               4
  5
229
 10
657.0
 20
-613.41501650675218
 30
0.0
 11
543.0
 21
-613.41501650675218
 31
0.0
  0
LINE
  8
0
  6
CONTINUOUS
 62
               4
  5
22A
 10
658.05304282317343
 20
-612.36197368357875
 30
0.0
 11
541.94695717682657
 21
-612.36197368357875
 31
0.0
  0
POINT
  8
0
  6
CONTINUOUS
 62
               4
  5
22B
 10
-247.03776905046897
 20
-1090.5632119879424
 30
0.0
  0
POINT
  8
0
  6
CONTINUOUS
 62
               4
  5
22C
 10
-537.23776905046884
 20
-1090.5632119879424
 30
0.0
  0
POINT
  8
0
  6
CONTINUOUS
 62
               4
  5
22D
 10
-349.58372644623552
 20
-982.49532791890749
 30
0.0
  0
POINT
  8
0
  6
CONTINUOUS
 62
               4
  5
22E
 10
242.83392368588073
 20
-1090.5632119879424
 30
0.0
  0
POINT
  8
0
  6
CONTINUOUS
 62
               4
  5
22F
 10
-1.0781087646051333
 20
-1090.5632119879424
 30
0.0
  0
POINT
  8
0
  6
CONTINUOUS
 62
               4
  5
230
 10
165.37790746063791
 20
-1002.6071957626997
 30
0.0
  0
LINE
  8
0
  6
CONTINUOUS
 62
               4
  5
231
 10
686.28652321630739
 20
-1482.3425564118829
 30
0.0
 11
681.28652321630739
 21
-1477.3425564118829
 31
0.0
  0
ARC
  8
0
  6
CONTINUOUS
 62
               4
  5
232
 10
663.78652321630739
 20
-1492.8782101647357
 30
0.0
 40
19.999999999999996
 50
0.0
 51
31.78833061703342
  0
LINE
  8
0
  6
CONTINUOUS
 62
               4
  5
233
 10
680.78652321630784
 20
-1482.3425564118829
 30
0.0
 11
680.78652321630784
 21
-1477.3425564118825
 31
0.0
  0
LINE
  8
0
  6
CONTINUOUS
 62
               4
  5
234
 10
681.28652321630739
 20
-1477.3425564118829
 30
0.0
 11
680.78652321630784
 21
-1477.3425564118829
 31
0.0
  0
LINE
  8
0
  6
CONTINUOUS
 62
               4
  5
235
 10
686.03652321630761
 20
-1482.5925564118829
 30
0.0
 11
680.78652321630784
 21
-1477.3425564118829
 31
0.0
  0
LINE
  8
0
  6
CONTINUOUS
 62
               4
  5
236
 10
686.03652321630761
 20
-1482.5925564118829
 30
0.0
 11
686.28652321630739
 21
-1482.3425564118829
 31
0.0
  0
LINE
  8
0
  6
CONTINUOUS
 62
               4
  5
237
 10
686.28652321630739
 20
-1482.3425564118829
 30
0.0
 11
686.28652321630739
 21
-1613.0312337618529
 31
0.0
  0
LINE
  8
0
  6
CONTINUOUS
 62
               4
  5
238
 10
686.03652321630761
 20
-1482.5925564118829
 30
0.0
 11
686.03652321630761
 21
-1612.7458766547174
 31
0.0
  0
LINE
  8
0
  6
CONTINUOUS
 62
               4
  5
239
 10
683.78652321630739
 20
-1492.7251865676185
 30
0.0
 11
683.78652321630739
 21
-1611.8782101647357
 31
0.0
  0
POINT
  8
0
  6
CONTINUOUS
 62
               4
  5
23A
 10
653.78652321630761
 20
-1221.7787764161517
 30
0.0
  0
POINT
  8
0
  6
CONTINUOUS
 62
               4
  5
23B
 10
464.88652321630758
 20
-1507.3782101647357
 30
0.0
  0
POINT
  8
0
  6
CONTINUOUS
 62
               4
  5
23C
 10
464.88652321630769
 20
-1121.8787764161511
 30
0.0
  0
LINE
  8
0
  6
DASHDOT
 62
               4
  5
23D
 10
-0.0000000000002842
 20
-745.23855699639421
 30
0.0
 11
0.0
 21
234.83535761915397
 31
0.0
  0
LINE
  8
0
  6
DASHDOT
 62
               4
  5
23E
 10
162.01839599130301
 20
-157.9150165067519
 30
0.0
 11
89.999999999999773
 21
-157.91501650675187
 31
0.0
  0
LINE
  8
0
  6
DASHDOT
 62
               4
  5
23F
 10
67.499999999999716
 20
-170.41501650675184
 30
0.0
 11
-67.500000000000213
 21
-170.41501650675184
 31
0.0
  0
LINE
  8
0
  6
DASHDOT
 62
               4
  5
240
 10
-168.14092777451566
 20
-170.4150165067519
 30
0.0
 11
-89.999999999999957
 21
-170.4150165067519
 31
0.0
  0
LINE
  8
0
  6
DASHDOT
 62
               4
  5
241
 10
-0.000000000000142
 20
517.43215824191384
 30
0.0
 11
0.0000000000000711
 21
745.23855699639421
 31
0.0
  0
LINE
  8
0
  6
DASHDOT
 62
               4
  5
242
 10
113.90319937724001
 20
631.33535761915391
 30
0.0
 11
-113.90319937724036
 21
631.33535761915414
 31
0.0
  0
LINE
  8
0
  6
DASHDOT
 62
               4
  5
243
 10
-113.90319937724009
 20
631.33535761915414
 30
0.0
 11
-179.99999999999994
 21
631.33535761915414
 31
0.0
  0
LINE
  8
0
  6
DASHDOT
 62
               4
  5
244
 10
0.0000000000000284
 20
517.43215824191384
 30
0.0
 11
-0.0000000000000852
 21
451.33535761915397
 31
0.0
  0
LINE
  8
0
  6
DASHDOT
 62
               4
  5
245
 10
113.90319937723991
 20
631.33535761915414
 30
0.0
 11
179.99999999999974
 21
631.33535761915391
 31
0.0
  0
LINE
  8
0
  6
DASHDOT
 62
               4
  5
246
 10
-600.00000000000045
 20
-741.23855699639421
 30
0.0
 11
-600.00000000000023
 21
234.83535761915397
 31
0.0
  0
LINE
  8
0
  6
DASHDOT
 62
               4
  5
247
 10
-431.85907222548468
 20
-170.41501650675195
 30
0.0
 11
-510.0000000000004
 21
-170.4150165067519
 31
0.0
  0
LINE
  8
0
  6
DASHDOT
 62
               4
  5
248
 10
-532.50000000000045
 20
-170.41501650675181
 30
0.0
 11
-667.50000000000023
 21
-170.41501650675181
 31
0.0
  0
LINE
  8
0
  6
DASHDOT
 62
               4
  5
249
 10
-710.04390339203883
 20
-147.91501650675224
 30
0.0
 11
-670.04390339203883
 21
-147.91501650675224
 31
0.0
  0
LINE
  8
0
  6
DASHDOT
 62
               4
  5
24A
 10
600.0
 20
-741.23855699639421
 30
0.0
 11
600.00000000000023
 21
234.83535761915351
 31
0.0
  0
LINE
  8
0
  6
DASHDOT
 62
               4
  5
24B
 10
431.85907222548451
 20
-170.41501650675215
 30
0.0
 11
510.00000000000028
 21
-170.41501650675215
 31
0.0
  0
LINE
  8
0
  6
DASHDOT
 62
               4
  5
24C
 10
710.04390339203883
 20
-147.91501650675261
 30
0.0
 11
670.04390339203883
 21
-147.91501650675261
 31
0.0
  0
LINE
  8
0
  6
DASHDOT
 62
               4
  5
24D
 10
524.5
 20
-157.91501650675212
 30
0.0
 11
675.5
 21
-157.91501650675212
 31
0.0
  0
LINE
  8
0
  6
DASHDOT
 62
               4
  5
24E
 10
-392.13776905046899
 20
-1199.5632119879424
 30
0.0
 11
-392.13776905046888
 21
-1070.5632119879424
 31
0.0
  0
LINE
  8
0
  6
DASHDOT
 62
               4
  5
24F
 10
-450.13776905046893
 20
-1141.5632119879424
 30
0.0
 11
-334.13776905046899
 21
-1141.5632119879424
 31
0.0
  0
LINE
  8
0
  6
DASHDOT
 62
               4
  5
250
 10
-461.94094753457648
 20
-1135.0632119879424
 30
0.0
 11
-327.63776905046899
 21
-1135.0632119879424
 31
0.0
  0
LINE
  8
0
  6
DASHDOT
 62
               4
  5
251
 10
-268.2377690504689
 20
-1135.0632119879424
 30
0.0
 11
-169.63776905046899
 21
-1135.0632119879424
 31
0.0
  0
LINE
  8
0
  6
DASHDOT
 62
               4
  5
252
 10
-302.63776905046899
 20
-1141.5632119879424
 30
0.0
 11
-228.23776905046901
 21
-1141.5632119879424
 31
0.0
  0
LINE
  8
0
  6
DASHDOT
 62
               4
  5
253
 10
-516.0377690504688
 20
-1135.0632119879424
 30
0.0
 11
-614.63776905046893
 21
-1135.0632119879419
 31
0.0
  0
LINE
  8
0
  6
DASHDOT
 62
               4
  5
254
 10
-481.63776905046893
 20
-1141.5632119879424
 30
0.0
 11
-556.0377690504688
 21
-1141.5632119879424
 31
0.0
  0
LINE
  8
0
  6
DASHDOT
 62
               4
  5
255
 10
-394.08372644623552
 20
-1038.0953279189075
 30
0.0
 11
-394.08372644623552
 21
-905.0953279189074
 31
0.0
  0
LINE
  8
0
  6
DASHDOT
 62
               4
  5
256
 10
221.63392368588069
 20
-1135.0632119879424
 30
0.0
 11
320.23392368588082
 21
-1135.0632119879424
 31
0.0
  0
LINE
  8
0
  6
DASHDOT
 62
               4
  5
257
 10
196.63392368588069
 20
-1149.5632119879424
 30
0.0
 11
261.63392368588069
 21
-1149.5632119879424
 31
0.0
  0
LINE
  8
0
  6
DASHDOT
 62
               4
  5
258
 10
70.877907460637687
 20
-1149.5632119879424
 30
0.0
 11
170.87790746063791
 21
-1149.5632119879424
 31
0.0
  0
LINE
  8
0
  6
DASHDOT
 62
               4
  5
259
 10
120.87790746063769
 20
-1199.5632119879424
 30
0.0
 11
120.87790746063791
 21
-1070.5632119879424
 31
0.0
  0
LINE
  8
0
  6
DASHDOT
 62
               4
  5
25A
 10
56.377907460637687
 20
-1135.0632119879424
 30
0.0
 11
190.92191724058893
 21
-1135.0632119879424
 31
0.0
  0
LINE
  8
0
  6
DASHDOT
 62
               4
  5
25B
 10
20.121891235394912
 20
-1135.0632119879424
 30
0.0
 11
-78.478108764605111
 21
-1135.0632119879424
 31
0.0
  0
LINE
  8
0
  6
DASHDOT
 62
               4
  5
25C
 10
45.121891235394912
 20
-1149.5632119879424
 30
0.0
 11
-19.878108764605088
 21
-1149.5632119879424
 31
0.0
  0
LINE
  8
0
  6
DASHDOT
 62
               4
  5
25D
 10
120.87790746063791
 20
-1048.8071957626998
 30
0.0
 11
120.87790746063791
 21
-925.2071957626996
 31
0.0
  0
LINE
  8
0
  6
DASHDOT
 62
               4
  5
25E
 10
609.28652321630761
 20
-968.87877641615148
 30
0.0
 11
609.28652321630761
 21
-1239.4255632159779
 31
0.0
  0
LINE
  8
0
  6
DASHDOT
 62
               4
  5
25F
 10
447.28652321630767
 20
-1077.3787764161516
 30
0.0
 11
717.78652321630784
 21
-1077.3787764161516
 31
0.0
  0
LINE
  8
0
  6
DASHDOT
 62
               4
  5
260
 10
677.81174799153223
 20
-1551.8782101647357
 30
0.0
 11
447.55790992287933
 21
-1551.8782101647357
 31
0.0
  0
LINE
  8
0
  6
DASHDOT
 62
               4
  5
261
 10
609.28652321630761
 20
-1365.8782101647357
 30
0.0
 11
609.28652321630761
 21
-1616.8782101647357
 31
0.0
  0
LINE
  8
0
  6
DASHDOT
 62
               4
  5
262
 10
559.28652321630761
 20
-1566.3782101647357
 30
0.0
 11
659.28652321630784
 21
-1566.3782101647357
 31
0.0
  0
LINE
  8
0
  6
DASHDOT
 62
               4
  5
263
 10
609.28652321630761
 20
-1267.9787764161515
 30
0.0
 11
609.28652321630761
 21
-1144.3787764161511
 31
0.0
  0
LINE
  8
0
  6
DASHDOT
 62
               4
  5
264
 10
409.28652321630756
 20
-1558.3782101647357
 30
0.0
 11
483.68652321630753
 21
-1558.3782101647357
 31
0.0
  0
LINE
  8
0
  6
DASHDOT
 62
               4
  5
265
 10
409.28652321630778
 20
-1077.3787764161511
 30
0.0
 11
542.28652321630784
 21
-1077.3787764161511
 31
0.0
  0
LINE
  8
0
  6
DASHDOT
 62
               4
  5
266
 10
120.87790746063774
 20
-1702.2716163701459
 30
0.0
 11
120.8779074606378
 21
-1548.2716163701459
 31
0.0
  0
LINE
  8
0
  6
DASHDOT
 62
               4
  5
267
 10
56.3779074606378
 20
-1637.7716163701459
 30
0.0
 11
185.3779074606378
 21
-1637.7716163701459
 31
0.0
  0
LINE
  8
0
  6
DASHDOT
 62
               4
  5
268
 10
43.877907460637743
 20
-1625.2716163701459
 30
0.0
 11
197.87790746063774
 21
-1625.2716163701459
 31
0.0
  0
LINE
  8
0
  6
DASHDOT
 62
               4
  5
269
 10
307.98631184284125
 20
-1637.7716163701461
 30
0.0
 11
227.98631184284119
 21
-1637.7716163701459
 31
0.0
  0
LINE
  8
0
  6
DASHDOT
 62
               4
  5
26A
 10
366.58631184284121
 20
-1625.2716163701461
 30
0.0
 11
267.98631184284125
 21
-1625.2716163701461
 31
0.0
  0
LINE
  8
0
  6
DASHDOT
 62
               4
  5
26B
 10
-66.230496921565702
 20
-1637.7716163701459
 30
0.0
 11
13.769503078434298
 21
-1637.7716163701459
 31
0.0
  0
LINE
  8
0
  6
DASHDOT
 62
               4
  5
26C
 10
120.87790746063769
 20
-1379.5632119879424
 30
0.0
 11
120.87790746063769
 21
-1518.1632119879425
 31
0.0
  0
LINE
  8
0
  6
DASHDOT
 62
               4
  5
26D
 10
-124.83049692156573
 20
-1625.2716163701459
 30
0.0
 11
-26.230496921565702
 21
-1625.2716163701459
 31
0.0
  0
LINE
  8
0
  6
DASHED2
 62
               4
  5
26E
 10
-57.00000000000027
 20
136.58498349324805
 30
0.0
 11
56.999999999999723
 21
136.58498349324805
 31
0.0
  0
LINE
  8
0
  6
DASHED2
 62
               4
  5
26F
 10
-657.00000000000045
 20
136.58498349324805
 30
0.0
 11
-543.00000000000045
 21
136.58498349324805
 31
0.0
  0
LINE
  8
0
  6
DASHED2
 62
               4
  5
270
 10
543.0
 20
136.58498349324776
 30
0.0
 11
657.0
 21
136.58498349324776
 31
0.0
  0
LINE
  8
0
  6
DASHED2
 62
               4
  5
271
 10
552.28652321630761
 20
-1450.8782101647357
 30
0.0
 11
666.28652321630739
 21
-1450.8782101647357
 31
0.0
  0
CIRCLE
  8
0
  6
DASHED
 62
               4
  5
272
 10
120.87790746063774
 20
-1625.2716163701459
 30
0.0
 40
53.124999999999986
  0
LINE
  8
0
  6
CONTINUOUS
 62
               3
  5
273
 10
151.98374363275869
 20
-87.915016506751897
 30
0.0
 11
107.89530150989282
 21
-86.375414182129049
 31
0.0
  0
LINE
  8
0
  6
CONTINUOUS
 62
               3
  5
274
 10
151.99999999999977
 20
-227.91501650675193
 30
0.0
 11
104.29499600175356
 21
-229.58091195497769
 31
0.0
  0
LINE
  8
0
  6
CONTINUOUS
 62
               3
  5
275
 10
100.93395957933326
 20
-231.04233218414041
 30
0.0
 11
91.464466094066822
 21
-240.51182566940707
 31
0.0
  0
ARC
  8
0
  6
CONTINUOUS
 62
               3
  5
276
 10
104.46949348526603
 20
-234.57786609007317
 30
0.0
 40
5.0
 50
91.999999999982577
 51
134.99999999997391
  0
ARC
  8
0
  6
CONTINUOUS
 62
               3
  5
277
 10
94.999999999999716
 20
-244.04735957533973
 30
0.0
 40
5.0
 50
134.99999999997439
 51
179.99999999996507
  0
LINE
  8
0
  6
CONTINUOUS
 62
               3
  5
278
 10
96.999999999999744
 20
-69.91501650675184
 30
0.0
 11
66.999999999999744
 21
-69.91501650675184
 31
0.0
  0
LINE
  8
0
  6
CONTINUOUS
 62
               3
  5
279
 10
151.98374363275869
 20
-87.915016506751897
 30
0.0
 11
151.98374363275863
 21
-227.91558419160515
 31
0.0
  0
LINE
  8
0
  6
CONTINUOUS
 62
               3
  5
27A
 10
96.999999999999744
 20
-69.91501650675184
 30
0.0
 11
97.499999999999716
 21
-71.415016506751897
 31
0.0
  0
LINE
  8
0
  6
CONTINUOUS
 62
               3
  5
27B
 10
66.999999999999744
 20
-69.91501650675184
 30
0.0
 11
65.499999999999829
 21
-71.415016506751897
 31
0.0
  0
LINE
  8
0
  6
CONTINUOUS
 62
               3
  5
27C
 10
97.499999999999716
 20
-71.415016506751897
 30
0.0
 11
105.0
 21
-71.415016506751897
 31
0.0
  0
LINE
  8
0
  6
CONTINUOUS
 62
               3
  5
27D
 10
-97.000000000000242
 20
-69.91501650675184
 30
0.0
 11
-67.000000000000242
 21
-69.91501650675184
 31
0.0
  0
LINE
  8
0
  6
CONTINUOUS
 62
               3
  5
27E
 10
105.00000000000026
 20
-71.415016506751954
 30
0.0
 11
105.00000000000017
 21
-86.415016506751954
 31
0.0
  0
ARC
  8
0
  6
CONTINUOUS
 62
               3
  5
27F
 10
-102.00000000000031
 20
-86.415016506751897
 30
0.0
 40
3.0000000000000004
 50
179.99999999996524
 51
269.99999999994782
  0
LINE
  8
0
  6
CONTINUOUS
 62
               3
  5
280
 10
-97.000000000000242
 20
-69.91501650675184
 30
0.0
 11
-97.500000000000213
 21
-71.415016506751897
 31
0.0
  0
LINE
  8
0
  6
CONTINUOUS
 62
               3
  5
281
 10
-67.000000000000242
 20
-69.91501650675184
 30
0.0
 11
-65.500000000000256
 21
-71.415016506751897
 31
0.0
  0
LINE
  8
0
  6
CONTINUOUS
 62
               3
  5
282
 10
-97.500000000000213
 20
-71.415016506751897
 30
0.0
 11
-105.00000000000043
 21
-71.415016506751897
 31
0.0
  0
ARC
  8
0
  6
CONTINUOUS
 62
               3
  5
283
 10
108.00000000000028
 20
-83.377241701071654
 30
0.0
 40
3.0000000000000004
 50
179.99999999996518
 51
267.99999999994873
  0
LINE
  8
0
  6
CONTINUOUS
 62
               3
  5
284
 10
-90.0
 20
-244.04735957533967
 30
0.0
 11
-90.0
 21
-358.22732913995583
 31
0.0
  0
ARC
  8
0
  6
CONTINUOUS
 62
               3
  5
285
 10
-82.000000000000242
 20
-232.91501650675184
 30
0.0
 40
2.5
 50
89.999999999982535
 51
269.99999999994793
  0
LINE
  8
0
  6
CONTINUOUS
 62
               3
  5
286
 10
-65.500000000000256
 20
-71.415016506751897
 30
0.0
 11
65.499999999999829
 21
-71.415016506751897
 31
0.0
  0
LINE
  8
0
  6
CONTINUOUS
 62
               3
  5
287
 10
154.99999999999994
 20
-90.243460380787781
 30
0.0
 11
154.31218750679457
 21
-90.243460380787781
 31
0.0
  0
LINE
  8
0
  6
CONTINUOUS
 62
               3
  5
288
 10
151.98374363275869
 20
-87.915016506751897
 30
0.0
 11
154.31218750679457
 21
-90.243460380787781
 31
0.0
  0
LINE
  8
0
  6
CONTINUOUS
 62
               3
  5
289
 10
154.99999999999994
 20
-87.915016506752039
 30
0.0
 11
157.49999999999994
 21
-87.915016506752039
 31
0.0
  0
ARC
  8
0
  6
CONTINUOUS
 62
               3
  5
28A
 10
157.49999999999994
 20
-90.415016506752039
 30
0.0
 40
2.5
 50
359.99999999993031
 51
449.99999999991297
  0
LINE
  8
0
  6
CONTINUOUS
 62
               3
  5
28B
 10
154.99999999999989
 20
-225.58657263271604
 30
0.0
 11
154.31218750679452
 21
-225.58657263271604
 31
0.0
  0
LINE
  8
0
  6
CONTINUOUS
 62
               3
  5
28C
 10
151.98374363275863
 20
-227.91501650675193
 30
0.0
 11
154.31218750679452
 21
-225.58657263271604
 31
0.0
  0
LINE
  8
0
  6
CONTINUOUS
 62
               3
  5
28D
 10
154.99999999999989
 20
-227.91501650675178
 30
0.0
 11
157.49999999999989
 21
-227.91501650675178
 31
0.0
  0
ARC
  8
0
  6
CONTINUOUS
 62
               3
  5
28E
 10
157.49999999999989
 20
-225.41501650675178
 30
0.0
 40
2.5
 50
269.99999999994793
 51
359.99999999993014
  0
LINE
  8
0
  6
CONTINUOUS
 62
               3
  5
28F
 10
159.99999999999994
 20
-90.415016506752039
 30
0.0
 11
159.99999999999989
 21
-225.41501650675178
 31
0.0
  0
LINE
  8
0
  6
CONTINUOUS
 62
               3
  5
290
 10
154.99999999999989
 20
-227.91501650675178
 30
0.0
 11
154.99999999999994
 21
-87.915016506752039
 31
0.0
  0
LINE
  8
0
  6
CONTINUOUS
 62
               3
  5
291
 10
154.31218750679457
 20
-90.243460380787781
 30
0.0
 11
154.31218750679452
 21
-225.58657263271604
 31
0.0
  0
LINE
  8
0
  6
CONTINUOUS
 62
               3
  5
292
 10
-105.00000000000021
 20
-45.70755532481337
 30
0.0
 11
-105.00000000000021
 21
-61.416234852713671
 31
0.0
  0
LINE
  8
0
  6
CONTINUOUS
 62
               3
  5
293
 10
104.99999999999972
 20
-45.70755532481337
 30
0.0
 11
104.99999999999972
 21
-61.416234852713671
 31
0.0
  0
ARC
  8
0
  6
CONTINUOUS
 62
               3
  5
294
 10
-103.00000000000026
 20
-61.416234852713671
 30
0.0
 40
2.0
 50
179.99999999996518
 51
267.9999999999485
  0
ARC
  8
0
  6
CONTINUOUS
 62
               3
  5
295
 10
102.99999999999983
 20
-61.416234852713671
 30
0.0
 40
2.0
 50
271.99999999994725
 51
359.99999999993042
  0
LINE
  8
0
  6
CONTINUOUS
 62
               3
  5
296
 10
-103.06979899340497
 20
-63.415016506751925
 30
0.0
 11
103.06979899340462
 21
-63.415016506751925
 31
0.0
  0
LINE
  8
0
  6
CONTINUOUS
 62
               3
  5
297
 10
-100.50000000000026
 20
-63.415016506751925
 30
0.0
 11
-100.50000000000026
 21
-71.415016506751897
 31
0.0
  0
LINE
  8
0
  6
CONTINUOUS
 62
               3
  5
298
 10
100.49999999999983
 20
-71.415016506751897
 30
0.0
 11
100.49999999999983
 21
-63.415016506751925
 31
0.0
  0
ARC
  8
0
  6
CONTINUOUS
 62
               3
  5
299
 10
-103.00000000000071
 20
-45.707555324813427
 30
0.0
 40
2.0
 50
91.999999999981043
 51
179.99999999996518
  0
ARC
  8
0
  6
CONTINUOUS
 62
               3
  5
29A
 10
102.99999999999937
 20
-45.707555324813313
 30
0.0
 40
2.0
 50
0.0
 51
87.999999999983118
  0
LINE
  8
0
  6
CONTINUOUS
 62
               3
  5
29B
 10
-103.06979899340564
 20
-43.708773670775258
 30
0.0
 11
103.06979899340431
 21
-43.708773670775059
 31
0.0
  0
LINE
  8
0
  6
CONTINUOUS
 62
               3
  5
29C
 10
-90.000000000001293
 20
93.382551620026049
 30
0.0
 11
-90.000000000001165
 21
-38.423922358787848
 31
0.0
  0
ARC
  8
0
  6
CONTINUOUS
 62
               3
  5
29D
 10
-94.99999999999747
 20
-38.423922358788047
 30
0.0
 40
5.0
 50
271.99999999994748
 51
359.99999999993048
  0
LINE
  8
0
  6
CONTINUOUS
 62
               3
  5
29E
 10
89.999999999998707
 20
93.382551620026277
 30
0.0
 11
89.999999999998835
 21
-38.423922358787763
 31
0.0
  0
ARC
  8
0
  6
CONTINUOUS
 62
               3
  5
29F
 10
95.000000000002672
 20
-38.423922358787991
 30
0.0
 40
5.0
 50
179.99999999996524
 51
267.99999999994833
  0
LINE
  8
0
  6
CONTINUOUS
 62
               3
  5
2A0
 10
-103.06979899340237
 20
-43.708773670775628
 30
0.0
 11
-94.825502516484931
 21
-43.420876493883497
 31
0.0
  0
LINE
  8
0
  6
CONTINUOUS
 62
               3
  5
2A1
 10
103.06979899340757
 20
-43.708773670775486
 30
0.0
 11
94.825502516489991
 21
-43.420876493883412
 31
0.0
  0
LINE
  8
0
  6
CONTINUOUS
 62
               3
  5
2A2
 10
-76.500000000000142
 20
179.1116421370433
 30
0.0
 11
-76.500000000002018
 21
201.58498349324805
 31
0.0
  0
LINE
  8
0
  6
CONTINUOUS
 62
               3
  5
2A3
 10
76.499999999999616
 20
179.11164213704342
 30
0.0
 11
76.499999999999616
 21
201.58498349324805
 31
0.0
  0
LINE
  8
0
  6
CONTINUOUS
 62
               3
  5
2A4
 10
-72.000000000000256
 20
174.11468800194768
 30
0.0
 11
-72.000000000000256
 21
113.88255162002599
 31
0.0
  0
ARC
  8
0
  6
CONTINUOUS
 62
               3
  5
2A5
 10
-77.000000000000256
 20
174.11468800194768
 30
0.0
 40
5.0
 50
0.0
 51
87.999999999983118
  0
LINE
  8
0
  6
CONTINUOUS
 62
               3
  5
2A6
 10
71.999999999999872
 20
174.54438738706381
 30
0.0
 11
71.999999999999872
 21
113.88255162002599
 31
0.0
  0
LINE
  8
0
  6
CONTINUOUS
 62
               3
  5
2A7
 10
-88.500000000000199
 20
179.51932457259693
 30
0.0
 11
-88.500000000000199
 21
186.51932457259659
 31
0.0
  0
LINE
  8
0
  6
CONTINUOUS
 62
               3
  5
2A8
 10
-88.500000000000028
 20
179.51932457259693
 30
0.0
 11
-76.825502516487887
 21
179.11164213704308
 31
0.0
  0
ARC
  8
0
  6
CONTINUOUS
 62
               3
  5
2A9
 10
76.99999999999973
 20
174.1146880019478
 30
0.0
 40
5.0
 50
91.999999999982265
 51
179.99999999996541
  0
LINE
  8
0
  6
CONTINUOUS
 62
               3
  5
2AA
 10
88.499999999999631
 20
179.51932457259704
 30
0.0
 11
88.499999999999631
 21
186.51932457259682
 31
0.0
  0
LINE
  8
0
  6
CONTINUOUS
 62
               3
  5
2AB
 10
88.499999999999488
 20
179.51932457259704
 30
0.0
 11
76.825502516487191
 21
179.1116421370433
 31
0.0
  0
LINE
  8
0
  6
CONTINUOUS
 62
               3
  5
2AC
 10
-69.500000000001307
 20
113.88255162002599
 30
0.0
 11
-11.727000000000373
 21
113.88255162002599
 31
0.0
  0
LINE
  8
0
  6
CONTINUOUS
 62
               3
  5
2AD
 10
11.726999999999038
 20
113.88255162002599
 30
0.0
 11
69.499999999998693
 21
113.88255162002599
 31
0.0
  0
ARC
  8
0
  6
CONTINUOUS
 62
               3
  5
2AE
 10
-69.500000000001307
 20
93.382551620026106
 30
0.0
 40
20.5
 50
89.999999999982592
 51
179.99999999996518
  0
ARC
  8
0
  6
CONTINUOUS
 62
               3
  5
2AF
 10
69.499999999998693
 20
93.38255162002622
 30
0.0
 40
20.5
 50
0.0
 51
89.999999999982592
  0
ARC
  8
0
  6
CONTINUOUS
 62
               3
  5
2B0
 10
-43.284018445716228
 20
-232.91501650675184
 30
0.0
 40
2.5
 50
269.99999999994782
 51
449.99999999991297
  0
ARC
  8
0
  6
CONTINUOUS
 62
               3
  5
2B1
 10
43.284018445715731
 20
-232.91501650675184
 30
0.0
 40
2.5
 50
89.999999999982535
 51
269.99999999994782
  0
CIRCLE
  8
0
  6
CONTINUOUS
 62
               3
  5
2B2
 10
-0.0000000000002842
 20
-170.41501650675184
 30
0.0
 40
57.5
  0
LINE
  8
0
  6
CONTINUOUS
 62
               3
  5
2B3
 10
26.787357092479169
 20
-142.41501650675195
 30
0.0
 11
-26.787357092479667
 21
-142.41501650675195
 31
0.0
  0
CIRCLE
  8
0
  6
CONTINUOUS
 62
               3
  5
2B4
 10
-0.0000000000002842
 20
-170.41501650675184
 30
0.0
 40
48.500000000000014
  0
CIRCLE
  8
0
  6
CONTINUOUS
 62
               3
  5
2B5
 10
-0.0000000000002842
 20
-170.41501650675184
 30
0.0
 40
38.75
  0
CIRCLE
  8
0
  6
CONTINUOUS
 62
               3
  5
2B6
 10
-0.0000000000002842
 20
-170.41501650675184
 30
0.0
 40
47.299999999999997
  0
LINE
  8
0
  6
CONTINUOUS
 62
               3
  5
2B7
 10
-31.819805153394825
 20
-202.23482166014617
 30
0.0
 11
-33.44615075012392
 21
-203.86116725687555
 31
0.0
  0
LINE
  8
0
  6
CONTINUOUS
 62
               3
  5
2B8
 10
31.819805153394327
 20
-202.23482166014617
 30
0.0
 11
33.446150750123422
 21
-203.86116725687555
 31
0.0
  0
ARC
  8
0
  6
CONTINUOUS
 62
               3
  5
2B9
 10
-0.0000000000002842
 20
-170.41501650675184
 30
0.0
 40
45.0
 50
224.99999999995646
 51
314.99999999993918
  0
CIRCLE
  8
0
  6
CONTINUOUS
 62
               3
  5
2BA
 10
-0.0000000000002842
 20
-170.41501650675184
 30
0.0
 40
43.0
  0
LINE
  8
0
  6
CONTINUOUS
 62
               3
  5
2BB
 10
-10.000000000000284
 20
-106.74876417355856
 30
0.0
 11
-10.000000000000284
 21
-94.415016506751869
 31
0.0
  0
LINE
  8
0
  6
CONTINUOUS
 62
               3
  5
2BC
 10
9.9999999999997158
 20
-94.415016506751869
 30
0.0
 11
9.9999999999997158
 21
-106.74876417355856
 31
0.0
  0
ARC
  8
0
  6
CONTINUOUS
 62
               3
  5
2BD
 10
-15.000000000000284
 20
-106.74876417355856
 30
0.0
 40
5.0
 50
283.34236379703344
 51
359.99999999993037
  0
ARC
  8
0
  6
CONTINUOUS
 62
               3
  5
2BE
 10
14.999999999999716
 20
-106.74876417355856
 30
0.0
 40
5.0
 50
179.99999999996524
 51
256.65763620286214
  0
ARC
  8
0
  6
CONTINUOUS
 62
               3
  5
2BF
 10
-15.000000000000284
 20
-94.415016506751869
 30
0.0
 40
5.0
 50
0.0
 51
89.999999999982592
  0
ARC
  8
0
  6
CONTINUOUS
 62
               3
  5
2C0
 10
14.999999999999716
 20
-94.415016506751869
 30
0.0
 40
5.0
 50
89.999999999982592
 51
179.99999999996518
  0
LINE
  8
0
  6
CONTINUOUS
 62
               3
  5
2C1
 10
-82.000000000000242
 20
-235.41501650675184
 30
0.0
 11
-43.284018445716228
 21
-235.41501650675184
 31
0.0
  0
LINE
  8
0
  6
CONTINUOUS
 62
               3
  5
2C2
 10
-82.000000000000242
 20
-230.41501650675184
 30
0.0
 11
-43.284018445716228
 21
-230.41501650675184
 31
0.0
  0
LINE
  8
0
  6
CONTINUOUS
 62
               3
  5
2C3
 10
-101.98374363275924
 20
-89.415016506751869
 30
0.0
 11
-15.000000000000284
 21
-89.415016506751869
 31
0.0
  0
ARC
  8
0
  6
CONTINUOUS
 62
               3
  5
2C4
 10
-94.732670528588599
 20
-94.163943402581509
 30
0.0
 40
4.7489268958295181
 50
359.99999999993031
 51
449.99999999991292
  0
ARC
  8
0
  6
CONTINUOUS
 62
               3
  5
2C5
 10
102.00000000000017
 20
-86.415016506752067
 30
0.0
 40
3.0000000000000004
 50
269.99999999994782
 51
359.99999999993037
  0
LINE
  8
0
  6
CONTINUOUS
 62
               3
  5
2C6
 10
-155.00000000000003
 20
-115.41501650675161
 30
0.0
 11
-154.3284438740358
 21
-115.41501650675161
 31
0.0
  0
LINE
  8
0
  6
CONTINUOUS
 62
               3
  5
2C7
 10
-151.99999999999991
 20
-113.08657263271573
 30
0.0
 11
-154.3284438740358
 21
-115.41501650675161
 31
0.0
  0
LINE
  8
0
  6
CONTINUOUS
 62
               3
  5
2C8
 10
-155.00000000000003
 20
-113.08657263271579
 30
0.0
 11
-157.50000000000003
 21
-113.08657263271579
 31
0.0
  0
ARC
  8
0
  6
CONTINUOUS
 62
               3
  5
2C9
 10
-157.50000000000003
 20
-115.58657263271579
 30
0.0
 40
2.5
 50
89.999999999982862
 51
179.99999999996524
  0
LINE
  8
0
  6
CONTINUOUS
 62
               3
  5
2CA
 10
-151.99999999999991
 20
-113.08657263271573
 30
0.0
 11
-94.825502516487774
 21
-111.08999518528753
 31
0.0
  0
ARC
  8
0
  6
CONTINUOUS
 62
               3
  5
2CB
 10
-95.000000000000142
 20
-106.09304105019206
 30
0.0
 40
5.0
 50
271.99999999994748
 51
359.99999999993031
  0
LINE
  8
0
  6
CONTINUOUS
 62
               3
  5
2CC
 10
-90.000000000000128
 20
-94.163943402581509
 30
0.0
 11
-90.000000000000142
 21
-106.09304105019206
 31
0.0
  0
ARC
  8
0
  6
CONTINUOUS
 62
               3
  5
2CD
 10
-110.00000000000031
 20
-106.61685259256828
 30
0.0
 40
5.0
 50
271.99999999994748
 51
359.99999999993031
  0
LINE
  8
0
  6
CONTINUOUS
 62
               3
  5
2CE
 10
-155.00000000000009
 20
-225.41501650675144
 30
0.0
 11
-154.32844387403586
 21
-225.41501650675144
 31
0.0
  0
LINE
  8
0
  6
CONTINUOUS
 62
               3
  5
2CF
 10
-151.99999999999997
 20
-227.74346038078647
 30
0.0
 11
-154.32844387403586
 21
-225.41501650675144
 31
0.0
  0
LINE
  8
0
  6
CONTINUOUS
 62
               3
  5
2D0
 10
-155.00000000000009
 20
-227.74346038078698
 30
0.0
 11
-157.50000000000009
 21
-227.74346038078698
 31
0.0
  0
ARC
  8
0
  6
CONTINUOUS
 62
               3
  5
2D1
 10
-157.50000000000009
 20
-225.24346038078698
 30
0.0
 40
2.5
 50
179.99999999996507
 51
269.99999999994793
  0
LINE
  8
0
  6
CONTINUOUS
 62
               3
  5
2D2
 10
-151.99999999999997
 20
-227.74346038078647
 30
0.0
 11
-104.47275977548507
 21
-229.40314818124617
 31
0.0
  0
LINE
  8
0
  6
CONTINUOUS
 62
               3
  5
2D3
 10
-101.1117233530649
 20
-230.86456841040896
 30
0.0
 11
-91.464466094067049
 21
-240.51182566940705
 31
0.0
  0
ARC
  8
0
  6
CONTINUOUS
 62
               3
  5
2D4
 10
-95.0
 20
-244.04735957533964
 30
0.0
 40
5.0
 50
359.99999999993048
 51
404.99999999992122
  0
ARC
  8
0
  6
CONTINUOUS
 62
               3
  5
2D5
 10
-104.64725725899767
 20
-234.40010231634167
 30
0.0
 40
5.0
 50
44.999999999990685
 51
87.999999999982478
  0
LINE
  8
0
  6
CONTINUOUS
 62
               3
  5
2D6
 10
-154.3284438740358
 20
-115.41501650675161
 30
0.0
 11
-154.32844387403586
 21
-225.41501650675144
 31
0.0
  0
LINE
  8
0
  6
CONTINUOUS
 62
               3
  5
2D7
 10
-151.99999999999997
 20
-227.74346038078647
 30
0.0
 11
-151.99999999999991
 21
-113.08657263271573
 31
0.0
  0
LINE
  8
0
  6
CONTINUOUS
 62
               3
  5
2D8
 10
-155.00000000000009
 20
-227.74346038078698
 30
0.0
 11
-155.00000000000003
 21
-113.08657263271579
 31
0.0
  0
LINE
  8
0
  6
CONTINUOUS
 62
               3
  5
2D9
 10
-160.00000000000003
 20
-115.58657263271579
 30
0.0
 11
-160.00000000000009
 21
-225.24346038078698
 31
0.0
  0
ARC
  8
0
  6
CONTINUOUS
 62
               3
  5
2DA
 10
82.000000000000057
 20
-232.91501650675198
 30
0.0
 40
2.5
 50
269.99999999994759
 51
449.99999999991297
  0
LINE
  8
0
  6
CONTINUOUS
 62
               3
  5
2DB
 10
-105.00000000000045
 20
-71.415016506751925
 30
0.0
 11
-105.00000000000031
 21
-106.61685259256828
 31
0.0
  0
LINE
  8
0
  6
CONTINUOUS
 62
               3
  5
2DC
 10
89.999999999999716
 20
-358.22732913995662
 30
0.0
 11
89.999999999999716
 21
-244.0473595753397
 31
0.0
  0
LINE
  8
0
  6
CONTINUOUS
 62
               3
  5
2DD
 10
14.999999999999716
 20
-89.415016506751812
 30
0.0
 11
101.99999999999983
 21
-89.415016506752295
 31
0.0
  0
LINE
  8
0
  6
CONTINUOUS
 62
               3
  5
2DE
 10
43.284018445715738
 20
-235.4150165067521
 30
0.0
 11
82.000000000000057
 21
-235.41501650675198
 31
0.0
  0
LINE
  8
0
  6
CONTINUOUS
 62
               3
  5
2DF
 10
43.284018445715738
 20
-230.41501650675221
 30
0.0
 11
82.000000000000057
 21
-230.41501650675221
 31
0.0
  0
LINE
  8
0
  6
CONTINUOUS
 62
               3
  5
2E0
 10
-87.721287833967097
 20
-378.22732913995577
 30
0.0
 11
-73.278712166033131
 21
-504.98818892048314
 31
0.0
  0
LINE
  8
0
  6
CONTINUOUS
 62
               3
  5
2E1
 10
-90.482497638531243
 20
-376.07668039660649
 30
0.0
 11
-92.20092160477185
 21
-360.99426681356704
 31
0.0
  0
ARC
  8
0
  6
CONTINUOUS
 62
               3
  5
2E2
 10
-89.716991965580462
 20
-360.71125877914722
 30
0.0
 40
2.5
 50
96.499999999981398
 51
186.49999999996413
  0
ARC
  8
0
  6
CONTINUOUS
 62
               3
  5
2E3
 10
-88.004295868387032
 20
-375.74339950076421
 30
0.0
 40
2.5
 50
186.49999999996413
 51
276.49999999994787
  0
LINE
  8
0
  6
CONTINUOUS
 62
               3
  5
2E4
 10
90.482497638531015
 20
-376.0766803966066
 30
0.0
 11
92.200921604771622
 21
-360.99426681356715
 31
0.0
  0
ARC
  8
0
  6
CONTINUOUS
 62
               3
  5
2E5
 10
89.716991965580064
 20
-360.71125877914733
 30
0.0
 40
2.5
 50
353.49999999993105
 51
443.49999999991411
  0
ARC
  8
0
  6
CONTINUOUS
 62
               3
  5
2E6
 10
88.004295868386748
 20
-375.74339950076433
 30
0.0
 40
2.5
 50
263.49999999994765
 51
353.49999999993105
  0
LINE
  8
0
  6
CONTINUOUS
 62
               3
  5
2E7
 10
87.721287833966869
 20
-378.22732913995588
 30
0.0
 11
73.27871216603279
 21
-504.98818892048325
 31
0.0
  0
LINE
  8
0
  6
CONTINUOUS
 62
               3
  5
2E8
 10
87.721287833966755
 20
-378.22732913995588
 30
0.0
 11
-0.0000000000002842
 21
-378.22732913995588
 31
0.0
  0
LINE
  8
0
  6
CONTINUOUS
 62
               3
  5
2E9
 10
-0.0000000000002842
 20
-378.22732913995588
 30
0.0
 11
-87.721287833967097
 21
-378.22732913995577
 31
0.0
  0
LINE
  8
0
  6
CONTINUOUS
 62
               3
  5
2EA
 10
89.999999999999602
 20
-358.22732913995588
 30
0.0
 11
-0.0000000000002842
 21
-358.22732913995588
 31
0.0
  0
LINE
  8
0
  6
CONTINUOUS
 62
               3
  5
2EB
 10
-0.0000000000002842
 20
-358.22732913995583
 30
0.0
 11
-90.000000000000057
 21
-358.22732913995577
 31
0.0
  0
LINE
  8
0
  6
CONTINUOUS
 62
               3
  5
2EC
 10
-71.000000000000298
 20
-524.98818892048257
 30
0.0
 11
70.999999999999659
 21
-524.98818892048394
 31
0.0
  0
LINE
  8
0
  6
CONTINUOUS
 62
               3
  5
2ED
 10
-73.27871216603306
 20
-504.9881889204832
 30
0.0
 11
73.278712166032705
 21
-504.9881889204832
 31
0.0
  0
LINE
  8
0
  6
CONTINUOUS
 62
               3
  5
2EE
 10
73.761209804563777
 20
-522.83754017713477
 30
0.0
 11
75.479633770804355
 21
-507.75512659409532
 31
0.0
  0
ARC
  8
0
  6
CONTINUOUS
 62
               3
  5
2EF
 10
72.995704131612911
 20
-507.47211855967549
 30
0.0
 40
2.5
 50
353.49999999993105
 51
443.49999999991411
  0
ARC
  8
0
  6
CONTINUOUS
 62
               3
  5
2F0
 10
71.283008034419595
 20
-522.50425928129243
 30
0.0
 40
2.5
 50
263.49999999994765
 51
353.49999999993105
  0
LINE
  8
0
  6
CONTINUOUS
 62
               3
  5
2F1
 10
-73.761209804564274
 20
-522.83754017713477
 30
0.0
 11
-75.479633770804853
 21
-507.75512659409532
 31
0.0
  0
ARC
  8
0
  6
CONTINUOUS
 62
               3
  5
2F2
 10
-72.995704131613337
 20
-507.47211855967549
 30
0.0
 40
2.5
 50
96.499999999981398
 51
186.49999999996413
  0
ARC
  8
0
  6
CONTINUOUS
 62
               3
  5
2F3
 10
-71.283008034420021
 20
-522.50425928129243
 30
0.0
 40
2.5
 50
186.49999999996413
 51
276.49999999994787
  0
LINE
  8
0
  6
CONTINUOUS
 62
               3
  5
2F4
 10
-70.999999999999943
 20
-524.98818892048394
 30
0.0
 11
-71.000000000000085
 21
-577.7014749501144
 31
0.0
  0
LINE
  8
0
  6
CONTINUOUS
 62
               3
  5
2F5
 10
70.999999999999659
 20
-524.98818892048394
 30
0.0
 11
70.999999999999659
 21
-577.7014749501144
 31
0.0
  0
LINE
  8
0
  6
CONTINUOUS
 62
               3
  5
2F6
 10
-55.000000000000284
 20
-713.41501650675195
 30
0.0
 11
54.999999999999723
 21
-713.41501650675195
 31
0.0
  0
LINE
  8
0
  6
CONTINUOUS
 62
               3
  5
2F7
 10
56.999999999999751
 20
-711.41501650675173
 30
0.0
 11
56.999999999999751
 21
-613.41501650675195
 31
0.0
  0
LINE
  8
0
  6
CONTINUOUS
 62
               3
  5
2F8
 10
-57.000000000000227
 20
-711.41501650675173
 30
0.0
 11
-57.000000000000227
 21
-613.41501650675195
 31
0.0
  0
LINE
  8
0
  6
CONTINUOUS
 62
               3
  5
2F9
 10
56.999999999999751
 20
-613.41501650675195
 30
0.0
 11
58.053042823173165
 21
-612.3619736835783
 31
0.0
  0
LINE
  8
0
  6
CONTINUOUS
 62
               3
  5
2FA
 10
-57.000000000000227
 20
-613.41501650675195
 30
0.0
 11
-58.053042823173513
 21
-612.3619736835783
 31
0.0
  0
LINE
  8
0
  6
CONTINUOUS
 62
               3
  5
2FB
 10
-55.000000000000284
 20
-713.41501650675195
 30
0.0
 11
-57.000000000000227
 21
-711.41501650675173
 31
0.0
  0
LINE
  8
0
  6
CONTINUOUS
 62
               3
  5
2FC
 10
54.999999999999723
 20
-713.41501650675195
 30
0.0
 11
56.999999999999751
 21
-711.41501650675173
 31
0.0
  0
LINE
  8
0
  6
CONTINUOUS
 62
               3
  5
2FD
 10
58.053042823173129
 20
-612.3619736835783
 30
0.0
 11
58.053042823173129
 21
-608.29871295294629
 31
0.0
  0
ARC
  8
0
  6
CONTINUOUS
 62
               3
  5
2FE
 10
68.053042823173129
 20
-608.29871295294629
 30
0.0
 40
10.0
 50
149.9999999999711
 51
179.99999999996507
  0
LINE
  8
0
  6
CONTINUOUS
 62
               3
  5
2FF
 10
-58.05304282317362
 20
-612.3619736835783
 30
0.0
 11
-58.05304282317362
 21
-608.29871295294629
 31
0.0
  0
ARC
  8
0
  6
CONTINUOUS
 62
               3
  5
300
 10
-68.053042823173612
 20
-608.29871295294629
 30
0.0
 40
10.0
 50
359.99999999993014
 51
389.99999999992463
  0
ARC
  8
0
  6
CONTINUOUS
 62
               3
  5
301
 10
-77.781745930520074
 20
709.11710354967408
 30
0.0
 40
17.5
 50
97.698209707834295
 51
172.30179029211342
  0
ARC
  8
0
  6
CONTINUOUS
 62
               3
  5
302
 10
77.781745930520287
 20
709.11710354967408
 30
0.0
 40
17.5
 50
7.6982097078516123
 51
82.30179029213096
  0
LINE
  8
0
  6
CONTINUOUS
 62
               3
  5
303
 10
104.05367551208791
 20
645.40065578254644
 30
0.0
 11
95.124025182534879
 21
711.46131991023958
 31
0.0
  0
ARC
  8
0
  6
CONTINUOUS
 62
               3
  5
304
 10
-77.781745930520074
 20
553.55361168863396
 30
0.0
 40
17.5
 50
187.69820970781666
 51
262.3017902920962
  0
LINE
  8
0
  6
CONTINUOUS
 62
               3
  5
305
 10
-80.125962291085457
 20
536.21133243661939
 30
0.0
 11
-14.065298163392228
 21
527.28168210706644
 31
0.0
  0
ARC
  8
0
  6
CONTINUOUS
 62
               3
  5
306
 10
77.781745930520287
 20
553.55361168863396
 30
0.0
 40
17.5
 50
277.69820970779944
 51
352.30179029207886
  0
LINE
  8
0
  6
CONTINUOUS
 62
               3
  5
307
 10
80.125962291085528
 20
536.21133243661939
 30
0.0
 11
14.065298163392299
 21
527.28168210706644
 31
0.0
  0
LINE
  8
0
  6
CONTINUOUS
 62
               3
  5
308
 10
104.05367551208791
 20
617.27005945576161
 30
0.0
 11
95.124025182534879
 21
551.20939532806847
 31
0.0
  0
ARC
  8
0
  6
CONTINUOUS
 62
               3
  5
309
 10
0.0000000000000711
 20
631.33535761915414
 30
0.0
 40
105.0
 50
262.30179029209626
 51
277.69820970779938
  0
ARC
  8
0
  6
CONTINUOUS
 62
               3
  5
30A
 10
0.0000000000000711
 20
631.33535761915414
 30
0.0
 40
105.0
 50
352.30179029207875
 51
367.69820970778204
  0
LINE
  8
0
  6
CONTINUOUS
 62
               3
  5
30B
 10
55.610007245089079
 20
550.97661724926797
 30
0.0
 11
65.407380961227872
 21
541.17924353312924
 31
0.0
  0
ARC
  8
0
  6
CONTINUOUS
 62
               3
  5
30C
 10
77.781745930520287
 20
553.55361168863396
 30
0.0
 40
17.499997018320407
 50
225.0000073763552
 51
277.81644584203264
  0
LINE
  8
0
  6
CONTINUOUS
 62
               3
  5
30D
 10
-55.610007245088937
 20
550.97661724926797
 30
0.0
 11
-65.40738096122773
 21
541.17924353312924
 31
0.0
  0
ARC
  8
0
  6
CONTINUOUS
 62
               3
  5
30E
 10
-77.781745930520216
 20
553.55361168863396
 30
0.0
 40
17.499997018320407
 50
262.18355415786294
 51
314.99999262354038
  0
ARC
  8
0
  6
CONTINUOUS
 62
               3
  5
30F
 10
-77.781745930520216
 20
709.11710354967408
 30
0.0
 40
17.499997018320407
 50
45.000007376390187
 51
97.816445842067509
  0
ARC
  8
0
  6
CONTINUOUS
 62
               3
  5
310
 10
77.781745930520287
 20
709.11710354967408
 30
0.0
 40
17.499997018320407
 50
82.183554157897746
 51
134.99999262357511
  0
LINE
  8
0
  6
CONTINUOUS
 62
               3
  5
311
 10
55.610007245089363
 20
711.69409798904007
 30
0.0
 11
59.853579118431526
 21
715.93766986238279
 31
0.0
  0
LINE
  8
0
  6
CONTINUOUS
 62
               3
  5
312
 10
65.407380961227872
 20
721.49147170517904
 30
0.0
 11
59.853579118431526
 21
715.93766986238279
 31
0.0
  0
LINE
  8
0
  6
CONTINUOUS
 62
               3
  5
313
 10
-55.610007245091211
 20
711.69409798904098
 30
0.0
 11
-59.85357911843046
 21
715.93766986238347
 31
0.0
  0
LINE
  8
0
  6
CONTINUOUS
 62
               3
  5
314
 10
-65.40738096122773
 20
721.49147170517904
 30
0.0
 11
-59.85357911843046
 21
715.93766986238347
 31
0.0
  0
LINE
  8
0
  6
CONTINUOUS
 62
               3
  5
315
 10
-96.22952999796901
 20
703.28290534654161
 30
0.0
 11
-95.124025182534737
 21
711.46131991023958
 31
0.0
  0
LINE
  8
0
  6
CONTINUOUS
 62
               3
  5
316
 10
-96.22952999796901
 20
703.28290534654161
 30
0.0
 11
-104.05367551208776
 21
645.40065578254644
 31
0.0
  0
ARC
  8
0
  6
CONTINUOUS
 62
               3
  5
317
 10
0.0000000000000711
 20
631.33535761915414
 30
0.0
 40
105.0
 50
172.30179029211342
 51
187.69820970781697
  0
LINE
  8
0
  6
CONTINUOUS
 62
               3
  5
318
 10
-96.22960709784941
 20
559.3883802690068
 30
0.0
 11
-95.124025182534737
 21
551.20939532806847
 31
0.0
  0
LINE
  8
0
  6
CONTINUOUS
 62
               3
  5
319
 10
-104.05367551208776
 20
617.27005945576161
 30
0.0
 11
-96.22960709784941
 21
559.3883802690068
 31
0.0
  0
LINE
  8
0
  6
CONTINUOUS
 62
               3
  5
31A
 10
-59.388263356383462
 20
729.26256988089358
 30
0.0
 11
-14.065298163392228
 21
735.38903313124183
 31
0.0
  0
LINE
  8
0
  6
CONTINUOUS
 62
               3
  5
31B
 10
-80.125962291085457
 20
726.45938280168889
 30
0.0
 11
-59.388263356383462
 21
729.26256988089358
 31
0.0
  0
ARC
  8
0
  6
CONTINUOUS
 62
               3
  5
31C
 10
0.0000000000000711
 20
631.33535761915414
 30
0.0
 40
105.0
 50
82.30179029213096
 51
97.698209707834224
  0
LINE
  8
0
  6
CONTINUOUS
 62
               3
  5
31D
 10
14.065298163392299
 20
735.38903313124183
 30
0.0
 11
59.27805762459009
 21
729.27746677395726
 31
0.0
  0
LINE
  8
0
  6
CONTINUOUS
 62
               3
  5
31E
 10
80.125962291085528
 20
726.45938280168889
 30
0.0
 11
59.27805762459009
 21
729.27746677395726
 31
0.0
  0
CIRCLE
  8
0
  6
CONTINUOUS
 62
               3
  5
31F
 10
0.0
 20
631.33535761915414
 30
0.0
 40
90.0
  0
ARC
  8
0
  6
CONTINUOUS
 62
               3
  5
320
 10
-48.538939433223405
 20
543.90554943740244
 30
0.0
 40
10.0
 50
60.96201238594967
 51
134.99999999997425
  0
ARC
  8
0
  6
CONTINUOUS
 62
               3
  5
321
 10
48.538939433223547
 20
543.90554943740267
 30
0.0
 40
10.0
 50
44.999999999991061
 51
119.03798761401569
  0
ARC
  8
0
  6
CONTINUOUS
 62
               3
  5
322
 10
-48.538939433224471
 20
718.76516580090492
 30
0.0
 40
10.0
 50
224.9999999999458
 51
299.03798761398139
  0
ARC
  8
0
  6
CONTINUOUS
 62
               3
  5
323
 10
48.538939433223902
 20
718.76516580090538
 30
0.0
 40
10.0
 50
240.96201238591431
 51
314.99999999993912
  0
LINE
  8
0
  6
CONTINUOUS
 62
               3
  5
324
 10
151.98374363275866
 20
701.33535761915346
 30
0.0
 11
151.98374363275838
 21
561.33478993430049
 31
0.0
  0
LINE
  8
0
  6
CONTINUOUS
 62
               3
  5
325
 10
154.99999999999989
 20
699.00691374511757
 30
0.0
 11
154.31218750679452
 21
699.00691374511757
 31
0.0
  0
LINE
  8
0
  6
CONTINUOUS
 62
               3
  5
326
 10
151.98374363275866
 20
701.33535761915346
 30
0.0
 11
154.31218750679452
 21
699.00691374511757
 31
0.0
  0
LINE
  8
0
  6
CONTINUOUS
 62
               3
  5
327
 10
154.99999999999991
 20
701.33535761915346
 30
0.0
 11
157.49999999999991
 21
701.33535761915346
 31
0.0
  0
ARC
  8
0
  6
CONTINUOUS
 62
               3
  5
328
 10
157.49999999999989
 20
698.83535761915346
 30
0.0
 40
2.5
 50
359.99999999993145
 51
449.99999999991297
  0
LINE
  8
0
  6
CONTINUOUS
 62
               3
  5
329
 10
154.99999999999966
 20
563.66380149318934
 30
0.0
 11
154.31218750679429
 21
563.66380149318934
 31
0.0
  0
LINE
  8
0
  6
CONTINUOUS
 62
               3
  5
32A
 10
151.98374363275838
 20
561.33535761915346
 30
0.0
 11
154.31218750679429
 21
563.66380149318934
 31
0.0
  0
LINE
  8
0
  6
CONTINUOUS
 62
               3
  5
32B
 10
154.99999999999963
 20
561.33535761915391
 30
0.0
 11
157.49999999999963
 21
561.33535761915391
 31
0.0
  0
ARC
  8
0
  6
CONTINUOUS
 62
               3
  5
32C
 10
157.49999999999966
 20
563.83535761915391
 30
0.0
 40
2.5
 50
269.99999999994793
 51
359.99999999993145
  0
LINE
  8
0
  6
CONTINUOUS
 62
               3
  5
32D
 10
159.99999999999989
 20
698.83535761915346
 30
0.0
 11
159.99999999999966
 21
563.83535761915391
 31
0.0
  0
LINE
  8
0
  6
CONTINUOUS
 62
               3
  5
32E
 10
154.99999999999963
 20
561.33535761915391
 30
0.0
 11
154.99999999999991
 21
701.33535761915346
 31
0.0
  0
LINE
  8
0
  6
CONTINUOUS
 62
               3
  5
32F
 10
154.31218750679452
 20
699.00691374511757
 30
0.0
 11
154.31218750679429
 21
563.66380149318934
 31
0.0
  0
LINE
  8
0
  6
CONTINUOUS
 62
               3
  5
330
 10
151.98374363275866
 20
701.33535761915346
 30
0.0
 11
96.22960709784968
 21
703.28233496930056
 31
0.0
  0
LINE
  8
0
  6
CONTINUOUS
 62
               3
  5
331
 10
151.99999999999952
 20
561.33535761915346
 30
0.0
 11
96.229529997968598
 21
559.38780989176553
 31
0.0
  0
CIRCLE
  8
0
  6
CONTINUOUS
 62
               3
  5
332
 10
0.0000000000000711
 20
631.33535761915414
 30
0.0
 40
52.5
  0
LINE
  8
0
  6
CONTINUOUS
 62
               3
  5
333
 10
86.210498200624528
 20
611.33535761915414
 30
0.0
 11
72.284161474004193
 21
611.33535761915414
 31
0.0
  0
LINE
  8
0
  6
CONTINUOUS
 62
               3
  5
334
 10
72.284161474004193
 20
651.33535761915414
 30
0.0
 11
86.210498200624528
 21
651.33535761915414
 31
0.0
  0
ARC
  8
0
  6
CONTINUOUS
 62
               3
  5
335
 10
0.0000000000000711
 20
631.33535761915414
 30
0.0
 40
88.5
 50
346.93897588513232
 51
373.06102411472841
  0
LINE
  8
0
  6
CONTINUOUS
 62
               3
  5
336
 10
-86.210498200625267
 20
651.33535761915414
 30
0.0
 11
-72.284161474005401
 21
651.33535761915414
 31
0.0
  0
ARC
  8
0
  6
CONTINUOUS
 62
               3
  5
337
 10
0.0000000000000711
 20
631.33535761915414
 30
0.0
 40
88.5
 50
166.9389758851672
 51
193.06102411476326
  0
LINE
  8
0
  6
CONTINUOUS
 62
               3
  5
338
 10
-72.284161474005401
 20
611.33535761915414
 30
0.0
 11
-86.210498200625267
 21
611.33535761915414
 31
0.0
  0
LINE
  8
0
  6
CONTINUOUS
 62
               3
  5
339
 10
20.000000000000071
 20
717.54585581977972
 30
0.0
 11
20.000000000000071
 21
703.61951909315894
 31
0.0
  0
ARC
  8
0
  6
CONTINUOUS
 62
               3
  5
33A
 10
0.0000000000000711
 20
631.33535761915414
 30
0.0
 40
88.5
 50
76.938975885184604
 51
103.06102411478064
  0
LINE
  8
0
  6
CONTINUOUS
 62
               3
  5
33B
 10
-19.999999999999922
 20
703.61951909315894
 30
0.0
 11
-19.999999999999922
 21
717.54585581977972
 31
0.0
  0
LINE
  8
0
  6
CONTINUOUS
 62
               3
  5
33C
 10
-19.999999999999922
 20
545.12485941852924
 30
0.0
 11
-19.999999999999922
 21
559.05119614514911
 31
0.0
  0
ARC
  8
0
  6
CONTINUOUS
 62
               3
  5
33D
 10
0.0000000000000711
 20
631.33535761915414
 30
0.0
 40
88.5
 50
256.93897588514983
 51
283.06102411474581
  0
LINE
  8
0
  6
CONTINUOUS
 62
               3
  5
33E
 10
20.000000000000071
 20
559.05119614514911
 30
0.0
 11
20.000000000000071
 21
545.12485941852924
 31
0.0
  0
CIRCLE
  8
0
  6
CONTINUOUS
 62
               3
  5
33F
 10
0.0000000000000711
 20
631.33535761915414
 30
0.0
 40
75.0
  0
CIRCLE
  8
0
  6
CONTINUOUS
 62
               3
  5
340
 10
-0.000000000000142
 20
631.33535761915414
 30
0.0
 40
59.0
  0
LINE
  8
0
  6
CONTINUOUS
 62
               3
  5
341
 10
-54.999999999999716
 20
476.33535761915431
 30
0.0
 11
-54.999999999999716
 21
477.00691374511854
 31
0.0
  0
LINE
  8
0
  6
CONTINUOUS
 62
               3
  5
342
 10
-57.328443874034747
 20
479.33535761915442
 30
0.0
 11
-54.999999999999716
 21
477.00691374511854
 31
0.0
  0
LINE
  8
0
  6
CONTINUOUS
 62
               3
  5
343
 10
55.0
 20
476.33535761915431
 30
0.0
 11
55.0
 21
477.00691374511854
 31
0.0
  0
LINE
  8
0
  6
CONTINUOUS
 62
               3
  5
344
 10
57.328443874035884
 20
479.33535761915442
 30
0.0
 11
55.0
 21
477.00691374511854
 31
0.0
  0
LINE
  8
0
  6
CONTINUOUS
 62
               3
  5
345
 10
55.0
 20
477.00691374511854
 30
0.0
 11
-54.999999999999716
 21
477.00691374511854
 31
0.0
  0
LINE
  8
0
  6
CONTINUOUS
 62
               3
  5
346
 10
-57.328443874034747
 20
479.33535761915442
 30
0.0
 11
57.328443874035884
 21
479.33535761915442
 31
0.0
  0
LINE
  8
0
  6
CONTINUOUS
 62
               3
  5
347
 10
-57.328443874035315
 20
476.33535761915431
 30
0.0
 11
57.328443874035884
 21
476.33535761915431
 31
0.0
  0
LINE
  8
0
  6
CONTINUOUS
 62
               3
  5
348
 10
57.328443874035884
 20
476.33535761915431
 30
0.0
 11
57.328443874035884
 21
473.83535761915431
 31
0.0
  0
ARC
  8
0
  6
CONTINUOUS
 62
               3
  5
349
 10
54.828443874035884
 20
473.83535761915431
 30
0.0
 40
2.5
 50
269.99999999994782
 51
359.99999999993145
  0
LINE
  8
0
  6
CONTINUOUS
 62
               3
  5
34A
 10
54.828443874035884
 20
471.33535761915431
 30
0.0
 11
-54.828443874035315
 21
471.33535761915431
 31
0.0
  0
LINE
  8
0
  6
CONTINUOUS
 62
               3
  5
34B
 10
-57.328443874035315
 20
476.33535761915431
 30
0.0
 11
-57.328443874035315
 21
473.83535761915431
 31
0.0
  0
ARC
  8
0
  6
CONTINUOUS
 62
               3
  5
34C
 10
-54.828443874035315
 20
473.83535761915431
 30
0.0
 40
2.5
 50
179.99999999996572
 51
269.99999999994782
  0
LINE
  8
0
  6
CONTINUOUS
 62
               3
  5
34D
 10
-57.328443874034747
 20
479.33535761915442
 30
0.0
 11
-59.21589358265777
 21
533.38484553403146
 31
0.0
  0
LINE
  8
0
  6
CONTINUOUS
 62
               3
  5
34E
 10
57.328443874035884
 20
479.33535761915442
 30
0.0
 11
59.215893582658907
 21
533.38484553403146
 31
0.0
  0
LINE
  8
0
  6
CONTINUOUS
 62
               3
  5
34F
 10
-154.9999999999996
 20
576.33535761915459
 30
0.0
 11
-154.32844387403537
 21
576.33535761915459
 31
0.0
  0
LINE
  8
0
  6
CONTINUOUS
 62
               3
  5
350
 10
-151.99999999999949
 20
574.00691374511962
 30
0.0
 11
-154.32844387403537
 21
576.33535761915459
 31
0.0
  0
LINE
  8
0
  6
CONTINUOUS
 62
               3
  5
351
 10
-154.99999999999937
 20
686.33535761915437
 30
0.0
 11
-154.32844387403514
 21
686.33535761915437
 31
0.0
  0
LINE
  8
0
  6
CONTINUOUS
 62
               3
  5
352
 10
-151.99999999999926
 20
688.66380149319025
 30
0.0
 11
-154.32844387403514
 21
686.33535761915437
 31
0.0
  0
LINE
  8
0
  6
CONTINUOUS
 62
               3
  5
353
 10
-154.32844387403514
 20
686.33535761915437
 30
0.0
 11
-154.32844387403537
 21
576.33535761915459
 31
0.0
  0
LINE
  8
0
  6
CONTINUOUS
 62
               3
  5
354
 10
-151.99999999999949
 20
574.00691374511962
 30
0.0
 11
-151.99999999999926
 21
688.66380149319025
 31
0.0
  0
LINE
  8
0
  6
CONTINUOUS
 62
               3
  5
355
 10
-154.9999999999996
 20
574.00691374511916
 30
0.0
 11
-154.99999999999937
 21
688.66380149319025
 31
0.0
  0
LINE
  8
0
  6
CONTINUOUS
 62
               3
  5
356
 10
-154.99999999999937
 20
688.66380149319025
 30
0.0
 11
-157.49999999999937
 21
688.66380149319025
 31
0.0
  0
ARC
  8
0
  6
CONTINUOUS
 62
               3
  5
357
 10
-157.49999999999937
 20
686.16380149319025
 30
0.0
 40
2.5
 50
89.999999999982222
 51
179.99999999996572
  0
LINE
  8
0
  6
CONTINUOUS
 62
               3
  5
358
 10
-159.99999999999937
 20
686.16380149319025
 30
0.0
 11
-159.9999999999996
 21
576.50691374511916
 31
0.0
  0
LINE
  8
0
  6
CONTINUOUS
 62
               3
  5
359
 10
-154.9999999999996
 20
574.00691374511916
 30
0.0
 11
-157.4999999999996
 21
574.00691374511916
 31
0.0
  0
ARC
  8
0
  6
CONTINUOUS
 62
               3
  5
35A
 10
-157.4999999999996
 20
576.50691374511916
 30
0.0
 40
2.5
 50
179.99999999996572
 51
269.99999999994793
  0
LINE
  8
0
  6
CONTINUOUS
 62
               3
  5
35B
 10
-151.99999999999949
 20
574.00691374511962
 30
0.0
 11
-97.950512085122369
 21
572.11946403649654
 31
0.0
  0
LINE
  8
0
  6
CONTINUOUS
 62
               3
  5
35C
 10
-151.99999999999926
 20
688.66380149319025
 30
0.0
 11
-97.950512085122142
 21
690.5512512018131
 31
0.0
  0
ARC
  8
0
  6
CONTINUOUS
 62
               3
  5
35D
 10
-497.00000000000045
 20
-45.70755532481337
 30
0.0
 40
2.0
 50
0.0
 51
87.999999999984752
  0
ARC
  8
0
  6
CONTINUOUS
 62
               3
  5
35E
 10
-703.00000000000045
 20
-45.70755532481337
 30
0.0
 40
2.0
 50
91.999999999980631
 51
179.99999999996518
  0
LINE
  8
0
  6
CONTINUOUS
 62
               3
  5
35F
 10
-496.9302010065955
 20
-43.708773670775201
 30
0.0
 11
-703.06979899340536
 21
-43.708773670775145
 31
0.0
  0
LINE
  8
0
  6
CONTINUOUS
 62
               3
  5
360
 10
-697.0
 20
-69.91501650675184
 30
0.0
 11
-667.0
 21
-69.91501650675184
 31
0.0
  0
LINE
  8
0
  6
CONTINUOUS
 62
               3
  5
361
 10
-705.00000000000023
 20
-71.41501650675184
 30
0.0
 11
-705.00000000000023
 21
-86.415016506751954
 31
0.0
  0
LINE
  8
0
  6
CONTINUOUS
 62
               3
  5
362
 10
-697.0
 20
-69.91501650675184
 30
0.0
 11
-697.5
 21
-71.41501650675184
 31
0.0
  0
LINE
  8
0
  6
CONTINUOUS
 62
               3
  5
363
 10
-667.0
 20
-69.91501650675184
 30
0.0
 11
-665.5
 21
-71.41501650675184
 31
0.0
  0
LINE
  8
0
  6
CONTINUOUS
 62
               3
  5
364
 10
-697.5
 20
-71.41501650675184
 30
0.0
 11
-705.00000000000023
 21
-71.41501650675184
 31
0.0
  0
LINE
  8
0
  6
CONTINUOUS
 62
               3
  5
365
 10
-502.99999999999994
 20
-69.915016506751982
 30
0.0
 11
-533.0
 21
-69.915016506751982
 31
0.0
  0
LINE
  8
0
  6
CONTINUOUS
 62
               3
  5
366
 10
-502.99999999999994
 20
-69.915016506751982
 30
0.0
 11
-502.50000000000017
 21
-71.415016506751954
 31
0.0
  0
LINE
  8
0
  6
CONTINUOUS
 62
               3
  5
367
 10
-533.0
 20
-69.915016506751982
 30
0.0
 11
-534.5
 21
-71.415016506751897
 31
0.0
  0
LINE
  8
0
  6
CONTINUOUS
 62
               3
  5
368
 10
-502.50000000000017
 20
-71.415016506751954
 30
0.0
 11
-494.99999999999983
 21
-71.415016506751954
 31
0.0
  0
LINE
  8
0
  6
CONTINUOUS
 62
               3
  5
369
 10
-534.5
 20
-71.415016506751897
 30
0.0
 11
-665.5
 21
-71.41501650675184
 31
0.0
  0
ARC
  8
0
  6
CONTINUOUS
 62
               3
  5
36A
 10
-556.71598155428433
 20
-232.9150165067519
 30
0.0
 40
2.5
 50
89.999999999981569
 51
269.99999999994731
  0
LINE
  8
0
  6
CONTINUOUS
 62
               3
  5
36B
 10
-643.28401844571613
 20
-235.41501650675184
 30
0.0
 11
-689.99999999999955
 21
-235.41501650675181
 31
0.0
  0
LINE
  8
0
  6
CONTINUOUS
 62
               3
  5
36C
 10
-643.28401844571613
 20
-230.41501650675184
 30
0.0
 11
-689.99999999999955
 21
-230.41501650675181
 31
0.0
  0
ARC
  8
0
  6
CONTINUOUS
 62
               3
  5
36D
 10
-643.28401844571613
 20
-232.91501650675184
 30
0.0
 40
2.5
 50
269.99999999994731
 51
449.99999999991297
  0
ARC
  8
0
  6
CONTINUOUS
 62
               3
  5
36E
 10
-689.99999999999955
 20
-232.91501650675181
 30
0.0
 40
2.5
 50
89.999999999981569
 51
269.99999999994731
  0
LINE
  8
0
  6
CONTINUOUS
 62
               3
  5
36F
 10
-615.00000000000045
 20
-89.415016506751897
 30
0.0
 11
-702.00000000000023
 21
-89.415016506751954
 31
0.0
  0
LINE
  8
0
  6
CONTINUOUS
 62
               3
  5
370
 10
-495.00000000000017
 20
-45.707555324813427
 30
0.0
 11
-495.00000000000017
 21
-61.416234852713757
 31
0.0
  0
LINE
  8
0
  6
CONTINUOUS
 62
               3
  5
371
 10
-705.0
 20
-45.707555324813313
 30
0.0
 11
-705.0
 21
-61.416234852713615
 31
0.0
  0
ARC
  8
0
  6
CONTINUOUS
 62
               3
  5
372
 10
-497.00000000000006
 20
-61.416234852713757
 30
0.0
 40
2.0
 50
271.99999999994765
 51
359.99999999993037
  0
ARC
  8
0
  6
CONTINUOUS
 62
               3
  5
373
 10
-703.0
 20
-61.416234852713615
 30
0.0
 40
2.0
 50
179.99999999996515
 51
267.99999999994685
  0
LINE
  8
0
  6
CONTINUOUS
 62
               3
  5
374
 10
-496.93020100659527
 20
-63.415016506752011
 30
0.0
 11
-703.0697989934049
 21
-63.41501650675184
 31
0.0
  0
LINE
  8
0
  6
CONTINUOUS
 62
               3
  5
375
 10
-499.50000000000006
 20
-63.415016506752011
 30
0.0
 11
-499.50000000000006
 21
-71.415016506751954
 31
0.0
  0
LINE
  8
0
  6
CONTINUOUS
 62
               3
  5
376
 10
-700.5
 20
-71.41501650675184
 30
0.0
 11
-700.5
 21
-63.41501650675184
 31
0.0
  0
ARC
  8
0
  6
CONTINUOUS
 62
               3
  5
377
 10
-702.00000000000023
 20
-86.415016506751954
 30
0.0
 40
3.0000000000000004
 50
179.99999999996518
 51
269.99999999994731
  0
LINE
  8
0
  6
CONTINUOUS
 62
               3
  5
378
 10
-689.99999999999955
 20
-235.41501650675181
 30
0.0
 11
-690.00000000000023
 21
-358.22732913995452
 31
0.0
  0
LINE
  8
0
  6
CONTINUOUS
 62
               3
  5
379
 10
-669.50000000000136
 20
113.88255162002611
 30
0.0
 11
-530.49999999999886
 21
113.88255162002611
 31
0.0
  0
LINE
  8
0
  6
CONTINUOUS
 62
               3
  5
37A
 10
-676.50000000000023
 20
179.1116421370433
 30
0.0
 11
-676.50000000000205
 21
201.58498349324805
 31
0.0
  0
LINE
  8
0
  6
CONTINUOUS
 62
               3
  5
37B
 10
-523.50000000000045
 20
179.11164213704342
 30
0.0
 11
-523.50000000000045
 21
201.58498349324805
 31
0.0
  0
ARC
  8
0
  6
CONTINUOUS
 62
               3
  5
37C
 10
-677.00000000000045
 20
174.1146880019478
 30
0.0
 40
5.0
 50
0.0
 51
87.999999999983118
  0
LINE
  8
0
  6
CONTINUOUS
 62
               3
  5
37D
 10
-688.50000000000023
 20
179.51932457259693
 30
0.0
 11
-688.50000000000023
 21
186.5193245725967
 31
0.0
  0
LINE
  8
0
  6
CONTINUOUS
 62
               3
  5
37E
 10
-688.50000000000023
 20
179.51932457259693
 30
0.0
 11
-676.82550251648786
 21
179.11164213704319
 31
0.0
  0
ARC
  8
0
  6
CONTINUOUS
 62
               3
  5
37F
 10
-523.00000000000045
 20
174.1146880019478
 30
0.0
 40
5.0
 50
91.999999999982577
 51
179.99999999996541
  0
LINE
  8
0
  6
CONTINUOUS
 62
               3
  5
380
 10
-511.5000000000004
 20
179.51932457259704
 30
0.0
 11
-511.5000000000004
 21
186.51932457259682
 31
0.0
  0
LINE
  8
0
  6
CONTINUOUS
 62
               3
  5
381
 10
-511.50000000000063
 20
179.51932457259704
 30
0.0
 11
-523.17449748351282
 21
179.1116421370433
 31
0.0
  0
LINE
  8
0
  6
CONTINUOUS
 62
               3
  5
382
 10
-528.00000000000023
 20
174.54438738706392
 30
0.0
 11
-528.00000000000023
 21
113.72954156940204
 31
0.0
  0
LINE
  8
0
  6
CONTINUOUS
 62
               3
  5
383
 10
-672.00000000000045
 20
174.1146880019478
 30
0.0
 11
-672.00000000000045
 21
113.72954156940193
 31
0.0
  0
ARC
  8
0
  6
CONTINUOUS
 62
               3
  5
384
 10
-669.50000000000136
 20
93.382551620026106
 30
0.0
 40
20.5
 50
89.999999999982649
 51
179.99999999996518
  0
ARC
  8
0
  6
CONTINUOUS
 62
               3
  5
385
 10
-530.49999999999886
 20
93.382551620026106
 30
0.0
 40
20.5
 50
359.99999999993037
 51
449.99999999991292
  0
ARC
  8
0
  6
CONTINUOUS
 62
               3
  5
386
 10
-505.2673294714117
 20
-94.163943402581538
 30
0.0
 40
4.7489268958295181
 50
89.999999999982663
 51
179.99999999996521
  0
ARC
  8
0
  6
CONTINUOUS
 62
               3
  5
387
 10
-497.99999999999994
 20
-86.415016506752039
 30
0.0
 40
3.0000000000000004
 50
269.99999999994731
 51
359.99999999993037
  0
LINE
  8
0
  6
CONTINUOUS
 62
               3
  5
388
 10
-445.00000000000028
 20
-115.41501650675167
 30
0.0
 11
-445.67155612596451
 21
-115.41501650675167
 31
0.0
  0
LINE
  8
0
  6
CONTINUOUS
 62
               3
  5
389
 10
-448.0000000000004
 20
-113.08657263271579
 30
0.0
 11
-445.67155612596451
 21
-115.41501650675167
 31
0.0
  0
LINE
  8
0
  6
CONTINUOUS
 62
               3
  5
38A
 10
-445.00000000000028
 20
-113.08657263271584
 30
0.0
 11
-442.50000000000028
 21
-113.08657263271584
 31
0.0
  0
ARC
  8
0
  6
CONTINUOUS
 62
               3
  5
38B
 10
-442.50000000000028
 20
-115.58657263271584
 30
0.0
 40
2.5
 50
0.0
 51
89.999999999982862
  0
LINE
  8
0
  6
CONTINUOUS
 62
               3
  5
38C
 10
-448.0000000000004
 20
-113.08657263271579
 30
0.0
 11
-505.17449748351254
 21
-111.08999518528756
 31
0.0
  0
ARC
  8
0
  6
CONTINUOUS
 62
               3
  5
38D
 10
-505.00000000000017
 20
-106.09304105019208
 30
0.0
 40
5.0
 50
179.99999999996524
 51
267.99999999994816
  0
LINE
  8
0
  6
CONTINUOUS
 62
               3
  5
38E
 10
-510.00000000000017
 20
-94.163943402581538
 30
0.0
 11
-510.00000000000017
 21
-106.09304105019208
 31
0.0
  0
ARC
  8
0
  6
CONTINUOUS
 62
               3
  5
38F
 10
-490.0
 20
-106.61685259256831
 30
0.0
 40
5.0
 50
179.99999999996524
 51
267.99999999994816
  0
ARC
  8
0
  6
CONTINUOUS
 62
               3
  5
390
 10
-518.0
 20
-232.91501650675195
 30
0.0
 40
2.5
 50
269.99999999994731
 51
449.99999999991297
  0
LINE
  8
0
  6
CONTINUOUS
 62
               3
  5
391
 10
-445.00000000000028
 20
-225.4150165067515
 30
0.0
 11
-445.67155612596451
 21
-225.4150165067515
 31
0.0
  0
LINE
  8
0
  6
CONTINUOUS
 62
               3
  5
392
 10
-448.0000000000004
 20
-227.74346038078653
 30
0.0
 11
-445.67155612596451
 21
-225.4150165067515
 31
0.0
  0
LINE
  8
0
  6
CONTINUOUS
 62
               3
  5
393
 10
-445.00000000000028
 20
-227.74346038078704
 30
0.0
 11
-442.50000000000028
 21
-227.74346038078704
 31
0.0
  0
ARC
  8
0
  6
CONTINUOUS
 62
               3
  5
394
 10
-442.50000000000028
 20
-225.24346038078704
 30
0.0
 40
2.5
 50
269.99999999994731
 51
359.99999999993014
  0
LINE
  8
0
  6
CONTINUOUS
 62
               3
  5
395
 10
-448.0000000000004
 20
-227.74346038078653
 30
0.0
 11
-495.52724022451531
 21
-229.40314818124619
 31
0.0
  0
LINE
  8
0
  6
CONTINUOUS
 62
               3
  5
396
 10
-498.88827664693548
 20
-230.86456841040899
 30
0.0
 11
-508.53553390593333
 21
-240.51182566940707
 31
0.0
  0
ARC
  8
0
  6
CONTINUOUS
 62
               3
  5
397
 10
-505.0000000000004
 20
-244.04735957533967
 30
0.0
 40
5.0
 50
134.99999999997439
 51
179.99999999996507
  0
ARC
  8
0
  6
CONTINUOUS
 62
               3
  5
398
 10
-495.35274274100271
 20
-234.4001023163417
 30
0.0
 40
5.0
 50
91.999999999982577
 51
134.99999999997462
  0
LINE
  8
0
  6
CONTINUOUS
 62
               3
  5
399
 10
-494.99999999999983
 20
-71.415016506751954
 30
0.0
 11
-495.0
 21
-106.61685259256831
 31
0.0
  0
LINE
  8
0
  6
CONTINUOUS
 62
               3
  5
39A
 10
-445.67155612596451
 20
-115.41501650675167
 30
0.0
 11
-445.67155612596451
 21
-225.4150165067515
 31
0.0
  0
LINE
  8
0
  6
CONTINUOUS
 62
               3
  5
39B
 10
-448.0000000000004
 20
-227.74346038078653
 30
0.0
 11
-448.0000000000004
 21
-113.08657263271579
 31
0.0
  0
LINE
  8
0
  6
CONTINUOUS
 62
               3
  5
39C
 10
-445.00000000000028
 20
-227.74346038078704
 30
0.0
 11
-445.00000000000028
 21
-113.08657263271584
 31
0.0
  0
LINE
  8
0
  6
CONTINUOUS
 62
               3
  5
39D
 10
-440.00000000000028
 20
-115.58657263271584
 30
0.0
 11
-440.00000000000028
 21
-225.24346038078704
 31
0.0
  0
LINE
  8
0
  6
CONTINUOUS
 62
               3
  5
39E
 10
-498.01625636724094
 20
-89.415016506751954
 30
0.0
 11
-585.00000000000045
 21
-89.415016506751783
 31
0.0
  0
LINE
  8
0
  6
CONTINUOUS
 62
               3
  5
39F
 10
-518.0
 20
-235.41501650675195
 30
0.0
 11
-556.71598155428433
 21
-235.4150165067519
 31
0.0
  0
LINE
  8
0
  6
CONTINUOUS
 62
               3
  5
3A0
 10
-518.0
 20
-230.41501650675195
 30
0.0
 11
-556.71598155428433
 21
-230.4150165067519
 31
0.0
  0
LINE
  8
0
  6
CONTINUOUS
 62
               3
  5
3A1
 10
-510.0000000000004
 20
-358.22732913995657
 30
0.0
 11
-510.0000000000004
 21
-244.04735957533967
 31
0.0
  0
LINE
  8
0
  6
CONTINUOUS
 62
               3
  5
3A2
 10
-573.21264290752083
 20
-142.41501650675193
 30
0.0
 11
-626.78735709247985
 21
-142.41501650675193
 31
0.0
  0
CIRCLE
  8
0
  6
CONTINUOUS
 62
               3
  5
3A3
 10
-600.00000000000045
 20
-170.41501650675181
 30
0.0
 40
38.75
  0
CIRCLE
  8
0
  6
CONTINUOUS
 62
               3
  5
3A4
 10
-600.00000000000045
 20
-170.41501650675181
 30
0.0
 40
47.299999999999997
  0
LINE
  8
0
  6
CONTINUOUS
 62
               3
  5
3A5
 10
-631.81980515339501
 20
-202.23482166014614
 30
0.0
 11
-633.44615075012393
 21
-203.86116725687552
 31
0.0
  0
LINE
  8
0
  6
CONTINUOUS
 62
               3
  5
3A6
 10
-568.18019484660567
 20
-202.23482166014614
 30
0.0
 11
-566.55384924987675
 21
-203.86116725687552
 31
0.0
  0
ARC
  8
0
  6
CONTINUOUS
 62
               3
  5
3A7
 10
-600.00000000000045
 20
-170.41501650675181
 30
0.0
 40
45.0
 50
224.99999999995646
 51
314.99999999993918
  0
CIRCLE
  8
0
  6
CONTINUOUS
 62
               3
  5
3A8
 10
-600.00000000000045
 20
-170.41501650675181
 30
0.0
 40
43.0
  0
CIRCLE
  8
0
  6
CONTINUOUS
 62
               3
  5
3A9
 10
-600.00000000000045
 20
-170.41501650675181
 30
0.0
 40
57.5
  0
CIRCLE
  8
0
  6
CONTINUOUS
 62
               3
  5
3AA
 10
-600.00000000000045
 20
-170.41501650675181
 30
0.0
 40
48.500000000000014
  0
LINE
  8
0
  6
CONTINUOUS
 62
               3
  5
3AB
 10
-610.00000000000045
 20
-106.74876417355853
 30
0.0
 11
-610.00000000000045
 21
-94.41501650675184
 31
0.0
  0
LINE
  8
0
  6
CONTINUOUS
 62
               3
  5
3AC
 10
-590.00000000000045
 20
-94.41501650675184
 30
0.0
 11
-590.00000000000045
 21
-106.74876417355853
 31
0.0
  0
ARC
  8
0
  6
CONTINUOUS
 62
               3
  5
3AD
 10
-615.00000000000045
 20
-106.74876417355853
 30
0.0
 40
5.0
 50
283.3423637970331
 51
359.99999999993037
  0
ARC
  8
0
  6
CONTINUOUS
 62
               3
  5
3AE
 10
-585.00000000000045
 20
-106.74876417355853
 30
0.0
 40
5.0
 50
179.99999999996524
 51
256.65763620286259
  0
ARC
  8
0
  6
CONTINUOUS
 62
               3
  5
3AF
 10
-615.00000000000045
 20
-94.41501650675184
 30
0.0
 40
5.0
 50
0.0
 51
89.999999999982862
  0
ARC
  8
0
  6
CONTINUOUS
 62
               3
  5
3B0
 10
-585.00000000000045
 20
-94.41501650675184
 30
0.0
 40
5.0
 50
89.999999999982862
 51
179.99999999996518
  0
LINE
  8
0
  6
CONTINUOUS
 62
               3
  5
3B1
 10
-697.03489949670234
 20
-186.94871855896469
 30
0.0
 11
-694.82550251648763
 21
-187.02587240162615
 31
0.0
  0
ARC
  8
0
  6
CONTINUOUS
 62
               3
  5
3B2
 10
-695.00000000000045
 20
-192.0228265367216
 30
0.0
 40
5.0
 50
0.0
 51
87.999999999983118
  0
LINE
  8
0
  6
CONTINUOUS
 62
               3
  5
3B3
 10
-697.03489949670211
 20
-108.88131445453965
 30
0.0
 11
-694.82550251648786
 21
-108.80416061187844
 31
0.0
  0
LINE
  8
0
  6
CONTINUOUS
 62
               3
  5
3B4
 10
-698.0
 20
-185.94932773194563
 30
0.0
 11
-697.99999999999977
 21
-109.88070528155873
 31
0.0
  0
ARC
  8
0
  6
CONTINUOUS
 62
               3
  5
3B5
 10
-697.0
 20
-185.94932773194563
 30
0.0
 40
1.0
 50
179.99999999996541
 51
267.99999999995663
  0
ARC
  8
0
  6
CONTINUOUS
 62
               3
  5
3B6
 10
-697.0
 20
-109.88070528155873
 30
0.0
 40
1.0
 50
91.999999999970868
 51
179.99999999996498
  0
ARC
  8
0
  6
CONTINUOUS
 62
               3
  5
3B7
 10
-695.00000000000045
 20
-103.80720647678288
 30
0.0
 40
5.0
 50
271.99999999994702
 51
359.99999999993048
  0
ARC
  8
0
  6
CONTINUOUS
 62
               3
  5
3B8
 10
-694.99999999999932
 20
-94.415016506751925
 30
0.0
 40
5.0
 50
359.99999999993031
 51
449.99999999991297
  0
LINE
  8
0
  6
CONTINUOUS
 62
               3
  5
3B9
 10
-690.00000000000023
 20
-94.415016506751925
 30
0.0
 11
-690.00000000000023
 21
-103.80720647678288
 31
0.0
  0
LINE
  8
0
  6
CONTINUOUS
 62
               3
  5
3BA
 10
-689.99999999999955
 20
-192.0228265367216
 30
0.0
 11
-689.99999999999977
 21
-230.41501650675184
 31
0.0
  0
LINE
  8
0
  6
CONTINUOUS
 62
               3
  5
3BB
 10
-512.2787121660333
 20
-378.22732913995594
 30
0.0
 11
-526.72128783396738
 21
-504.98818892048325
 31
0.0
  0
LINE
  8
0
  6
CONTINUOUS
 62
               3
  5
3BC
 10
-683.82148288006988
 20
-412.45547793407923
 30
0.0
 11
-673.2787121660333
 21
-504.98818892048325
 31
0.0
  0
LINE
  8
0
  6
CONTINUOUS
 62
               3
  5
3BD
 10
-509.5175023614691
 20
-376.07668039660666
 30
0.0
 11
-507.79907839522861
 21
-360.99426681356721
 31
0.0
  0
ARC
  8
0
  6
CONTINUOUS
 62
               3
  5
3BE
 10
-510.28300803441999
 20
-360.71125877914739
 30
0.0
 40
2.5
 50
353.49999999993111
 51
443.49999999991383
  0
ARC
  8
0
  6
CONTINUOUS
 62
               3
  5
3BF
 10
-511.99570413161331
 20
-375.74339950076438
 30
0.0
 40
2.5
 50
263.49999999994833
 51
353.49999999993111
  0
LINE
  8
0
  6
CONTINUOUS
 62
               3
  5
3C0
 10
-675.44632680640075
 20
-378.22732913995605
 30
0.0
 11
-512.2787121660333
 21
-378.22732913995594
 31
0.0
  0
LINE
  8
0
  6
CONTINUOUS
 62
               3
  5
3C1
 10
-690.0
 20
-358.22732913995605
 30
0.0
 11
-510.0000000000004
 21
-358.22732913995594
 31
0.0
  0
LINE
  8
0
  6
CONTINUOUS
 62
               3
  5
3C2
 10
-690.0
 20
-358.22732913995662
 30
0.0
 11
-689.79905196282175
 21
-359.99102742685619
 31
0.0
  0
LINE
  8
0
  6
CONTINUOUS
 62
               3
  5
3C3
 10
-671.00000000000045
 20
-524.98818892048257
 30
0.0
 11
-529.00000000000045
 21
-524.98818892048394
 31
0.0
  0
LINE
  8
0
  6
CONTINUOUS
 62
               3
  5
3C4
 10
-673.27871216603307
 20
-504.9881889204832
 30
0.0
 11
-526.72128783396738
 21
-504.9881889204832
 31
0.0
  0
LINE
  8
0
  6
CONTINUOUS
 62
               3
  5
3C5
 10
-526.23879019543642
 20
-522.83754017713477
 30
0.0
 11
-524.52036622919582
 21
-507.75512659409532
 31
0.0
  0
ARC
  8
0
  6
CONTINUOUS
 62
               3
  5
3C6
 10
-527.00429586838709
 20
-507.47211855967549
 30
0.0
 40
2.5
 50
353.49999999993111
 51
443.49999999991383
  0
ARC
  8
0
  6
CONTINUOUS
 62
               3
  5
3C7
 10
-528.71699196558052
 20
-522.50425928129243
 30
0.0
 40
2.5
 50
263.49999999994833
 51
353.49999999993111
  0
LINE
  8
0
  6
CONTINUOUS
 62
               3
  5
3C8
 10
-673.76120980456449
 20
-522.83754017713477
 30
0.0
 11
-675.47963377080487
 21
-507.75512659409532
 31
0.0
  0
ARC
  8
0
  6
CONTINUOUS
 62
               3
  5
3C9
 10
-672.99570413161337
 20
-507.47211855967549
 30
0.0
 40
2.5
 50
96.499999999980105
 51
186.49999999996422
  0
ARC
  8
0
  6
CONTINUOUS
 62
               3
  5
3CA
 10
-671.28300803442016
 20
-522.50425928129243
 30
0.0
 40
2.5
 50
186.49999999996422
 51
276.49999999994822
  0
LINE
  8
0
  6
CONTINUOUS
 62
               3
  5
3CB
 10
-671.0
 20
-524.98818892048394
 30
0.0
 11
-671.00000000000023
 21
-577.70147495011429
 31
0.0
  0
LINE
  8
0
  6
CONTINUOUS
 62
               3
  5
3CC
 10
-529.00000000000045
 20
-524.98818892048394
 30
0.0
 11
-529.00000000000045
 21
-577.70147495011429
 31
0.0
  0
LINE
  8
0
  6
CONTINUOUS
 62
               3
  5
3CD
 10
-655.00000000000045
 20
-713.41501650675195
 30
0.0
 11
-545.00000000000045
 21
-713.41501650675195
 31
0.0
  0
LINE
  8
0
  6
CONTINUOUS
 62
               3
  5
3CE
 10
-543.00000000000045
 20
-711.41501650675173
 30
0.0
 11
-543.00000000000045
 21
-613.41501650675195
 31
0.0
  0
LINE
  8
0
  6
CONTINUOUS
 62
               3
  5
3CF
 10
-657.00000000000023
 20
-711.41501650675173
 30
0.0
 11
-657.00000000000023
 21
-613.41501650675195
 31
0.0
  0
LINE
  8
0
  6
CONTINUOUS
 62
               3
  5
3D0
 10
-543.00000000000045
 20
-613.41501650675195
 30
0.0
 11
-541.94695717682703
 21
-612.3619736835783
 31
0.0
  0
LINE
  8
0
  6
CONTINUOUS
 62
               3
  5
3D1
 10
-657.00000000000023
 20
-613.41501650675195
 30
0.0
 11
-658.05304282317366
 21
-612.3619736835783
 31
0.0
  0
LINE
  8
0
  6
CONTINUOUS
 62
               3
  5
3D2
 10
-655.00000000000045
 20
-713.41501650675195
 30
0.0
 11
-657.00000000000023
 21
-711.41501650675173
 31
0.0
  0
LINE
  8
0
  6
CONTINUOUS
 62
               3
  5
3D3
 10
-545.00000000000045
 20
-713.41501650675195
 30
0.0
 11
-543.00000000000045
 21
-711.41501650675173
 31
0.0
  0
LINE
  8
0
  6
CONTINUOUS
 62
               3
  5
3D4
 10
-541.94695717682703
 20
-612.3619736835783
 30
0.0
 11
-541.94695717682703
 21
-608.29871295294629
 31
0.0
  0
ARC
  8
0
  6
CONTINUOUS
 62
               3
  5
3D5
 10
-531.94695717682703
 20
-608.29871295294629
 30
0.0
 40
10.0
 50
149.99999999997118
 51
179.99999999996507
  0
LINE
  8
0
  6
CONTINUOUS
 62
               3
  5
3D6
 10
-658.05304282317366
 20
-612.3619736835783
 30
0.0
 11
-658.05304282317366
 21
-608.29871295294629
 31
0.0
  0
ARC
  8
0
  6
CONTINUOUS
 62
               3
  5
3D7
 10
-668.05304282317366
 20
-608.29871295294629
 30
0.0
 40
10.0
 50
359.99999999993014
 51
389.99999999992457
  0
ARC
  8
0
  6
CONTINUOUS
 62
               3
  5
3D8
 10
497.00000000000028
 20
-45.707555324813654
 30
0.0
 40
2.0
 50
91.999999999980631
 51
179.99999999996518
  0
ARC
  8
0
  6
CONTINUOUS
 62
               3
  5
3D9
 10
703.00000000000045
 20
-45.707555324813796
 30
0.0
 40
2.0
 50
359.99999999993031
 51
447.99999999991388
  0
LINE
  8
0
  6
CONTINUOUS
 62
               3
  5
3DA
 10
496.93020100659538
 20
-43.708773670775486
 30
0.0
 11
703.06979899340558
 21
-43.708773670775486
 31
0.0
  0
LINE
  8
0
  6
CONTINUOUS
 62
               3
  5
3DB
 10
697.0
 20
-69.915016506752266
 30
0.0
 11
667.0
 21
-69.915016506752266
 31
0.0
  0
LINE
  8
0
  6
CONTINUOUS
 62
               3
  5
3DC
 10
697.0
 20
-69.915016506752266
 30
0.0
 11
697.5
 21
-71.415016506752181
 31
0.0
  0
LINE
  8
0
  6
CONTINUOUS
 62
               3
  5
3DD
 10
667.0
 20
-69.915016506752266
 30
0.0
 11
665.50000000000023
 21
-71.415016506752181
 31
0.0
  0
LINE
  8
0
  6
CONTINUOUS
 62
               3
  5
3DE
 10
697.5
 20
-71.415016506752181
 30
0.0
 11
705.00000000000023
 21
-71.415016506752181
 31
0.0
  0
LINE
  8
0
  6
CONTINUOUS
 62
               3
  5
3DF
 10
502.99999999999983
 20
-69.915016506752266
 30
0.0
 11
532.99999999999977
 21
-69.915016506752266
 31
0.0
  0
LINE
  8
0
  6
CONTINUOUS
 62
               3
  5
3E0
 10
502.99999999999983
 20
-69.915016506752266
 30
0.0
 11
502.5
 21
-71.415016506752323
 31
0.0
  0
LINE
  8
0
  6
CONTINUOUS
 62
               3
  5
3E1
 10
532.99999999999977
 20
-69.915016506752266
 30
0.0
 11
534.5
 21
-71.415016506752181
 31
0.0
  0
LINE
  8
0
  6
CONTINUOUS
 62
               3
  5
3E2
 10
502.5
 20
-71.415016506752323
 30
0.0
 11
494.99999999999972
 21
-71.415016506752323
 31
0.0
  0
LINE
  8
0
  6
CONTINUOUS
 62
               3
  5
3E3
 10
534.5
 20
-71.415016506752181
 30
0.0
 11
665.50000000000023
 21
-71.415016506752181
 31
0.0
  0
LINE
  8
0
  6
CONTINUOUS
 62
               3
  5
3E4
 10
495.0
 20
-45.707555324813796
 30
0.0
 11
495.0
 21
-61.416234852714041
 31
0.0
  0
LINE
  8
0
  6
CONTINUOUS
 62
               3
  5
3E5
 10
705.0
 20
-45.707555324813654
 30
0.0
 11
705.0
 21
-61.416234852714041
 31
0.0
  0
ARC
  8
0
  6
CONTINUOUS
 62
               3
  5
3E6
 10
496.99999999999989
 20
-61.416234852714041
 30
0.0
 40
2.0
 50
179.99999999996518
 51
267.9999999999485
  0
ARC
  8
0
  6
CONTINUOUS
 62
               3
  5
3E7
 10
703.00000000000023
 20
-61.416234852714041
 30
0.0
 40
2.0
 50
271.99999999994765
 51
359.99999999993042
  0
LINE
  8
0
  6
CONTINUOUS
 62
               3
  5
3E8
 10
496.9302010065951
 20
-63.415016506752352
 30
0.0
 11
703.0697989934049
 21
-63.41501650675221
 31
0.0
  0
LINE
  8
0
  6
CONTINUOUS
 62
               3
  5
3E9
 10
499.49999999999989
 20
-63.415016506752352
 30
0.0
 11
499.49999999999989
 21
-71.415016506752323
 31
0.0
  0
LINE
  8
0
  6
CONTINUOUS
 62
               3
  5
3EA
 10
700.50000000000023
 20
-71.415016506752181
 30
0.0
 11
700.50000000000023
 21
-63.41501650675221
 31
0.0
  0
LINE
  8
0
  6
CONTINUOUS
 62
               3
  5
3EB
 10
530.49999999999909
 20
113.88255162002582
 30
0.0
 11
669.50000000000159
 21
113.88255162002582
 31
0.0
  0
LINE
  8
0
  6
CONTINUOUS
 62
               3
  5
3EC
 10
523.50000000000023
 20
179.11164213704302
 30
0.0
 11
523.49999999999841
 21
201.58498349324771
 31
0.0
  0
LINE
  8
0
  6
CONTINUOUS
 62
               3
  5
3ED
 10
676.5
 20
179.11164213704313
 30
0.0
 11
676.5
 21
201.58498349324771
 31
0.0
  0
ARC
  8
0
  6
CONTINUOUS
 62
               3
  5
3EE
 10
523.0
 20
174.11468800194751
 30
0.0
 40
5.0
 50
0.0
 51
87.999999999983118
  0
LINE
  8
0
  6
CONTINUOUS
 62
               3
  5
3EF
 10
511.50000000000028
 20
179.51932457259664
 30
0.0
 11
511.50000000000028
 21
186.51932457259636
 31
0.0
  0
LINE
  8
0
  6
CONTINUOUS
 62
               3
  5
3F0
 10
511.50000000000028
 20
179.51932457259664
 30
0.0
 11
523.1744974835126
 21
179.11164213704291
 31
0.0
  0
ARC
  8
0
  6
CONTINUOUS
 62
               3
  5
3F1
 10
677.0
 20
174.11468800194751
 30
0.0
 40
5.0
 50
91.999999999982577
 51
179.99999999996541
  0
LINE
  8
0
  6
CONTINUOUS
 62
               3
  5
3F2
 10
688.5
 20
179.51932457259676
 30
0.0
 11
688.5
 21
186.51932457259647
 31
0.0
  0
LINE
  8
0
  6
CONTINUOUS
 62
               3
  5
3F3
 10
688.49999999999977
 20
179.51932457259676
 30
0.0
 11
676.82550251648763
 21
179.11164213704302
 31
0.0
  0
LINE
  8
0
  6
CONTINUOUS
 62
               3
  5
3F4
 10
672.00000000000023
 20
174.54438738706364
 30
0.0
 11
672.00000000000023
 21
113.72954156940176
 31
0.0
  0
LINE
  8
0
  6
CONTINUOUS
 62
               3
  5
3F5
 10
528.0
 20
174.11468800194751
 30
0.0
 11
528.0
 21
113.72954156940165
 31
0.0
  0
ARC
  8
0
  6
CONTINUOUS
 62
               3
  5
3F6
 10
530.49999999999909
 20
93.382551620025822
 30
0.0
 40
20.5
 50
89.999999999982649
 51
179.99999999996518
  0
ARC
  8
0
  6
CONTINUOUS
 62
               3
  5
3F7
 10
669.50000000000159
 20
93.382551620025822
 30
0.0
 40
20.5
 50
359.99999999993037
 51
449.99999999991292
  0
LINE
  8
0
  6
CONTINUOUS
 62
               3
  5
3F8
 10
445.00000000000017
 20
-225.4150165067517
 30
0.0
 11
445.6715561259644
 21
-225.4150165067517
 31
0.0
  0
LINE
  8
0
  6
CONTINUOUS
 62
               3
  5
3F9
 10
448.00000000000028
 20
-227.74346038078679
 30
0.0
 11
445.6715561259644
 21
-225.4150165067517
 31
0.0
  0
LINE
  8
0
  6
CONTINUOUS
 62
               3
  5
3FA
 10
445.00000000000017
 20
-115.41501650675195
 30
0.0
 11
445.6715561259644
 21
-115.41501650675195
 31
0.0
  0
LINE
  8
0
  6
CONTINUOUS
 62
               3
  5
3FB
 10
448.00000000000028
 20
-113.08657263271607
 30
0.0
 11
445.6715561259644
 21
-115.41501650675195
 31
0.0
  0
LINE
  8
0
  6
CONTINUOUS
 62
               3
  5
3FC
 10
445.6715561259644
 20
-115.41501650675195
 30
0.0
 11
445.6715561259644
 21
-225.4150165067517
 31
0.0
  0
LINE
  8
0
  6
CONTINUOUS
 62
               3
  5
3FD
 10
448.00000000000028
 20
-227.74346038078679
 30
0.0
 11
448.00000000000028
 21
-113.08657263271607
 31
0.0
  0
LINE
  8
0
  6
CONTINUOUS
 62
               3
  5
3FE
 10
445.00000000000017
 20
-227.7434603807873
 30
0.0
 11
445.00000000000017
 21
-113.08657263271607
 31
0.0
  0
LINE
  8
0
  6
CONTINUOUS
 62
               3
  5
3FF
 10
445.00000000000017
 20
-113.08657263271607
 30
0.0
 11
442.50000000000017
 21
-113.08657263271607
 31
0.0
  0
ARC
  8
0
  6
CONTINUOUS
 62
               3
  5
400
 10
442.50000000000017
 20
-115.58657263271607
 30
0.0
 40
2.5
 50
89.999999999982862
 51
179.99999999996524
  0
LINE
  8
0
  6
CONTINUOUS
 62
               3
  5
401
 10
440.00000000000017
 20
-115.58657263271607
 30
0.0
 11
440.00000000000017
 21
-225.2434603807873
 31
0.0
  0
LINE
  8
0
  6
CONTINUOUS
 62
               3
  5
402
 10
445.00000000000017
 20
-227.7434603807873
 30
0.0
 11
442.50000000000017
 21
-227.7434603807873
 31
0.0
  0
ARC
  8
0
  6
CONTINUOUS
 62
               3
  5
403
 10
442.50000000000017
 20
-225.2434603807873
 30
0.0
 40
2.5
 50
179.99999999996507
 51
269.99999999994731
  0
LINE
  8
0
  6
CONTINUOUS
 62
               3
  5
404
 10
448.00000000000028
 20
-227.74346038078679
 30
0.0
 11
495.52724022451514
 21
-229.40314818124645
 31
0.0
  0
LINE
  8
0
  6
CONTINUOUS
 62
               3
  5
405
 10
448.00000000000028
 20
-113.08657263271607
 30
0.0
 11
505.17449748351243
 21
-111.08999518528785
 31
0.0
  0
LINE
  8
0
  6
CONTINUOUS
 62
               3
  5
406
 10
498.88827664693537
 20
-230.8645684104093
 30
0.0
 11
508.53553390593316
 21
-240.51182566940733
 31
0.0
  0
ARC
  8
0
  6
CONTINUOUS
 62
               3
  5
407
 10
505.00000000000028
 20
-244.04735957533998
 30
0.0
 40
5.0
 50
359.99999999993048
 51
404.99999999992122
  0
ARC
  8
0
  6
CONTINUOUS
 62
               3
  5
408
 10
495.3527427410026
 20
-234.40010231634196
 30
0.0
 40
5.0
 50
44.999999999990457
 51
87.999999999982478
  0
ARC
  8
0
  6
CONTINUOUS
 62
               3
  5
409
 10
702.00000000000023
 20
-86.415016506752323
 30
0.0
 40
3.0000000000000004
 50
269.99999999994731
 51
359.99999999993037
  0
ARC
  8
0
  6
CONTINUOUS
 62
               3
  5
40A
 10
694.99999999999932
 20
-94.415016506752295
 30
0.0
 40
5.0
 50
89.999999999982862
 51
179.99999999996518
  0
LINE
  8
0
  6
CONTINUOUS
 62
               3
  5
40B
 10
697.03489949670234
 20
-186.94871855896506
 30
0.0
 11
694.82550251648763
 21
-187.02587240162651
 31
0.0
  0
ARC
  8
0
  6
CONTINUOUS
 62
               3
  5
40C
 10
695.00000000000023
 20
-192.02282653672196
 30
0.0
 40
5.0
 50
91.999999999981284
 51
179.99999999996507
  0
LINE
  8
0
  6
CONTINUOUS
 62
               3
  5
40D
 10
697.03489949670211
 20
-108.88131445454002
 30
0.0
 11
694.82550251648786
 21
-108.80416061187881
 31
0.0
  0
ARC
  8
0
  6
CONTINUOUS
 62
               3
  5
40E
 10
695.00000000000045
 20
-103.80720647678325
 30
0.0
 40
5.0
 50
179.99999999996507
 51
267.99999999994884
  0
LINE
  8
0
  6
CONTINUOUS
 62
               3
  5
40F
 10
697.99999999999977
 20
-185.949327731946
 30
0.0
 11
697.99999999999977
 21
-109.8807052815591
 31
0.0
  0
ARC
  8
0
  6
CONTINUOUS
 62
               3
  5
410
 10
697.0
 20
-185.949327731946
 30
0.0
 40
1.0
 50
271.99999999994441
 51
359.99999999993082
  0
ARC
  8
0
  6
CONTINUOUS
 62
               3
  5
411
 10
697.0
 20
-109.8807052815591
 30
0.0
 40
1.0
 50
0.0
 51
87.999999999996149
  0
LINE
  8
0
  6
CONTINUOUS
 62
               3
  5
412
 10
689.99999999999932
 20
-94.415016506752295
 30
0.0
 11
689.99999999999932
 21
-103.80720647678325
 31
0.0
  0
LINE
  8
0
  6
CONTINUOUS
 62
               3
  5
413
 10
689.99999999999932
 20
-192.02282653672196
 30
0.0
 11
689.99999999999955
 21
-230.41501650675221
 31
0.0
  0
LINE
  8
0
  6
CONTINUOUS
 62
               3
  5
414
 10
705.00000000000023
 20
-71.415016506752181
 30
0.0
 11
705.00000000000023
 21
-86.415016506752323
 31
0.0
  0
LINE
  8
0
  6
CONTINUOUS
 62
               3
  5
415
 10
494.99999999999972
 20
-71.415016506752323
 30
0.0
 11
494.99999999999983
 21
-106.61685259256865
 31
0.0
  0
LINE
  8
0
  6
CONTINUOUS
 62
               3
  5
416
 10
510.00000000000017
 20
-358.22732913995691
 30
0.0
 11
510.00000000000028
 21
-244.04735957533998
 31
0.0
  0
LINE
  8
0
  6
CONTINUOUS
 62
               3
  5
417
 10
689.99999999999955
 20
-235.41501650675221
 30
0.0
 11
690.0
 21
-358.22732913995486
 31
0.0
  0
LINE
  8
0
  6
CONTINUOUS
 62
               3
  5
418
 10
701.98374363275934
 20
-89.415016506752266
 30
0.0
 11
616.67333200053349
 21
-89.415016506752266
 31
0.0
  0
LINE
  8
0
  6
CONTINUOUS
 62
               3
  5
419
 10
498.01625636724094
 20
-89.415016506752238
 30
0.0
 11
583.32666799946674
 21
-89.415016506752295
 31
0.0
  0
LINE
  8
0
  6
CONTINUOUS
 62
               3
  5
41A
 10
512.27871216603307
 20
-378.22732913995611
 30
0.0
 11
526.72128783396715
 21
-504.98818892048348
 31
0.0
  0
LINE
  8
0
  6
CONTINUOUS
 62
               3
  5
41B
 10
509.51750236146898
 20
-376.07668039660683
 30
0.0
 11
507.79907839522838
 21
-360.99426681356732
 31
0.0
  0
ARC
  8
0
  6
CONTINUOUS
 62
               3
  5
41C
 10
510.28300803441988
 20
-360.71125877914756
 30
0.0
 40
2.5
 50
96.499999999981398
 51
186.49999999996407
  0
ARC
  8
0
  6
CONTINUOUS
 62
               3
  5
41D
 10
511.99570413161319
 20
-375.7433995007645
 30
0.0
 40
2.5
 50
186.49999999996407
 51
276.49999999994822
  0
LINE
  8
0
  6
CONTINUOUS
 62
               3
  5
41E
 10
671.61833020524182
 20
-378.2273291399556
 30
0.0
 11
512.27871216603307
 21
-378.22732913995611
 31
0.0
  0
LINE
  8
0
  6
CONTINUOUS
 62
               3
  5
41F
 10
690.0
 20
-358.22732913995628
 30
0.0
 11
687.31970245100501
 21
-358.22732913995628
 31
0.0
  0
LINE
  8
0
  6
CONTINUOUS
 62
               3
  5
420
 10
663.52356847984925
 20
-358.2273291399564
 30
0.0
 11
510.00000000000017
 21
-358.22732913995611
 31
0.0
  0
LINE
  8
0
  6
CONTINUOUS
 62
               3
  5
421
 10
690.0
 20
-358.22732913995668
 30
0.0
 11
687.8047827955711
 21
-377.49450326709086
 31
0.0
  0
LINE
  8
0
  6
CONTINUOUS
 62
               3
  5
422
 10
683.82148288006942
 20
-412.45547793407945
 30
0.0
 11
673.27871216603307
 21
-504.98818892048359
 31
0.0
  0
CIRCLE
  8
0
  6
CONTINUOUS
 62
               3
  5
423
 10
600.0
 20
-157.91501650675212
 30
0.0
 40
70.5
  0
CIRCLE
  8
0
  6
CONTINUOUS
 62
               3
  5
424
 10
600.0
 20
-157.91501650675212
 30
0.0
 40
55.499999999999865
  0
CIRCLE
  8
0
  6
CONTINUOUS
 62
               3
  5
425
 10
600.0
 20
-157.91501650675212
 30
0.0
 40
51.249999999999865
  0
ARC
  8
0
  6
CONTINUOUS
 62
               3
  5
426
 10
600.0
 20
-157.91501650675212
 30
0.0
 40
57.499999999999865
 50
224.99999999995649
 51
314.99999999993912
  0
LINE
  8
0
  6
CONTINUOUS
 62
               3
  5
427
 10
559.34136008177347
 20
-198.57365642497851
 30
0.0
 11
557.71501448504432
 21
-200.20000202170758
 31
0.0
  0
LINE
  8
0
  6
CONTINUOUS
 62
               3
  5
428
 10
640.6586399182263
 20
-198.57365642497851
 30
0.0
 11
642.28498551495545
 21
-200.20000202170758
 31
0.0
  0
CIRCLE
  8
0
  6
CONTINUOUS
 62
               3
  5
429
 10
600.0
 20
-157.91501650675212
 30
0.0
 40
60.999999999999879
  0
CIRCLE
  8
0
  6
CONTINUOUS
 62
               3
  5
42A
 10
600.0
 20
-157.91501650675212
 30
0.0
 40
59.799999999999862
  0
ARC
  8
0
  6
CONTINUOUS
 62
               3
  5
42B
 10
690.0
 20
-232.91501650675224
 30
0.0
 40
2.5
 50
269.99999999994731
 51
449.99999999991297
  0
ARC
  8
0
  6
CONTINUOUS
 62
               3
  5
42C
 10
643.28401844571613
 20
-232.91501650675221
 30
0.0
 40
2.5
 50
89.999999999981569
 51
269.99999999994731
  0
LINE
  8
0
  6
CONTINUOUS
 62
               3
  5
42D
 10
690.0
 20
-235.41501650675224
 30
0.0
 11
643.28401844571613
 21
-235.41501650675221
 31
0.0
  0
LINE
  8
0
  6
CONTINUOUS
 62
               3
  5
42E
 10
556.7159815542841
 20
-235.41501650675215
 30
0.0
 11
510.00000000000074
 21
-235.41501650675212
 31
0.0
  0
LINE
  8
0
  6
CONTINUOUS
 62
               3
  5
42F
 10
690.0
 20
-230.41501650675224
 30
0.0
 11
643.28401844571613
 21
-230.41501650675221
 31
0.0
  0
LINE
  8
0
  6
CONTINUOUS
 62
               3
  5
430
 10
556.7159815542841
 20
-230.41501650675215
 30
0.0
 11
510.00000000000074
 21
-230.41501650675212
 31
0.0
  0
ARC
  8
0
  6
CONTINUOUS
 62
               3
  5
431
 10
556.7159815542841
 20
-232.91501650675215
 30
0.0
 40
2.5
 50
269.99999999994731
 51
449.99999999991297
  0
ARC
  8
0
  6
CONTINUOUS
 62
               3
  5
432
 10
510.00000000000074
 20
-232.91501650675212
 30
0.0
 40
2.5
 50
89.999999999982862
 51
269.99999999994731
  0
ARC
  8
0
  6
CONTINUOUS
 62
               3
  5
433
 10
497.99999999999994
 20
-86.415016506752238
 30
0.0
 40
3.0000000000000004
 50
179.99999999996524
 51
269.99999999994731
  0
ARC
  8
0
  6
CONTINUOUS
 62
               3
  5
434
 10
505.26732947141164
 20
-94.16394340258185
 30
0.0
 40
4.7489268958295181
 50
359.99999999993031
 51
449.99999999991331
  0
ARC
  8
0
  6
CONTINUOUS
 62
               3
  5
435
 10
505.00000000000006
 20
-106.0930410501924
 30
0.0
 40
5.0
 50
271.99999999994765
 51
359.99999999993031
  0
LINE
  8
0
  6
CONTINUOUS
 62
               3
  5
436
 10
510.00000000000011
 20
-94.16394340258185
 30
0.0
 11
510.00000000000006
 21
-106.0930410501924
 31
0.0
  0
ARC
  8
0
  6
CONTINUOUS
 62
               3
  5
437
 10
489.99999999999994
 20
-106.61685259256862
 30
0.0
 40
5.0
 50
271.99999999994765
 51
359.99999999993031
  0
LINE
  8
0
  6
CONTINUOUS
 62
               3
  5
438
 10
529.0
 20
-524.98818892048291
 30
0.0
 11
671.0
 21
-524.98818892048416
 31
0.0
  0
LINE
  8
0
  6
CONTINUOUS
 62
               3
  5
439
 10
526.72128783396715
 20
-504.98818892048348
 30
0.0
 11
673.27871216603285
 21
-504.98818892048348
 31
0.0
  0
LINE
  8
0
  6
CONTINUOUS
 62
               3
  5
43A
 10
673.76120980456403
 20
-522.837540177135
 30
0.0
 11
675.47963377080464
 21
-507.7551265940956
 31
0.0
  0
ARC
  8
0
  6
CONTINUOUS
 62
               3
  5
43B
 10
672.99570413161314
 20
-507.47211855967578
 30
0.0
 40
2.5
 50
353.49999999993111
 51
443.49999999991383
  0
ARC
  8
0
  6
CONTINUOUS
 62
               3
  5
43C
 10
671.28300803441994
 20
-522.50425928129278
 30
0.0
 40
2.5
 50
263.49999999994833
 51
353.49999999993111
  0
LINE
  8
0
  6
CONTINUOUS
 62
               3
  5
43D
 10
526.23879019543597
 20
-522.837540177135
 30
0.0
 11
524.52036622919536
 21
-507.7551265940956
 31
0.0
  0
ARC
  8
0
  6
CONTINUOUS
 62
               3
  5
43E
 10
527.00429586838686
 20
-507.47211855967578
 30
0.0
 40
2.5
 50
96.499999999980105
 51
186.49999999996422
  0
ARC
  8
0
  6
CONTINUOUS
 62
               3
  5
43F
 10
528.71699196558029
 20
-522.50425928129278
 30
0.0
 40
2.5
 50
186.49999999996422
 51
276.49999999994822
  0
LINE
  8
0
  6
CONTINUOUS
 62
               3
  5
440
 10
529.00000000000023
 20
-524.98818892048428
 30
0.0
 11
529.00000000000023
 21
-577.70147495011474
 31
0.0
  0
LINE
  8
0
  6
CONTINUOUS
 62
               3
  5
441
 10
671.0
 20
-524.98818892048428
 30
0.0
 11
671.0
 21
-577.70147495011474
 31
0.0
  0
LINE
  8
0
  6
CONTINUOUS
 62
               3
  5
442
 10
545.0
 20
-713.41501650675218
 30
0.0
 11
655.0
 21
-713.41501650675218
 31
0.0
  0
LINE
  8
0
  6
CONTINUOUS
 62
               3
  5
443
 10
657.0
 20
-711.41501650675195
 30
0.0
 11
657.0
 21
-613.41501650675218
 31
0.0
  0
LINE
  8
0
  6
CONTINUOUS
 62
               3
  5
444
 10
543.0
 20
-711.41501650675195
 30
0.0
 11
543.0
 21
-613.41501650675218
 31
0.0
  0
LINE
  8
0
  6
CONTINUOUS
 62
               3
  5
445
 10
657.0
 20
-613.41501650675218
 30
0.0
 11
658.05304282317343
 21
-612.36197368357853
 31
0.0
  0
LINE
  8
0
  6
CONTINUOUS
 62
               3
  5
446
 10
543.0
 20
-613.41501650675218
 30
0.0
 11
541.9469571768268
 21
-612.36197368357875
 31
0.0
  0
LINE
  8
0
  6
CONTINUOUS
 62
               3
  5
447
 10
545.0
 20
-713.41501650675218
 30
0.0
 11
543.0
 21
-711.41501650675195
 31
0.0
  0
LINE
  8
0
  6
CONTINUOUS
 62
               3
  5
448
 10
655.0
 20
-713.41501650675218
 30
0.0
 11
657.0
 21
-711.41501650675195
 31
0.0
  0
LINE
  8
0
  6
CONTINUOUS
 62
               3
  5
449
 10
658.05304282317343
 20
-612.36197368357875
 30
0.0
 11
658.05304282317343
 21
-608.29871295294652
 31
0.0
  0
ARC
  8
0
  6
CONTINUOUS
 62
               3
  5
44A
 10
668.05304282317343
 20
-608.29871295294652
 30
0.0
 40
10.0
 50
149.99999999997118
 51
179.99999999996507
  0
LINE
  8
0
  6
CONTINUOUS
 62
               3
  5
44B
 10
541.94695717682657
 20
-612.36197368357875
 30
0.0
 11
541.94695717682657
 21
-608.29871295294652
 31
0.0
  0
ARC
  8
0
  6
CONTINUOUS
 62
               3
  5
44C
 10
531.94695717682657
 20
-608.29871295294652
 30
0.0
 40
10.0
 50
359.99999999993014
 51
389.99999999992457
  0
CIRCLE
  8
0
  6
CONTINUOUS
 62
               3
  5
44D
 10
609.28652321630761
 20
-1077.3787764161516
 30
0.0
 40
75.0
  0
CIRCLE
  8
0
  6
CONTINUOUS
 62
               3
  5
44E
 10
609.28652321630761
 20
-1077.3787764161516
 30
0.0
 40
52.5
  0
LINE
  8
0
  6
CONTINUOUS
 62
               3
  5
44F
 10
523.07602501568226
 20
-1057.3787764161516
 30
0.0
 11
537.00236174230213
 21
-1057.3787764161516
 31
0.0
  0
LINE
  8
0
  6
CONTINUOUS
 62
               3
  5
450
 10
537.00236174230213
 20
-1097.3787764161516
 30
0.0
 11
523.07602501568226
 21
-1097.3787764161516
 31
0.0
  0
ARC
  8
0
  6
CONTINUOUS
 62
               3
  5
451
 10
609.28652321630761
 20
-1077.3787764161516
 30
0.0
 40
88.5
 50
166.93897588510336
 51
193.06102411468945
  0
LINE
  8
0
  6
CONTINUOUS
 62
               3
  5
452
 10
589.28652321630761
 20
-1163.5892746167765
 30
0.0
 11
589.28652321630761
 21
-1149.6629378901566
 31
0.0
  0
LINE
  8
0
  6
CONTINUOUS
 62
               3
  5
453
 10
629.28652321630761
 20
-1149.6629378901566
 30
0.0
 11
629.28652321630761
 21
-1163.5892746167765
 31
0.0
  0
ARC
  8
0
  6
CONTINUOUS
 62
               3
  5
454
 10
609.28652321630761
 20
-1077.3787764161516
 30
0.0
 40
88.5
 50
256.93897588505166
 51
283.06102411463769
  0
LINE
  8
0
  6
CONTINUOUS
 62
               3
  5
455
 10
695.49702141693228
 20
-1097.3787764161516
 30
0.0
 11
681.57068469031174
 21
-1097.3787764161516
 31
0.0
  0
LINE
  8
0
  6
CONTINUOUS
 62
               3
  5
456
 10
681.57068469031174
 20
-1057.3787764161516
 30
0.0
 11
695.49702141693228
 21
-1057.3787764161516
 31
0.0
  0
ARC
  8
0
  6
CONTINUOUS
 62
               3
  5
457
 10
609.28652321630761
 20
-1077.3787764161516
 30
0.0
 40
88.5
 50
346.93897588499982
 51
373.06102411458585
  0
LINE
  8
0
  6
CONTINUOUS
 62
               3
  5
458
 10
629.28652321630761
 20
-991.1682782155259
 30
0.0
 11
629.28652321630761
 21
-1005.0946149421464
 31
0.0
  0
LINE
  8
0
  6
CONTINUOUS
 62
               3
  5
459
 10
589.28652321630761
 20
-1005.0946149421464
 30
0.0
 11
589.28652321630761
 21
-991.1682782155259
 31
0.0
  0
ARC
  8
0
  6
CONTINUOUS
 62
               3
  5
45A
 10
609.28652321630761
 20
-1077.3787764161516
 30
0.0
 40
88.5
 50
76.938975885155216
 51
103.06102411474124
  0
LINE
  8
0
  6
CONTINUOUS
 62
               3
  5
45B
 10
561.61839969544644
 20
-1099.378776416152
 30
0.0
 11
656.95464673716742
 21
-1099.378776416152
 31
0.0
  0
ARC
  8
0
  6
CONTINUOUS
 62
               3
  5
45C
 10
621.79013486568874
 20
-1068.6723787885326
 30
0.0
 40
54.763804151667173
 50
141.3859176367566
 51
145.15009542087031
  0
ARC
  8
0
  6
CONTINUOUS
 62
               3
  5
45D
 10
609.28652321630761
 20
-1077.3787764161516
 30
0.0
 40
51.5
 50
334.71098847326505
 51
410.95932736340404
  0
ARC
  8
0
  6
CONTINUOUS
 62
               3
  5
45E
 10
609.28652321630761
 20
-1077.3787764161516
 30
0.0
 40
51.5
 50
129.04067263628559
 51
205.28901152642416
  0
ARC
  8
0
  6
CONTINUOUS
 62
               3
  5
45F
 10
609.28652321630761
 20
-1077.3787764161516
 30
0.0
 40
77.5
 50
104.95524831658301
 51
128.57288309095932
  0
ARC
  8
0
  6
CONTINUOUS
 62
               3
  5
460
 10
609.28652321630761
 20
-1077.3787764161516
 30
0.0
 40
77.5
 50
14.9552483166347
 51
75.044751683313535
  0
ARC
  8
0
  6
CONTINUOUS
 62
               3
  5
461
 10
609.28652321630761
 20
-1077.3787764161516
 30
0.0
 40
77.5
 50
321.42711690878122
 51
345.04475168315804
  0
LINE
  8
0
  6
CONTINUOUS
 62
               3
  5
462
 10
469.28652321630756
 20
-1132.3787764161516
 30
0.0
 11
469.95807934227179
 21
-1132.3787764161516
 31
0.0
  0
LINE
  8
0
  6
CONTINUOUS
 62
               3
  5
463
 10
472.45807934227224
 20
-1134.8787764161516
 30
0.0
 11
469.95807934227179
 21
-1132.3787764161516
 31
0.0
  0
LINE
  8
0
  6
CONTINUOUS
 62
               3
  5
464
 10
469.28652321630756
 20
-1022.3787764161515
 30
0.0
 11
469.95807934227179
 21
-1022.3787764161515
 31
0.0
  0
LINE
  8
0
  6
CONTINUOUS
 62
               3
  5
465
 10
472.45807934227179
 20
-1019.8787764161515
 30
0.0
 11
469.95807934227179
 21
-1022.3787764161515
 31
0.0
  0
LINE
  8
0
  6
CONTINUOUS
 62
               3
  5
466
 10
469.95807934227179
 20
-1022.3787764161515
 30
0.0
 11
469.95807934227179
 21
-1132.3787764161516
 31
0.0
  0
LINE
  8
0
  6
CONTINUOUS
 62
               3
  5
467
 10
563.79618742992966
 20
-1016.6891793978099
 30
0.0
 11
472.45807934227179
 21
-1019.8787764161515
 31
0.0
  0
LINE
  8
0
  6
CONTINUOUS
 62
               3
  5
468
 10
544.45005149975646
 20
-1137.3927914811193
 30
0.0
 11
472.45807934227236
 21
-1134.8787764161516
 31
0.0
  0
LINE
  8
0
  6
CONTINUOUS
 62
               3
  5
469
 10
464.28652321630756
 20
-1022.5503325421156
 30
0.0
 11
464.28652321630756
 21
-1132.4787764161515
 31
0.0
  0
LINE
  8
0
  6
CONTINUOUS
 62
               3
  5
46A
 10
469.28652321630756
 20
-1134.9787764161515
 30
0.0
 11
469.28652321630756
 21
-1019.7787764161513
 31
0.0
  0
LINE
  8
0
  6
CONTINUOUS
 62
               3
  5
46B
 10
469.28652321630756
 20
-1019.7787764161513
 30
0.0
 11
466.78652321630756
 21
-1019.7787764161513
 31
0.0
  0
LINE
  8
0
  6
CONTINUOUS
 62
               3
  5
46C
 10
469.28652321630756
 20
-1134.9787764161515
 30
0.0
 11
466.78652321630756
 21
-1134.9787764161515
 31
0.0
  0
ARC
  8
0
  6
CONTINUOUS
 62
               3
  5
46D
 10
466.78652321630756
 20
-1132.4787764161515
 30
0.0
 40
2.5
 50
179.99999999989538
 51
269.99999999984436
  0
ARC
  8
0
  6
CONTINUOUS
 62
               3
  5
46E
 10
466.78652321630756
 20
-1022.2787764161513
 30
0.0
 40
2.5
 50
89.999999999948997
 51
179.99999999989538
  0
LINE
  8
0
  6
CONTINUOUS
 62
               3
  5
46F
 10
576.8481200496899
 20
-1037.3787764161516
 30
0.0
 11
609.28652321630761
 21
-1037.3787764161516
 31
0.0
  0
LINE
  8
0
  6
CONTINUOUS
 62
               3
  5
470
 10
609.28652321630761
 20
-1037.3787764161516
 30
0.0
 11
643.2901994881463
 21
-1037.3787764161516
 31
0.0
  0
LINE
  8
0
  6
CONTINUOUS
 62
               3
  5
471
 10
472.45807934227224
 20
-1134.8787764161516
 30
0.0
 11
472.45807934227179
 21
-1019.8787764161515
 31
0.0
  0
ARC
  8
0
  6
CONTINUOUS
 62
               3
  5
472
 10
563.62168994641706
 20
-1011.6922252627143
 30
0.0
 40
5.0
 50
271.99999999984402
 51
304.806757870252
  0
LINE
  8
0
  6
CONTINUOUS
 62
               3
  5
473
 10
664.28652321630739
 20
-1217.3787764161516
 30
0.0
 11
664.28652321630739
 21
-1216.7072202901873
 31
0.0
  0
LINE
  8
0
  6
CONTINUOUS
 62
               3
  5
474
 10
666.78652321630739
 20
-1214.2072202901868
 30
0.0
 11
664.28652321630739
 21
-1216.7072202901873
 31
0.0
  0
LINE
  8
0
  6
CONTINUOUS
 62
               3
  5
475
 10
554.28652321630739
 20
-1217.3787764161516
 30
0.0
 11
554.28652321630739
 21
-1216.7072202901873
 31
0.0
  0
LINE
  8
0
  6
CONTINUOUS
 62
               3
  5
476
 10
551.78652321630739
 20
-1214.2072202901873
 30
0.0
 11
554.28652321630739
 21
-1216.7072202901873
 31
0.0
  0
LINE
  8
0
  6
CONTINUOUS
 62
               3
  5
477
 10
554.28652321630739
 20
-1216.7072202901873
 30
0.0
 11
664.28652321630739
 21
-1216.7072202901873
 31
0.0
  0
LINE
  8
0
  6
CONTINUOUS
 62
               3
  5
478
 10
554.4580793422715
 20
-1222.3787764161516
 30
0.0
 11
664.38652321630752
 21
-1222.3787764161516
 31
0.0
  0
LINE
  8
0
  6
CONTINUOUS
 62
               3
  5
479
 10
666.88652321630752
 20
-1217.3787764161516
 30
0.0
 11
551.68652321630748
 21
-1217.3787764161516
 31
0.0
  0
LINE
  8
0
  6
CONTINUOUS
 62
               3
  5
47A
 10
551.68652321630748
 20
-1217.3787764161516
 30
0.0
 11
551.68652321630748
 21
-1219.8787764161516
 31
0.0
  0
LINE
  8
0
  6
CONTINUOUS
 62
               3
  5
47B
 10
666.88652321630752
 20
-1217.3787764161516
 30
0.0
 11
666.88652321630752
 21
-1219.8787764161516
 31
0.0
  0
ARC
  8
0
  6
CONTINUOUS
 62
               3
  5
47C
 10
664.38652321630752
 20
-1219.8787764161516
 30
0.0
 40
2.5
 50
269.99999999984567
 51
359.99999999979337
  0
ARC
  8
0
  6
CONTINUOUS
 62
               3
  5
47D
 10
554.18652321630748
 20
-1219.8787764161516
 30
0.0
 40
2.5
 50
179.99999999989538
 51
269.99999999984567
  0
LINE
  8
0
  6
CONTINUOUS
 62
               3
  5
47E
 10
666.78652321630739
 20
-1214.2072202901868
 30
0.0
 11
551.78652321630739
 21
-1214.2072202901873
 31
0.0
  0
LINE
  8
0
  6
CONTINUOUS
 62
               3
  5
47F
 10
669.97612023464853
 20
-1122.8691122025298
 30
0.0
 11
666.78652321630739
 21
-1214.2072202901868
 31
0.0
  0
ARC
  8
0
  6
CONTINUOUS
 62
               3
  5
480
 10
674.97307436974415
 20
-1123.0436096860426
 30
0.0
 40
5.0
 50
145.19324212948862
 51
177.99999999989819
  0
LINE
  8
0
  6
CONTINUOUS
 62
               3
  5
481
 10
549.27250815133948
 20
-1142.2152481327025
 30
0.0
 11
551.78652321630739
 21
-1214.2072202901873
 31
0.0
  0
ARC
  8
0
  6
CONTINUOUS
 62
               3
  5
482
 10
544.27555401624409
 20
-1142.3897456162144
 30
0.0
 40
5.0
 50
1.9999999999958187
 51
87.99999999994921
  0
LINE
  8
0
  6
CONTINUOUS
 62
               3
  5
483
 10
534.28652321630761
 20
-1385.8782101647357
 30
0.0
 11
684.28652321630761
 21
-1385.8782101647357
 31
0.0
  0
LINE
  8
0
  6
CONTINUOUS
 62
               3
  5
484
 10
520.78652321630739
 20
-1395.8782101647357
 30
0.0
 11
520.78652321630739
 21
-1402.8782101647353
 31
0.0
  0
LINE
  8
0
  6
CONTINUOUS
 62
               3
  5
485
 10
520.78652321630739
 20
-1395.8782101647357
 30
0.0
 11
534.28652321630761
 21
-1385.8782101647357
 31
0.0
  0
ARC
  8
0
  6
CONTINUOUS
 62
               3
  5
486
 10
532.28652321630761
 20
-1407.460785859691
 30
0.0
 40
4.9999999999999991
 50
0.0
 51
66.421821521760023
  0
LINE
  8
0
  6
CONTINUOUS
 62
               3
  5
487
 10
520.78652321630739
 20
-1402.8782101647353
 30
0.0
 11
697.78652321630716
 21
-1402.8782101647353
 31
0.0
  0
ARC
  8
0
  6
CONTINUOUS
 62
               3
  5
488
 10
554.28652321630761
 20
-1492.8782101647357
 30
0.0
 40
19.999999999999996
 50
148.21166938286279
 51
167.26981986159123
  0
LINE
  8
0
  6
CONTINUOUS
 62
               3
  5
489
 10
537.28652321630761
 20
-1407.460785859691
 30
0.0
 11
537.28652321630761
 21
-1482.3425564118829
 31
0.0
  0
LINE
  8
0
  6
CONTINUOUS
 62
               3
  5
48A
 10
681.28652321630739
 20
-1477.3425564118825
 30
0.0
 11
681.28652321630739
 21
-1407.460785859691
 31
0.0
  0
LINE
  8
0
  6
CONTINUOUS
 62
               3
  5
48B
 10
537.28652321630761
 20
-1482.3425564118829
 30
0.0
 11
680.78652321630784
 21
-1482.3425564118829
 31
0.0
  0
LINE
  8
0
  6
CONTINUOUS
 62
               3
  5
48C
 10
589.28652321630761
 20
-1402.8782101647353
 30
0.0
 11
589.28652321630761
 21
-1385.8782101647357
 31
0.0
  0
LINE
  8
0
  6
CONTINUOUS
 62
               3
  5
48D
 10
629.28652321630761
 20
-1385.8782101647357
 30
0.0
 11
629.28652321630761
 21
-1402.8782101647353
 31
0.0
  0
LINE
  8
0
  6
CONTINUOUS
 62
               3
  5
48E
 10
589.28652321630761
 20
-1395.8782101647357
 30
0.0
 11
629.28652321630761
 21
-1395.8782101647357
 31
0.0
  0
LINE
  8
0
  6
CONTINUOUS
 62
               3
  5
48F
 10
537.00236174230213
 20
-1385.8782101647357
 30
0.0
 11
537.00236174230213
 21
-1402.8782101647353
 31
0.0
  0
LINE
  8
0
  6
CONTINUOUS
 62
               3
  5
490
 10
523.07602501568226
 20
-1395.8782101647357
 30
0.0
 11
523.07602501568226
 21
-1402.8782101647353
 31
0.0
  0
LINE
  8
0
  6
CONTINUOUS
 62
               3
  5
491
 10
520.78652321630739
 20
-1395.8782101647357
 30
0.0
 11
523.07602501568226
 21
-1395.8782101647357
 31
0.0
  0
LINE
  8
0
  6
CONTINUOUS
 62
               3
  5
492
 10
523.07602501568226
 20
-1395.8782101647357
 30
0.0
 11
537.00236174230213
 21
-1385.8782101647357
 31
0.0
  0
LINE
  8
0
  6
CONTINUOUS
 62
               3
  5
493
 10
697.78652321630716
 20
-1395.8782101647357
 30
0.0
 11
697.78652321630716
 21
-1402.8782101647353
 31
0.0
  0
LINE
  8
0
  6
CONTINUOUS
 62
               3
  5
494
 10
697.78652321630716
 20
-1395.8782101647357
 30
0.0
 11
684.28652321630761
 21
-1385.8782101647357
 31
0.0
  0
ARC
  8
0
  6
CONTINUOUS
 62
               3
  5
495
 10
686.28652321630739
 20
-1407.460785859691
 30
0.0
 40
4.9999999999999991
 50
113.57817847813573
 51
179.99999999989538
  0
LINE
  8
0
  6
CONTINUOUS
 62
               3
  5
496
 10
681.57068469031174
 20
-1385.8782101647357
 30
0.0
 11
681.57068469031174
 21
-1402.8782101647353
 31
0.0
  0
LINE
  8
0
  6
CONTINUOUS
 62
               3
  5
497
 10
695.49702141693274
 20
-1395.8782101647357
 30
0.0
 11
695.49702141693274
 21
-1402.8782101647353
 31
0.0
  0
LINE
  8
0
  6
CONTINUOUS
 62
               3
  5
498
 10
697.78652321630716
 20
-1395.8782101647357
 30
0.0
 11
695.49702141693274
 21
-1395.8782101647357
 31
0.0
  0
LINE
  8
0
  6
CONTINUOUS
 62
               3
  5
499
 10
695.49702141693274
 20
-1395.8782101647357
 30
0.0
 11
681.57068469031174
 21
-1385.8782101647357
 31
0.0
  0
ARC
  8
0
  6
CONTINUOUS
 62
               3
  5
49A
 10
544.28652321630761
 20
-1614.3782101647357
 30
0.0
 40
2.4999999999999996
 50
89.99999999994769
 51
269.99999999984567
  0
ARC
  8
0
  6
CONTINUOUS
 62
               3
  5
49B
 10
684.28652321630761
 20
-1614.3782101647357
 30
0.0
 40
2.4999999999999996
 50
269.99999999984567
 51
449.99999999974102
  0
LINE
  8
0
  6
CONTINUOUS
 62
               3
  5
49C
 10
469.28652321630756
 20
-1606.8782101647357
 30
0.0
 11
469.9580793422719
 21
-1606.8782101647357
 31
0.0
  0
LINE
  8
0
  6
CONTINUOUS
 62
               3
  5
49D
 10
472.45807934227201
 20
-1609.3782101647353
 30
0.0
 11
469.9580793422719
 21
-1606.8782101647357
 31
0.0
  0
LINE
  8
0
  6
CONTINUOUS
 62
               3
  5
49E
 10
472.45807934227281
 20
-1609.3782101647357
 30
0.0
 11
514.6231895985502
 21
-1610.8506482605899
 31
0.0
  0
LINE
  8
0
  6
CONTINUOUS
 62
               3
  5
49F
 10
532.82205712224004
 20
-1627.1498995910219
 30
0.0
 11
517.98422602097025
 21
-1612.3120684897526
 31
0.0
  0
ARC
  8
0
  6
CONTINUOUS
 62
               3
  5
4A0
 10
529.28652321630761
 20
-1630.6854334969548
 30
0.0
 40
4.9999999999999991
 50
0.0
 51
44.999999999973191
  0
LINE
  8
0
  6
CONTINUOUS
 62
               3
  5
4A1
 10
469.28652321630756
 20
-1496.8782101647357
 30
0.0
 11
469.9580793422719
 21
-1496.8782101647357
 31
0.0
  0
LINE
  8
0
  6
CONTINUOUS
 62
               3
  5
4A2
 10
472.45807934227201
 20
-1494.3782101647357
 30
0.0
 11
469.9580793422719
 21
-1496.8782101647357
 31
0.0
  0
LINE
  8
0
  6
CONTINUOUS
 62
               3
  5
4A3
 10
472.4580793422719
 20
-1494.3782101647357
 30
0.0
 11
530.07555554444616
 21
-1492.3661635595836
 31
0.0
  0
LINE
  8
0
  6
CONTINUOUS
 62
               3
  5
4A4
 10
469.9580793422719
 20
-1496.8782101647357
 30
0.0
 11
469.9580793422719
 21
-1606.8782101647357
 31
0.0
  0
LINE
  8
0
  6
CONTINUOUS
 62
               3
  5
4A5
 10
469.28652321630756
 20
-1609.4782101647356
 30
0.0
 11
469.28652321630756
 21
-1494.2782101647358
 31
0.0
  0
LINE
  8
0
  6
CONTINUOUS
 62
               3
  5
4A6
 10
469.28652321630756
 20
-1494.2782101647358
 30
0.0
 11
466.78652321630756
 21
-1494.2782101647358
 31
0.0
  0
ARC
  8
0
  6
CONTINUOUS
 62
               3
  5
4A7
 10
466.78652321630756
 20
-1496.7782101647358
 30
0.0
 40
2.5
 50
89.999999999948997
 51
179.99999999989538
  0
LINE
  8
0
  6
CONTINUOUS
 62
               3
  5
4A8
 10
464.28652321630756
 20
-1496.7782101647358
 30
0.0
 11
464.28652321630756
 21
-1606.9782101647356
 31
0.0
  0
LINE
  8
0
  6
CONTINUOUS
 62
               3
  5
4A9
 10
469.28652321630756
 20
-1609.4782101647356
 30
0.0
 11
466.78652321630756
 21
-1609.4782101647356
 31
0.0
  0
ARC
  8
0
  6
CONTINUOUS
 62
               3
  5
4AA
 10
466.78652321630756
 20
-1606.9782101647356
 30
0.0
 40
2.5
 50
179.99999999989538
 51
269.99999999984436
  0
LINE
  8
0
  6
CONTINUOUS
 62
               3
  5
4AB
 10
472.45807934227201
 20
-1494.3782101647357
 30
0.0
 11
472.45807934227281
 21
-1609.3782101647357
 31
0.0
  0
ARC
  8
0
  6
CONTINUOUS
 62
               3
  5
4AC
 10
514.4486921150376
 20
-1615.8476023956855
 30
0.0
 40
5.0
 50
44.999999999975948
 51
87.999999999949253
  0
ARC
  8
0
  6
CONTINUOUS
 62
               3
  5
4AD
 10
529.90105806093379
 20
-1487.369209424488
 30
0.0
 40
5.0
 50
271.99999999984408
 51
347.26981986148661
  0
CIRCLE
  8
0
  6
CONTINUOUS
 62
               3
  5
4AE
 10
609.28652321630761
 20
-1551.8782101647357
 30
0.0
 40
48.5
  0
CIRCLE
  8
0
  6
CONTINUOUS
 62
               3
  5
4AF
 10
609.28652321630761
 20
-1551.8782101647357
 30
0.0
 40
47.299999999999997
  0
LINE
  8
0
  6
CONTINUOUS
 62
               3
  5
4B0
 10
577.46671806291306
 20
-1583.6980153181303
 30
0.0
 11
575.84037246618391
 21
-1585.3243609148594
 31
0.0
  0
LINE
  8
0
  6
CONTINUOUS
 62
               3
  5
4B1
 10
641.10632836970217
 20
-1583.6980153181303
 30
0.0
 11
642.73267396643132
 21
-1585.3243609148594
 31
0.0
  0
ARC
  8
0
  6
CONTINUOUS
 62
               3
  5
4B2
 10
609.28652321630761
 20
-1551.8782101647357
 30
0.0
 40
45.0
 50
224.99999999987043
 51
314.99999999981884
  0
CIRCLE
  8
0
  6
CONTINUOUS
 62
               3
  5
4B3
 10
609.28652321630761
 20
-1551.8782101647357
 30
0.0
 40
57.600000000000001
  0
ARC
  8
0
  6
CONTINUOUS
 62
               3
  5
4B4
 10
586.78652321630807
 20
-1614.3782101647357
 30
0.0
 40
2.4999999999999996
 50
269.99999999984567
 51
449.99999999974102
  0
ARC
  8
0
  6
CONTINUOUS
 62
               3
  5
4B5
 10
631.78652321630807
 20
-1614.3782101647357
 30
0.0
 40
2.4999999999999996
 50
89.99999999994769
 51
269.99999999984567
  0
LINE
  8
0
  6
CONTINUOUS
 62
               3
  5
4B6
 10
544.28652321630761
 20
-1616.8782101647357
 30
0.0
 11
586.78652321630807
 21
-1616.8782101647357
 31
0.0
  0
LINE
  8
0
  6
CONTINUOUS
 62
               3
  5
4B7
 10
544.28652321630761
 20
-1611.8782101647357
 30
0.0
 11
586.78652321630807
 21
-1611.8782101647357
 31
0.0
  0
LINE
  8
0
  6
CONTINUOUS
 62
               3
  5
4B8
 10
631.78652321630807
 20
-1611.8782101647357
 30
0.0
 11
684.28652321630761
 21
-1611.8782101647357
 31
0.0
  0
LINE
  8
0
  6
CONTINUOUS
 62
               3
  5
4B9
 10
631.78652321630807
 20
-1616.8782101647357
 30
0.0
 11
684.28652321630761
 21
-1616.8782101647357
 31
0.0
  0
CIRCLE
  8
0
  6
CONTINUOUS
 62
               3
  5
4BA
 10
609.28652321630761
 20
-1077.3787764161516
 30
0.0
 40
59.0
  0
LINE
  8
0
  6
DASHED2
 62
               3
  5
4BB
 10
-51.500000000000483
 20
-713.41501650675195
 30
0.0
 11
-51.500000000000483
 21
-633.41501650675195
 31
0.0
  0
LINE
  8
0
  6
DASHED2
 62
               3
  5
4BC
 10
51.499999999999424
 20
-713.41501650675195
 30
0.0
 11
51.499999999999424
 21
-633.41501650675195
 31
0.0
  0
LINE
  8
0
  6
DASHED2
 62
               3
  5
4BD
 10
-651.50000000000068
 20
-713.41501650675195
 30
0.0
 11
-651.50000000000068
 21
-633.41501650675195
 31
0.0
  0
LINE
  8
0
  6
DASHED2
 62
               3
  5
4BE
 10
-548.50000000000068
 20
-713.41501650675195
 30
0.0
 11
-548.50000000000068
 21
-633.41501650675195
 31
0.0
  0
LINE
  8
0
  6
DASHED2
 62
               3
  5
4BF
 10
548.49999999999977
 20
-713.41501650675218
 30
0.0
 11
548.49999999999977
 21
-633.41501650675218
 31
0.0
  0
LINE
  8
0
  6
DASHED2
 62
               3
  5
4C0
 10
651.49999999999955
 20
-713.41501650675218
 30
0.0
 11
651.49999999999955
 21
-633.41501650675218
 31
0.0
  0
LINE
  8
LAYER192
  6
CONTINUOUS
 62
               3
  5
4C1
 10
-88.500000000000199
 20
186.51932457259659
 30
0.0
 11
-76.500000000000142
 21
201.58498349324782
 31
0.0
  0
LINE
  8
LAYER192
  6
CONTINUOUS
 62
               3
  5
4C2
 10
88.499999999999631
 20
186.51932457259682
 30
0.0
 11
76.499999999999616
 21
201.58498349324805
 31
0.0
  0
LINE
  8
LAYER192
  6
CONTINUOUS
 62
               3
  5
4C3
 10
-76.499999999999886
 20
201.58498349324805
 30
0.0
 11
76.499999999999616
 21
201.58498349324805
 31
0.0
  0
LINE
  8
LAYER192
  6
CONTINUOUS
 62
               3
  5
4C4
 10
-88.500000000001563
 20
179.51932457259693
 30
0.0
 11
88.499999999999673
 21
179.51932457259704
 31
0.0
  0
LINE
  8
LAYER192
  6
CONTINUOUS
 62
               3
  5
4C5
 10
-20.000000000000881
 20
186.51932457259704
 30
0.0
 11
-20.000000000000881
 21
179.51932457259693
 31
0.0
  0
LINE
  8
LAYER192
  6
CONTINUOUS
 62
               3
  5
4C6
 10
19.999999999999119
 20
186.51932457259704
 30
0.0
 11
19.999999999999119
 21
179.51932457259693
 31
0.0
  0
LINE
  8
LAYER192
  6
CONTINUOUS
 62
               3
  5
4C7
 10
-20.500000000000711
 20
201.58498349324805
 30
0.0
 11
-20.500000000000711
 21
179.51932457259693
 31
0.0
  0
LINE
  8
LAYER192
  6
CONTINUOUS
 62
               3
  5
4C8
 10
20.499999999999233
 20
201.58498349324805
 30
0.0
 11
20.499999999999233
 21
179.51932457259693
 31
0.0
  0
LINE
  8
LAYER192
  6
CONTINUOUS
 62
               3
  5
4C9
 10
-20.000000000000881
 20
186.51932457259659
 30
0.0
 11
19.999999999999119
 21
186.51932457259704
 31
0.0
  0
LINE
  8
LAYER192
  6
CONTINUOUS
 62
               3
  5
4CA
 10
-20.000000000000881
 20
186.51932457259659
 30
0.0
 11
-20.500000000000711
 21
201.58498349324805
 31
0.0
  0
LINE
  8
LAYER192
  6
CONTINUOUS
 62
               3
  5
4CB
 10
19.999999999999119
 20
186.51932457259659
 30
0.0
 11
20.499999999999233
 21
201.58498349324805
 31
0.0
  0
LINE
  8
LAYER192
  6
CONTINUOUS
 62
               3
  5
4CC
 10
-68.2535207775814
 20
-587.95147495011429
 30
0.0
 11
-59.339745962155767
 21
-603.39058581765948
 31
0.0
  0
ARC
  8
LAYER192
  6
CONTINUOUS
 62
               3
  5
4CD
 10
-50.500000000000391
 20
-577.7014749501144
 30
0.0
 40
20.500000000000004
 50
179.99999999996513
 51
209.99999999995936
  0
LINE
  8
LAYER192
  6
CONTINUOUS
 62
               3
  5
4CE
 10
68.253520777580974
 20
-587.95147495011429
 30
0.0
 11
59.392788785328719
 21
-603.29871295294629
 31
0.0
  0
ARC
  8
LAYER192
  6
CONTINUOUS
 62
               3
  5
4CF
 10
50.499999999999979
 20
-577.7014749501144
 30
0.0
 40
20.500000000000004
 50
329.99999999993628
 51
359.99999999993037
  0
LINE
  8
LAYER192
  6
CONTINUOUS
 62
               3
  5
4D0
 10
26.500000000000117
 20
676.65643439365226
 30
0.0
 11
26.499999999999908
 21
631.33535761915368
 31
0.0
  0
LINE
  8
LAYER192
  6
CONTINUOUS
 62
               3
  5
4D1
 10
26.499999999999908
 20
631.33535761915368
 30
0.0
 11
46.672333534819884
 21
607.29490665802336
 31
0.0
  0
LINE
  8
LAYER192
  6
CONTINUOUS
 62
               3
  5
4D2
 10
26.500000000000188
 20
658.83535761915891
 30
0.0
 11
-44.721359549990062
 21
658.83535761916346
 31
0.0
  0
LINE
  8
LAYER192
  6
CONTINUOUS
 62
               3
  5
4D3
 10
16.007810593583372
 20
581.33535761915437
 30
0.0
 11
-16.007810593585326
 21
581.33535761915482
 31
0.0
  0
LINE
  8
LAYER192
  6
CONTINUOUS
 62
               3
  5
4D4
 10
-688.50000000000023
 20
186.5193245725967
 30
0.0
 11
-676.50000000000023
 21
201.58498349324782
 31
0.0
  0
LINE
  8
LAYER192
  6
CONTINUOUS
 62
               3
  5
4D5
 10
-511.5000000000004
 20
186.51932457259682
 30
0.0
 11
-523.50000000000045
 21
201.58498349324805
 31
0.0
  0
LINE
  8
LAYER192
  6
CONTINUOUS
 62
               3
  5
4D6
 10
-676.5
 20
201.58498349324805
 30
0.0
 11
-523.50000000000045
 21
201.58498349324805
 31
0.0
  0
LINE
  8
LAYER192
  6
CONTINUOUS
 62
               3
  5
4D7
 10
-688.50000000000159
 20
179.51932457259704
 30
0.0
 11
-511.5000000000004
 21
179.51932457259704
 31
0.0
  0
LINE
  8
LAYER192
  6
CONTINUOUS
 62
               3
  5
4D8
 10
-620.00000000000091
 20
186.51932457259716
 30
0.0
 11
-620.00000000000091
 21
179.51932457259693
 31
0.0
  0
LINE
  8
LAYER192
  6
CONTINUOUS
 62
               3
  5
4D9
 10
-580.00000000000091
 20
186.51932457259716
 30
0.0
 11
-580.00000000000091
 21
179.51932457259693
 31
0.0
  0
LINE
  8
LAYER192
  6
CONTINUOUS
 62
               3
  5
4DA
 10
-620.50000000000068
 20
201.58498349324805
 30
0.0
 11
-620.50000000000068
 21
179.51932457259693
 31
0.0
  0
LINE
  8
LAYER192
  6
CONTINUOUS
 62
               3
  5
4DB
 10
-579.50000000000091
 20
201.58498349324805
 30
0.0
 11
-579.50000000000091
 21
179.51932457259693
 31
0.0
  0
LINE
  8
LAYER192
  6
CONTINUOUS
 62
               3
  5
4DC
 10
-620.00000000000091
 20
186.5193245725967
 30
0.0
 11
-580.00000000000091
 21
186.51932457259716
 31
0.0
  0
LINE
  8
LAYER192
  6
CONTINUOUS
 62
               3
  5
4DD
 10
-620.00000000000091
 20
186.5193245725967
 30
0.0
 11
-620.50000000000068
 21
201.58498349324805
 31
0.0
  0
LINE
  8
LAYER192
  6
CONTINUOUS
 62
               3
  5
4DE
 10
-580.00000000000091
 20
186.5193245725967
 30
0.0
 11
-579.50000000000091
 21
201.58498349324805
 31
0.0
  0
LINE
  8
LAYER192
  6
CONTINUOUS
 62
               3
  5
4DF
 10
-668.25352077758157
 20
-587.95147495011429
 30
0.0
 11
-659.3397459621558
 21
-603.39058581765948
 31
0.0
  0
ARC
  8
LAYER192
  6
CONTINUOUS
 62
               3
  5
4E0
 10
-650.50000000000045
 20
-577.70147495011429
 30
0.0
 40
20.500000000000004
 50
179.99999999996513
 51
209.99999999995924
  0
LINE
  8
LAYER192
  6
CONTINUOUS
 62
               3
  5
4E1
 10
-531.74647922241911
 20
-587.95147495011429
 30
0.0
 11
-540.60721121467145
 21
-603.29871295294629
 31
0.0
  0
ARC
  8
LAYER192
  6
CONTINUOUS
 62
               3
  5
4E2
 10
-549.50000000000023
 20
-577.70147495011429
 30
0.0
 40
20.500000000000004
 50
329.99999999993622
 51
359.99999999993037
  0
LINE
  8
LAYER192
  6
CONTINUOUS
 62
               3
  5
4E3
 10
511.50000000000028
 20
186.51932457259636
 30
0.0
 11
523.50000000000023
 21
201.58498349324748
 31
0.0
  0
LINE
  8
LAYER192
  6
CONTINUOUS
 62
               3
  5
4E4
 10
688.5
 20
186.51932457259647
 30
0.0
 11
676.5
 21
201.58498349324771
 31
0.0
  0
LINE
  8
LAYER192
  6
CONTINUOUS
 62
               3
  5
4E5
 10
523.50000000000045
 20
201.58498349324771
 30
0.0
 11
676.5
 21
201.58498349324771
 31
0.0
  0
LINE
  8
LAYER192
  6
CONTINUOUS
 62
               3
  5
4E6
 10
511.49999999999892
 20
179.51932457259676
 30
0.0
 11
688.5
 21
179.51932457259676
 31
0.0
  0
LINE
  8
LAYER192
  6
CONTINUOUS
 62
               3
  5
4E7
 10
579.99999999999955
 20
186.51932457259682
 30
0.0
 11
579.99999999999955
 21
179.51932457259664
 31
0.0
  0
LINE
  8
LAYER192
  6
CONTINUOUS
 62
               3
  5
4E8
 10
619.99999999999955
 20
186.51932457259682
 30
0.0
 11
619.99999999999955
 21
179.51932457259664
 31
0.0
  0
LINE
  8
LAYER192
  6
CONTINUOUS
 62
               3
  5
4E9
 10
579.49999999999977
 20
201.58498349324771
 30
0.0
 11
579.49999999999977
 21
179.51932457259664
 31
0.0
  0
LINE
  8
LAYER192
  6
CONTINUOUS
 62
               3
  5
4EA
 10
620.49999999999955
 20
201.58498349324771
 30
0.0
 11
620.49999999999955
 21
179.51932457259664
 31
0.0
  0
LINE
  8
LAYER192
  6
CONTINUOUS
 62
               3
  5
4EB
 10
579.99999999999955
 20
186.51932457259636
 30
0.0
 11
619.99999999999955
 21
186.51932457259682
 31
0.0
  0
LINE
  8
LAYER192
  6
CONTINUOUS
 62
               3
  5
4EC
 10
579.99999999999955
 20
186.51932457259636
 30
0.0
 11
579.49999999999977
 21
201.58498349324771
 31
0.0
  0
LINE
  8
LAYER192
  6
CONTINUOUS
 62
               3
  5
4ED
 10
619.99999999999955
 20
186.51932457259636
 30
0.0
 11
620.49999999999955
 21
201.58498349324771
 31
0.0
  0
LINE
  8
LAYER192
  6
CONTINUOUS
 62
               3
  5
4EE
 10
531.74647922241888
 20
-587.95147495011452
 30
0.0
 11
540.66025403784442
 21
-603.39058581765971
 31
0.0
  0
ARC
  8
LAYER192
  6
CONTINUOUS
 62
               3
  5
4EF
 10
549.49999999999977
 20
-577.70147495011474
 30
0.0
 40
20.500000000000004
 50
179.99999999996513
 51
209.99999999995924
  0
LINE
  8
LAYER192
  6
CONTINUOUS
 62
               3
  5
4F0
 10
668.25352077758112
 20
-587.95147495011452
 30
0.0
 11
659.392788785329
 21
-603.29871295294652
 31
0.0
  0
ARC
  8
LAYER192
  6
CONTINUOUS
 62
               3
  5
4F1
 10
650.50000000000023
 20
-577.70147495011474
 30
0.0
 40
20.500000000000004
 50
329.99999999993622
 51
359.99999999993037
  0
INSERT
  8
0
  6
CONTINUOUS
  5
4F2
  2
GROUP_1
 10
0.0
 20
0.0
 30
0.0
  0
INSERT
  8
0
  6
CONTINUOUS
  5
4F3
  2
GROUP_2
 10
0.0
 20
0.0
 30
0.0
  0
INSERT
  8
0
  6
CONTINUOUS
  5
4F4
  2
GROUP_3
 10
0.0
 20
0.0
 30
0.0
  0
INSERT
  8
0
  6
CONTINUOUS
  5
4F5
  2
GROUP_4
 10
0.0
 20
0.0
 30
0.0
  0
INSERT
  8
0
  6
CONTINUOUS
  5
4F6
  2
GROUP_5
 10
0.0
 20
0.0
 30
0.0
  0
INSERT
  8
0
  6
CONTINUOUS
  5
4F7
  2
GROUP_6
 10
0.0
 20
0.0
 30
0.0
  0
INSERT
  8
0
  6
CONTINUOUS
  5
4F8
  2
GROUP_7
 10
0.0
 20
0.0
 30
0.0
  0
INSERT
  8
0
  6
CONTINUOUS
  5
4F9
  2
GROUP_8
 10
0.0
 20
0.0
 30
0.0
  0
INSERT
  8
0
  6
CONTINUOUS
  5
4FA
  2
GROUP_9
 10
0.0
 20
0.0
 30
0.0
  0
INSERT
  8
0
  6
CONTINUOUS
  5
4FB
  2
GROUP_10
 10
0.0
 20
0.0
 30
0.0
  0
LINE
  8
LAYER192
  6
CONTINUOUS
 62
               4
  5
4FC
 10
-685.50000000000045
 20
106.19855723800367
 30
0.0
 11
-692.00000000000045
 21
99.698557238003559
 31
0.0
  0
LINE
  8
LAYER192
  6
CONTINUOUS
 62
               4
  5
4FD
 10
-514.49999999999977
 20
106.19855723800367
 30
0.0
 11
-507.99999999999972
 21
99.698557238003559
 31
0.0
  0
LINE
  8
LAYER192
  6
CONTINUOUS
 62
               4
  5
4FE
 10
514.5
 20
106.19855723800339
 30
0.0
 11
508.00000000000006
 21
99.698557238003275
 31
0.0
  0
LINE
  8
LAYER192
  6
CONTINUOUS
 62
               4
  5
4FF
 10
685.50000000000068
 20
106.19855723800339
 30
0.0
 11
692.00000000000068
 21
99.698557238003275
 31
0.0
  0
POINT
  8
0
  6
CONTINUOUS
 62
               5
  5
500
 10
-392.13776905046899
 20
-1135.0632119879424
 30
0.0
  0
POINT
  8
0
  6
CONTINUOUS
 62
               5
  5
501
 10
-218.90769754050865
 20
-1136.3540060628316
 30
0.0
  0
POINT
  8
0
  6
CONTINUOUS
 62
               5
  5
502
 10
-565.36784056042916
 20
-1136.3540060628311
 30
0.0
  0
POINT
  8
0
  6
CONTINUOUS
 62
               5
  5
503
 10
-395.37452052112457
 20
-954.36525640894718
 30
0.0
  0
POINT
  8
0
  6
CONTINUOUS
 62
               5
  5
504
 10
493.0165947262679
 20
-1553.1690042396249
 30
0.0
  0
POINT
  8
0
  6
CONTINUOUS
 62
               5
  5
505
 10
493.01659472626801
 20
-1076.0879823412624
 30
0.0
  0
CIRCLE
  8
0
  6
CONTINUOUS
 62
               7
  5
506
 10
-392.13776905046899
 20
-1141.5632119879424
 30
0.0
 40
38.0
  0
CIRCLE
  8
0
  6
CONTINUOUS
 62
               7
  5
507
 10
-392.13776905046899
 20
-1141.5632119879424
 30
0.0
 40
33.5
  0
LINE
  8
0
  6
CONTINUOUS
 62
               7
  5
508
 10
-247.63776905046899
 20
-1090.5632119879424
 30
0.0
 11
-247.63776905046899
 21
-1179.5579758672679
 31
0.0
  0
LINE
  8
0
  6
CONTINUOUS
 62
               7
  5
509
 10
-247.03776905046897
 20
-1090.5632119879424
 30
0.0
 11
-247.63776905046899
 21
-1090.5632119879424
 31
0.0
  0
LINE
  8
0
  6
CONTINUOUS
 62
               7
  5
50A
 10
-282.63776905046899
 20
-1178.5632119879424
 30
0.0
 11
-282.63776905046899
 21
-1104.5632119879424
 31
0.0
  0
LINE
  8
0
  6
CONTINUOUS
 62
               7
  5
50B
 10
-189.63776905046899
 20
-1178.5632119879424
 30
0.0
 11
-189.63776905046899
 21
-1091.5632119879424
 31
0.0
  0
LINE
  8
0
  6
CONTINUOUS
 62
               7
  5
50C
 10
-247.63776905046899
 20
-1090.5632119879424
 30
0.0
 11
-190.63776905046899
 21
-1090.5632119879424
 31
0.0
  0
LINE
  8
0
  6
CONTINUOUS
 62
               7
  5
50D
 10
-281.63776905046899
 20
-1179.5632119879424
 30
0.0
 11
-190.63776905046899
 21
-1179.5632119879424
 31
0.0
  0
LINE
  8
0
  6
CONTINUOUS
 62
               7
  5
50E
 10
-190.63776905046899
 20
-1090.5632119879424
 30
0.0
 11
-189.63776905046899
 21
-1091.5632119879424
 31
0.0
  0
LINE
  8
0
  6
CONTINUOUS
 62
               7
  5
50F
 10
-189.63776905046899
 20
-1178.5632119879424
 30
0.0
 11
-190.63776905046899
 21
-1179.5632119879424
 31
0.0
  0
LINE
  8
0
  6
CONTINUOUS
 62
               7
  5
510
 10
-281.63776905046899
 20
-1103.5632119879424
 30
0.0
 11
-247.63776905046899
 21
-1103.5632119879424
 31
0.0
  0
CIRCLE
  8
0
  6
CONTINUOUS
 62
               7
  5
511
 10
-392.13776905046899
 20
-1135.0632119879424
 30
0.0
 40
44.5
  0
LINE
  8
0
  6
CONTINUOUS
 62
               7
  5
512
 10
-281.63776905046899
 20
-1103.5632119879424
 30
0.0
 11
-282.63776905046899
 21
-1104.5632119879424
 31
0.0
  0
LINE
  8
0
  6
CONTINUOUS
 62
               7
  5
513
 10
-282.63776905046899
 20
-1178.5632119879424
 30
0.0
 11
-281.63776905046899
 21
-1179.5632119879424
 31
0.0
  0
LINE
  8
0
  6
CONTINUOUS
 62
               7
  5
514
 10
-536.63776905046893
 20
-1090.5632119879424
 30
0.0
 11
-536.63776905046893
 21
-1179.5579758672679
 31
0.0
  0
LINE
  8
0
  6
CONTINUOUS
 62
               7
  5
515
 10
-537.23776905046884
 20
-1090.5632119879424
 30
0.0
 11
-536.63776905046893
 21
-1090.5632119879424
 31
0.0
  0
LINE
  8
0
  6
CONTINUOUS
 62
               7
  5
516
 10
-501.63776905046893
 20
-1178.5632119879424
 30
0.0
 11
-501.63776905046893
 21
-1104.5632119879424
 31
0.0
  0
LINE
  8
0
  6
CONTINUOUS
 62
               7
  5
517
 10
-594.63776905046893
 20
-1178.5632119879424
 30
0.0
 11
-594.63776905046893
 21
-1091.5632119879424
 31
0.0
  0
LINE
  8
0
  6
CONTINUOUS
 62
               7
  5
518
 10
-536.63776905046893
 20
-1090.5632119879424
 30
0.0
 11
-593.63776905046893
 21
-1090.5632119879424
 31
0.0
  0
LINE
  8
0
  6
CONTINUOUS
 62
               7
  5
519
 10
-502.63776905046893
 20
-1179.5632119879424
 30
0.0
 11
-593.63776905046893
 21
-1179.5632119879424
 31
0.0
  0
LINE
  8
0
  6
CONTINUOUS
 62
               7
  5
51A
 10
-593.63776905046893
 20
-1090.5632119879424
 30
0.0
 11
-594.63776905046893
 21
-1091.5632119879424
 31
0.0
  0
LINE
  8
0
  6
CONTINUOUS
 62
               7
  5
51B
 10
-594.63776905046893
 20
-1178.5632119879424
 30
0.0
 11
-593.63776905046893
 21
-1179.5632119879424
 31
0.0
  0
LINE
  8
0
  6
CONTINUOUS
 62
               7
  5
51C
 10
-502.63776905046893
 20
-1103.5632119879424
 30
0.0
 11
-536.63776905046893
 21
-1103.5632119879424
 31
0.0
  0
LINE
  8
0
  6
CONTINUOUS
 62
               7
  5
51D
 10
-502.63776905046893
 20
-1103.5632119879424
 30
0.0
 11
-501.63776905046893
 21
-1104.5632119879424
 31
0.0
  0
LINE
  8
0
  6
CONTINUOUS
 62
               7
  5
51E
 10
-501.63776905046893
 20
-1178.5632119879424
 30
0.0
 11
-502.63776905046893
 21
-1179.5632119879424
 31
0.0
  0
LINE
  8
0
  6
CONTINUOUS
 62
               7
  5
51F
 10
-349.58372644623552
 20
-983.09532791890763
 30
0.0
 11
-438.57849032556101
 21
-983.0953279189074
 31
0.0
  0
LINE
  8
0
  6
CONTINUOUS
 62
               7
  5
520
 10
-349.58372644623552
 20
-982.49532791890749
 30
0.0
 11
-349.58372644623552
 21
-983.09532791890763
 31
0.0
  0
LINE
  8
0
  6
CONTINUOUS
 62
               7
  5
521
 10
-431.08372644623546
 20
-1018.0953279189074
 30
0.0
 11
-357.08372644623552
 21
-1018.0953279189076
 31
0.0
  0
LINE
  8
0
  6
CONTINUOUS
 62
               7
  5
522
 10
-437.58372644623546
 20
-925.0953279189074
 30
0.0
 11
-350.58372644623552
 21
-925.09532791890763
 31
0.0
  0
LINE
  8
0
  6
CONTINUOUS
 62
               7
  5
523
 10
-349.58372644623552
 20
-983.09532791890763
 30
0.0
 11
-349.58372644623552
 21
-926.09532791890763
 31
0.0
  0
LINE
  8
0
  6
CONTINUOUS
 62
               7
  5
524
 10
-432.08372644623546
 20
-1017.0953279189074
 30
0.0
 11
-432.08372644623546
 21
-983.0953279189074
 31
0.0
  0
LINE
  8
0
  6
CONTINUOUS
 62
               7
  5
525
 10
-349.58372644623552
 20
-926.09532791890763
 30
0.0
 11
-350.58372644623552
 21
-925.09532791890763
 31
0.0
  0
LINE
  8
0
  6
CONTINUOUS
 62
               7
  5
526
 10
-437.58372644623546
 20
-925.0953279189074
 30
0.0
 11
-438.58372644623546
 21
-926.0953279189074
 31
0.0
  0
LINE
  8
0
  6
CONTINUOUS
 62
               7
  5
527
 10
-356.08372644623552
 20
-1017.0953279189076
 30
0.0
 11
-356.08372644623552
 21
-983.0953279189074
 31
0.0
  0
LINE
  8
0
  6
CONTINUOUS
 62
               7
  5
528
 10
-356.08372644623552
 20
-1017.0953279189076
 30
0.0
 11
-357.08372644623552
 21
-1018.0953279189076
 31
0.0
  0
LINE
  8
0
  6
CONTINUOUS
 62
               7
  5
529
 10
-431.08372644623546
 20
-1018.0953279189074
 30
0.0
 11
-432.08372644623546
 21
-1017.0953279189074
 31
0.0
  0
LINE
  8
0
  6
CONTINUOUS
 62
               7
  5
52A
 10
-438.58372644623546
 20
-983.0953279189074
 30
0.0
 11
-438.58372644623546
 21
-926.0953279189074
 31
0.0
  0
LINE
  8
0
  6
CONTINUOUS
 62
               7
  5
52B
 10
216.63392368588069
 20
-1178.5632119879424
 30
0.0
 11
216.63392368588069
 21
-1120.5632119879424
 31
0.0
  0
LINE
  8
0
  6
CONTINUOUS
 62
               7
  5
52C
 10
242.2339236858806
 20
-1090.5632119879424
 30
0.0
 11
242.2339236858806
 21
-1179.5632119879424
 31
0.0
  0
LINE
  8
0
  6
CONTINUOUS
 62
               7
  5
52D
 10
242.83392368588073
 20
-1090.5632119879424
 30
0.0
 11
242.2339236858806
 21
-1090.5632119879424
 31
0.0
  0
LINE
  8
0
  6
CONTINUOUS
 62
               7
  5
52E
 10
300.23392368588082
 20
-1178.5632119879424
 30
0.0
 11
300.23392368588082
 21
-1091.5632119879424
 31
0.0
  0
CIRCLE
  8
0
  6
CONTINUOUS
 62
               7
  5
52F
 10
120.87790746063769
 20
-1149.5632119879424
 30
0.0
 40
30.0
  0
CIRCLE
  8
0
  6
CONTINUOUS
 62
               7
  5
530
 10
120.87790746063769
 20
-1149.5632119879424
 30
0.0
 40
25.5
  0
CIRCLE
  8
0
  6
CONTINUOUS
 62
               7
  5
531
 10
120.87790746063769
 20
-1135.0632119879424
 30
0.0
 40
44.5
  0
LINE
  8
0
  6
CONTINUOUS
 62
               7
  5
532
 10
242.36837543136102
 20
-1090.5632119879424
 30
0.0
 11
299.23392368588082
 21
-1090.5632119879424
 31
0.0
  0
LINE
  8
0
  6
CONTINUOUS
 62
               7
  5
533
 10
217.63392368588069
 20
-1179.5632119879424
 30
0.0
 11
299.23392368588082
 21
-1179.5632119879424
 31
0.0
  0
LINE
  8
0
  6
CONTINUOUS
 62
               7
  5
534
 10
217.63392368588069
 20
-1119.5632119879424
 30
0.0
 11
242.2339236858806
 21
-1119.5632119879424
 31
0.0
  0
LINE
  8
0
  6
CONTINUOUS
 62
               7
  5
535
 10
217.63392368588069
 20
-1119.5632119879424
 30
0.0
 11
216.63392368588069
 21
-1120.5632119879424
 31
0.0
  0
LINE
  8
0
  6
CONTINUOUS
 62
               7
  5
536
 10
299.23392368588082
 20
-1090.5632119879424
 30
0.0
 11
300.23392368588082
 21
-1091.5632119879424
 31
0.0
  0
LINE
  8
0
  6
CONTINUOUS
 62
               7
  5
537
 10
216.63392368588069
 20
-1178.5632119879424
 30
0.0
 11
217.63392368588069
 21
-1179.5632119879424
 31
0.0
  0
LINE
  8
0
  6
CONTINUOUS
 62
               7
  5
538
 10
300.23392368588082
 20
-1178.5632119879424
 30
0.0
 11
299.23392368588082
 21
-1179.5632119879424
 31
0.0
  0
LINE
  8
0
  6
CONTINUOUS
 62
               7
  5
539
 10
25.121891235394912
 20
-1178.5632119879424
 30
0.0
 11
25.121891235394912
 21
-1120.5632119879424
 31
0.0
  0
LINE
  8
0
  6
CONTINUOUS
 62
               7
  5
53A
 10
-0.4781087646051105
 20
-1090.5632119879424
 30
0.0
 11
-0.4781087646051105
 21
-1179.5632119879424
 31
0.0
  0
LINE
  8
0
  6
CONTINUOUS
 62
               7
  5
53B
 10
-1.0781087646051333
 20
-1090.5632119879424
 30
0.0
 11
-0.4781087646051105
 21
-1090.5632119879424
 31
0.0
  0
LINE
  8
0
  6
CONTINUOUS
 62
               7
  5
53C
 10
-58.478108764605111
 20
-1178.5632119879424
 30
0.0
 11
-58.478108764605111
 21
-1091.5632119879424
 31
0.0
  0
LINE
  8
0
  6
CONTINUOUS
 62
               7
  5
53D
 10
-0.6125605100854159
 20
-1090.5632119879424
 30
0.0
 11
-57.478108764605111
 21
-1090.5632119879424
 31
0.0
  0
LINE
  8
0
  6
CONTINUOUS
 62
               7
  5
53E
 10
24.121891235394912
 20
-1179.5632119879424
 30
0.0
 11
-57.478108764605111
 21
-1179.5632119879424
 31
0.0
  0
LINE
  8
0
  6
CONTINUOUS
 62
               7
  5
53F
 10
24.121891235394912
 20
-1119.5632119879424
 30
0.0
 11
-0.4781087646051105
 21
-1119.5632119879424
 31
0.0
  0
LINE
  8
0
  6
CONTINUOUS
 62
               7
  5
540
 10
24.121891235394912
 20
-1119.5632119879424
 30
0.0
 11
25.121891235394912
 21
-1120.5632119879424
 31
0.0
  0
LINE
  8
0
  6
CONTINUOUS
 62
               7
  5
541
 10
-57.478108764605111
 20
-1090.5632119879424
 30
0.0
 11
-58.478108764605111
 21
-1091.5632119879424
 31
0.0
  0
LINE
  8
0
  6
CONTINUOUS
 62
               7
  5
542
 10
25.121891235394912
 20
-1178.5632119879424
 30
0.0
 11
24.121891235394912
 21
-1179.5632119879424
 31
0.0
  0
LINE
  8
0
  6
CONTINUOUS
 62
               7
  5
543
 10
-58.478108764605111
 20
-1178.5632119879424
 30
0.0
 11
-57.478108764605111
 21
-1179.5632119879424
 31
0.0
  0
LINE
  8
0
  6
CONTINUOUS
 62
               7
  5
544
 10
91.877907460637914
 20
-1028.8071957626998
 30
0.0
 11
149.87790746063791
 21
-1028.8071957626998
 31
0.0
  0
LINE
  8
0
  6
CONTINUOUS
 62
               7
  5
545
 10
165.37790746063791
 20
-1003.2071957626996
 30
0.0
 11
76.377907460637914
 21
-1003.2071957626996
 31
0.0
  0
LINE
  8
0
  6
CONTINUOUS
 62
               7
  5
546
 10
165.37790746063791
 20
-1002.6071957626997
 30
0.0
 11
165.37790746063791
 21
-1003.2071957626996
 31
0.0
  0
LINE
  8
0
  6
CONTINUOUS
 62
               7
  5
547
 10
77.377907460637914
 20
-945.2071957626996
 30
0.0
 11
164.37790746063791
 21
-945.2071957626996
 31
0.0
  0
LINE
  8
0
  6
CONTINUOUS
 62
               7
  5
548
 10
165.37790746063791
 20
-1003.0727440172194
 30
0.0
 11
165.37790746063791
 21
-946.2071957626996
 31
0.0
  0
LINE
  8
0
  6
CONTINUOUS
 62
               7
  5
549
 10
90.877907460637914
 20
-1027.8071957626998
 30
0.0
 11
90.877907460637914
 21
-1003.2071957626996
 31
0.0
  0
LINE
  8
0
  6
CONTINUOUS
 62
               7
  5
54A
 10
150.87790746063791
 20
-1027.8071957626998
 30
0.0
 11
150.87790746063791
 21
-1003.2071957626996
 31
0.0
  0
LINE
  8
0
  6
CONTINUOUS
 62
               7
  5
54B
 10
150.87790746063791
 20
-1027.8071957626998
 30
0.0
 11
149.87790746063791
 21
-1028.8071957626998
 31
0.0
  0
LINE
  8
0
  6
CONTINUOUS
 62
               7
  5
54C
 10
165.37790746063791
 20
-946.2071957626996
 30
0.0
 11
164.37790746063791
 21
-945.2071957626996
 31
0.0
  0
LINE
  8
0
  6
CONTINUOUS
 62
               7
  5
54D
 10
91.877907460637914
 20
-1028.8071957626998
 30
0.0
 11
90.877907460637914
 21
-1027.8071957626998
 31
0.0
  0
LINE
  8
0
  6
CONTINUOUS
 62
               7
  5
54E
 10
77.377907460637914
 20
-945.2071957626996
 30
0.0
 11
76.377907460637914
 21
-946.2071957626996
 31
0.0
  0
LINE
  8
0
  6
CONTINUOUS
 62
               7
  5
54F
 10
76.377907460637914
 20
-1003.0727440172192
 30
0.0
 11
76.377907460637914
 21
-946.2071957626996
 31
0.0
  0
CIRCLE
  8
0
  6
CONTINUOUS
 62
               7
  5
550
 10
609.28652321630761
 20
-1566.3782101647357
 30
0.0
 40
25.5
  0
CIRCLE
  8
0
  6
CONTINUOUS
 62
               7
  5
551
 10
609.28652321630761
 20
-1551.8782101647357
 30
0.0
 40
44.5
  0
CIRCLE
  8
0
  6
CONTINUOUS
 62
               7
  5
552
 10
609.28652321630761
 20
-1566.3782101647357
 30
0.0
 40
30.0
  0
LINE
  8
0
  6
CONTINUOUS
 62
               7
  5
553
 10
580.28652321630761
 20
-1247.9787764161515
 30
0.0
 11
638.28652321630761
 21
-1247.9787764161515
 31
0.0
  0
LINE
  8
0
  6
CONTINUOUS
 62
               7
  5
554
 10
653.78652321630761
 20
-1222.3787764161516
 30
0.0
 11
564.78652321630761
 21
-1222.3787764161516
 31
0.0
  0
LINE
  8
0
  6
CONTINUOUS
 62
               7
  5
555
 10
653.78652321630761
 20
-1221.7787764161517
 30
0.0
 11
653.78652321630761
 21
-1222.3787764161516
 31
0.0
  0
LINE
  8
0
  6
CONTINUOUS
 62
               7
  5
556
 10
565.78652321630761
 20
-1164.3787764161511
 30
0.0
 11
652.78652321630761
 21
-1164.3787764161511
 31
0.0
  0
LINE
  8
0
  6
CONTINUOUS
 62
               7
  5
557
 10
653.78652321630761
 20
-1222.2443246706712
 30
0.0
 11
653.78652321630761
 21
-1165.3787764161511
 31
0.0
  0
LINE
  8
0
  6
CONTINUOUS
 62
               7
  5
558
 10
579.28652321630761
 20
-1246.9787764161515
 30
0.0
 11
579.28652321630761
 21
-1222.3787764161516
 31
0.0
  0
LINE
  8
0
  6
CONTINUOUS
 62
               7
  5
559
 10
639.28652321630761
 20
-1246.9787764161515
 30
0.0
 11
639.28652321630761
 21
-1222.3787764161516
 31
0.0
  0
LINE
  8
0
  6
CONTINUOUS
 62
               7
  5
55A
 10
639.28652321630761
 20
-1246.9787764161515
 30
0.0
 11
638.28652321630761
 21
-1247.9787764161515
 31
0.0
  0
LINE
  8
0
  6
CONTINUOUS
 62
               7
  5
55B
 10
653.78652321630761
 20
-1165.3787764161511
 30
0.0
 11
652.78652321630761
 21
-1164.3787764161511
 31
0.0
  0
LINE
  8
0
  6
CONTINUOUS
 62
               7
  5
55C
 10
580.28652321630761
 20
-1247.9787764161515
 30
0.0
 11
579.28652321630761
 21
-1246.9787764161515
 31
0.0
  0
LINE
  8
0
  6
CONTINUOUS
 62
               7
  5
55D
 10
565.78652321630761
 20
-1164.3787764161511
 30
0.0
 11
564.78652321630761
 21
-1165.3787764161511
 31
0.0
  0
LINE
  8
0
  6
CONTINUOUS
 62
               7
  5
55E
 10
564.78652321630761
 20
-1222.2443246706712
 30
0.0
 11
564.78652321630761
 21
-1165.3787764161511
 31
0.0
  0
LINE
  8
0
  6
CONTINUOUS
 62
               7
  5
55F
 10
464.28652321630756
 20
-1507.3782101647357
 30
0.0
 11
464.28652321630756
 21
-1596.3729740440613
 31
0.0
  0
LINE
  8
0
  6
CONTINUOUS
 62
               7
  5
560
 10
464.88652321630758
 20
-1507.3782101647357
 30
0.0
 11
464.28652321630756
 21
-1507.3782101647357
 31
0.0
  0
LINE
  8
0
  6
CONTINUOUS
 62
               7
  5
561
 10
429.28652321630756
 20
-1595.3782101647357
 30
0.0
 11
429.28652321630756
 21
-1521.3782101647357
 31
0.0
  0
LINE
  8
0
  6
CONTINUOUS
 62
               7
  5
562
 10
522.28652321630761
 20
-1595.3782101647357
 30
0.0
 11
522.28652321630761
 21
-1508.3782101647357
 31
0.0
  0
LINE
  8
0
  6
CONTINUOUS
 62
               7
  5
563
 10
464.28652321630756
 20
-1507.3782101647357
 30
0.0
 11
521.28652321630761
 21
-1507.3782101647357
 31
0.0
  0
LINE
  8
0
  6
CONTINUOUS
 62
               7
  5
564
 10
430.28652321630756
 20
-1596.3782101647357
 30
0.0
 11
521.28652321630761
 21
-1596.3782101647357
 31
0.0
  0
LINE
  8
0
  6
CONTINUOUS
 62
               7
  5
565
 10
521.28652321630761
 20
-1507.3782101647357
 30
0.0
 11
522.28652321630761
 21
-1508.3782101647357
 31
0.0
  0
LINE
  8
0
  6
CONTINUOUS
 62
               7
  5
566
 10
522.28652321630761
 20
-1595.3782101647357
 30
0.0
 11
521.28652321630761
 21
-1596.3782101647357
 31
0.0
  0
LINE
  8
0
  6
CONTINUOUS
 62
               7
  5
567
 10
430.28652321630756
 20
-1520.3782101647357
 30
0.0
 11
464.28652321630756
 21
-1520.3782101647357
 31
0.0
  0
LINE
  8
0
  6
CONTINUOUS
 62
               7
  5
568
 10
430.28652321630756
 20
-1520.3782101647357
 30
0.0
 11
429.28652321630756
 21
-1521.3782101647357
 31
0.0
  0
LINE
  8
0
  6
CONTINUOUS
 62
               7
  5
569
 10
429.28652321630756
 20
-1595.3782101647357
 30
0.0
 11
430.28652321630756
 21
-1596.3782101647357
 31
0.0
  0
LINE
  8
0
  6
CONTINUOUS
 62
               7
  5
56A
 10
464.28652321630756
 20
-1121.8787764161511
 30
0.0
 11
464.28652321630778
 21
-1032.8840125368256
 31
0.0
  0
LINE
  8
0
  6
CONTINUOUS
 62
               7
  5
56B
 10
464.88652321630769
 20
-1121.8787764161511
 30
0.0
 11
464.28652321630756
 21
-1121.8787764161511
 31
0.0
  0
LINE
  8
0
  6
CONTINUOUS
 62
               7
  5
56C
 10
429.28652321630778
 20
-1040.3787764161511
 30
0.0
 11
429.28652321630756
 21
-1114.3787764161511
 31
0.0
  0
LINE
  8
0
  6
CONTINUOUS
 62
               7
  5
56D
 10
522.28652321630784
 20
-1033.8787764161516
 30
0.0
 11
522.28652321630761
 21
-1120.8787764161511
 31
0.0
  0
LINE
  8
0
  6
CONTINUOUS
 62
               7
  5
56E
 10
464.28652321630756
 20
-1121.8787764161511
 30
0.0
 11
521.28652321630761
 21
-1121.8787764161511
 31
0.0
  0
LINE
  8
0
  6
CONTINUOUS
 62
               7
  5
56F
 10
430.28652321630778
 20
-1039.3787764161511
 30
0.0
 11
464.28652321630778
 21
-1039.3787764161511
 31
0.0
  0
LINE
  8
0
  6
CONTINUOUS
 62
               7
  5
570
 10
521.28652321630761
 20
-1121.8787764161511
 30
0.0
 11
522.28652321630761
 21
-1120.8787764161511
 31
0.0
  0
LINE
  8
0
  6
CONTINUOUS
 62
               7
  5
571
 10
522.28652321630784
 20
-1033.8787764161516
 30
0.0
 11
521.28652321630784
 21
-1032.8787764161516
 31
0.0
  0
LINE
  8
0
  6
CONTINUOUS
 62
               7
  5
572
 10
430.28652321630756
 20
-1115.3787764161511
 30
0.0
 11
464.28652321630778
 21
-1115.3787764161511
 31
0.0
  0
LINE
  8
0
  6
CONTINUOUS
 62
               7
  5
573
 10
430.28652321630756
 20
-1115.3787764161511
 30
0.0
 11
429.28652321630756
 21
-1114.3787764161511
 31
0.0
  0
LINE
  8
0
  6
CONTINUOUS
 62
               7
  5
574
 10
429.28652321630778
 20
-1040.3787764161511
 30
0.0
 11
430.28652321630778
 21
-1039.3787764161511
 31
0.0
  0
LINE
  8
0
  6
CONTINUOUS
 62
               7
  5
575
 10
464.28652321630778
 20
-1032.8787764161511
 30
0.0
 11
521.28652321630784
 21
-1032.8787764161511
 31
0.0
  0
CIRCLE
  8
0
  6
CONTINUOUS
 62
               7
  5
576
 10
120.8779074606378
 20
-1637.7716163701459
 30
0.0
 40
44.5
  0
CIRCLE
  8
0
  6
CONTINUOUS
 62
               7
  5
577
 10
120.87790746063774
 20
-1625.2716163701459
 30
0.0
 40
57.0
  0
CIRCLE
  8
0
  6
CONTINUOUS
 62
               7
  5
578
 10
120.87790746063774
 20
-1637.7716163701459
 30
0.0
 40
40.625
  0
LINE
  8
0
  6
CONTINUOUS
 62
               7
  5
579
 10
247.98631184284113
 20
-1681.2716163701459
 30
0.0
 11
247.98631184284125
 21
-1594.2716163701459
 31
0.0
  0
LINE
  8
0
  6
CONTINUOUS
 62
               7
  5
57A
 10
288.58631184284127
 20
-1568.2716163701461
 30
0.0
 11
288.58631184284116
 21
-1682.2716163701461
 31
0.0
  0
LINE
  8
0
  6
CONTINUOUS
 62
               7
  5
57B
 10
346.58631184284116
 20
-1681.2716163701461
 30
0.0
 11
346.58631184284127
 21
-1569.2716163701461
 31
0.0
  0
LINE
  8
0
  6
CONTINUOUS
 62
               7
  5
57C
 10
345.58631184284127
 20
-1568.2716163701461
 30
0.0
 11
288.58631184284127
 21
-1568.2716163701461
 31
0.0
  0
LINE
  8
0
  6
CONTINUOUS
 62
               7
  5
57D
 10
345.58631184284116
 20
-1682.2716163701461
 30
0.0
 11
288.58631184284116
 21
-1682.2716163701461
 31
0.0
  0
LINE
  8
0
  6
CONTINUOUS
 62
               7
  5
57E
 10
288.58631184284116
 20
-1682.2716163701461
 30
0.0
 11
248.98631184284116
 21
-1682.2716163701459
 31
0.0
  0
LINE
  8
0
  6
CONTINUOUS
 62
               7
  5
57F
 10
288.58631184284127
 20
-1593.2716163701461
 30
0.0
 11
248.98631184284122
 21
-1593.2716163701461
 31
0.0
  0
LINE
  8
0
  6
CONTINUOUS
 62
               7
  5
580
 10
345.58631184284127
 20
-1568.2716163701461
 30
0.0
 11
346.58631184284127
 21
-1569.2716163701461
 31
0.0
  0
LINE
  8
0
  6
CONTINUOUS
 62
               7
  5
581
 10
346.58631184284116
 20
-1681.2716163701461
 30
0.0
 11
345.58631184284116
 21
-1682.2716163701461
 31
0.0
  0
LINE
  8
0
  6
CONTINUOUS
 62
               7
  5
582
 10
248.98631184284122
 20
-1593.2716163701461
 30
0.0
 11
247.98631184284125
 21
-1594.2716163701459
 31
0.0
  0
LINE
  8
0
  6
CONTINUOUS
 62
               7
  5
583
 10
247.98631184284113
 20
-1681.2716163701459
 30
0.0
 11
248.98631184284116
 21
-1682.2716163701459
 31
0.0
  0
LINE
  8
0
  6
CONTINUOUS
 62
               7
  5
584
 10
-6.2304969215657025
 20
-1681.2716163701459
 30
0.0
 11
-6.2304969215657025
 21
-1594.2716163701459
 31
0.0
  0
LINE
  8
0
  6
CONTINUOUS
 62
               7
  5
585
 10
-46.830496921565668
 20
-1568.2716163701459
 30
0.0
 11
-46.830496921565668
 21
-1682.2716163701459
 31
0.0
  0
LINE
  8
0
  6
CONTINUOUS
 62
               7
  5
586
 10
-104.83049692156573
 20
-1681.2716163701459
 30
0.0
 11
-104.83049692156573
 21
-1569.2716163701459
 31
0.0
  0
LINE
  8
0
  6
CONTINUOUS
 62
               7
  5
587
 10
-103.83049692156573
 20
-1568.2716163701459
 30
0.0
 11
-46.830496921565668
 21
-1568.2716163701459
 31
0.0
  0
LINE
  8
0
  6
CONTINUOUS
 62
               7
  5
588
 10
-103.83049692156573
 20
-1682.2716163701459
 30
0.0
 11
-46.830496921565668
 21
-1682.2716163701459
 31
0.0
  0
LINE
  8
0
  6
CONTINUOUS
 62
               7
  5
589
 10
-46.830496921565668
 20
-1682.2716163701459
 30
0.0
 11
-7.2304969215657025
 21
-1682.2716163701459
 31
0.0
  0
LINE
  8
0
  6
CONTINUOUS
 62
               7
  5
58A
 10
-46.830496921565668
 20
-1593.2716163701459
 30
0.0
 11
-7.2304969215657025
 21
-1593.2716163701459
 31
0.0
  0
LINE
  8
0
  6
CONTINUOUS
 62
               7
  5
58B
 10
-103.83049692156573
 20
-1568.2716163701459
 30
0.0
 11
-104.83049692156573
 21
-1569.2716163701459
 31
0.0
  0
LINE
  8
0
  6
CONTINUOUS
 62
               7
  5
58C
 10
-104.83049692156573
 20
-1681.2716163701459
 30
0.0
 11
-103.83049692156573
 21
-1682.2716163701459
 31
0.0
  0
LINE
  8
0
  6
CONTINUOUS
 62
               7
  5
58D
 10
-7.2304969215657025
 20
-1593.2716163701459
 30
0.0
 11
-6.2304969215657025
 21
-1594.2716163701459
 31
0.0
  0
LINE
  8
0
  6
CONTINUOUS
 62
               7
  5
58E
 10
-6.2304969215657025
 20
-1681.2716163701459
 30
0.0
 11
-7.2304969215657025
 21
-1682.2716163701459
 31
0.0
  0
LINE
  8
0
  6
CONTINUOUS
 62
               7
  5
58F
 10
77.377907460637687
 20
-1498.1632119879425
 30
0.0
 11
164.37790746063769
 21
-1498.1632119879425
 31
0.0
  0
LINE
  8
0
  6
CONTINUOUS
 62
               7
  5
590
 10
177.87790746063769
 20
-1457.5632119879424
 30
0.0
 11
63.877907460637687
 21
-1457.5632119879424
 31
0.0
  0
LINE
  8
0
  6
CONTINUOUS
 62
               7
  5
591
 10
64.877907460637687
 20
-1399.5632119879424
 30
0.0
 11
176.87790746063769
 21
-1399.5632119879424
 31
0.0
  0
LINE
  8
0
  6
CONTINUOUS
 62
               7
  5
592
 10
177.87790746063769
 20
-1400.5632119879424
 30
0.0
 11
177.87790746063769
 21
-1457.5632119879426
 31
0.0
  0
LINE
  8
0
  6
CONTINUOUS
 62
               7
  5
593
 10
63.877907460637687
 20
-1400.5632119879424
 30
0.0
 11
63.877907460637687
 21
-1457.5632119879426
 31
0.0
  0
LINE
  8
0
  6
CONTINUOUS
 62
               7
  5
594
 10
76.377907460637687
 20
-1457.5632119879426
 30
0.0
 11
76.377907460637687
 21
-1497.1632119879425
 31
0.0
  0
LINE
  8
0
  6
CONTINUOUS
 62
               7
  5
595
 10
165.37790746063769
 20
-1457.5632119879426
 30
0.0
 11
165.37790746063769
 21
-1497.1632119879425
 31
0.0
  0
LINE
  8
0
  6
CONTINUOUS
 62
               7
  5
596
 10
177.87790746063769
 20
-1400.5632119879424
 30
0.0
 11
176.87790746063769
 21
-1399.5632119879424
 31
0.0
  0
LINE
  8
0
  6
CONTINUOUS
 62
               7
  5
597
 10
64.877907460637687
 20
-1399.5632119879424
 30
0.0
 11
63.877907460637687
 21
-1400.5632119879424
 31
0.0
  0
LINE
  8
0
  6
CONTINUOUS
 62
               7
  5
598
 10
165.37790746063769
 20
-1497.1632119879425
 30
0.0
 11
164.37790746063769
 21
-1498.1632119879425
 31
0.0
  0
LINE
  8
0
  6
CONTINUOUS
 62
               7
  5
599
 10
77.377907460637687
 20
-1498.1632119879425
 30
0.0
 11
76.377907460637687
 21
-1497.1632119879425
 31
0.0
  0
CIRCLE
  8
0
  6
DASHED
 62
               7
  5
59A
 10
-392.13776905046899
 20
-1135.0632119879424
 30
0.0
 40
40.0
  0
CIRCLE
  8
0
  6
DASHED
 62
               7
  5
59B
 10
120.87790746063769
 20
-1135.0632119879424
 30
0.0
 40
40.0
  0
CIRCLE
  8
0
  6
DASHED
 62
               7
  5
59C
 10
609.28652321630761
 20
-1551.8782101647357
 30
0.0
 40
40.0
  0
TEXT
  8
0
 62
               3
  5
59D
 10
-392.13776905046899
 20
-1219.5632119879424
 30
0.0
 40
40.0
  1
EMB_80×65
 41
0.8
 72
               1
 11
-392.13776905046899
 21
-1219.5632119879424
 31
0.0
 73
               3
  0
TEXT
  8
0
 62
               3
  5
59E
 10
120.87790746063769
 20
-1219.5632119879424
 30
0.0
 40
40.0
  1
EMB_80×50
 41
0.8
 72
               1
 11
120.87790746063769
 21
-1219.5632119879424
 31
0.0
 73
               3
  0
TEXT
  8
0
 62
               3
  5
59F
 10
605.58911923866731
 20
-897.93240791093206
 30
0.0
 40
40.0
  1
EMB使用例
 41
0.8
 72
               1
 11
605.58911923866731
 21
-897.93240791093206
 31
0.0
 73
               3
  0
TEXT
  8
0
 62
               3
  5
5A0
 10
-123.74270409089118
 20
-843.57227201059266
 30
0.0
 40
35.0
  1
横枝管を縮径して管を接続するときは、EMBをご使用ください。
 41
0.8
 72
               1
 11
-123.74270409089118
 21
-843.57227201059266
 31
0.0
 73
               3
  0
TEXT
  8
0
 62
               3
  5
5A1
 10
120.87790746063769
 20
-1709.7716163701457
 30
0.0
 40
40.0
  1
EMB_100×80
 41
0.8
 72
               1
 11
120.87790746063769
 21
-1709.7716163701457
 31
0.0
 73
               3
  0
ENDSEC
  0
EOF
