  0
SECTION
  2
HEADER
  9
$ACADVER
  1
AC1009
  9
$INSBASE
 10
0.0
 20
0.0
 30
0.0
  9
$EXTMIN
 10
-738.60051192420531
 20
-1758.8718198374763
 30
0.0
  9
$EXTMAX
 10
746.34313174847489
 20
794.33876046372495
 30
0.0
  9
$LIMMIN
 10
-785.00500078897653
 20
-1838.6596504718889
  9
$LIMMAX
 10
792.74762061324611
 20
874.12659109813751
  9
$ORTHOMODE
 70
               0
  9
$REGENMODE
 70
               1
  9
$FILLMODE
 70
               1
  9
$QTEXTMODE
 70
               0
  9
$MIRRTEXT
 70
               1
  9
$DRAGMODE
 70
               2
  9
$LTSCALE
 40
1.0
  9
$OSMODE
 70
               0
  9
$ATTMODE
 70
               1
  9
$TEXTSIZE
 40
0.2
  9
$TRACEWID
 40
0.05
  9
$TEXTSTYLE
  7
STANDARD
  9
$CLAYER
  8
0
  9
$CELTYPE
  6
CONTINUOUS
  9
$CECOLOR
 62
             256
  9
$DIMSCALE
 40
1.0
  9
$DIMASZ
 40
0.18
  9
$DIMEXO
 40
0.0625
  9
$DIMDLI
 40
0.38
  9
$DIMRND
 40
0.0
  9
$DIMDLE
 40
0.0
  9
$DIMEXE
 40
0.18
  9
$DIMTP
 40
0.0
  9
$DIMTM
 40
0.0
  9
$DIMTXT
 40
0.18
  9
$DIMCEN
 40
0.09
  9
$DIMTSZ
 40
0.0
  9
$DIMTOL
 70
               0
  9
$DIMLIM
 70
               0
  9
$DIMTIH
 70
               1
  9
$DIMTOH
 70
               1
  9
$DIMSE1
 70
               0
  9
$DIMSE2
 70
               0
  9
$DIMTAD
 70
               0
  9
$DIMZIN
 70
               0
  9
$DIMBLK
  1

  9
$DIMASO
 70
               1
  9
$DIMSHO
 70
               1
  9
$DIMPOST
  1

  9
$DIMAPOST
  1

  9
$DIMALT
 70
               0
  9
$DIMALTD
 70
               2
  9
$DIMALTF
 40
25.399999999999999
  9
$DIMLFAC
 40
1.0
  9
$DIMTOFL
 70
               0
  9
$DIMTVP
 40
0.0
  9
$DIMTIX
 70
               0
  9
$DIMSOXD
 70
               0
  9
$DIMSAH
 70
               0
  9
$DIMBLK1
  1

  9
$DIMBLK2
  1

  9
$DIMSTYLE
  2
STANDARD
  9
$DIMCLRD
 70
               0
  9
$DIMCLRE
 70
               0
  9
$DIMCLRT
 70
               0
  9
$DIMTFAC
 40
1.0
  9
$DIMGAP
 40
0.09
  9
$LUNITS
 70
               2
  9
$LUPREC
 70
               4
  9
$AXISMODE
 70
               0
  9
$AXISUNIT
 10
0.0
 20
0.0
  9
$SKETCHINC
 40
0.1
  9
$FILLETRAD
 40
0.0
  9
$AUNITS
 70
               0
  9
$AUPREC
 70
               0
  9
$MENU
  1
acad
  9
$ELEVATION
 40
0.0
  9
$PELEVATION
 40
0.0
  9
$THICKNESS
 40
0.0
  9
$LIMCHECK
 70
               0
  9
$BLIPMODE
 70
               1
  9
$CHAMFERA
 40
0.0
  9
$CHAMFERB
 40
0.0
  9
$SKPOLY
 70
               0
  9
$TDCREATE
 40
0.000000000
  9
$TDUPDATE
 40
0.000000000
  9
$TDINDWG
 40
0.0000000000
  9
$TDUSRTIMER
 40
0.0000000000
  9
$USRTIMER
 70
               1
  9
$ANGBASE
 50
0.0
  9
$ANGDIR
 70
               0
  9
$PDMODE
 70
               0
  9
$PDSIZE
 40
1.0
  9
$PLINEWID
 40
0.0
  9
$COORDS
 70
               1
  9
$SPLFRAME
 70
               0
  9
$SPLINETYPE
 70
               6
  9
$SPLINESEGS
 70
               8
  9
$ATTDIA
 70
               0
  9
$ATTREQ
 70
               1
  9
$HANDLING
 70
               1
  9
$HANDSEED
  5
64A
  9
$SURFTAB1
 70
               6
  9
$SURFTAB2
 70
               6
  9
$SURFTYPE
 70
               6
  9
$SURFU
 70
               6
  9
$SURFV
 70
               6
  9
$UCSNAME
  2

  9
$UCSORG
 10
0.0
 20
0.0
 30
0.0
  9
$UCSXDIR
 10
1.0
 20
0.0
 30
0.0
  9
$UCSYDIR
 10
0.0
 20
1.0
 30
0.0
  9
$PUCSNAME
  2

  9
$PUCSORG
 10
0.0
 20
0.0
 30
0.0
  9
$PUCSXDIR
 10
1.0
 20
0.0
 30
0.0
  9
$PUCSYDIR
 10
0.0
 20
1.0
 30
0.0
  9
$USERI1
 70
               0
  9
$USERI2
 70
               0
  9
$USERI3
 70
               0
  9
$USERI4
 70
               0
  9
$USERI5
 70
               0
  9
$USERR1
 40
0.0
  9
$USERR2
 40
0.0
  9
$USERR3
 40
0.0
  9
$USERR4
 40
0.0
  9
$USERR5
 40
0.0
  9
$WORLDVIEW
 70
               1
  9
$SHADEDGE
 70
               3
  9
$SHADEDIF
 70
              70
  9
$TILEMODE
 70
               1
  9
$MAXACTVP
 70
              16
  9
$PINSBASE
 10
0.0
 20
0.0
 30
0.0
  9
$PLIMCHECK
 70
               0
  9
$PEXTMIN
 10
1.0000000000000000E+20
 20
1.0000000000000000E+20
 30
1.0000000000000000E+20
  9
$PEXTMAX
 10
-1.0000000000000000E+20
 20
-1.0000000000000000E+20
 30
-1.0000000000000000E+20
  9
$PLIMMIN
 10
0.0
 20
0.0
  9
$PLIMMAX
 10
12.0
 20
9.0
  9
$UNITMODE
 70
               0
  9
$VISRETAIN
 70
               0
  9
$PLINEGEN
 70
               1
  9
$PSLTSCALE
 70
               0
  9
$TREEDEPTH
 70
            3020
  9
$DWGCODEPAGE
  3
dos932
  0
ENDSEC
  0
SECTION
  2
TABLES
  0
TABLE
  2
VPORT
 70
               1
  0
VPORT
  2
*ACTIVE
 70
               0
 10
0.0
 20
0.0
 11
1.0
 21
1.0
 12
3.8713099121347909
 22
-482.26652968687569
 13
0.0
 23
0.0
 14
1.0
 24
1.0
 15
0.0
 25
0.0
 16
0.0
 26
0.0
 36
1.0
 17
0.0
 27
0.0
 37
0.0
 40
2712.7862415700265
 41
0.5815985783270183
 42
50.0
 43
0.0
 44
0.0
 50
0.0
 51
0.0
 71
               0
 72
             100
 73
               1
 74
               1
 75
               0
 76
               0
 77
               0
 78
               0
  0
ENDTAB
  0
TABLE
  2
LTYPE
 70
              26
  0
LTYPE
  2
CONTINUOUS
 70
               0
  3
Solid line
 72
              65
 73
               0
 40
0.0
  0
LTYPE
  2
HIDDENX2
 70
               0
  3
CADPAC FUSION LINETYPE
 72
              65
 73
               2
 40
47.560000000000002
 49
35.670000000000002
 49
-11.890000000000001
  0
LTYPE
  2
HIDDEN
 70
               0
  3
CADPAC FUSION LINETYPE
 72
              65
 73
               2
 40
35.670000000000002
 49
23.780000000000001
 49
-11.890000000000001
  0
LTYPE
  2
HIDDEN2
 70
               0
  3
CADPAC FUSION LINETYPE
 72
              65
 73
               2
 40
29.725000000000001
 49
17.835000000000001
 49
-11.890000000000001
  0
LTYPE
  2
DASHED
 70
               0
  3
CADPAC FUSION LINETYPE
 72
              65
 73
               2
 40
35.670000000000002
 49
23.780000000000001
 49
-11.890000000000001
  0
LTYPE
  2
DASHED2
 70
               0
  3
CADPAC FUSION LINETYPE
 72
              65
 73
               2
 40
26.752500000000001
 49
17.835000000000001
 49
-8.9175000000000004
  0
LTYPE
  2
DASHEDX2
 70
               0
  3
CADPAC FUSION LINETYPE
 72
              65
 73
               2
 40
53.505000000000003
 49
35.670000000000002
 49
-17.835000000000001
  0
LTYPE
  2
DOTX2
 70
               0
  3
CADPAC FUSION LINETYPE
 72
              65
 73
               2
 40
14.862500000000001
 49
0.0
 49
-14.862500000000001
  0
LTYPE
  2
DOT
 70
               0
  3
CADPAC FUSION LINETYPE
 72
              65
 73
               2
 40
11.890000000000001
 49
0.0
 49
-11.890000000000001
  0
LTYPE
  2
DOTS
 70
               0
  3
CADPAC FUSION LINETYPE
 72
              65
 73
               2
 40
11.890000000000001
 49
0.0
 49
-11.890000000000001
  0
LTYPE
  2
DOT2
 70
               0
  3
CADPAC FUSION LINETYPE
 72
              65
 73
               2
 40
8.9175000000000004
 49
0.0
 49
-8.9175000000000004
  0
LTYPE
  2
CENTERX2
 70
               0
  3
CADPAC FUSION LINETYPE
 72
              65
 73
               4
 40
71.340000000000003
 49
29.725000000000001
 49
-14.862500000000001
 49
11.890000000000001
 49
-14.862500000000001
  0
LTYPE
  2
CENTER
 70
               0
  3
CADPAC FUSION LINETYPE
 72
              65
 73
               4
 40
54.694000000000003
 49
23.780000000000001
 49
-11.890000000000001
 49
7.1340000000000003
 49
-11.890000000000001
  0
LTYPE
  2
CENTER2
 70
               0
  3
CADPAC FUSION LINETYPE
 72
              65
 73
               4
 40
38.048000000000002
 49
17.835000000000001
 49
-8.9175000000000004
 49
2.3780000000000001
 49
-8.9175000000000004
  0
LTYPE
  2
DASHDOTX2
 70
               0
  3
CADPAC FUSION LINETYPE
 72
              65
 73
               4
 40
59.450000000000003
 49
29.725000000000001
 49
-14.862500000000001
 49
0.0
 49
-14.862500000000001
  0
LTYPE
  2
DASHDOT
 70
               0
  3
CADPAC FUSION LINETYPE
 72
              65
 73
               4
 40
47.560000000000002
 49
23.780000000000001
 49
-11.890000000000001
 49
0.0
 49
-11.890000000000001
  0
LTYPE
  2
DASHDOT2
 70
               0
  3
CADPAC FUSION LINETYPE
 72
              65
 73
               4
 40
35.670000000000002
 49
17.835000000000001
 49
-8.9175000000000004
 49
0.0
 49
-8.9175000000000004
  0
LTYPE
  2
DIVIDEX2
 70
               0
  3
CADPAC FUSION LINETYPE
 72
              65
 73
               6
 40
74.3125
 49
29.725000000000001
 49
-14.862500000000001
 49
0.0
 49
-14.862500000000001
 49
0.0
 49
-14.862500000000001
  0
LTYPE
  2
DIVIDE
 70
               0
  3
CADPAC FUSION LINETYPE
 72
              65
 73
               6
 40
59.450000000000003
 49
23.780000000000001
 49
-11.890000000000001
 49
0.0
 49
-11.890000000000001
 49
0.0
 49
-11.890000000000001
  0
LTYPE
  2
DIVIDE2
 70
               0
  3
CADPAC FUSION LINETYPE
 72
              65
 73
               6
 40
44.587500000000006
 49
17.835000000000001
 49
-8.9175000000000004
 49
0.0
 49
-8.9175000000000004
 49
0.0
 49
-8.9175000000000004
  0
LTYPE
  2
BORDERX2
 70
               0
  3
CADPAC FUSION LINETYPE
 72
              65
 73
               6
 40
104.03750000000001
 49
29.725000000000001
 49
-14.862500000000001
 49
29.725000000000001
 49
-14.862500000000001
 49
0.0
 49
-14.862500000000001
  0
LTYPE
  2
BORDER
 70
               0
  3
CADPAC FUSION LINETYPE
 72
              65
 73
               6
 40
83.230000000000004
 49
23.780000000000001
 49
-11.890000000000001
 49
23.780000000000001
 49
-11.890000000000001
 49
0.0
 49
-11.890000000000001
  0
LTYPE
  2
BORDER2
 70
               0
  3
CADPAC FUSION LINETYPE
 72
              65
 73
               6
 40
62.422499999999999
 49
17.835000000000001
 49
-8.9175000000000004
 49
17.835000000000001
 49
-8.9175000000000004
 49
0.0
 49
-8.9175000000000004
  0
LTYPE
  2
PHANTOMX2
 70
               0
  3
CADPAC FUSION LINETYPE
 72
              65
 73
               6
 40
89.175000000000011
 49
29.725000000000001
 49
-11.890000000000001
 49
11.890000000000001
 49
-11.890000000000001
 49
11.890000000000001
 49
-11.890000000000001
  0
LTYPE
  2
PHANTOM
 70
               0
  3
CADPAC FUSION LINETYPE
 72
              65
 73
               6
 40
73.718000000000004
 49
23.780000000000001
 49
-11.890000000000001
 49
7.1340000000000003
 49
-11.890000000000001
 49
7.1340000000000003
 49
-11.890000000000001
  0
LTYPE
  2
PHANTOM2
 70
               0
  3
CADPAC FUSION LINETYPE
 72
              65
 73
               6
 40
63.017000000000003
 49
17.835000000000001
 49
-11.890000000000001
 49
4.7560000000000002
 49
-11.890000000000001
 49
4.7560000000000002
 49
-11.890000000000001
  0
ENDTAB
  0
TABLE
  2
LAYER
 70
             256
  0
LAYER
  2
0
 70
               0
 62
               7
  6
CONTINUOUS
  0
LAYER
  2
LAYER001
 70
               0
 62
               7
  6
CONTINUOUS
  0
LAYER
  2
LAYER002
 70
               0
 62
               7
  6
CONTINUOUS
  0
LAYER
  2
LAYER003
 70
               0
 62
               7
  6
CONTINUOUS
  0
LAYER
  2
LAYER004
 70
               0
 62
               7
  6
CONTINUOUS
  0
LAYER
  2
LAYER005
 70
               0
 62
               7
  6
CONTINUOUS
  0
LAYER
  2
LAYER006
 70
               0
 62
               7
  6
CONTINUOUS
  0
LAYER
  2
LAYER007
 70
               0
 62
               7
  6
CONTINUOUS
  0
LAYER
  2
LAYER008
 70
               0
 62
               7
  6
CONTINUOUS
  0
LAYER
  2
LAYER009
 70
               0
 62
               7
  6
CONTINUOUS
  0
LAYER
  2
LAYER010
 70
               0
 62
               7
  6
CONTINUOUS
  0
LAYER
  2
LAYER011
 70
               0
 62
               7
  6
CONTINUOUS
  0
LAYER
  2
LAYER012
 70
               0
 62
               7
  6
CONTINUOUS
  0
LAYER
  2
LAYER013
 70
               0
 62
               7
  6
CONTINUOUS
  0
LAYER
  2
LAYER014
 70
               0
 62
               7
  6
CONTINUOUS
  0
LAYER
  2
LAYER015
 70
               0
 62
               7
  6
CONTINUOUS
  0
LAYER
  2
LAYER016
 70
               0
 62
               7
  6
CONTINUOUS
  0
LAYER
  2
LAYER017
 70
               0
 62
               7
  6
CONTINUOUS
  0
LAYER
  2
LAYER018
 70
               0
 62
               7
  6
CONTINUOUS
  0
LAYER
  2
LAYER019
 70
               0
 62
               7
  6
CONTINUOUS
  0
LAYER
  2
LAYER020
 70
               0
 62
               7
  6
CONTINUOUS
  0
LAYER
  2
LAYER021
 70
               0
 62
               7
  6
CONTINUOUS
  0
LAYER
  2
LAYER022
 70
               0
 62
               7
  6
CONTINUOUS
  0
LAYER
  2
LAYER023
 70
               0
 62
               7
  6
CONTINUOUS
  0
LAYER
  2
LAYER024
 70
               0
 62
               7
  6
CONTINUOUS
  0
LAYER
  2
LAYER025
 70
               0
 62
               7
  6
CONTINUOUS
  0
LAYER
  2
LAYER026
 70
               0
 62
               7
  6
CONTINUOUS
  0
LAYER
  2
LAYER027
 70
               0
 62
               7
  6
CONTINUOUS
  0
LAYER
  2
LAYER028
 70
               0
 62
               7
  6
CONTINUOUS
  0
LAYER
  2
LAYER029
 70
               0
 62
               7
  6
CONTINUOUS
  0
LAYER
  2
LAYER030
 70
               0
 62
               7
  6
CONTINUOUS
  0
LAYER
  2
LAYER031
 70
               0
 62
               7
  6
CONTINUOUS
  0
LAYER
  2
LAYER032
 70
               0
 62
               7
  6
CONTINUOUS
  0
LAYER
  2
LAYER033
 70
               0
 62
               7
  6
CONTINUOUS
  0
LAYER
  2
LAYER034
 70
               0
 62
               7
  6
CONTINUOUS
  0
LAYER
  2
LAYER035
 70
               0
 62
               7
  6
CONTINUOUS
  0
LAYER
  2
LAYER036
 70
               0
 62
               7
  6
CONTINUOUS
  0
LAYER
  2
LAYER037
 70
               0
 62
               7
  6
CONTINUOUS
  0
LAYER
  2
LAYER038
 70
               0
 62
               7
  6
CONTINUOUS
  0
LAYER
  2
LAYER039
 70
               0
 62
               7
  6
CONTINUOUS
  0
LAYER
  2
LAYER040
 70
               0
 62
               7
  6
CONTINUOUS
  0
LAYER
  2
LAYER041
 70
               0
 62
               7
  6
CONTINUOUS
  0
LAYER
  2
LAYER042
 70
               0
 62
               7
  6
CONTINUOUS
  0
LAYER
  2
LAYER043
 70
               0
 62
               7
  6
CONTINUOUS
  0
LAYER
  2
LAYER044
 70
               0
 62
               7
  6
CONTINUOUS
  0
LAYER
  2
LAYER045
 70
               0
 62
               7
  6
CONTINUOUS
  0
LAYER
  2
LAYER046
 70
               0
 62
               7
  6
CONTINUOUS
  0
LAYER
  2
LAYER047
 70
               0
 62
               7
  6
CONTINUOUS
  0
LAYER
  2
LAYER048
 70
               0
 62
               7
  6
CONTINUOUS
  0
LAYER
  2
LAYER049
 70
               0
 62
               7
  6
CONTINUOUS
  0
LAYER
  2
LAYER050
 70
               0
 62
               7
  6
CONTINUOUS
  0
LAYER
  2
LAYER051
 70
               0
 62
               7
  6
CONTINUOUS
  0
LAYER
  2
LAYER052
 70
               0
 62
               7
  6
CONTINUOUS
  0
LAYER
  2
LAYER053
 70
               0
 62
               7
  6
CONTINUOUS
  0
LAYER
  2
LAYER054
 70
               0
 62
               7
  6
CONTINUOUS
  0
LAYER
  2
LAYER055
 70
               0
 62
               7
  6
CONTINUOUS
  0
LAYER
  2
LAYER056
 70
               0
 62
               7
  6
CONTINUOUS
  0
LAYER
  2
LAYER057
 70
               0
 62
               7
  6
CONTINUOUS
  0
LAYER
  2
LAYER058
 70
               0
 62
               7
  6
CONTINUOUS
  0
LAYER
  2
LAYER059
 70
               0
 62
               7
  6
CONTINUOUS
  0
LAYER
  2
LAYER060
 70
               0
 62
               7
  6
CONTINUOUS
  0
LAYER
  2
LAYER061
 70
               0
 62
               7
  6
CONTINUOUS
  0
LAYER
  2
LAYER062
 70
               0
 62
               7
  6
CONTINUOUS
  0
LAYER
  2
LAYER063
 70
               0
 62
               7
  6
CONTINUOUS
  0
LAYER
  2
LAYER064
 70
               0
 62
               7
  6
CONTINUOUS
  0
LAYER
  2
LAYER065
 70
               0
 62
               7
  6
CONTINUOUS
  0
LAYER
  2
LAYER066
 70
               0
 62
               7
  6
CONTINUOUS
  0
LAYER
  2
LAYER067
 70
               0
 62
               7
  6
CONTINUOUS
  0
LAYER
  2
LAYER068
 70
               0
 62
               7
  6
CONTINUOUS
  0
LAYER
  2
LAYER069
 70
               0
 62
               7
  6
CONTINUOUS
  0
LAYER
  2
LAYER070
 70
               0
 62
               7
  6
CONTINUOUS
  0
LAYER
  2
LAYER071
 70
               0
 62
               7
  6
CONTINUOUS
  0
LAYER
  2
LAYER072
 70
               0
 62
               7
  6
CONTINUOUS
  0
LAYER
  2
LAYER073
 70
               0
 62
               7
  6
CONTINUOUS
  0
LAYER
  2
LAYER074
 70
               0
 62
               7
  6
CONTINUOUS
  0
LAYER
  2
LAYER075
 70
               0
 62
               7
  6
CONTINUOUS
  0
LAYER
  2
LAYER076
 70
               0
 62
               7
  6
CONTINUOUS
  0
LAYER
  2
LAYER077
 70
               0
 62
               7
  6
CONTINUOUS
  0
LAYER
  2
LAYER078
 70
               0
 62
               7
  6
CONTINUOUS
  0
LAYER
  2
LAYER079
 70
               0
 62
               7
  6
CONTINUOUS
  0
LAYER
  2
LAYER080
 70
               0
 62
               7
  6
CONTINUOUS
  0
LAYER
  2
LAYER081
 70
               0
 62
               7
  6
CONTINUOUS
  0
LAYER
  2
LAYER082
 70
               0
 62
               7
  6
CONTINUOUS
  0
LAYER
  2
LAYER083
 70
               0
 62
               7
  6
CONTINUOUS
  0
LAYER
  2
LAYER084
 70
               0
 62
               7
  6
CONTINUOUS
  0
LAYER
  2
LAYER085
 70
               0
 62
               7
  6
CONTINUOUS
  0
LAYER
  2
LAYER086
 70
               0
 62
               7
  6
CONTINUOUS
  0
LAYER
  2
LAYER087
 70
               0
 62
               7
  6
CONTINUOUS
  0
LAYER
  2
LAYER088
 70
               0
 62
               7
  6
CONTINUOUS
  0
LAYER
  2
LAYER089
 70
               0
 62
               7
  6
CONTINUOUS
  0
LAYER
  2
LAYER090
 70
               0
 62
               7
  6
CONTINUOUS
  0
LAYER
  2
LAYER091
 70
               0
 62
               7
  6
CONTINUOUS
  0
LAYER
  2
LAYER092
 70
               0
 62
               7
  6
CONTINUOUS
  0
LAYER
  2
LAYER093
 70
               0
 62
               7
  6
CONTINUOUS
  0
LAYER
  2
LAYER094
 70
               0
 62
               7
  6
CONTINUOUS
  0
LAYER
  2
LAYER095
 70
               0
 62
               7
  6
CONTINUOUS
  0
LAYER
  2
LAYER096
 70
               0
 62
               7
  6
CONTINUOUS
  0
LAYER
  2
LAYER097
 70
               0
 62
               7
  6
CONTINUOUS
  0
LAYER
  2
LAYER098
 70
               0
 62
               7
  6
CONTINUOUS
  0
LAYER
  2
LAYER099
 70
               0
 62
               7
  6
CONTINUOUS
  0
LAYER
  2
LAYER100
 70
               0
 62
               7
  6
CONTINUOUS
  0
LAYER
  2
LAYER101
 70
               0
 62
               7
  6
CONTINUOUS
  0
LAYER
  2
LAYER102
 70
               0
 62
               7
  6
CONTINUOUS
  0
LAYER
  2
LAYER103
 70
               0
 62
               7
  6
CONTINUOUS
  0
LAYER
  2
LAYER104
 70
               0
 62
               7
  6
CONTINUOUS
  0
LAYER
  2
LAYER105
 70
               0
 62
               7
  6
CONTINUOUS
  0
LAYER
  2
LAYER106
 70
               0
 62
               7
  6
CONTINUOUS
  0
LAYER
  2
LAYER107
 70
               0
 62
               7
  6
CONTINUOUS
  0
LAYER
  2
LAYER108
 70
               0
 62
               7
  6
CONTINUOUS
  0
LAYER
  2
LAYER109
 70
               0
 62
               7
  6
CONTINUOUS
  0
LAYER
  2
LAYER110
 70
               0
 62
               7
  6
CONTINUOUS
  0
LAYER
  2
LAYER111
 70
               0
 62
               7
  6
CONTINUOUS
  0
LAYER
  2
LAYER112
 70
               0
 62
               7
  6
CONTINUOUS
  0
LAYER
  2
LAYER113
 70
               0
 62
               7
  6
CONTINUOUS
  0
LAYER
  2
LAYER114
 70
               0
 62
               7
  6
CONTINUOUS
  0
LAYER
  2
LAYER115
 70
               0
 62
               7
  6
CONTINUOUS
  0
LAYER
  2
LAYER116
 70
               0
 62
               7
  6
CONTINUOUS
  0
LAYER
  2
LAYER117
 70
               0
 62
               7
  6
CONTINUOUS
  0
LAYER
  2
LAYER118
 70
               0
 62
               7
  6
CONTINUOUS
  0
LAYER
  2
LAYER119
 70
               0
 62
               7
  6
CONTINUOUS
  0
LAYER
  2
LAYER120
 70
               0
 62
               7
  6
CONTINUOUS
  0
LAYER
  2
LAYER121
 70
               0
 62
               7
  6
CONTINUOUS
  0
LAYER
  2
LAYER122
 70
               0
 62
               7
  6
CONTINUOUS
  0
LAYER
  2
LAYER123
 70
               0
 62
               7
  6
CONTINUOUS
  0
LAYER
  2
LAYER124
 70
               0
 62
               7
  6
CONTINUOUS
  0
LAYER
  2
LAYER125
 70
               0
 62
               7
  6
CONTINUOUS
  0
LAYER
  2
LAYER126
 70
               0
 62
               7
  6
CONTINUOUS
  0
LAYER
  2
LAYER127
 70
               0
 62
               7
  6
CONTINUOUS
  0
LAYER
  2
LAYER128
 70
               0
 62
               7
  6
CONTINUOUS
  0
LAYER
  2
LAYER129
 70
               0
 62
               7
  6
CONTINUOUS
  0
LAYER
  2
LAYER130
 70
               0
 62
               7
  6
CONTINUOUS
  0
LAYER
  2
LAYER131
 70
               0
 62
               7
  6
CONTINUOUS
  0
LAYER
  2
LAYER132
 70
               0
 62
               7
  6
CONTINUOUS
  0
LAYER
  2
LAYER133
 70
               0
 62
               7
  6
CONTINUOUS
  0
LAYER
  2
LAYER134
 70
               0
 62
               7
  6
CONTINUOUS
  0
LAYER
  2
LAYER135
 70
               0
 62
               7
  6
CONTINUOUS
  0
LAYER
  2
LAYER136
 70
               0
 62
               7
  6
CONTINUOUS
  0
LAYER
  2
LAYER137
 70
               0
 62
               7
  6
CONTINUOUS
  0
LAYER
  2
LAYER138
 70
               0
 62
               7
  6
CONTINUOUS
  0
LAYER
  2
LAYER139
 70
               0
 62
               7
  6
CONTINUOUS
  0
LAYER
  2
LAYER140
 70
               0
 62
               7
  6
CONTINUOUS
  0
LAYER
  2
LAYER141
 70
               0
 62
               7
  6
CONTINUOUS
  0
LAYER
  2
LAYER142
 70
               0
 62
               7
  6
CONTINUOUS
  0
LAYER
  2
LAYER143
 70
               0
 62
               7
  6
CONTINUOUS
  0
LAYER
  2
LAYER144
 70
               0
 62
               7
  6
CONTINUOUS
  0
LAYER
  2
LAYER145
 70
               0
 62
               7
  6
CONTINUOUS
  0
LAYER
  2
LAYER146
 70
               0
 62
               7
  6
CONTINUOUS
  0
LAYER
  2
LAYER147
 70
               0
 62
               7
  6
CONTINUOUS
  0
LAYER
  2
LAYER148
 70
               0
 62
               7
  6
CONTINUOUS
  0
LAYER
  2
LAYER149
 70
               0
 62
               7
  6
CONTINUOUS
  0
LAYER
  2
LAYER150
 70
               0
 62
               7
  6
CONTINUOUS
  0
LAYER
  2
LAYER151
 70
               0
 62
               7
  6
CONTINUOUS
  0
LAYER
  2
LAYER152
 70
               0
 62
               7
  6
CONTINUOUS
  0
LAYER
  2
LAYER153
 70
               0
 62
               7
  6
CONTINUOUS
  0
LAYER
  2
LAYER154
 70
               0
 62
               7
  6
CONTINUOUS
  0
LAYER
  2
LAYER155
 70
               0
 62
               7
  6
CONTINUOUS
  0
LAYER
  2
LAYER156
 70
               0
 62
               7
  6
CONTINUOUS
  0
LAYER
  2
LAYER157
 70
               0
 62
               7
  6
CONTINUOUS
  0
LAYER
  2
LAYER158
 70
               0
 62
               7
  6
CONTINUOUS
  0
LAYER
  2
LAYER159
 70
               0
 62
               7
  6
CONTINUOUS
  0
LAYER
  2
LAYER160
 70
               0
 62
               7
  6
CONTINUOUS
  0
LAYER
  2
LAYER161
 70
               0
 62
               7
  6
CONTINUOUS
  0
LAYER
  2
LAYER162
 70
               0
 62
               7
  6
CONTINUOUS
  0
LAYER
  2
LAYER163
 70
               0
 62
               7
  6
CONTINUOUS
  0
LAYER
  2
LAYER164
 70
               0
 62
               7
  6
CONTINUOUS
  0
LAYER
  2
LAYER165
 70
               0
 62
               7
  6
CONTINUOUS
  0
LAYER
  2
LAYER166
 70
               0
 62
               7
  6
CONTINUOUS
  0
LAYER
  2
LAYER167
 70
               0
 62
               7
  6
CONTINUOUS
  0
LAYER
  2
LAYER168
 70
               0
 62
               7
  6
CONTINUOUS
  0
LAYER
  2
LAYER169
 70
               0
 62
               7
  6
CONTINUOUS
  0
LAYER
  2
LAYER170
 70
               0
 62
               7
  6
CONTINUOUS
  0
LAYER
  2
LAYER171
 70
               0
 62
               7
  6
CONTINUOUS
  0
LAYER
  2
LAYER172
 70
               0
 62
               7
  6
CONTINUOUS
  0
LAYER
  2
LAYER173
 70
               0
 62
               7
  6
CONTINUOUS
  0
LAYER
  2
LAYER174
 70
               0
 62
               7
  6
CONTINUOUS
  0
LAYER
  2
LAYER175
 70
               0
 62
               7
  6
CONTINUOUS
  0
LAYER
  2
LAYER176
 70
               0
 62
               7
  6
CONTINUOUS
  0
LAYER
  2
LAYER177
 70
               0
 62
               7
  6
CONTINUOUS
  0
LAYER
  2
LAYER178
 70
               0
 62
               7
  6
CONTINUOUS
  0
LAYER
  2
LAYER179
 70
               0
 62
               7
  6
CONTINUOUS
  0
LAYER
  2
LAYER180
 70
               0
 62
               7
  6
CONTINUOUS
  0
LAYER
  2
LAYER181
 70
               0
 62
               7
  6
CONTINUOUS
  0
LAYER
  2
LAYER182
 70
               0
 62
               7
  6
CONTINUOUS
  0
LAYER
  2
LAYER183
 70
               0
 62
               7
  6
CONTINUOUS
  0
LAYER
  2
LAYER184
 70
               0
 62
               7
  6
CONTINUOUS
  0
LAYER
  2
LAYER185
 70
               0
 62
               7
  6
CONTINUOUS
  0
LAYER
  2
LAYER186
 70
               0
 62
               7
  6
CONTINUOUS
  0
LAYER
  2
LAYER187
 70
               0
 62
               7
  6
CONTINUOUS
  0
LAYER
  2
LAYER188
 70
               0
 62
               7
  6
CONTINUOUS
  0
LAYER
  2
LAYER189
 70
               0
 62
               7
  6
CONTINUOUS
  0
LAYER
  2
LAYER190
 70
               0
 62
               7
  6
CONTINUOUS
  0
LAYER
  2
LAYER191
 70
               0
 62
               7
  6
CONTINUOUS
  0
LAYER
  2
LAYER192
 70
               0
 62
               7
  6
CONTINUOUS
  0
LAYER
  2
LAYER193
 70
               0
 62
               7
  6
CONTINUOUS
  0
LAYER
  2
LAYER194
 70
               0
 62
               7
  6
CONTINUOUS
  0
LAYER
  2
LAYER195
 70
               0
 62
               7
  6
CONTINUOUS
  0
LAYER
  2
LAYER196
 70
               0
 62
               7
  6
CONTINUOUS
  0
LAYER
  2
LAYER197
 70
               0
 62
               7
  6
CONTINUOUS
  0
LAYER
  2
LAYER198
 70
               0
 62
               7
  6
CONTINUOUS
  0
LAYER
  2
LAYER199
 70
               0
 62
               7
  6
CONTINUOUS
  0
LAYER
  2
LAYER200
 70
               0
 62
               7
  6
CONTINUOUS
  0
LAYER
  2
LAYER201
 70
               0
 62
               7
  6
CONTINUOUS
  0
LAYER
  2
LAYER202
 70
               0
 62
               7
  6
CONTINUOUS
  0
LAYER
  2
LAYER203
 70
               0
 62
               7
  6
CONTINUOUS
  0
LAYER
  2
LAYER204
 70
               0
 62
               7
  6
CONTINUOUS
  0
LAYER
  2
LAYER205
 70
               0
 62
               7
  6
CONTINUOUS
  0
LAYER
  2
LAYER206
 70
               0
 62
               7
  6
CONTINUOUS
  0
LAYER
  2
LAYER207
 70
               0
 62
               7
  6
CONTINUOUS
  0
LAYER
  2
LAYER208
 70
               0
 62
               7
  6
CONTINUOUS
  0
LAYER
  2
LAYER209
 70
               0
 62
               7
  6
CONTINUOUS
  0
LAYER
  2
LAYER210
 70
               0
 62
               7
  6
CONTINUOUS
  0
LAYER
  2
LAYER211
 70
               0
 62
               7
  6
CONTINUOUS
  0
LAYER
  2
LAYER212
 70
               0
 62
               7
  6
CONTINUOUS
  0
LAYER
  2
LAYER213
 70
               0
 62
               7
  6
CONTINUOUS
  0
LAYER
  2
LAYER214
 70
               0
 62
               7
  6
CONTINUOUS
  0
LAYER
  2
LAYER215
 70
               0
 62
               7
  6
CONTINUOUS
  0
LAYER
  2
LAYER216
 70
               0
 62
               7
  6
CONTINUOUS
  0
LAYER
  2
LAYER217
 70
               0
 62
               7
  6
CONTINUOUS
  0
LAYER
  2
LAYER218
 70
               0
 62
               7
  6
CONTINUOUS
  0
LAYER
  2
LAYER219
 70
               0
 62
               7
  6
CONTINUOUS
  0
LAYER
  2
LAYER220
 70
               0
 62
               7
  6
CONTINUOUS
  0
LAYER
  2
LAYER221
 70
               0
 62
               7
  6
CONTINUOUS
  0
LAYER
  2
LAYER222
 70
               0
 62
               7
  6
CONTINUOUS
  0
LAYER
  2
LAYER223
 70
               0
 62
               7
  6
CONTINUOUS
  0
LAYER
  2
LAYER224
 70
               0
 62
               7
  6
CONTINUOUS
  0
LAYER
  2
LAYER225
 70
               0
 62
               7
  6
CONTINUOUS
  0
LAYER
  2
LAYER226
 70
               0
 62
               7
  6
CONTINUOUS
  0
LAYER
  2
LAYER227
 70
               0
 62
               7
  6
CONTINUOUS
  0
LAYER
  2
LAYER228
 70
               0
 62
               7
  6
CONTINUOUS
  0
LAYER
  2
LAYER229
 70
               0
 62
               7
  6
CONTINUOUS
  0
LAYER
  2
LAYER230
 70
               0
 62
               7
  6
CONTINUOUS
  0
LAYER
  2
LAYER231
 70
               0
 62
               7
  6
CONTINUOUS
  0
LAYER
  2
LAYER232
 70
               0
 62
               7
  6
CONTINUOUS
  0
LAYER
  2
LAYER233
 70
               0
 62
               7
  6
CONTINUOUS
  0
LAYER
  2
LAYER234
 70
               0
 62
               7
  6
CONTINUOUS
  0
LAYER
  2
LAYER235
 70
               0
 62
               7
  6
CONTINUOUS
  0
LAYER
  2
LAYER236
 70
               0
 62
               7
  6
CONTINUOUS
  0
LAYER
  2
LAYER237
 70
               0
 62
               7
  6
CONTINUOUS
  0
LAYER
  2
LAYER238
 70
               0
 62
               7
  6
CONTINUOUS
  0
LAYER
  2
LAYER239
 70
               0
 62
               7
  6
CONTINUOUS
  0
LAYER
  2
LAYER240
 70
               0
 62
               7
  6
CONTINUOUS
  0
LAYER
  2
LAYER241
 70
               0
 62
               7
  6
CONTINUOUS
  0
LAYER
  2
LAYER242
 70
               0
 62
               7
  6
CONTINUOUS
  0
LAYER
  2
LAYER243
 70
               0
 62
               7
  6
CONTINUOUS
  0
LAYER
  2
LAYER244
 70
               0
 62
               7
  6
CONTINUOUS
  0
LAYER
  2
LAYER245
 70
               0
 62
               7
  6
CONTINUOUS
  0
LAYER
  2
LAYER246
 70
               0
 62
               7
  6
CONTINUOUS
  0
LAYER
  2
LAYER247
 70
               0
 62
               7
  6
CONTINUOUS
  0
LAYER
  2
LAYER248
 70
               0
 62
               7
  6
CONTINUOUS
  0
LAYER
  2
LAYER249
 70
               0
 62
               7
  6
CONTINUOUS
  0
LAYER
  2
LAYER250
 70
               0
 62
               7
  6
CONTINUOUS
  0
LAYER
  2
LAYER251
 70
               0
 62
               7
  6
CONTINUOUS
  0
LAYER
  2
LAYER252
 70
               0
 62
               7
  6
CONTINUOUS
  0
LAYER
  2
LAYER253
 70
               0
 62
               7
  6
CONTINUOUS
  0
LAYER
  2
LAYER254
 70
               0
 62
               7
  6
CONTINUOUS
  0
LAYER
  2
LAYER255
 70
               0
 62
               7
  6
CONTINUOUS
  0
ENDTAB
  0
TABLE
  2
STYLE
 70
               1
  0
STYLE
  2
STANDARD
 70
               0
 40
0.0
 41
0.8
 50
0.0
 71
               0
 42
40.0
  3
MS PGothic.ttf
  4

  0
ENDTAB
  0
TABLE
  2
VIEW
 70
               0
  0
VIEW
  2
QQQQ
 70
               0
 40
2712.7862415700265
 10
3.8713099121347909
 20
-482.26652968687569
 41
1577.7526214022228
 11
0.0
 21
0.0
 31
1.0
 12
100.0
 22
100.0
 32
0.0
 42
50.0
 43
0.0
 44
0.0
 50
0.0
 71
               0
  0
ENDTAB
  0
TABLE
  2
UCS
 70
               0
  0
ENDTAB
  0
TABLE
  2
APPID
 70
               1
  0
APPID
  2
ACAD
 70
               0
  0
ENDTAB
  0
TABLE
  2
DIMSTYLE
 70
               1
  0
DIMSTYLE
  2
STANDARD
 70
               0
  3

  4

  5

  6

  7

 40
1.0
 41
0.18
 42
0.0625
 43
0.38
 44
0.18
 45
0.0
 46
0.0
 47
0.0
 48
0.0
140
0.18
141
0.09
142
0.0
143
25.399999999999999
144
1.0
145
0.0
146
1.0
147
0.09
 71
               0
 72
               0
 73
               1
 74
               1
 75
               0
 76
               0
 77
               0
 78
               0
170
               0
171
               2
172
               0
173
               0
174
               0
175
               0
176
               0
177
               0
178
               0
  0
ENDTAB
  0
ENDSEC
  0
SECTION
  2
BLOCKS
  0
BLOCK
  8
0
  5
142
  2
GROUP_1
 70
               0
 10
0.0
 20
0.0
 30
0.0
  3
GROUP_1
  0
LINE
  8
0
  6
CONTINUOUS
 62
               4
  5
143
 10
527.24606517511893
 20
-302.30610679215647
 30
0.0
 11
528.61367502813937
 21
-303.18030577653678
 31
0.0
  0
LINE
  8
0
  6
CONTINUOUS
 62
               4
  5
144
 10
528.61367502813937
 20
-303.18030577653678
 30
0.0
 11
529.98128488116208
 21
-304.05939524568072
 31
0.0
  0
LINE
  8
0
  6
CONTINUOUS
 62
               4
  5
145
 10
529.98128488116208
 20
-304.05939524568072
 30
0.0
 11
531.34889473418639
 21
-304.94826568426777
 31
0.0
  0
LINE
  8
0
  6
CONTINUOUS
 62
               4
  5
146
 10
531.34889473418639
 20
-304.94826568426777
 30
0.0
 11
532.7165045872116
 21
-305.85180757697736
 31
0.0
  0
LINE
  8
0
  6
CONTINUOUS
 62
               4
  5
147
 10
532.7165045872116
 20
-305.85180757697736
 30
0.0
 11
534.08411444023682
 21
-306.77491140848895
 31
0.0
  0
LINE
  8
0
  6
CONTINUOUS
 62
               4
  5
148
 10
534.08411444023682
 20
-306.77491140848895
 30
0.0
 11
535.45172429326112
 21
-307.7210331787856
 31
0.0
  0
LINE
  8
0
  6
CONTINUOUS
 62
               4
  5
149
 10
535.45172429326112
 20
-307.7210331787856
 30
0.0
 11
536.81933414628497
 21
-308.68789094906543
 31
0.0
  0
LINE
  8
0
  6
CONTINUOUS
 62
               4
  5
14A
 10
536.81933414628497
 20
-308.68789094906543
 30
0.0
 11
538.18694399930837
 21
-309.67176829583013
 31
0.0
  0
LINE
  8
0
  6
CONTINUOUS
 62
               4
  5
14B
 10
538.18694399930837
 20
-309.67176829583013
 30
0.0
 11
539.55455385233154
 21
-310.66894879558151
 31
0.0
  0
LINE
  8
0
  6
CONTINUOUS
 62
               4
  5
14C
 10
539.55455385233154
 20
-310.66894879558151
 30
0.0
 11
540.92216370535471
 21
-311.67571602482144
 31
0.0
  0
LINE
  8
0
  6
CONTINUOUS
 62
               4
  5
14D
 10
540.92216370535471
 20
-311.67571602482144
 30
0.0
 11
542.28977355837787
 21
-312.68897949885343
 31
0.0
  0
LINE
  8
0
  6
CONTINUOUS
 62
               4
  5
14E
 10
542.28977355837787
 20
-312.68897949885343
 30
0.0
 11
543.6573834114015
 21
-313.70815248818923
 31
0.0
  0
LINE
  8
0
  6
CONTINUOUS
 62
               4
  5
14F
 10
543.6573834114015
 20
-313.70815248818923
 30
0.0
 11
545.02499326442512
 21
-314.73327420214218
 31
0.0
  0
LINE
  8
0
  6
CONTINUOUS
 62
               4
  5
150
 10
545.02499326442512
 20
-314.73327420214218
 30
0.0
 11
546.39260311744874
 21
-315.76438385002592
 31
0.0
  0
LINE
  8
0
  6
CONTINUOUS
 62
               4
  5
151
 10
546.39260311744874
 20
-315.76438385002592
 30
0.0
 11
547.76021297047259
 21
-316.80152064115384
 31
0.0
  0
LINE
  8
0
  6
CONTINUOUS
 62
               4
  5
152
 10
547.76021297047259
 20
-316.80152064115384
 30
0.0
 11
549.12782282349622
 21
-317.84466251432804
 31
0.0
  0
LINE
  8
0
  6
CONTINUOUS
 62
               4
  5
153
 10
549.12782282349622
 20
-317.84466251432804
 30
0.0
 11
550.49543267651961
 21
-318.8935423263041
 31
0.0
  0
LINE
  8
0
  6
CONTINUOUS
 62
               4
  5
154
 10
550.49543267651961
 20
-318.8935423263041
 30
0.0
 11
551.86304252954324
 21
-319.94783166332638
 31
0.0
  0
LINE
  8
0
  6
CONTINUOUS
 62
               4
  5
155
 10
551.86304252954324
 20
-319.94783166332638
 30
0.0
 11
553.23065238256686
 21
-321.00720211163906
 31
0.0
  0
LINE
  8
0
  6
CONTINUOUS
 62
               4
  5
156
 10
553.23065238256686
 20
-321.00720211163906
 30
0.0
 11
554.59826223559025
 21
-322.07132525748636
 31
0.0
  0
LINE
  8
0
  6
CONTINUOUS
 62
               4
  5
157
 10
554.59826223559025
 20
-322.07132525748636
 30
0.0
 11
555.96587208861388
 21
-323.13985183035663
 31
0.0
  0
LINE
  8
0
  6
CONTINUOUS
 62
               4
  5
158
 10
555.96587208861388
 20
-323.13985183035663
 30
0.0
 11
557.3334819416375
 21
-324.21234913271547
 31
0.0
  0
LINE
  8
0
  6
CONTINUOUS
 62
               4
  5
159
 10
557.3334819416375
 20
-324.21234913271547
 30
0.0
 11
558.7010917946609
 21
-325.28836361027231
 31
0.0
  0
LINE
  8
0
  6
CONTINUOUS
 62
               4
  5
15A
 10
558.7010917946609
 20
-325.28836361027231
 30
0.0
 11
560.06870164768452
 21
-326.36744170873686
 31
0.0
  0
LINE
  8
0
  6
CONTINUOUS
 62
               4
  5
15B
 10
560.06870164768452
 20
-326.36744170873686
 30
0.0
 11
561.43631150070814
 21
-327.44912987381878
 31
0.0
  0
LINE
  8
0
  6
CONTINUOUS
 62
               4
  5
15C
 10
561.43631150070814
 20
-327.44912987381878
 30
0.0
 11
562.80392135373154
 21
-328.5331192487622
 31
0.0
  0
LINE
  8
0
  6
CONTINUOUS
 62
               4
  5
15D
 10
562.80392135373154
 20
-328.5331192487622
 30
0.0
 11
564.17153120675516
 21
-329.61967976694984
 31
0.0
  0
LINE
  8
0
  6
CONTINUOUS
 62
               4
  5
15E
 10
564.17153120675516
 20
-329.61967976694984
 30
0.0
 11
565.53914105977879
 21
-330.70922605929906
 31
0.0
  0
LINE
  8
0
  6
CONTINUOUS
 62
               4
  5
15F
 10
565.53914105977879
 20
-330.70922605929906
 30
0.0
 11
566.90675091280241
 21
-331.80217275672703
 31
0.0
  0
LINE
  8
0
  6
CONTINUOUS
 62
               4
  5
160
 10
566.90675091280241
 20
-331.80217275672703
 30
0.0
 11
568.27436076582603
 21
-332.89893449015125
 31
0.0
  0
LINE
  8
0
  6
CONTINUOUS
 62
               4
  5
161
 10
568.27436076582603
 20
-332.89893449015125
 30
0.0
 11
569.64197061884943
 21
-333.99972795710613
 31
0.0
  0
LINE
  8
0
  6
CONTINUOUS
 62
               4
  5
162
 10
569.64197061884943
 20
-333.99972795710613
 30
0.0
 11
571.00958047187328
 21
-335.10397812159562
 31
0.0
  0
LINE
  8
0
  6
CONTINUOUS
 62
               4
  5
163
 10
571.00958047187328
 20
-335.10397812159562
 30
0.0
 11
572.37719032489667
 21
-336.21091201424093
 31
0.0
  0
LINE
  8
0
  6
CONTINUOUS
 62
               4
  5
164
 10
572.37719032489667
 20
-336.21091201424093
 30
0.0
 11
573.7448001779203
 21
-337.31975666566325
 31
0.0
  0
LINE
  8
0
  6
CONTINUOUS
 62
               4
  5
165
 10
573.7448001779203
 20
-337.31975666566325
 30
0.0
 11
575.11241003094392
 21
-338.42973910648368
 31
0.0
  0
LINE
  8
0
  6
CONTINUOUS
 62
               4
  5
166
 10
575.11241003094392
 20
-338.42973910648368
 30
0.0
 11
576.48001988396732
 21
-339.54037340331962
 31
0.0
  0
LINE
  8
0
  6
CONTINUOUS
 62
               4
  5
167
 10
576.48001988396732
 20
-339.54037340331962
 30
0.0
 11
577.84762973699094
 21
-340.65232176677284
 31
0.0
  0
LINE
  8
0
  6
CONTINUOUS
 62
               4
  5
168
 10
577.84762973699094
 20
-340.65232176677284
 30
0.0
 11
579.21523959001456
 21
-341.7665334434414
 31
0.0
  0
LINE
  8
0
  6
CONTINUOUS
 62
               4
  5
169
 10
579.21523959001456
 20
-341.7665334434414
 30
0.0
 11
580.58284944303819
 21
-342.88395767992318
 31
0.0
  0
LINE
  8
0
  6
CONTINUOUS
 62
               4
  5
16A
 10
580.58284944303819
 20
-342.88395767992318
 30
0.0
 11
581.95045929606158
 21
-344.00554372281618
 31
0.0
  0
LINE
  8
0
  6
CONTINUOUS
 62
               4
  5
16B
 10
581.95045929606158
 20
-344.00554372281618
 30
0.0
 11
583.31806914908543
 21
-345.13193860811646
 31
0.0
  0
LINE
  8
0
  6
CONTINUOUS
 62
               4
  5
16C
 10
583.31806914908543
 20
-345.13193860811646
 30
0.0
 11
584.68567900210883
 21
-346.2625805294129
 31
0.0
  0
LINE
  8
0
  6
CONTINUOUS
 62
               4
  5
16D
 10
584.68567900210883
 20
-346.2625805294129
 30
0.0
 11
586.05328885513245
 21
-347.39660546969242
 31
0.0
  0
LINE
  8
0
  6
CONTINUOUS
 62
               4
  5
16E
 10
586.05328885513245
 20
-347.39660546969242
 30
0.0
 11
587.42089870815607
 21
-348.53314941194202
 31
0.0
  0
LINE
  8
0
  6
CONTINUOUS
 62
               4
  5
16F
 10
587.42089870815607
 20
-348.53314941194202
 30
0.0
 11
588.78850856117947
 21
-349.67134833914861
 31
0.0
  0
LINE
  8
0
  6
CONTINUOUS
 62
               4
  5
170
 10
588.78850856117947
 20
-349.67134833914861
 30
0.0
 11
590.15611841419877
 21
-350.81036967227016
 31
0.0
  0
LINE
  8
0
  6
CONTINUOUS
 62
               4
  5
171
 10
590.15611841419877
 20
-350.81036967227016
 30
0.0
 11
591.5237282672133
 21
-351.95035842634957
 31
0.0
  0
LINE
  8
0
  6
CONTINUOUS
 62
               4
  5
172
 10
591.5237282672133
 20
-351.95035842634957
 30
0.0
 11
592.89133812023033
 21
-353.09191697550148
 31
0.0
  0
LINE
  8
0
  6
CONTINUOUS
 62
               4
  5
173
 10
592.89133812023033
 20
-353.09191697550148
 30
0.0
 11
594.25894797325623
 21
-354.23564769384046
 31
0.0
  0
LINE
  8
0
  6
CONTINUOUS
 62
               4
  5
174
 10
594.25894797325623
 20
-354.23564769384046
 30
0.0
 11
595.62655782629736
 21
-355.3821529554811
 31
0.0
  0
LINE
  8
0
  6
CONTINUOUS
 62
               4
  5
175
 10
595.62655782629736
 20
-355.3821529554811
 30
0.0
 11
596.99416767933985
 21
-356.53145101416271
 31
0.0
  0
LINE
  8
0
  6
CONTINUOUS
 62
               4
  5
176
 10
596.99416767933985
 20
-356.53145101416271
 30
0.0
 11
598.36177753236802
 21
-357.68292732658375
 31
0.0
  0
LINE
  8
0
  6
CONTINUOUS
 62
               4
  5
177
 10
598.36177753236802
 20
-357.68292732658375
 30
0.0
 11
599.72938738538664
 21
-358.83623507129715
 31
0.0
  0
LINE
  8
0
  6
CONTINUOUS
 62
               4
  5
178
 10
599.72938738538664
 20
-358.83623507129715
 30
0.0
 11
601.09699723840095
 21
-359.99102742685602
 31
0.0
  0
LINE
  8
0
  6
CONTINUOUS
 62
               4
  5
179
 10
601.09699723840095
 20
-359.99102742685602
 30
0.0
 11
602.46460709141525
 21
-361.14695757181357
 31
0.0
  0
LINE
  8
0
  6
CONTINUOUS
 62
               4
  5
17A
 10
602.46460709141525
 20
-361.14695757181357
 30
0.0
 11
603.83221694443364
 21
-362.30388049113242
 31
0.0
  0
LINE
  8
0
  6
CONTINUOUS
 62
               4
  5
17B
 10
603.83221694443364
 20
-362.30388049113242
 30
0.0
 11
605.19982679745613
 21
-363.46245839541393
 31
0.0
  0
LINE
  8
0
  6
CONTINUOUS
 62
               4
  5
17C
 10
605.19982679745613
 20
-363.46245839541393
 30
0.0
 11
606.56743665048089
 21
-364.62355530166934
 31
0.0
  0
LINE
  8
0
  6
CONTINUOUS
 62
               4
  5
17D
 10
606.56743665048089
 20
-364.62355530166934
 30
0.0
 11
607.93504650350701
 21
-365.7880352269097
 31
0.0
  0
LINE
  8
0
  6
CONTINUOUS
 62
               4
  5
17E
 10
607.93504650350701
 20
-365.7880352269097
 30
0.0
 11
609.30265635653313
 21
-366.956762188146
 31
0.0
  0
LINE
  8
0
  6
CONTINUOUS
 62
               4
  5
17F
 10
609.30265635653313
 20
-366.956762188146
 30
0.0
 11
610.67026620955789
 21
-368.1302979917881
 31
0.0
  0
LINE
  8
0
  6
CONTINUOUS
 62
               4
  5
180
 10
610.67026620955789
 20
-368.1302979917881
 30
0.0
 11
612.03787606258197
 21
-369.30799560183982
 31
0.0
  0
LINE
  8
0
  6
CONTINUOUS
 62
               4
  5
181
 10
612.03787606258197
 20
-369.30799560183982
 30
0.0
 11
613.40548591560514
 21
-370.48890577170368
 31
0.0
  0
LINE
  8
0
  6
CONTINUOUS
 62
               4
  5
182
 10
613.40548591560514
 20
-370.48890577170368
 30
0.0
 11
614.77309576862808
 21
-371.67207925478243
 31
0.0
  0
LINE
  8
0
  6
CONTINUOUS
 62
               4
  5
183
 10
614.77309576862808
 20
-371.67207925478243
 30
0.0
 11
616.1407056216508
 21
-372.85656680447852
 31
0.0
  0
LINE
  8
0
  6
CONTINUOUS
 62
               4
  5
184
 10
616.1407056216508
 20
-372.85656680447852
 30
0.0
 11
617.50831547467396
 21
-374.04170621019045
 31
0.0
  0
LINE
  8
0
  6
CONTINUOUS
 62
               4
  5
185
 10
617.50831547467396
 20
-374.04170621019045
 30
0.0
 11
618.87592532769781
 21
-375.22798340530107
 31
0.0
  0
LINE
  8
0
  6
CONTINUOUS
 62
               4
  5
186
 10
618.87592532769781
 20
-375.22798340530107
 30
0.0
 11
620.24353518072121
 21
-376.41617135918887
 31
0.0
  0
LINE
  8
0
  6
CONTINUOUS
 62
               4
  5
187
 10
620.24353518072121
 20
-376.41617135918887
 30
0.0
 11
621.61114503374506
 21
-377.6070430412326
 31
0.0
  0
LINE
  8
0
  6
CONTINUOUS
 62
               4
  5
188
 10
621.61114503374506
 20
-377.6070430412326
 30
0.0
 11
622.97875488676868
 21
-378.80137142081094
 31
0.0
  0
LINE
  8
0
  6
CONTINUOUS
 62
               4
  5
189
 10
622.97875488676868
 20
-378.80137142081094
 30
0.0
 11
624.34636473979253
 21
-379.99973153391988
 31
0.0
  0
LINE
  8
0
  6
CONTINUOUS
 62
               4
  5
18A
 10
624.34636473979253
 20
-379.99973153391988
 30
0.0
 11
625.71397459281593
 21
-381.20190668302479
 31
0.0
  0
LINE
  8
0
  6
CONTINUOUS
 62
               4
  5
18B
 10
625.71397459281593
 20
-381.20190668302479
 30
0.0
 11
627.08158444583955
 21
-382.40748223720857
 31
0.0
  0
LINE
  8
0
  6
CONTINUOUS
 62
               4
  5
18C
 10
627.08158444583955
 20
-382.40748223720857
 30
0.0
 11
628.44919429886295
 21
-383.61604356555381
 31
0.0
  0
LINE
  8
0
  6
CONTINUOUS
 62
               4
  5
18D
 10
628.44919429886295
 20
-383.61604356555381
 30
0.0
 11
629.81680415188657
 21
-384.82717603714343
 31
0.0
  0
LINE
  8
0
  6
CONTINUOUS
 62
               4
  5
18E
 10
629.81680415188657
 20
-384.82717603714343
 30
0.0
 11
631.1844140049102
 21
-386.04060971859474
 31
0.0
  0
LINE
  8
0
  6
CONTINUOUS
 62
               4
  5
18F
 10
631.1844140049102
 20
-386.04060971859474
 30
0.0
 11
632.55202385793359
 21
-387.25665346666335
 31
0.0
  0
LINE
  8
0
  6
CONTINUOUS
 62
               4
  5
190
 10
632.55202385793359
 20
-387.25665346666335
 30
0.0
 11
633.91963371095721
 21
-388.47576083563962
 31
0.0
  0
LINE
  8
0
  6
CONTINUOUS
 62
               4
  5
191
 10
633.91963371095721
 20
-388.47576083563962
 30
0.0
 11
635.28724356398084
 21
-389.69838537981366
 31
0.0
  0
LINE
  8
0
  6
CONTINUOUS
 62
               4
  5
192
 10
635.28724356398084
 20
-389.69838537981366
 30
0.0
 11
636.65485341700446
 21
-390.92498065347587
 31
0.0
  0
LINE
  8
0
  6
CONTINUOUS
 62
               4
  5
193
 10
636.65485341700446
 20
-390.92498065347587
 30
0.0
 11
638.02246327002786
 21
-392.15597935416082
 31
0.0
  0
LINE
  8
0
  6
CONTINUOUS
 62
               4
  5
194
 10
638.02246327002786
 20
-392.15597935416082
 30
0.0
 11
639.39007312305148
 21
-393.39173075238023
 31
0.0
  0
LINE
  8
0
  6
CONTINUOUS
 62
               4
  5
195
 10
639.39007312305148
 20
-393.39173075238023
 30
0.0
 11
640.7576829760751
 21
-394.6325632618906
 31
0.0
  0
LINE
  8
0
  6
CONTINUOUS
 62
               4
  5
196
 10
640.7576829760751
 20
-394.6325632618906
 30
0.0
 11
642.12529282909873
 21
-395.87880529644781
 31
0.0
  0
LINE
  8
0
  6
CONTINUOUS
 62
               4
  5
197
 10
642.12529282909873
 20
-395.87880529644781
 30
0.0
 11
643.49290268212212
 21
-397.13078526980831
 31
0.0
  0
LINE
  8
0
  6
CONTINUOUS
 62
               4
  5
198
 10
643.49290268212212
 20
-397.13078526980831
 30
0.0
 11
644.86051253514574
 21
-398.38877032521623
 31
0.0
  0
LINE
  8
0
  6
CONTINUOUS
 62
               4
  5
199
 10
644.86051253514574
 20
-398.38877032521623
 30
0.0
 11
646.2281223881696
 21
-399.65278252386855
 31
0.0
  0
LINE
  8
0
  6
CONTINUOUS
 62
               4
  5
19A
 10
646.2281223881696
 20
-399.65278252386855
 30
0.0
 11
647.59573224119299
 21
-400.92278265645007
 31
0.0
  0
LINE
  8
0
  6
CONTINUOUS
 62
               4
  5
19B
 10
647.59573224119299
 20
-400.92278265645007
 30
0.0
 11
648.96334209421661
 21
-402.19873151364584
 31
0.0
  0
LINE
  8
0
  6
CONTINUOUS
 62
               4
  5
19C
 10
648.96334209421661
 20
-402.19873151364584
 30
0.0
 11
650.33095194724001
 21
-403.48058988614082
 31
0.0
  0
LINE
  8
0
  6
CONTINUOUS
 62
               4
  5
19D
 10
650.33095194724001
 20
-403.48058988614082
 30
0.0
 11
651.69856180026341
 21
-404.76894450342303
 31
0.0
  0
LINE
  8
0
  6
CONTINUOUS
 62
               4
  5
19E
 10
651.69856180026341
 20
-404.76894450342303
 30
0.0
 11
653.06617165328703
 21
-406.06688585019333
 31
0.0
  0
LINE
  8
0
  6
CONTINUOUS
 62
               4
  5
19F
 10
653.06617165328703
 20
-406.06688585019333
 30
0.0
 11
654.43378150631042
 21
-407.37813034995588
 31
0.0
  0
LINE
  8
0
  6
CONTINUOUS
 62
               4
  5
1A0
 10
654.43378150631042
 20
-407.37813034995588
 30
0.0
 11
655.80139135933405
 21
-408.7063944262145
 31
0.0
  0
LINE
  8
0
  6
CONTINUOUS
 62
               4
  5
1A1
 10
655.80139135933405
 20
-408.7063944262145
 30
0.0
 11
657.1690012123579
 21
-410.05539450247329
 31
0.0
  0
LINE
  8
0
  6
CONTINUOUS
 62
               4
  5
1A2
 10
657.1690012123579
 20
-410.05539450247329
 30
0.0
 11
658.53661106538198
 21
-411.42741251753546
 31
0.0
  0
LINE
  8
0
  6
CONTINUOUS
 62
               4
  5
1A3
 10
658.53661106538198
 20
-411.42741251753546
 30
0.0
 11
659.90422091840628
 21
-412.81899247140092
 31
0.0
  0
LINE
  8
0
  6
CONTINUOUS
 62
               4
  5
1A4
 10
659.90422091840628
 20
-412.81899247140092
 30
0.0
 11
661.27183077143059
 21
-414.22524387936892
 31
0.0
  0
LINE
  8
0
  6
CONTINUOUS
 62
               4
  5
1A5
 10
661.27183077143059
 20
-414.22524387936892
 30
0.0
 11
662.63944062445512
 21
-415.64127625673865
 31
0.0
  0
LINE
  8
0
  6
CONTINUOUS
 62
               4
  5
1A6
 10
662.63944062445512
 20
-415.64127625673865
 30
0.0
 11
664.00705047747988
 21
-417.06219911880908
 31
0.0
  0
ENDBLK
  8
0
  5
1A7
  0
BLOCK
  8
0
  5
1A8
  2
GROUP_2
 70
               0
 10
0.0
 20
0.0
 30
0.0
  3
GROUP_2
  0
LINE
  8
0
  6
CONTINUOUS
 62
               4
  5
1A9
 10
527.24606517511893
 20
-302.30610679215647
 30
0.0
 11
528.61367502813937
 21
-306.60570100490804
 31
0.0
  0
LINE
  8
0
  6
CONTINUOUS
 62
               4
  5
1AA
 10
528.61367502813937
 20
-306.60570100490804
 30
0.0
 11
529.98128488116208
 21
-310.84763689521833
 31
0.0
  0
LINE
  8
0
  6
CONTINUOUS
 62
               4
  5
1AB
 10
529.98128488116208
 20
-310.84763689521833
 30
0.0
 11
531.34889473418639
 21
-314.974256140786
 31
0.0
  0
LINE
  8
0
  6
CONTINUOUS
 62
               4
  5
1AC
 10
531.34889473418639
 20
-314.974256140786
 30
0.0
 11
532.7165045872116
 21
-318.92790041930988
 31
0.0
  0
LINE
  8
0
  6
CONTINUOUS
 62
               4
  5
1AD
 10
532.7165045872116
 20
-318.92790041930988
 30
0.0
 11
534.08411444023682
 21
-322.65091140848892
 31
0.0
  0
LINE
  8
0
  6
CONTINUOUS
 62
               4
  5
1AE
 10
534.08411444023682
 20
-322.65091140848892
 30
0.0
 11
535.45172429326112
 21
-326.10289710835116
 31
0.0
  0
LINE
  8
0
  6
CONTINUOUS
 62
               4
  5
1AF
 10
535.45172429326112
 20
-326.10289710835116
 30
0.0
 11
536.81933414628497
 21
-329.31253080824132
 31
0.0
  0
LINE
  8
0
  6
CONTINUOUS
 62
               4
  5
1B0
 10
536.81933414628497
 20
-329.31253080824132
 30
0.0
 11
538.18694399930837
 21
-332.32575211983368
 31
0.0
  0
LINE
  8
0
  6
CONTINUOUS
 62
               4
  5
1B1
 10
538.18694399930837
 20
-332.32575211983368
 30
0.0
 11
539.55455385233154
 21
-335.18850065480234
 31
0.0
  0
LINE
  8
0
  6
CONTINUOUS
 62
               4
  5
1B2
 10
539.55455385233154
 20
-335.18850065480234
 30
0.0
 11
540.92216370535471
 21
-337.9467160248214
 31
0.0
  0
LINE
  8
0
  6
CONTINUOUS
 62
               4
  5
1B3
 10
540.92216370535471
 20
-337.9467160248214
 30
0.0
 11
542.28977355837787
 21
-340.63811255222015
 31
0.0
  0
LINE
  8
0
  6
CONTINUOUS
 62
               4
  5
1B4
 10
542.28977355837787
 20
-340.63811255222015
 30
0.0
 11
543.6573834114015
 21
-343.26750340194803
 31
0.0
  0
LINE
  8
0
  6
CONTINUOUS
 62
               4
  5
1B5
 10
543.6573834114015
 20
-343.26750340194803
 30
0.0
 11
545.02499326442512
 21
-345.83147644960985
 31
0.0
  0
LINE
  8
0
  6
CONTINUOUS
 62
               4
  5
1B6
 10
545.02499326442512
 20
-345.83147644960985
 30
0.0
 11
546.39260311744874
 21
-348.32661957081024
 31
0.0
  0
LINE
  8
0
  6
CONTINUOUS
 62
               4
  5
1B7
 10
546.39260311744874
 20
-348.32661957081024
 30
0.0
 11
547.76021297047259
 21
-350.74952064115388
 31
0.0
  0
LINE
  8
0
  6
CONTINUOUS
 62
               4
  5
1B8
 10
547.76021297047259
 20
-350.74952064115388
 30
0.0
 11
549.12782282349622
 21
-353.09843437129581
 31
0.0
  0
LINE
  8
0
  6
CONTINUOUS
 62
               4
  5
1B9
 10
549.12782282349622
 20
-353.09843437129581
 30
0.0
 11
550.49543267651961
 21
-355.37828281209283
 31
0.0
  0
LINE
  8
0
  6
CONTINUOUS
 62
               4
  5
1BA
 10
550.49543267651961
 20
-355.37828281209283
 30
0.0
 11
551.86304252954324
 21
-357.59565484945216
 31
0.0
  0
LINE
  8
0
  6
CONTINUOUS
 62
               4
  5
1BB
 10
551.86304252954324
 20
-357.59565484945216
 30
0.0
 11
553.23065238256686
 21
-359.75713936928094
 31
0.0
  0
LINE
  8
0
  6
CONTINUOUS
 62
               4
  5
1BC
 10
553.23065238256686
 20
-359.75713936928094
 30
0.0
 11
554.59826223559025
 21
-361.86932525748637
 31
0.0
  0
LINE
  8
0
  6
CONTINUOUS
 62
               4
  5
1BD
 10
554.59826223559025
 20
-361.86932525748637
 30
0.0
 11
555.96587208861388
 21
-363.93783934911886
 31
0.0
  0
LINE
  8
0
  6
CONTINUOUS
 62
               4
  5
1BE
 10
555.96587208861388
 20
-363.93783934911886
 30
0.0
 11
557.3334819416375
 21
-365.9644602758018
 31
0.0
  0
LINE
  8
0
  6
CONTINUOUS
 62
               4
  5
1BF
 10
557.3334819416375
 20
-365.9644602758018
 30
0.0
 11
558.7010917946609
 21
-367.9500046183017
 31
0.0
  0
LINE
  8
0
  6
CONTINUOUS
 62
               4
  5
1C0
 10
558.7010917946609
 20
-367.9500046183017
 30
0.0
 11
560.06870164768452
 21
-369.89528895738522
 31
0.0
  0
LINE
  8
0
  6
CONTINUOUS
 62
               4
  5
1C1
 10
560.06870164768452
 20
-369.89528895738522
 30
0.0
 11
561.43631150070814
 21
-371.80112987381881
 31
0.0
  0
LINE
  8
0
  6
CONTINUOUS
 62
               4
  5
1C2
 10
561.43631150070814
 20
-371.80112987381881
 30
0.0
 11
562.80392135373154
 21
-373.66843731674572
 31
0.0
  0
LINE
  8
0
  6
CONTINUOUS
 62
               4
  5
1C3
 10
562.80392135373154
 20
-373.66843731674572
 30
0.0
 11
564.17153120675516
 21
-375.49849470881588
 31
0.0
  0
LINE
  8
0
  6
CONTINUOUS
 62
               4
  5
1C4
 10
564.17153120675516
 20
-375.49849470881588
 30
0.0
 11
565.53914105977879
 21
-377.29267884105582
 31
0.0
  0
LINE
  8
0
  6
CONTINUOUS
 62
               4
  5
1C5
 10
565.53914105977879
 20
-377.29267884105582
 30
0.0
 11
566.90675091280241
 21
-379.05236650449217
 31
0.0
  0
LINE
  8
0
  6
CONTINUOUS
 62
               4
  5
1C6
 10
566.90675091280241
 20
-379.05236650449217
 30
0.0
 11
568.27436076582603
 21
-380.77893449015124
 31
0.0
  0
LINE
  8
0
  6
CONTINUOUS
 62
               4
  5
1C7
 10
568.27436076582603
 20
-380.77893449015124
 30
0.0
 11
569.64197061884943
 21
-382.47355616640994
 31
0.0
  0
LINE
  8
0
  6
CONTINUOUS
 62
               4
  5
1C8
 10
569.64197061884943
 20
-382.47355616640994
 30
0.0
 11
571.00958047187328
 21
-384.13659121104519
 31
0.0
  0
LINE
  8
0
  6
CONTINUOUS
 62
               4
  5
1C9
 10
571.00958047187328
 20
-384.13659121104519
 30
0.0
 11
572.37719032489667
 21
-385.76819587918436
 31
0.0
  0
LINE
  8
0
  6
CONTINUOUS
 62
               4
  5
1CA
 10
572.37719032489667
 20
-385.76819587918436
 30
0.0
 11
573.7448001779203
 21
-387.36852642595477
 31
0.0
  0
LINE
  8
0
  6
CONTINUOUS
 62
               4
  5
1CB
 10
573.7448001779203
 20
-387.36852642595477
 30
0.0
 11
575.11241003094392
 21
-388.93773910648372
 31
0.0
  0
LINE
  8
0
  6
CONTINUOUS
 62
               4
  5
1CC
 10
575.11241003094392
 20
-388.93773910648372
 30
0.0
 11
576.48001988396732
 21
-390.47613449812121
 31
0.0
  0
LINE
  8
0
  6
CONTINUOUS
 62
               4
  5
1CD
 10
576.48001988396732
 20
-390.47613449812121
 30
0.0
 11
577.84762973699094
 21
-391.98459046710883
 31
0.0
  0
LINE
  8
0
  6
CONTINUOUS
 62
               4
  5
1CE
 10
577.84762973699094
 20
-391.98459046710883
 30
0.0
 11
579.21523959001456
 21
-393.46412920191085
 31
0.0
  0
LINE
  8
0
  6
CONTINUOUS
 62
               4
  5
1CF
 10
579.21523959001456
 20
-393.46412920191085
 30
0.0
 11
580.58284944303819
 21
-394.91577289099195
 31
0.0
  0
LINE
  8
0
  6
CONTINUOUS
 62
               4
  5
1D0
 10
580.58284944303819
 20
-394.91577289099195
 30
0.0
 11
581.95045929606158
 21
-396.34054372281616
 31
0.0
  0
LINE
  8
0
  6
CONTINUOUS
 62
               4
  5
1D1
 10
581.95045929606158
 20
-396.34054372281616
 30
0.0
 11
583.31806914908543
 21
-397.73923401960656
 31
0.0
  0
LINE
  8
0
  6
CONTINUOUS
 62
               4
  5
1D2
 10
583.31806914908543
 20
-397.73923401960656
 30
0.0
 11
584.68567900210883
 21
-399.11171663861978
 31
0.0
  0
LINE
  8
0
  6
CONTINUOUS
 62
               4
  5
1D3
 10
584.68567900210883
 20
-399.11171663861978
 30
0.0
 11
586.05328885513245
 21
-400.45763457087105
 31
0.0
  0
LINE
  8
0
  6
CONTINUOUS
 62
               4
  5
1D4
 10
586.05328885513245
 20
-400.45763457087105
 30
0.0
 11
587.42089870815585
 21
-401.77663080737562
 31
0.0
  0
LINE
  8
0
  6
CONTINUOUS
 62
               4
  5
1D5
 10
587.42089870815585
 20
-401.77663080737562
 30
0.0
 11
588.78850856117947
 21
-403.06834833914866
 31
0.0
  0
LINE
  8
0
  6
CONTINUOUS
 62
               4
  5
1D6
 10
588.78850856117947
 20
-403.06834833914866
 30
0.0
 11
590.15611841419854
 21
-404.33349098891478
 31
0.0
  0
LINE
  8
0
  6
CONTINUOUS
 62
               4
  5
1D7
 10
590.15611841419854
 20
-404.33349098891478
 30
0.0
 11
591.5237282672133
 21
-405.57269746140548
 31
0.0
  0
LINE
  8
0
  6
CONTINUOUS
 62
               4
  5
1D8
 10
591.5237282672133
 20
-405.57269746140548
 30
0.0
 11
592.8913381202301
 21
-406.7855130706464
 31
0.0
  0
LINE
  8
0
  6
CONTINUOUS
 62
               4
  5
1D9
 10
592.8913381202301
 20
-406.7855130706464
 30
0.0
 11
594.258947973256
 21
-407.97148313066316
 31
0.0
  0
LINE
  8
0
  6
CONTINUOUS
 62
               4
  5
1DA
 10
594.258947973256
 20
-407.97148313066316
 30
0.0
 11
595.62655782629736
 21
-409.13015295548109
 31
0.0
  0
LINE
  8
0
  6
CONTINUOUS
 62
               4
  5
1DB
 10
595.62655782629736
 20
-409.13015295548109
 30
0.0
 11
596.99416767933985
 21
-410.26315822130402
 31
0.0
  0
LINE
  8
0
  6
CONTINUOUS
 62
               4
  5
1DC
 10
596.99416767933985
 20
-410.26315822130402
 30
0.0
 11
598.36177753236802
 21
-411.37187916333056
 31
0.0
  0
LINE
  8
0
  6
CONTINUOUS
 62
               4
  5
1DD
 10
598.36177753236802
 20
-411.37187916333056
 30
0.0
 11
599.72938738538642
 21
-412.455477934079
 31
0.0
  0
LINE
  8
0
  6
CONTINUOUS
 62
               4
  5
1DE
 10
599.72938738538642
 20
-412.455477934079
 30
0.0
 11
601.09699723840072
 21
-413.51311668606724
 31
0.0
  0
LINE
  8
0
  6
CONTINUOUS
 62
               4
  5
1DF
 10
601.09699723840072
 20
-413.51311668606724
 30
0.0
 11
602.46460709141525
 21
-414.54395757181356
 31
0.0
  0
LINE
  8
0
  6
CONTINUOUS
 62
               4
  5
1E0
 10
602.46460709141525
 20
-414.54395757181356
 30
0.0
 11
603.83221694443364
 21
-415.54736188658086
 31
0.0
  0
LINE
  8
0
  6
CONTINUOUS
 62
               4
  5
1E1
 10
603.83221694443364
 20
-415.54736188658086
 30
0.0
 11
605.19982679745613
 21
-416.52348749661104
 31
0.0
  0
LINE
  8
0
  6
CONTINUOUS
 62
               4
  5
1E2
 10
605.19982679745613
 20
-416.52348749661104
 30
0.0
 11
606.56743665048089
 21
-417.47269141089095
 31
0.0
  0
LINE
  8
0
  6
CONTINUOUS
 62
               4
  5
1E3
 10
606.56743665048089
 20
-417.47269141089095
 30
0.0
 11
607.93504650350701
 21
-418.39533063840702
 31
0.0
  0
LINE
  8
0
  6
CONTINUOUS
 62
               4
  5
1E4
 10
607.93504650350701
 20
-418.39533063840702
 30
0.0
 11
609.30265635653291
 21
-419.29176218814598
 31
0.0
  0
LINE
  8
0
  6
CONTINUOUS
 62
               4
  5
1E5
 10
609.30265635653291
 20
-419.29176218814598
 30
0.0
 11
610.67026620955789
 21
-420.16211320285277
 31
0.0
  0
LINE
  8
0
  6
CONTINUOUS
 62
               4
  5
1E6
 10
610.67026620955789
 20
-420.16211320285277
 30
0.0
 11
612.03787606258197
 21
-421.00559136030427
 31
0.0
  0
LINE
  8
0
  6
CONTINUOUS
 62
               4
  5
1E7
 10
612.03787606258197
 20
-421.00559136030427
 30
0.0
 11
613.40548591560514
 21
-421.82117447203575
 31
0.0
  0
LINE
  8
0
  6
CONTINUOUS
 62
               4
  5
1E8
 10
613.40548591560514
 20
-421.82117447203575
 30
0.0
 11
614.77309576862808
 21
-422.60784034958203
 31
0.0
  0
LINE
  8
0
  6
CONTINUOUS
 62
               4
  5
1E9
 10
614.77309576862808
 20
-422.60784034958203
 30
0.0
 11
616.1407056216508
 21
-423.3645668044785
 31
0.0
  0
LINE
  8
0
  6
CONTINUOUS
 62
               4
  5
1EA
 10
616.1407056216508
 20
-423.3645668044785
 30
0.0
 11
617.50831547467396
 21
-424.09047597048311
 31
0.0
  0
LINE
  8
0
  6
CONTINUOUS
 62
               4
  5
1EB
 10
617.50831547467396
 20
-424.09047597048311
 30
0.0
 11
618.87592532769759
 21
-424.78526727024575
 31
0.0
  0
LINE
  8
0
  6
CONTINUOUS
 62
               4
  5
1EC
 10
618.87592532769759
 20
-424.78526727024575
 30
0.0
 11
620.24353518072121
 21
-425.44878444863934
 31
0.0
  0
LINE
  8
0
  6
CONTINUOUS
 62
               4
  5
1ED
 10
620.24353518072121
 20
-425.44878444863934
 30
0.0
 11
621.61114503374506
 21
-426.0808712505368
 31
0.0
  0
LINE
  8
0
  6
CONTINUOUS
 62
               4
  5
1EE
 10
621.61114503374506
 20
-426.0808712505368
 30
0.0
 11
622.97875488676868
 21
-426.68137142081088
 31
0.0
  0
LINE
  8
0
  6
CONTINUOUS
 62
               4
  5
1EF
 10
622.97875488676868
 20
-426.68137142081088
 30
0.0
 11
624.34636473979231
 21
-427.24992528168474
 31
0.0
  0
LINE
  8
0
  6
CONTINUOUS
 62
               4
  5
1F0
 10
624.34636473979231
 20
-427.24992528168474
 30
0.0
 11
625.71397459281593
 21
-427.78535946478155
 31
0.0
  0
LINE
  8
0
  6
CONTINUOUS
 62
               4
  5
1F1
 10
625.71397459281593
 20
-427.78535946478155
 30
0.0
 11
627.08158444583955
 21
-428.28629717907461
 31
0.0
  0
LINE
  8
0
  6
CONTINUOUS
 62
               4
  5
1F2
 10
627.08158444583955
 20
-428.28629717907461
 30
0.0
 11
628.44919429886295
 21
-428.7513616335375
 31
0.0
  0
LINE
  8
0
  6
CONTINUOUS
 62
               4
  5
1F3
 10
628.44919429886295
 20
-428.7513616335375
 30
0.0
 11
629.81680415188657
 21
-429.17917603714346
 31
0.0
  0
LINE
  8
0
  6
CONTINUOUS
 62
               4
  5
1F4
 10
629.81680415188657
 20
-429.17917603714346
 30
0.0
 11
631.1844140049102
 21
-429.56845696724253
 31
0.0
  0
LINE
  8
0
  6
CONTINUOUS
 62
               4
  5
1F5
 10
631.1844140049102
 20
-429.56845696724253
 30
0.0
 11
632.55202385793359
 21
-429.91829447469166
 31
0.0
  0
LINE
  8
0
  6
CONTINUOUS
 62
               4
  5
1F6
 10
632.55202385793359
 20
-429.91829447469166
 30
0.0
 11
633.91963371095721
 21
-430.22787197872458
 31
0.0
  0
LINE
  8
0
  6
CONTINUOUS
 62
               4
  5
1F7
 10
633.91963371095721
 20
-430.22787197872458
 30
0.0
 11
635.28724356398084
 21
-430.49637289857469
 31
0.0
  0
LINE
  8
0
  6
CONTINUOUS
 62
               4
  5
1F8
 10
635.28724356398084
 20
-430.49637289857469
 30
0.0
 11
636.65485341700446
 21
-430.72298065347582
 31
0.0
  0
LINE
  8
0
  6
CONTINUOUS
 62
               4
  5
1F9
 10
636.65485341700446
 20
-430.72298065347582
 30
0.0
 11
638.02246327002786
 21
-430.90591661180463
 31
0.0
  0
LINE
  8
0
  6
CONTINUOUS
 62
               4
  5
1FA
 10
638.02246327002786
 20
-430.90591661180463
 30
0.0
 11
639.39007312305148
 21
-431.03955393851021
 31
0.0
  0
LINE
  8
0
  6
CONTINUOUS
 62
               4
  5
1FB
 10
639.39007312305148
 20
-431.03955393851021
 30
0.0
 11
640.7576829760751
 21
-431.11730374768456
 31
0.0
  0
LINE
  8
0
  6
CONTINUOUS
 62
               4
  5
1FC
 10
640.7576829760751
 20
-431.11730374768456
 30
0.0
 11
642.1252928290985
 21
-431.1325771534199
 31
0.0
  0
LINE
  8
0
  6
CONTINUOUS
 62
               4
  5
1FD
 10
642.1252928290985
 20
-431.1325771534199
 30
0.0
 11
643.49290268212212
 21
-431.07878526980829
 31
0.0
  0
LINE
  8
0
  6
CONTINUOUS
 62
               4
  5
1FE
 10
643.49290268212212
 20
-431.07878526980829
 30
0.0
 11
644.86051253514574
 21
-430.95100604599293
 31
0.0
  0
LINE
  8
0
  6
CONTINUOUS
 62
               4
  5
1FF
 10
644.86051253514574
 20
-430.95100604599293
 30
0.0
 11
646.22812238816937
 21
-430.75098477132065
 31
0.0
  0
LINE
  8
0
  6
CONTINUOUS
 62
               4
  5
200
 10
646.22812238816937
 20
-430.75098477132065
 30
0.0
 11
647.59573224119299
 21
-430.48213357018921
 31
0.0
  0
LINE
  8
0
  6
CONTINUOUS
 62
               4
  5
201
 10
647.59573224119299
 20
-430.48213357018921
 30
0.0
 11
648.96334209421661
 21
-430.14786456699665
 31
0.0
  0
LINE
  8
0
  6
CONTINUOUS
 62
               4
  5
202
 10
648.96334209421661
 20
-430.14786456699665
 30
0.0
 11
650.33095194724001
 21
-429.75158988614078
 31
0.0
  0
LINE
  8
0
  6
CONTINUOUS
 62
               4
  5
203
 10
650.33095194724001
 20
-429.75158988614078
 30
0.0
 11
651.69856180026341
 21
-429.28849636267256
 31
0.0
  0
LINE
  8
0
  6
CONTINUOUS
 62
               4
  5
204
 10
651.69856180026341
 20
-429.28849636267256
 30
0.0
 11
653.06617165328703
 21
-428.72086967425525
 31
0.0
  0
LINE
  8
0
  6
CONTINUOUS
 62
               4
  5
205
 10
653.06617165328703
 20
-428.72086967425525
 30
0.0
 11
654.43378150631042
 21
-428.00277020920544
 31
0.0
  0
LINE
  8
0
  6
CONTINUOUS
 62
               4
  5
206
 10
654.43378150631042
 20
-428.00277020920544
 30
0.0
 11
655.80139135933405
 21
-427.08825835583923
 31
0.0
  0
LINE
  8
0
  6
CONTINUOUS
 62
               4
  5
207
 10
655.80139135933405
 20
-427.08825835583923
 30
0.0
 11
657.1690012123579
 21
-425.93139450247327
 31
0.0
  0
LINE
  8
0
  6
CONTINUOUS
 62
               4
  5
208
 10
657.1690012123579
 20
-425.93139450247327
 30
0.0
 11
658.53661106538198
 21
-424.50350535976054
 31
0.0
  0
LINE
  8
0
  6
CONTINUOUS
 62
               4
  5
209
 10
658.53661106538198
 20
-424.50350535976054
 30
0.0
 11
659.90422091840628
 21
-422.84498292770115
 31
0.0
  0
LINE
  8
0
  6
CONTINUOUS
 62
               4
  5
20A
 10
659.90422091840628
 20
-422.84498292770115
 30
0.0
 11
661.27183077143059
 21
-421.01348552863158
 31
0.0
  0
LINE
  8
0
  6
CONTINUOUS
 62
               4
  5
20B
 10
661.27183077143059
 20
-421.01348552863158
 30
0.0
 11
662.63944062445512
 21
-419.06667148488867
 31
0.0
  0
LINE
  8
0
  6
CONTINUOUS
 62
               4
  5
20C
 10
662.63944062445512
 20
-419.06667148488867
 30
0.0
 11
664.00705047747988
 21
-417.06219911880908
 31
0.0
  0
ENDBLK
  8
0
  5
20D
  0
BLOCK
  8
0
  5
20E
  2
GROUP_3
 70
               0
 10
0.0
 20
0.0
 30
0.0
  3
GROUP_3
  0
CIRCLE
  8
0
  6
CONTINUOUS
 62
               4
  5
20F
 10
77.781745930520344
 20
709.11710354967454
 30
0.0
 40
9.5
  0
LINE
  8
0
  6
CONTINUOUS
 62
               4
  5
210
 10
77.781745930520344
 20
720.08675866427757
 30
0.0
 11
68.281745930520458
 21
714.60193110697583
 31
0.0
  0
LINE
  8
0
  6
CONTINUOUS
 62
               4
  5
211
 10
68.281745930520458
 20
714.60193110697583
 30
0.0
 11
68.281745930520458
 21
703.6322759923728
 31
0.0
  0
LINE
  8
0
  6
CONTINUOUS
 62
               4
  5
212
 10
68.281745930520458
 20
703.6322759923728
 30
0.0
 11
77.781745930520344
 21
698.14744843507151
 31
0.0
  0
LINE
  8
0
  6
CONTINUOUS
 62
               4
  5
213
 10
77.781745930520344
 20
698.14744843507151
 30
0.0
 11
87.281745930520572
 21
703.6322759923728
 31
0.0
  0
LINE
  8
0
  6
CONTINUOUS
 62
               4
  5
214
 10
87.281745930520572
 20
703.6322759923728
 30
0.0
 11
87.281745930520572
 21
714.60193110697583
 31
0.0
  0
LINE
  8
0
  6
CONTINUOUS
 62
               4
  5
215
 10
87.281745930520572
 20
714.60193110697583
 30
0.0
 11
77.781745930520344
 21
720.08675866427757
 31
0.0
  0
CIRCLE
  8
0
  6
CONTINUOUS
 62
               4
  5
216
 10
77.781745930520344
 20
709.11710354967454
 30
0.0
 40
5.1250000000000009
  0
CIRCLE
  8
0
  6
CONTINUOUS
 62
               4
  5
217
 10
77.781745930520344
 20
709.11710354967454
 30
0.0
 40
6.0000000000000009
  0
ENDBLK
  8
0
  5
218
  0
BLOCK
  8
0
  5
219
  2
GROUP_4
 70
               0
 10
0.0
 20
0.0
 30
0.0
  3
GROUP_4
  0
CIRCLE
  8
0
  6
CONTINUOUS
 62
               4
  5
21A
 10
-77.781745930520231
 20
709.11710354967454
 30
0.0
 40
9.5
  0
LINE
  8
0
  6
CONTINUOUS
 62
               4
  5
21B
 10
-77.781745930520231
 20
720.08675866427757
 30
0.0
 11
-87.281745930520117
 21
714.60193110697583
 31
0.0
  0
LINE
  8
0
  6
CONTINUOUS
 62
               4
  5
21C
 10
-87.281745930520117
 20
714.60193110697583
 30
0.0
 11
-87.281745930520117
 21
703.6322759923728
 31
0.0
  0
LINE
  8
0
  6
CONTINUOUS
 62
               4
  5
21D
 10
-87.281745930520117
 20
703.6322759923728
 30
0.0
 11
-77.781745930520231
 21
698.14744843507151
 31
0.0
  0
LINE
  8
0
  6
CONTINUOUS
 62
               4
  5
21E
 10
-77.781745930520231
 20
698.14744843507151
 30
0.0
 11
-68.281745930520003
 21
703.6322759923728
 31
0.0
  0
LINE
  8
0
  6
CONTINUOUS
 62
               4
  5
21F
 10
-68.281745930520003
 20
703.6322759923728
 30
0.0
 11
-68.281745930520003
 21
714.60193110697583
 31
0.0
  0
LINE
  8
0
  6
CONTINUOUS
 62
               4
  5
220
 10
-68.281745930520003
 20
714.60193110697583
 30
0.0
 11
-77.781745930520231
 21
720.08675866427757
 31
0.0
  0
CIRCLE
  8
0
  6
CONTINUOUS
 62
               4
  5
221
 10
-77.781745930520231
 20
709.11710354967454
 30
0.0
 40
5.1250000000000009
  0
CIRCLE
  8
0
  6
CONTINUOUS
 62
               4
  5
222
 10
-77.781745930520231
 20
709.11710354967454
 30
0.0
 40
6.0000000000000009
  0
ENDBLK
  8
0
  5
223
  0
BLOCK
  8
0
  5
224
  2
GROUP_5
 70
               0
 10
0.0
 20
0.0
 30
0.0
  3
GROUP_5
  0
CIRCLE
  8
0
  6
CONTINUOUS
 62
               4
  5
225
 10
-77.781745930519889
 20
553.55361168863396
 30
0.0
 40
9.5
  0
LINE
  8
0
  6
CONTINUOUS
 62
               4
  5
226
 10
-77.781745930519889
 20
564.52326680323699
 30
0.0
 11
-87.281745930519776
 21
559.03843924593525
 31
0.0
  0
LINE
  8
0
  6
CONTINUOUS
 62
               4
  5
227
 10
-87.281745930519776
 20
559.03843924593525
 30
0.0
 11
-87.281745930519776
 21
548.06878413133222
 31
0.0
  0
LINE
  8
0
  6
CONTINUOUS
 62
               4
  5
228
 10
-87.281745930519776
 20
548.06878413133222
 30
0.0
 11
-77.781745930519889
 21
542.58395657403094
 31
0.0
  0
LINE
  8
0
  6
CONTINUOUS
 62
               4
  5
229
 10
-77.781745930519889
 20
542.58395657403094
 30
0.0
 11
-68.281745930519776
 21
548.06878413133222
 31
0.0
  0
LINE
  8
0
  6
CONTINUOUS
 62
               4
  5
22A
 10
-68.281745930519776
 20
548.06878413133222
 30
0.0
 11
-68.281745930519776
 21
559.03843924593525
 31
0.0
  0
LINE
  8
0
  6
CONTINUOUS
 62
               4
  5
22B
 10
-68.281745930519776
 20
559.03843924593525
 30
0.0
 11
-77.781745930519889
 21
564.52326680323699
 31
0.0
  0
CIRCLE
  8
0
  6
CONTINUOUS
 62
               4
  5
22C
 10
-77.781745930519889
 20
553.55361168863396
 30
0.0
 40
5.1250000000000009
  0
CIRCLE
  8
0
  6
CONTINUOUS
 62
               4
  5
22D
 10
-77.781745930519889
 20
553.55361168863396
 30
0.0
 40
6.0000000000000009
  0
ENDBLK
  8
0
  5
22E
  0
BLOCK
  8
0
  5
22F
  2
GROUP_6
 70
               0
 10
0.0
 20
0.0
 30
0.0
  3
GROUP_6
  0
CIRCLE
  8
0
  6
CONTINUOUS
 62
               4
  5
230
 10
77.781745930520344
 20
553.55361168863419
 30
0.0
 40
9.5
  0
LINE
  8
0
  6
CONTINUOUS
 62
               4
  5
231
 10
77.781745930520344
 20
564.52326680323722
 30
0.0
 11
68.281745930520458
 21
559.03843924593548
 31
0.0
  0
LINE
  8
0
  6
CONTINUOUS
 62
               4
  5
232
 10
68.281745930520458
 20
559.03843924593548
 30
0.0
 11
68.281745930520458
 21
548.06878413133222
 31
0.0
  0
LINE
  8
0
  6
CONTINUOUS
 62
               4
  5
233
 10
68.281745930520458
 20
548.06878413133222
 30
0.0
 11
77.781745930520344
 21
542.58395657403116
 31
0.0
  0
LINE
  8
0
  6
CONTINUOUS
 62
               4
  5
234
 10
77.781745930520344
 20
542.58395657403116
 30
0.0
 11
87.281745930520572
 21
548.06878413133222
 31
0.0
  0
LINE
  8
0
  6
CONTINUOUS
 62
               4
  5
235
 10
87.281745930520572
 20
548.06878413133222
 30
0.0
 11
87.281745930520572
 21
559.03843924593548
 31
0.0
  0
LINE
  8
0
  6
CONTINUOUS
 62
               4
  5
236
 10
87.281745930520572
 20
559.03843924593548
 30
0.0
 11
77.781745930520344
 21
564.52326680323722
 31
0.0
  0
CIRCLE
  8
0
  6
CONTINUOUS
 62
               4
  5
237
 10
77.781745930520344
 20
553.55361168863419
 30
0.0
 40
5.1250000000000009
  0
CIRCLE
  8
0
  6
CONTINUOUS
 62
               4
  5
238
 10
77.781745930520344
 20
553.55361168863419
 30
0.0
 40
6.0000000000000009
  0
ENDBLK
  8
0
  5
239
  0
BLOCK
  8
0
  5
23A
  2
GROUP_7
 70
               0
 10
0.0
 20
0.0
 30
0.0
  3
GROUP_7
  0
LINE
  8
0
  6
CONTINUOUS
 62
               4
  5
23B
 10
88.731745930519253
 20
-41.408773670776313
 30
0.0
 11
88.731745930519253
 21
-32.534606695696013
 31
0.0
  0
LINE
  8
0
  6
CONTINUOUS
 62
               4
  5
23C
 10
83.246918373217852
 20
-41.408773670776313
 30
0.0
 11
83.246918373217852
 21
-32.534606695696013
 31
0.0
  0
LINE
  8
0
  6
CONTINUOUS
 62
               4
  5
23D
 10
88.731745930519253
 20
-41.408773670776313
 30
0.0
 11
66.831745930519503
 21
-41.408773670776313
 31
0.0
  0
LINE
  8
0
  6
CONTINUOUS
 62
               4
  5
23E
 10
85.989332151868609
 20
-31.408773670776313
 30
0.0
 11
69.57415970917026
 21
-31.408773670776313
 31
0.0
  0
LINE
  8
0
  6
CONTINUOUS
 62
               4
  5
23F
 10
66.831745930519503
 20
-41.408773670776313
 30
0.0
 11
66.831745930519503
 21
-32.534606695696013
 31
0.0
  0
LINE
  8
0
  6
CONTINUOUS
 62
               4
  5
240
 10
72.316573487820904
 20
-41.408773670776313
 30
0.0
 11
72.316573487820904
 21
-32.534606695696013
 31
0.0
  0
ARC
  8
0
  6
CONTINUOUS
 62
               4
  5
241
 10
85.989332151868609
 20
-35.311809529028679
 30
0.0
 40
3.9030358582523994
 50
45.361119214039839
 51
134.63888078592291
  0
ARC
  8
0
  6
CONTINUOUS
 62
               4
  5
242
 10
69.57415970917026
 20
-35.311809529028679
 30
0.0
 40
3.9030358582525593
 50
45.361119214042333
 51
134.63888078592535
  0
ARC
  8
0
  6
CONTINUOUS
 62
               4
  5
243
 10
77.781745930519435
 20
-45.23658345218233
 30
0.0
 40
13.827809781406303
 50
66.719648257516525
 51
113.28035174244866
  0
ENDBLK
  8
0
  5
244
  0
BLOCK
  8
0
  5
245
  2
GROUP_8
 70
               0
 10
0.0
 20
0.0
 30
0.0
  3
GROUP_8
  0
LINE
  8
0
  6
CONTINUOUS
 62
               4
  5
246
 10
-66.831745930521322
 20
-41.408773670776313
 30
0.0
 11
-66.831745930521322
 21
-32.534606695696013
 31
0.0
  0
LINE
  8
0
  6
CONTINUOUS
 62
               4
  5
247
 10
-72.316573487822723
 20
-41.408773670776313
 30
0.0
 11
-72.316573487822723
 21
-32.534606695696013
 31
0.0
  0
LINE
  8
0
  6
CONTINUOUS
 62
               4
  5
248
 10
-66.831745930521322
 20
-41.408773670776313
 30
0.0
 11
-88.731745930521072
 21
-41.408773670776313
 31
0.0
  0
LINE
  8
0
  6
CONTINUOUS
 62
               4
  5
249
 10
-69.574159709171965
 20
-31.408773670776313
 30
0.0
 11
-85.989332151870315
 21
-31.408773670776313
 31
0.0
  0
LINE
  8
0
  6
CONTINUOUS
 62
               4
  5
24A
 10
-88.731745930521072
 20
-41.408773670776313
 30
0.0
 11
-88.731745930521072
 21
-32.534606695696013
 31
0.0
  0
LINE
  8
0
  6
CONTINUOUS
 62
               4
  5
24B
 10
-83.246918373219671
 20
-41.408773670776313
 30
0.0
 11
-83.246918373219671
 21
-32.534606695696013
 31
0.0
  0
ARC
  8
0
  6
CONTINUOUS
 62
               4
  5
24C
 10
-69.574159709171965
 20
-35.311809529028679
 30
0.0
 40
3.9030358582523994
 50
45.361119214039839
 51
134.63888078592291
  0
ARC
  8
0
  6
CONTINUOUS
 62
               4
  5
24D
 10
-85.989332151870315
 20
-35.311809529028679
 30
0.0
 40
3.9030358582525593
 50
45.361119214042333
 51
134.63888078592535
  0
ARC
  8
0
  6
CONTINUOUS
 62
               4
  5
24E
 10
-77.78174593052114
 20
-45.23658345218233
 30
0.0
 40
13.827809781406303
 50
66.719648257516525
 51
113.28035174244866
  0
ENDBLK
  8
0
  5
24F
  0
BLOCK
  8
0
  5
250
  2
GROUP_9
 70
               0
 10
0.0
 20
0.0
 30
0.0
  3
GROUP_9
  0
LINE
  8
0
  6
CONTINUOUS
 62
               4
  5
251
 10
511.26825406948007
 20
-41.408773670776384
 30
0.0
 11
511.26825406948007
 21
-32.534606695696084
 31
0.0
  0
LINE
  8
0
  6
CONTINUOUS
 62
               4
  5
252
 10
516.7530816267813
 20
-41.408773670776384
 30
0.0
 11
516.7530816267813
 21
-32.534606695696084
 31
0.0
  0
LINE
  8
0
  6
CONTINUOUS
 62
               4
  5
253
 10
511.26825406948007
 20
-41.408773670776384
 30
0.0
 11
533.16825406947964
 21
-41.408773670776384
 31
0.0
  0
LINE
  8
0
  6
CONTINUOUS
 62
               4
  5
254
 10
514.01066784813065
 20
-31.408773670776384
 30
0.0
 11
530.425840290829
 21
-31.408773670776384
 31
0.0
  0
LINE
  8
0
  6
CONTINUOUS
 62
               4
  5
255
 10
533.16825406947964
 20
-41.408773670776384
 30
0.0
 11
533.16825406947964
 21
-32.534606695696084
 31
0.0
  0
LINE
  8
0
  6
CONTINUOUS
 62
               4
  5
256
 10
527.68342651217836
 20
-41.408773670776384
 30
0.0
 11
527.68342651217836
 21
-32.534606695696084
 31
0.0
  0
ARC
  8
0
  6
CONTINUOUS
 62
               4
  5
257
 10
514.01066784813065
 20
-35.31180952902875
 30
0.0
 40
3.9030358582523994
 50
45.361119214041899
 51
134.63888078592532
  0
ARC
  8
0
  6
CONTINUOUS
 62
               4
  5
258
 10
530.425840290829
 20
-35.31180952902875
 30
0.0
 40
3.9030358582525593
 50
45.361119214039526
 51
134.63888078592296
  0
ARC
  8
0
  6
CONTINUOUS
 62
               4
  5
259
 10
522.21825406947983
 20
-45.236583452182401
 30
0.0
 40
13.827809781406303
 50
66.719648257516468
 51
113.28035174244877
  0
ENDBLK
  8
0
  5
25A
  0
BLOCK
  8
0
  5
25B
  2
GROUP_10
 70
               0
 10
0.0
 20
0.0
 30
0.0
  3
GROUP_10
  0
LINE
  8
0
  6
CONTINUOUS
 62
               4
  5
25C
 10
666.83174593052058
 20
-41.408773670776313
 30
0.0
 11
666.83174593052058
 21
-32.534606695696013
 31
0.0
  0
LINE
  8
0
  6
CONTINUOUS
 62
               4
  5
25D
 10
672.31657348782187
 20
-41.408773670776313
 30
0.0
 11
672.31657348782187
 21
-32.534606695696013
 31
0.0
  0
LINE
  8
0
  6
CONTINUOUS
 62
               4
  5
25E
 10
666.83174593052058
 20
-41.408773670776313
 30
0.0
 11
688.73174593052022
 21
-41.408773670776313
 31
0.0
  0
LINE
  8
0
  6
CONTINUOUS
 62
               4
  5
25F
 10
669.57415970917123
 20
-31.408773670776313
 30
0.0
 11
685.98933215186958
 21
-31.408773670776313
 31
0.0
  0
LINE
  8
0
  6
CONTINUOUS
 62
               4
  5
260
 10
688.73174593052022
 20
-41.408773670776313
 30
0.0
 11
688.73174593052022
 21
-32.534606695696013
 31
0.0
  0
LINE
  8
0
  6
CONTINUOUS
 62
               4
  5
261
 10
683.24691837321893
 20
-41.408773670776313
 30
0.0
 11
683.24691837321893
 21
-32.534606695696013
 31
0.0
  0
ARC
  8
0
  6
CONTINUOUS
 62
               4
  5
262
 10
669.57415970917123
 20
-35.311809529028679
 30
0.0
 40
3.9030358582523994
 50
45.361119214041899
 51
134.63888078592532
  0
ARC
  8
0
  6
CONTINUOUS
 62
               4
  5
263
 10
685.98933215186958
 20
-35.311809529028679
 30
0.0
 40
3.9030358582525593
 50
45.361119214039526
 51
134.63888078592296
  0
ARC
  8
0
  6
CONTINUOUS
 62
               4
  5
264
 10
677.7817459305204
 20
-45.23658345218233
 30
0.0
 40
13.827809781406303
 50
66.719648257516468
 51
113.28035174244877
  0
ENDBLK
  8
0
  5
265
  0
BLOCK
  8
0
  5
266
  2
GROUP_11
 70
               0
 10
0.0
 20
0.0
 30
0.0
  3
GROUP_11
  0
LINE
  8
0
  6
CONTINUOUS
 62
               4
  5
267
 10
-511.26825406948012
 20
-41.408773670776142
 30
0.0
 11
-511.26825406948012
 21
-32.534606695695842
 31
0.0
  0
LINE
  8
0
  6
CONTINUOUS
 62
               4
  5
268
 10
-516.7530816267813
 20
-41.408773670776142
 30
0.0
 11
-516.7530816267813
 21
-32.534606695695842
 31
0.0
  0
LINE
  8
0
  6
CONTINUOUS
 62
               4
  5
269
 10
-511.26825406948012
 20
-41.408773670776142
 30
0.0
 11
-533.16825406947964
 21
-41.408773670776135
 31
0.0
  0
LINE
  8
0
  6
CONTINUOUS
 62
               4
  5
26A
 10
-514.01066784813065
 20
-31.408773670776142
 30
0.0
 11
-530.425840290829
 21
-31.408773670776135
 31
0.0
  0
LINE
  8
0
  6
CONTINUOUS
 62
               4
  5
26B
 10
-533.16825406947964
 20
-41.408773670776135
 30
0.0
 11
-533.16825406947964
 21
-32.534606695695835
 31
0.0
  0
LINE
  8
0
  6
CONTINUOUS
 62
               4
  5
26C
 10
-527.68342651217836
 20
-41.408773670776142
 30
0.0
 11
-527.68342651217836
 21
-32.534606695695835
 31
0.0
  0
ARC
  8
0
  6
CONTINUOUS
 62
               4
  5
26D
 10
-514.01066784813065
 20
-35.311809529028508
 30
0.0
 40
3.9030358582523994
 50
45.361119214040059
 51
134.63888078592291
  0
ARC
  8
0
  6
CONTINUOUS
 62
               4
  5
26E
 10
-530.425840290829
 20
-35.311809529028501
 30
0.0
 40
3.9030358582525593
 50
45.361119214041807
 51
134.63888078592527
  0
ARC
  8
0
  6
CONTINUOUS
 62
               4
  5
26F
 10
-522.21825406947983
 20
-45.23658345218216
 30
0.0
 40
13.827809781406303
 50
66.719648257516468
 51
113.28035174244877
  0
ENDBLK
  8
0
  5
270
  0
BLOCK
  8
0
  5
271
  2
GROUP_12
 70
               0
 10
0.0
 20
0.0
 30
0.0
  3
GROUP_12
  0
LINE
  8
0
  6
CONTINUOUS
 62
               4
  5
272
 10
-666.83174593052058
 20
-41.408773670776
 30
0.0
 11
-666.83174593052058
 21
-32.5346066956957
 31
0.0
  0
LINE
  8
0
  6
CONTINUOUS
 62
               4
  5
273
 10
-672.31657348782187
 20
-41.408773670776
 30
0.0
 11
-672.31657348782187
 21
-32.5346066956957
 31
0.0
  0
LINE
  8
0
  6
CONTINUOUS
 62
               4
  5
274
 10
-666.83174593052058
 20
-41.408773670776
 30
0.0
 11
-688.73174593052022
 21
-41.408773670775993
 31
0.0
  0
LINE
  8
0
  6
CONTINUOUS
 62
               4
  5
275
 10
-669.57415970917123
 20
-31.408773670776
 30
0.0
 11
-685.98933215186958
 21
-31.408773670775993
 31
0.0
  0
LINE
  8
0
  6
CONTINUOUS
 62
               4
  5
276
 10
-688.73174593052022
 20
-41.408773670775993
 30
0.0
 11
-688.73174593052022
 21
-32.534606695695693
 31
0.0
  0
LINE
  8
0
  6
CONTINUOUS
 62
               4
  5
277
 10
-683.24691837321893
 20
-41.408773670775993
 30
0.0
 11
-683.24691837321893
 21
-32.534606695695693
 31
0.0
  0
ARC
  8
0
  6
CONTINUOUS
 62
               4
  5
278
 10
-669.57415970917123
 20
-35.311809529028366
 30
0.0
 40
3.9030358582523994
 50
45.361119214039462
 51
134.63888078592291
  0
ARC
  8
0
  6
CONTINUOUS
 62
               4
  5
279
 10
-685.98933215186958
 20
-35.311809529028359
 30
0.0
 40
3.9030358582525593
 50
45.361119214041807
 51
134.63888078592527
  0
ARC
  8
0
  6
CONTINUOUS
 62
               4
  5
27A
 10
-677.7817459305204
 20
-45.236583452182018
 30
0.0
 40
13.827809781406303
 50
66.719648257516454
 51
113.28035174244876
  0
ENDBLK
  8
0
  5
27B
  0
ENDSEC
  0
SECTION
  2
ENTITIES
  0
LINE
  8
0
  6
DASHDOT
 62
               4
  5
27C
 10
600.0
 20
-745.23855699639421
 30
0.0
 11
600.00000000000023
 21
234.83535761915402
 31
0.0
  0
LINE
  8
0
  6
DASHDOT
 62
               4
  5
27D
 10
437.98160400869699
 20
-157.91501650675175
 30
0.0
 11
510.00000000000023
 21
-157.91501650675175
 31
0.0
  0
LINE
  8
0
  6
DASHDOT
 62
               4
  5
27E
 10
-0.0000000000001705
 20
-741.23855699639421
 30
0.0
 11
0.0000000000000569
 21
234.83535761915402
 31
0.0
  0
LINE
  8
0
  6
DASHDOT
 62
               4
  5
27F
 10
113.90319937724047
 20
631.33535761915414
 30
0.0
 11
-113.9031993772399
 21
631.33535761915437
 31
0.0
  0
LINE
  8
0
  6
DASHDOT
 62
               4
  5
280
 10
0.0000000000002842
 20
745.23855699639421
 30
0.0
 11
0.0000000000000569
 21
517.43215824191384
 31
0.0
  0
LINE
  8
0
  6
DASHDOT
 62
               4
  5
281
 10
0.0000000000000569
 20
517.43215824191407
 30
0.0
 11
0.0000000000000569
 21
451.33535761915419
 31
0.0
  0
LINE
  8
0
  6
DASHDOT
 62
               4
  5
282
 10
710.04390339203837
 20
-147.91501650675215
 30
0.0
 11
670.04390339203837
 21
-147.91501650675218
 31
0.0
  0
LINE
  8
0
  6
DASHDOT
 62
               4
  5
283
 10
-75.500000000000171
 20
-157.91501650675175
 30
0.0
 11
75.499999999999829
 21
-157.91501650675175
 31
0.0
  0
LINE
  8
0
  6
DASHDOT
 62
               4
  5
284
 10
-113.90319937724013
 20
631.33535761915437
 30
0.0
 11
-179.99999999999994
 21
631.33535761915437
 31
0.0
  0
LINE
  8
0
  6
DASHDOT
 62
               4
  5
285
 10
-168.14092777451563
 20
-170.41501650675181
 30
0.0
 11
-89.999999999999901
 21
-170.41501650675178
 31
0.0
  0
LINE
  8
0
  6
DASHDOT
 62
               4
  5
286
 10
-600.00000000000023
 20
-745.23855699639398
 30
0.0
 11
-600.00000000000023
 21
234.83535761915431
 31
0.0
  0
LINE
  8
0
  6
DASHDOT
 62
               4
  5
287
 10
-437.9816040086971
 20
-157.91501650675156
 30
0.0
 11
-510.00000000000034
 21
-157.9150165067515
 31
0.0
  0
LINE
  8
0
  6
DASHDOT
 62
               4
  5
288
 10
-710.04390339203837
 20
-147.91501650675184
 30
0.0
 11
-670.04390339203837
 21
-147.91501650675187
 31
0.0
  0
LINE
  8
0
  6
DASHDOT
 62
               4
  5
289
 10
-667.5
 20
-170.41501650675147
 30
0.0
 11
-532.5
 21
-170.41501650675156
 31
0.0
  0
LINE
  8
0
  6
DASHDOT
 62
               4
  5
28A
 10
640.0
 20
-147.91501650675229
 30
0.0
 11
560.0
 21
-147.91501650675229
 31
0.0
  0
LINE
  8
0
  6
DASHDOT
 62
               4
  5
28B
 10
110.04390339203832
 20
-147.91501650675212
 30
0.0
 11
70.043903392038317
 21
-147.91501650675212
 31
0.0
  0
LINE
  8
0
  6
DASHDOT
 62
               4
  5
28C
 10
-392.13776905046888
 20
-1199.5632119879422
 30
0.0
 11
-392.13776905046876
 21
-1070.5632119879422
 31
0.0
  0
LINE
  8
0
  6
DASHDOT
 62
               4
  5
28D
 10
-450.13776905046882
 20
-1141.5632119879422
 30
0.0
 11
-334.13776905046888
 21
-1141.5632119879422
 31
0.0
  0
LINE
  8
0
  6
DASHDOT
 62
               4
  5
28E
 10
-461.94094753457637
 20
-1135.0632119879422
 30
0.0
 11
-327.63776905046888
 21
-1135.0632119879422
 31
0.0
  0
LINE
  8
0
  6
DASHDOT
 62
               4
  5
28F
 10
-268.23776905046878
 20
-1135.0632119879422
 30
0.0
 11
-169.63776905046888
 21
-1135.0632119879422
 31
0.0
  0
LINE
  8
0
  6
DASHDOT
 62
               4
  5
290
 10
-302.63776905046888
 20
-1141.5632119879422
 30
0.0
 11
-228.2377690504689
 21
-1141.5632119879422
 31
0.0
  0
LINE
  8
0
  6
DASHDOT
 62
               4
  5
291
 10
-516.03776905046868
 20
-1135.0632119879422
 30
0.0
 11
-614.63776905046882
 21
-1135.0632119879417
 31
0.0
  0
LINE
  8
0
  6
DASHDOT
 62
               4
  5
292
 10
-481.63776905046882
 20
-1141.5632119879422
 30
0.0
 11
-556.03776905046868
 21
-1141.5632119879422
 31
0.0
  0
LINE
  8
0
  6
DASHDOT
 62
               4
  5
293
 10
-394.0837264462354
 20
-1038.0953279189073
 30
0.0
 11
-394.0837264462354
 21
-905.09532791890717
 31
0.0
  0
LINE
  8
0
  6
DASHDOT
 62
               4
  5
294
 10
221.6339236858808
 20
-1135.0632119879422
 30
0.0
 11
320.23392368588094
 21
-1135.0632119879422
 31
0.0
  0
LINE
  8
0
  6
DASHDOT
 62
               4
  5
295
 10
196.6339236858808
 20
-1149.5632119879422
 30
0.0
 11
261.6339236858808
 21
-1149.5632119879422
 31
0.0
  0
LINE
  8
0
  6
DASHDOT
 62
               4
  5
296
 10
70.8779074606378
 20
-1149.5632119879422
 30
0.0
 11
170.87790746063803
 21
-1149.5632119879422
 31
0.0
  0
LINE
  8
0
  6
DASHDOT
 62
               4
  5
297
 10
120.8779074606378
 20
-1199.5632119879422
 30
0.0
 11
120.87790746063803
 21
-1070.5632119879422
 31
0.0
  0
LINE
  8
0
  6
DASHDOT
 62
               4
  5
298
 10
56.3779074606378
 20
-1135.0632119879422
 30
0.0
 11
190.92191724058904
 21
-1135.0632119879422
 31
0.0
  0
LINE
  8
0
  6
DASHDOT
 62
               4
  5
299
 10
20.121891235395026
 20
-1135.0632119879422
 30
0.0
 11
-78.478108764604997
 21
-1135.0632119879422
 31
0.0
  0
LINE
  8
0
  6
DASHDOT
 62
               4
  5
29A
 10
45.121891235395026
 20
-1149.5632119879422
 30
0.0
 11
-19.878108764604974
 21
-1149.5632119879422
 31
0.0
  0
LINE
  8
0
  6
DASHDOT
 62
               4
  5
29B
 10
120.87790746063803
 20
-1048.8071957626996
 30
0.0
 11
120.87790746063803
 21
-925.20719576269937
 31
0.0
  0
LINE
  8
0
  6
DASHDOT
 62
               4
  5
29C
 10
609.28652321630773
 20
-968.87877641615125
 30
0.0
 11
609.28652321630773
 21
-1239.4255632159777
 31
0.0
  0
LINE
  8
0
  6
DASHDOT
 62
               4
  5
29D
 10
447.28652321630778
 20
-1077.3787764161514
 30
0.0
 11
717.78652321630796
 21
-1077.3787764161514
 31
0.0
  0
LINE
  8
0
  6
DASHDOT
 62
               4
  5
29E
 10
677.81174799153234
 20
-1551.8782101647355
 30
0.0
 11
447.55790992287945
 21
-1551.8782101647355
 31
0.0
  0
LINE
  8
0
  6
DASHDOT
 62
               4
  5
29F
 10
609.28652321630773
 20
-1365.8782101647355
 30
0.0
 11
609.28652321630773
 21
-1616.8782101647355
 31
0.0
  0
LINE
  8
0
  6
DASHDOT
 62
               4
  5
2A0
 10
559.28652321630773
 20
-1566.3782101647355
 30
0.0
 11
659.28652321630796
 21
-1566.3782101647355
 31
0.0
  0
LINE
  8
0
  6
DASHDOT
 62
               4
  5
2A1
 10
609.28652321630773
 20
-1267.9787764161513
 30
0.0
 11
609.28652321630773
 21
-1144.3787764161509
 31
0.0
  0
LINE
  8
0
  6
DASHDOT
 62
               4
  5
2A2
 10
409.28652321630767
 20
-1558.3782101647355
 30
0.0
 11
483.68652321630765
 21
-1558.3782101647355
 31
0.0
  0
LINE
  8
0
  6
DASHDOT
 62
               4
  5
2A3
 10
409.2865232163079
 20
-1077.3787764161509
 30
0.0
 11
542.28652321630796
 21
-1077.3787764161509
 31
0.0
  0
LINE
  8
0
  6
DASHDOT
 62
               4
  5
2A4
 10
120.87790746063786
 20
-1702.2716163701457
 30
0.0
 11
120.87790746063791
 21
-1548.2716163701457
 31
0.0
  0
LINE
  8
0
  6
DASHDOT
 62
               4
  5
2A5
 10
56.377907460637914
 20
-1637.7716163701457
 30
0.0
 11
185.37790746063791
 21
-1637.7716163701457
 31
0.0
  0
LINE
  8
0
  6
DASHDOT
 62
               4
  5
2A6
 10
43.877907460637857
 20
-1625.2716163701457
 30
0.0
 11
197.87790746063786
 21
-1625.2716163701457
 31
0.0
  0
LINE
  8
0
  6
DASHDOT
 62
               4
  5
2A7
 10
307.98631184284136
 20
-1637.7716163701459
 30
0.0
 11
227.9863118428413
 21
-1637.7716163701457
 31
0.0
  0
LINE
  8
0
  6
DASHDOT
 62
               4
  5
2A8
 10
366.58631184284133
 20
-1625.2716163701459
 30
0.0
 11
267.98631184284136
 21
-1625.2716163701459
 31
0.0
  0
LINE
  8
0
  6
DASHDOT
 62
               4
  5
2A9
 10
-66.230496921565589
 20
-1637.7716163701457
 30
0.0
 11
13.769503078434411
 21
-1637.7716163701457
 31
0.0
  0
LINE
  8
0
  6
DASHDOT
 62
               4
  5
2AA
 10
120.8779074606378
 20
-1379.5632119879422
 30
0.0
 11
120.8779074606378
 21
-1518.1632119879423
 31
0.0
  0
LINE
  8
0
  6
DASHDOT
 62
               4
  5
2AB
 10
-124.83049692156561
 20
-1625.2716163701457
 30
0.0
 11
-26.230496921565589
 21
-1625.2716163701457
 31
0.0
  0
LINE
  8
0
  6
CONTINUOUS
 62
               4
  5
2AC
 10
89.999999999999659
 20
93.382551620026163
 30
0.0
 11
89.999999999999659
 21
-38.423922358787507
 31
0.0
  0
LINE
  8
0
  6
CONTINUOUS
 62
               4
  5
2AD
 10
-90.000000000000171
 20
93.382551620026163
 30
0.0
 11
-90.000000000000171
 21
-38.423922358787507
 31
0.0
  0
LINE
  8
0
  6
CONTINUOUS
 62
               4
  5
2AE
 10
103.06979899340456
 20
-43.708773670775145
 30
0.0
 11
94.825502516487234
 21
-43.420876493883071
 31
0.0
  0
LINE
  8
0
  6
CONTINUOUS
 62
               4
  5
2AF
 10
-103.06979899340519
 20
-43.708773670775074
 30
0.0
 11
-94.825502516487802
 21
-43.420876493883071
 31
0.0
  0
ARC
  8
0
  6
CONTINUOUS
 62
               4
  5
2B0
 10
94.999999999999659
 20
-38.423922358787507
 30
0.0
 40
5.0
 50
179.99999999996524
 51
267.99999999994816
  0
ARC
  8
0
  6
CONTINUOUS
 62
               4
  5
2B1
 10
-95.000000000000171
 20
-38.423922358787507
 30
0.0
 40
5.0
 50
271.99999999994731
 51
359.99999999993037
  0
LINE
  8
0
  6
CONTINUOUS
 62
               4
  5
2B2
 10
91.999999999999716
 20
99.698557238004412
 30
0.0
 11
91.999999999999716
 21
-38.493763897771089
 31
0.0
  0
ARC
  8
0
  6
CONTINUOUS
 62
               4
  5
2B3
 10
96.999999999999716
 20
-38.493763897771089
 30
0.0
 40
5.0
 50
179.99999999996524
 51
267.99999999994816
  0
LINE
  8
0
  6
CONTINUOUS
 62
               4
  5
2B4
 10
-92.000000000000284
 20
99.698557238003559
 30
0.0
 11
-92.000000000000284
 21
-38.493763897771089
 31
0.0
  0
ARC
  8
0
  6
CONTINUOUS
 62
               4
  5
2B5
 10
-97.000000000000284
 20
-38.493763897771089
 30
0.0
 40
5.0
 50
271.99999999994748
 51
359.99999999993037
  0
LINE
  8
0
  6
CONTINUOUS
 62
               4
  5
2B6
 10
527.24606517511893
 20
-302.30610679215647
 30
0.0
 11
664.00705047747988
 21
-417.06219911880908
 31
0.0
  0
CIRCLE
  8
0
  6
CONTINUOUS
 62
               4
  5
2B7
 10
77.781745930520344
 20
709.11710354967454
 30
0.0
 40
13.0
  0
CIRCLE
  8
0
  6
CONTINUOUS
 62
               4
  5
2B8
 10
-77.781745930520231
 20
709.11710354967454
 30
0.0
 40
13.0
  0
CIRCLE
  8
0
  6
CONTINUOUS
 62
               4
  5
2B9
 10
-77.781745930519889
 20
553.55361168863396
 30
0.0
 40
13.0
  0
CIRCLE
  8
0
  6
CONTINUOUS
 62
               4
  5
2BA
 10
77.781745930520344
 20
553.55361168863419
 30
0.0
 40
13.0
  0
LINE
  8
0
  6
CONTINUOUS
 62
               4
  5
2BB
 10
593.99999999999886
 20
113.88255162002648
 30
0.0
 11
593.99999999999909
 21
-43.708773670775571
 31
0.0
  0
LINE
  8
0
  6
CONTINUOUS
 62
               4
  5
2BC
 10
605.99999999999909
 20
113.88255162002591
 30
0.0
 11
605.99999999999932
 21
-43.708773670775571
 31
0.0
  0
LINE
  8
0
  6
CONTINUOUS
 62
               4
  5
2BD
 10
591.99999999999909
 20
103.26052398873057
 30
0.0
 11
591.99999999999932
 21
-43.708773670775571
 31
0.0
  0
LINE
  8
0
  6
CONTINUOUS
 62
               4
  5
2BE
 10
607.99999999999909
 20
103.26052398873057
 30
0.0
 11
607.99999999999909
 21
-43.708773670775571
 31
0.0
  0
LINE
  8
0
  6
CONTINUOUS
 62
               4
  5
2BF
 10
64.781745930519548
 20
-41.408773670775176
 30
0.0
 11
64.781745930519548
 21
-43.708773670775074
 31
0.0
  0
LINE
  8
0
  6
CONTINUOUS
 62
               4
  5
2C0
 10
64.781745930519548
 20
-43.708773670775074
 30
0.0
 11
90.781745930519662
 21
-43.708773670775074
 31
0.0
  0
LINE
  8
0
  6
CONTINUOUS
 62
               4
  5
2C1
 10
90.781745930519662
 20
-43.708773670775074
 30
0.0
 11
90.781745930519662
 21
-41.408773670775176
 31
0.0
  0
LINE
  8
0
  6
CONTINUOUS
 62
               4
  5
2C2
 10
90.781745930519662
 20
-41.408773670775176
 30
0.0
 11
64.781745930519548
 21
-41.408773670775176
 31
0.0
  0
LINE
  8
0
  6
CONTINUOUS
 62
               4
  5
2C3
 10
513.53103670873679
 20
-101.41501650675198
 30
0.0
 11
513.53103670873679
 21
-89.415016506751812
 31
0.0
  0
LINE
  8
0
  6
CONTINUOUS
 62
               4
  5
2C4
 10
525.34872974488303
 20
-101.41501650675198
 30
0.0
 11
525.34872974488303
 21
-89.415016506751812
 31
0.0
  0
LINE
  8
0
  6
CONTINUOUS
 62
               4
  5
2C5
 10
530.90547143022513
 20
-101.41501650675198
 30
0.0
 11
530.90547143022513
 21
-89.415016506751812
 31
0.0
  0
LINE
  8
0
  6
CONTINUOUS
 62
               4
  5
2C6
 10
530.90547143022513
 20
-101.41501650675198
 30
0.0
 11
513.53103670873679
 21
-101.41501650675198
 31
0.0
  0
LINE
  8
0
  6
CONTINUOUS
 62
               4
  5
2C7
 10
71.781745930519548
 20
-31.408773670776313
 30
0.0
 11
71.781745930519548
 21
-22.708773670776125
 31
0.0
  0
LINE
  8
0
  6
CONTINUOUS
 62
               4
  5
2C8
 10
83.781745930519662
 20
-22.708773670776125
 30
0.0
 11
83.781745930519662
 21
-31.408773670776313
 31
0.0
  0
LINE
  8
0
  6
CONTINUOUS
 62
               4
  5
2C9
 10
83.781745930519662
 20
-22.708773670776125
 30
0.0
 11
71.781745930519548
 21
-22.708773670776125
 31
0.0
  0
LINE
  8
0
  6
CONTINUOUS
 62
               4
  5
2CA
 10
669.09452856977714
 20
-101.41501650675198
 30
0.0
 11
669.09452856977714
 21
-89.415016506751812
 31
0.0
  0
LINE
  8
0
  6
CONTINUOUS
 62
               4
  5
2CB
 10
680.91222160592361
 20
-101.41501650675198
 30
0.0
 11
680.91222160592361
 21
-89.415016506751812
 31
0.0
  0
LINE
  8
0
  6
CONTINUOUS
 62
               4
  5
2CC
 10
686.46896329126571
 20
-101.41501650675198
 30
0.0
 11
686.46896329126571
 21
-89.415016506751812
 31
0.0
  0
LINE
  8
0
  6
CONTINUOUS
 62
               4
  5
2CD
 10
686.46896329126571
 20
-101.41501650675198
 30
0.0
 11
669.09452856977714
 21
-101.41501650675198
 31
0.0
  0
LINE
  8
0
  6
CONTINUOUS
 62
               4
  5
2CE
 10
-90.781745930521026
 20
-41.408773670775176
 30
0.0
 11
-90.781745930521026
 21
-43.708773670775074
 31
0.0
  0
LINE
  8
0
  6
CONTINUOUS
 62
               4
  5
2CF
 10
-90.781745930521026
 20
-43.708773670775074
 30
0.0
 11
-64.781745930520913
 21
-43.708773670775074
 31
0.0
  0
LINE
  8
0
  6
CONTINUOUS
 62
               4
  5
2D0
 10
-64.781745930520913
 20
-43.708773670775074
 30
0.0
 11
-64.781745930520913
 21
-41.408773670775176
 31
0.0
  0
LINE
  8
0
  6
CONTINUOUS
 62
               4
  5
2D1
 10
-64.781745930520913
 20
-41.408773670775176
 30
0.0
 11
-90.781745930521026
 21
-41.408773670775176
 31
0.0
  0
LINE
  8
0
  6
CONTINUOUS
 62
               4
  5
2D2
 10
-83.781745930521026
 20
-31.408773670776313
 30
0.0
 11
-83.781745930521026
 21
-22.708773670776125
 31
0.0
  0
LINE
  8
0
  6
CONTINUOUS
 62
               4
  5
2D3
 10
-71.781745930520913
 20
-22.708773670776125
 30
0.0
 11
-71.781745930520913
 21
-31.408773670776313
 31
0.0
  0
LINE
  8
0
  6
CONTINUOUS
 62
               4
  5
2D4
 10
-71.781745930520913
 20
-22.708773670776125
 30
0.0
 11
-83.781745930521026
 21
-22.708773670776125
 31
0.0
  0
LINE
  8
0
  6
CONTINUOUS
 62
               4
  5
2D5
 10
535.21825406947983
 20
-41.408773670775247
 30
0.0
 11
535.21825406947983
 21
-43.708773670775145
 31
0.0
  0
LINE
  8
0
  6
CONTINUOUS
 62
               4
  5
2D6
 10
535.21825406947983
 20
-43.708773670775145
 30
0.0
 11
509.21825406947966
 21
-43.708773670775145
 31
0.0
  0
LINE
  8
0
  6
CONTINUOUS
 62
               4
  5
2D7
 10
509.21825406947966
 20
-43.708773670775145
 30
0.0
 11
509.21825406947966
 21
-41.408773670775247
 31
0.0
  0
LINE
  8
0
  6
CONTINUOUS
 62
               4
  5
2D8
 10
509.21825406947966
 20
-41.408773670775247
 30
0.0
 11
535.21825406947983
 21
-41.408773670775247
 31
0.0
  0
LINE
  8
0
  6
CONTINUOUS
 62
               4
  5
2D9
 10
-86.468963291263265
 20
-101.41501650675198
 30
0.0
 11
-86.468963291263265
 21
-89.415016506751812
 31
0.0
  0
LINE
  8
0
  6
CONTINUOUS
 62
               4
  5
2DA
 10
-74.651270255117026
 20
-101.41501650675198
 30
0.0
 11
-74.651270255117026
 21
-89.415016506751812
 31
0.0
  0
LINE
  8
0
  6
CONTINUOUS
 62
               4
  5
2DB
 10
-69.094528569774923
 20
-101.41501650675198
 30
0.0
 11
-69.094528569774923
 21
-89.415016506751812
 31
0.0
  0
LINE
  8
0
  6
CONTINUOUS
 62
               4
  5
2DC
 10
-69.094528569774923
 20
-101.41501650675198
 30
0.0
 11
-86.468963291263265
 21
-101.41501650675198
 31
0.0
  0
LINE
  8
0
  6
CONTINUOUS
 62
               4
  5
2DD
 10
528.2182540694796
 20
-31.408773670776384
 30
0.0
 11
528.2182540694796
 21
-22.708773670776196
 31
0.0
  0
LINE
  8
0
  6
CONTINUOUS
 62
               4
  5
2DE
 10
516.2182540694796
 20
-22.708773670776196
 30
0.0
 11
516.2182540694796
 21
-31.408773670776384
 31
0.0
  0
LINE
  8
0
  6
CONTINUOUS
 62
               4
  5
2DF
 10
516.2182540694796
 20
-22.708773670776196
 30
0.0
 11
528.2182540694796
 21
-22.708773670776196
 31
0.0
  0
LINE
  8
0
  6
CONTINUOUS
 62
               4
  5
2E0
 10
664.78174593052017
 20
-43.708773670775074
 30
0.0
 11
664.78174593052017
 21
-41.408773670775176
 31
0.0
  0
LINE
  8
0
  6
CONTINUOUS
 62
               4
  5
2E1
 10
683.78174593052017
 20
-31.408773670776313
 30
0.0
 11
683.78174593052017
 21
-22.708773670776125
 31
0.0
  0
LINE
  8
0
  6
CONTINUOUS
 62
               4
  5
2E2
 10
671.78174593052017
 20
-22.708773670776125
 30
0.0
 11
671.78174593052017
 21
-31.408773670776313
 31
0.0
  0
LINE
  8
0
  6
CONTINUOUS
 62
               4
  5
2E3
 10
671.78174593052017
 20
-22.708773670776125
 30
0.0
 11
683.78174593052017
 21
-22.708773670776125
 31
0.0
  0
LINE
  8
0
  6
CONTINUOUS
 62
               4
  5
2E4
 10
690.7817459305204
 20
-41.408773670775176
 30
0.0
 11
690.7817459305204
 21
-43.708773670775074
 31
0.0
  0
LINE
  8
0
  6
CONTINUOUS
 62
               4
  5
2E5
 10
690.7817459305204
 20
-43.708773670775074
 30
0.0
 11
664.78174593052017
 21
-43.708773670775074
 31
0.0
  0
LINE
  8
0
  6
CONTINUOUS
 62
               4
  5
2E6
 10
664.78174593052017
 20
-41.408773670775176
 30
0.0
 11
690.7817459305204
 21
-41.408773670775176
 31
0.0
  0
ARC
  8
0
  6
CONTINUOUS
 62
               4
  5
2E7
 10
-569.84335904603404
 20
-626.21317647804244
 30
0.0
 40
687.72820158627314
 50
18.108480790465826
 51
28.098008730082476
  0
ARC
  8
0
  6
CONTINUOUS
 62
               4
  5
2E8
 10
18.510367717422639
 20
-369.59940193325497
 30
0.0
 40
69.74273142123306
 50
332.35940834662927
 51
434.76997683374913
  0
ARC
  8
0
  6
CONTINUOUS
 62
               4
  5
2E9
 10
773.35934986435132
 20
-148.0546995847192
 30
0.0
 40
92.090694433536868
 50
155.07010251999944
 51
205.15144555827746
  0
LINE
  8
0
  6
CONTINUOUS
 62
               4
  5
2EA
 10
588.27299999999877
 20
118.88255162002605
 30
0.0
 11
611.72699999999918
 21
118.88255162002605
 31
0.0
  0
LINE
  8
0
  6
CONTINUOUS
 62
               4
  5
2EB
 10
611.72699999999918
 20
113.88255162002605
 30
0.0
 11
611.72699999999918
 21
118.88255162002605
 31
0.0
  0
LINE
  8
0
  6
CONTINUOUS
 62
               4
  5
2EC
 10
588.27299999999877
 20
113.88255162002605
 30
0.0
 11
588.27299999999877
 21
118.88255162002605
 31
0.0
  0
LINE
  8
0
  6
CONTINUOUS
 62
               4
  5
2ED
 10
611.72699999999918
 20
118.88255162002605
 30
0.0
 11
605.99999999999932
 21
113.88255162002605
 31
0.0
  0
LINE
  8
0
  6
CONTINUOUS
 62
               4
  5
2EE
 10
593.99999999999932
 20
113.88255162002605
 30
0.0
 11
588.27299999999877
 21
118.88255162002605
 31
0.0
  0
LINE
  8
0
  6
CONTINUOUS
 62
               4
  5
2EF
 10
605.99999999999932
 20
113.88255162002605
 30
0.0
 11
593.99999999999932
 21
113.88255162002605
 31
0.0
  0
ARC
  8
0
  6
CONTINUOUS
 62
               4
  5
2F0
 10
624.99999999999909
 20
103.26052398873054
 30
0.0
 40
17.0
 50
141.33064456987887
 51
179.99999999996521
  0
ARC
  8
0
  6
CONTINUOUS
 62
               4
  5
2F1
 10
575.0
 20
103.26052398873054
 30
0.0
 40
17.0
 50
0.0
 51
38.669355430086391
  0
LINE
  8
0
  6
CONTINUOUS
 62
               4
  5
2F2
 10
69.094528569777083
 20
-101.41501650675198
 30
0.0
 11
69.094528569777083
 21
-89.415016506751812
 31
0.0
  0
LINE
  8
0
  6
CONTINUOUS
 62
               4
  5
2F3
 10
80.912221605923321
 20
-101.41501650675198
 30
0.0
 11
80.912221605923321
 21
-89.415016506751812
 31
0.0
  0
LINE
  8
0
  6
CONTINUOUS
 62
               4
  5
2F4
 10
86.468963291265425
 20
-101.41501650675198
 30
0.0
 11
86.468963291265425
 21
-89.415016506751812
 31
0.0
  0
LINE
  8
0
  6
CONTINUOUS
 62
               4
  5
2F5
 10
86.468963291265425
 20
-101.41501650675198
 30
0.0
 11
69.094528569777083
 21
-101.41501650675198
 31
0.0
  0
LINE
  8
0
  6
CONTINUOUS
 62
               4
  5
2F6
 10
-593.99999999999886
 20
113.88255162002676
 30
0.0
 11
-593.99999999999909
 21
-43.708773670775294
 31
0.0
  0
LINE
  8
0
  6
CONTINUOUS
 62
               4
  5
2F7
 10
-605.99999999999909
 20
113.88255162002619
 30
0.0
 11
-605.99999999999932
 21
-43.708773670775287
 31
0.0
  0
LINE
  8
0
  6
CONTINUOUS
 62
               4
  5
2F8
 10
-591.99999999999886
 20
103.26052398873085
 30
0.0
 11
-591.99999999999932
 21
-43.708773670775294
 31
0.0
  0
LINE
  8
0
  6
CONTINUOUS
 62
               4
  5
2F9
 10
-607.99999999999886
 20
103.26052398873085
 30
0.0
 11
-607.99999999999909
 21
-43.708773670775287
 31
0.0
  0
LINE
  8
0
  6
CONTINUOUS
 62
               4
  5
2FA
 10
-513.53103670873679
 20
-101.41501650675174
 30
0.0
 11
-513.53103670873679
 21
-89.41501650675157
 31
0.0
  0
LINE
  8
0
  6
CONTINUOUS
 62
               4
  5
2FB
 10
-525.34872974488303
 20
-101.41501650675174
 30
0.0
 11
-525.34872974488303
 21
-89.41501650675157
 31
0.0
  0
LINE
  8
0
  6
CONTINUOUS
 62
               4
  5
2FC
 10
-530.90547143022513
 20
-101.41501650675173
 30
0.0
 11
-530.90547143022513
 21
-89.415016506751556
 31
0.0
  0
LINE
  8
0
  6
CONTINUOUS
 62
               4
  5
2FD
 10
-530.90547143022513
 20
-101.41501650675173
 30
0.0
 11
-513.53103670873679
 21
-101.41501650675174
 31
0.0
  0
LINE
  8
0
  6
CONTINUOUS
 62
               4
  5
2FE
 10
-669.09452856977714
 20
-101.41501650675167
 30
0.0
 11
-669.09452856977714
 21
-89.415016506751499
 31
0.0
  0
LINE
  8
0
  6
CONTINUOUS
 62
               4
  5
2FF
 10
-680.91222160592361
 20
-101.41501650675167
 30
0.0
 11
-680.91222160592361
 21
-89.415016506751499
 31
0.0
  0
LINE
  8
0
  6
CONTINUOUS
 62
               4
  5
300
 10
-686.46896329126571
 20
-101.41501650675167
 30
0.0
 11
-686.46896329126571
 21
-89.415016506751499
 31
0.0
  0
LINE
  8
0
  6
CONTINUOUS
 62
               4
  5
301
 10
-686.46896329126571
 20
-101.41501650675167
 30
0.0
 11
-669.09452856977714
 21
-101.41501650675167
 31
0.0
  0
LINE
  8
0
  6
CONTINUOUS
 62
               4
  5
302
 10
-535.21825406947983
 20
-41.408773670774998
 30
0.0
 11
-535.21825406947983
 21
-43.708773670774896
 31
0.0
  0
LINE
  8
0
  6
CONTINUOUS
 62
               4
  5
303
 10
-535.21825406947983
 20
-43.708773670774896
 30
0.0
 11
-509.21825406947971
 21
-43.708773670774903
 31
0.0
  0
LINE
  8
0
  6
CONTINUOUS
 62
               4
  5
304
 10
-509.21825406947971
 20
-43.708773670774903
 30
0.0
 11
-509.21825406947971
 21
-41.408773670775005
 31
0.0
  0
LINE
  8
0
  6
CONTINUOUS
 62
               4
  5
305
 10
-509.21825406947971
 20
-41.408773670775005
 30
0.0
 11
-535.21825406947983
 21
-41.408773670774998
 31
0.0
  0
LINE
  8
0
  6
CONTINUOUS
 62
               4
  5
306
 10
-528.2182540694796
 20
-31.408773670776135
 30
0.0
 11
-528.2182540694796
 21
-22.708773670775948
 31
0.0
  0
LINE
  8
0
  6
CONTINUOUS
 62
               4
  5
307
 10
-516.2182540694796
 20
-22.708773670775955
 30
0.0
 11
-516.2182540694796
 21
-31.408773670776142
 31
0.0
  0
LINE
  8
0
  6
CONTINUOUS
 62
               4
  5
308
 10
-516.2182540694796
 20
-22.708773670775955
 30
0.0
 11
-528.2182540694796
 21
-22.708773670775948
 31
0.0
  0
LINE
  8
0
  6
CONTINUOUS
 62
               4
  5
309
 10
-664.78174593052017
 20
-43.708773670774761
 30
0.0
 11
-664.78174593052017
 21
-41.408773670774863
 31
0.0
  0
LINE
  8
0
  6
CONTINUOUS
 62
               4
  5
30A
 10
-683.78174593052017
 20
-31.408773670775993
 30
0.0
 11
-683.78174593052017
 21
-22.708773670775805
 31
0.0
  0
LINE
  8
0
  6
CONTINUOUS
 62
               4
  5
30B
 10
-671.78174593052017
 20
-22.708773670775813
 30
0.0
 11
-671.78174593052017
 21
-31.408773670776
 31
0.0
  0
LINE
  8
0
  6
CONTINUOUS
 62
               4
  5
30C
 10
-671.78174593052017
 20
-22.708773670775813
 30
0.0
 11
-683.78174593052017
 21
-22.708773670775805
 31
0.0
  0
LINE
  8
0
  6
CONTINUOUS
 62
               4
  5
30D
 10
-690.7817459305204
 20
-41.408773670774849
 30
0.0
 11
-690.7817459305204
 21
-43.708773670774747
 31
0.0
  0
LINE
  8
0
  6
CONTINUOUS
 62
               4
  5
30E
 10
-690.7817459305204
 20
-43.708773670774747
 30
0.0
 11
-664.78174593052017
 21
-43.708773670774761
 31
0.0
  0
LINE
  8
0
  6
CONTINUOUS
 62
               4
  5
30F
 10
-664.78174593052017
 20
-41.408773670774863
 30
0.0
 11
-690.7817459305204
 21
-41.408773670774849
 31
0.0
  0
ARC
  8
0
  6
CONTINUOUS
 62
               4
  5
310
 10
-773.35934986435132
 20
-148.05469958471883
 30
0.0
 40
92.090694433536868
 50
334.84855444161809
 51
384.92989747989617
  0
LINE
  8
0
  6
CONTINUOUS
 62
               4
  5
311
 10
-588.27299999999877
 20
118.88255162002633
 30
0.0
 11
-611.72699999999918
 21
118.88255162002633
 31
0.0
  0
LINE
  8
0
  6
CONTINUOUS
 62
               4
  5
312
 10
-611.72699999999918
 20
113.88255162002633
 30
0.0
 11
-611.72699999999918
 21
118.88255162002633
 31
0.0
  0
LINE
  8
0
  6
CONTINUOUS
 62
               4
  5
313
 10
-588.27299999999877
 20
113.88255162002633
 30
0.0
 11
-588.27299999999877
 21
118.88255162002633
 31
0.0
  0
LINE
  8
0
  6
CONTINUOUS
 62
               4
  5
314
 10
-611.72699999999918
 20
118.88255162002633
 30
0.0
 11
-605.99999999999909
 21
113.88255162002633
 31
0.0
  0
LINE
  8
0
  6
CONTINUOUS
 62
               4
  5
315
 10
-593.99999999999932
 20
113.88255162002633
 30
0.0
 11
-588.27299999999877
 21
118.88255162002633
 31
0.0
  0
LINE
  8
0
  6
CONTINUOUS
 62
               4
  5
316
 10
-605.99999999999909
 20
113.88255162002633
 30
0.0
 11
-593.99999999999932
 21
113.88255162002633
 31
0.0
  0
ARC
  8
0
  6
CONTINUOUS
 62
               4
  5
317
 10
-624.99999999999886
 20
103.26052398873082
 30
0.0
 40
17.0
 50
359.99999999993037
 51
398.66935543001682
  0
ARC
  8
0
  6
CONTINUOUS
 62
               4
  5
318
 10
-575.0
 20
103.2605239887308
 30
0.0
 40
17.0
 50
141.33064456987887
 51
179.99999999996521
  0
LINE
  8
0
  6
CONTINUOUS
 62
               4
  5
319
 10
-576.41915257887854
 20
-497.01225019306884
 30
0.0
 11
-639.70482473923539
 21
-387.39825062018434
 31
0.0
  0
ARC
  8
0
  6
CONTINUOUS
 62
               4
  5
31A
 10
-274.28151760759221
 20
-249.49700559482267
 30
0.0
 40
390.57770900881167
 50
200.67520123187933
 51
219.32479876803959
  0
ARC
  8
0
  6
CONTINUOUS
 62
               4
  5
31B
 10
-1535.1349631989985
 20
-977.45108181568662
 30
0.0
 40
1072.3607025921351
 50
26.616707427993422
 51
33.3832925719949
  0
LINE
  8
0
  6
CONTINUOUS
 62
               4
  5
31C
 10
56.999999999999865
 20
-613.41501650675173
 30
0.0
 11
-57.000000000000114
 21
-613.41501650675173
 31
0.0
  0
LINE
  8
0
  6
CONTINUOUS
 62
               4
  5
31D
 10
58.053042823173243
 20
-612.3619736835783
 30
0.0
 11
-58.053042823173456
 21
-612.3619736835783
 31
0.0
  0
LINE
  8
0
  6
CONTINUOUS
 62
               4
  5
31E
 10
-543.00000000000023
 20
-613.41501650675173
 30
0.0
 11
-657.00000000000023
 21
-613.41501650675173
 31
0.0
  0
LINE
  8
0
  6
CONTINUOUS
 62
               4
  5
31F
 10
-541.9469571768268
 20
-612.3619736835783
 30
0.0
 11
-658.05304282317366
 21
-612.3619736835783
 31
0.0
  0
LINE
  8
0
  6
CONTINUOUS
 62
               4
  5
320
 10
657.0
 20
-613.41501650675195
 30
0.0
 11
543.0
 21
-613.41501650675195
 31
0.0
  0
LINE
  8
0
  6
CONTINUOUS
 62
               4
  5
321
 10
658.05304282317343
 20
-612.36197368357853
 30
0.0
 11
541.9469571768268
 21
-612.36197368357853
 31
0.0
  0
ARC
  8
0
  6
CONTINUOUS
 62
               4
  5
322
 10
173.35934986435126
 20
-148.05469958471917
 30
0.0
 40
92.090694433536868
 50
155.07010251999947
 51
205.15144555827746
  0
POINT
  8
0
  6
CONTINUOUS
 62
               4
  5
323
 10
-247.03776905046885
 20
-1090.5632119879422
 30
0.0
  0
POINT
  8
0
  6
CONTINUOUS
 62
               4
  5
324
 10
-537.23776905046873
 20
-1090.5632119879422
 30
0.0
  0
POINT
  8
0
  6
CONTINUOUS
 62
               4
  5
325
 10
-349.5837264462354
 20
-982.49532791890726
 30
0.0
  0
POINT
  8
0
  6
CONTINUOUS
 62
               4
  5
326
 10
242.83392368588085
 20
-1090.5632119879422
 30
0.0
  0
POINT
  8
0
  6
CONTINUOUS
 62
               4
  5
327
 10
-1.0781087646050196
 20
-1090.5632119879422
 30
0.0
  0
POINT
  8
0
  6
CONTINUOUS
 62
               4
  5
328
 10
165.37790746063803
 20
-1002.6071957626995
 30
0.0
  0
LINE
  8
0
  6
CONTINUOUS
 62
               4
  5
329
 10
686.2865232163075
 20
-1482.3425564118827
 30
0.0
 11
681.2865232163075
 21
-1477.3425564118827
 31
0.0
  0
ARC
  8
0
  6
CONTINUOUS
 62
               4
  5
32A
 10
663.7865232163075
 20
-1492.8782101647355
 30
0.0
 40
19.999999999999996
 50
0.0
 51
31.78833061703342
  0
LINE
  8
0
  6
CONTINUOUS
 62
               4
  5
32B
 10
680.78652321630796
 20
-1482.3425564118827
 30
0.0
 11
680.78652321630796
 21
-1477.3425564118822
 31
0.0
  0
LINE
  8
0
  6
CONTINUOUS
 62
               4
  5
32C
 10
681.2865232163075
 20
-1477.3425564118827
 30
0.0
 11
680.78652321630796
 21
-1477.3425564118827
 31
0.0
  0
LINE
  8
0
  6
CONTINUOUS
 62
               4
  5
32D
 10
686.03652321630773
 20
-1482.5925564118827
 30
0.0
 11
680.78652321630796
 21
-1477.3425564118827
 31
0.0
  0
LINE
  8
0
  6
CONTINUOUS
 62
               4
  5
32E
 10
686.03652321630773
 20
-1482.5925564118827
 30
0.0
 11
686.2865232163075
 21
-1482.3425564118827
 31
0.0
  0
LINE
  8
0
  6
CONTINUOUS
 62
               4
  5
32F
 10
686.2865232163075
 20
-1482.3425564118827
 30
0.0
 11
686.2865232163075
 21
-1613.0312337618527
 31
0.0
  0
LINE
  8
0
  6
CONTINUOUS
 62
               4
  5
330
 10
686.03652321630773
 20
-1482.5925564118827
 30
0.0
 11
686.03652321630773
 21
-1612.7458766547172
 31
0.0
  0
LINE
  8
0
  6
CONTINUOUS
 62
               4
  5
331
 10
683.7865232163075
 20
-1492.7251865676183
 30
0.0
 11
683.7865232163075
 21
-1611.8782101647355
 31
0.0
  0
POINT
  8
0
  6
CONTINUOUS
 62
               4
  5
332
 10
653.78652321630773
 20
-1221.7787764161515
 30
0.0
  0
POINT
  8
0
  6
CONTINUOUS
 62
               4
  5
333
 10
464.88652321630769
 20
-1507.3782101647355
 30
0.0
  0
POINT
  8
0
  6
CONTINUOUS
 62
               4
  5
334
 10
464.88652321630781
 20
-1121.8787764161509
 30
0.0
  0
LINE
  8
0
  6
DASHED2
 62
               4
  5
335
 10
543.0
 20
136.5849834932481
 30
0.0
 11
657.0
 21
136.5849834932481
 31
0.0
  0
LINE
  8
0
  6
DASHED2
 62
               4
  5
336
 10
-57.000000000000171
 20
136.5849834932481
 30
0.0
 11
56.999999999999829
 21
136.5849834932481
 31
0.0
  0
LINE
  8
0
  6
DASHED2
 62
               4
  5
337
 10
-542.99999999999977
 20
136.58498349324836
 30
0.0
 11
-656.99999999999977
 21
136.58498349324842
 31
0.0
  0
LINE
  8
0
  6
DASHED2
 62
               4
  5
338
 10
552.28652321630773
 20
-1450.8782101647355
 30
0.0
 11
666.2865232163075
 21
-1450.8782101647355
 31
0.0
  0
CIRCLE
  8
0
  6
DASHED
 62
               4
  5
339
 10
120.87790746063786
 20
-1625.2716163701457
 30
0.0
 40
53.124999999999986
  0
LINE
  8
0
  6
CONTINUOUS
 62
               3
  5
33A
 10
448.01625636724134
 20
-87.915016506751755
 30
0.0
 11
492.10469849010724
 21
-86.375414182128935
 31
0.0
  0
LINE
  8
0
  6
CONTINUOUS
 62
               3
  5
33B
 10
448.00000000000017
 20
-227.91501650675178
 30
0.0
 11
495.70500399824641
 21
-229.58091195497758
 31
0.0
  0
LINE
  8
0
  6
CONTINUOUS
 62
               3
  5
33C
 10
499.0660404206667
 20
-231.04233218414029
 30
0.0
 11
508.53553390593316
 21
-240.51182566940696
 31
0.0
  0
ARC
  8
0
  6
CONTINUOUS
 62
               3
  5
33D
 10
495.53050651473393
 20
-234.57786609007306
 30
0.0
 40
5.0
 50
44.999999999991154
 51
87.999999999982478
  0
ARC
  8
0
  6
CONTINUOUS
 62
               3
  5
33E
 10
505.00000000000023
 20
-244.04735957533961
 30
0.0
 40
5.0
 50
0.0
 51
44.999999999990919
  0
LINE
  8
0
  6
CONTINUOUS
 62
               3
  5
33F
 10
697.0
 20
-69.915016506751783
 30
0.0
 11
667.0
 21
-69.915016506751783
 31
0.0
  0
LINE
  8
0
  6
CONTINUOUS
 62
               3
  5
340
 10
705.00000000000023
 20
-71.41501650675184
 30
0.0
 11
705.00000000000023
 21
-86.415016506751911
 31
0.0
  0
LINE
  8
0
  6
CONTINUOUS
 62
               3
  5
341
 10
448.01625636724134
 20
-87.915016506751755
 30
0.0
 11
448.01625636724134
 21
-227.91558419160501
 31
0.0
  0
LINE
  8
0
  6
CONTINUOUS
 62
               3
  5
342
 10
697.0
 20
-69.915016506751783
 30
0.0
 11
697.5
 21
-71.41501650675184
 31
0.0
  0
LINE
  8
0
  6
CONTINUOUS
 62
               3
  5
343
 10
667.0
 20
-69.915016506751783
 30
0.0
 11
665.5
 21
-71.41501650675184
 31
0.0
  0
LINE
  8
0
  6
CONTINUOUS
 62
               3
  5
344
 10
697.5
 20
-71.41501650675184
 30
0.0
 11
705.00000000000023
 21
-71.41501650675184
 31
0.0
  0
LINE
  8
0
  6
CONTINUOUS
 62
               3
  5
345
 10
503.0
 20
-69.915016506751783
 30
0.0
 11
533.0
 21
-69.915016506751783
 31
0.0
  0
LINE
  8
0
  6
CONTINUOUS
 62
               3
  5
346
 10
494.99999999999983
 20
-71.41501650675184
 30
0.0
 11
494.99999999999989
 21
-86.41501650675184
 31
0.0
  0
ARC
  8
0
  6
CONTINUOUS
 62
               3
  5
347
 10
497.99999999999994
 20
-86.41501650675184
 30
0.0
 40
3.0000000000000004
 50
179.99999999996524
 51
269.99999999994731
  0
LINE
  8
0
  6
CONTINUOUS
 62
               3
  5
348
 10
503.0
 20
-69.915016506751783
 30
0.0
 11
502.5
 21
-71.41501650675184
 31
0.0
  0
LINE
  8
0
  6
CONTINUOUS
 62
               3
  5
349
 10
533.0
 20
-69.915016506751783
 30
0.0
 11
534.5
 21
-71.41501650675184
 31
0.0
  0
LINE
  8
0
  6
CONTINUOUS
 62
               3
  5
34A
 10
502.5
 20
-71.41501650675184
 30
0.0
 11
494.99999999999983
 21
-71.41501650675184
 31
0.0
  0
ARC
  8
0
  6
CONTINUOUS
 62
               3
  5
34B
 10
491.99999999999977
 20
-83.37724170107154
 30
0.0
 40
3.0000000000000004
 50
271.99999999994657
 51
359.99999999993042
  0
LINE
  8
0
  6
CONTINUOUS
 62
               3
  5
34C
 10
510.00000000000023
 20
-244.04735957533961
 30
0.0
 11
510.00000000000023
 21
-358.22732913995577
 31
0.0
  0
ARC
  8
0
  6
CONTINUOUS
 62
               3
  5
34D
 10
518.0
 20
-232.91501650675178
 30
0.0
 40
2.5
 50
89.999999999981569
 51
269.99999999994731
  0
LINE
  8
0
  6
CONTINUOUS
 62
               3
  5
34E
 10
534.5
 20
-71.41501650675184
 30
0.0
 11
665.5
 21
-71.41501650675184
 31
0.0
  0
LINE
  8
0
  6
CONTINUOUS
 62
               3
  5
34F
 10
687.72128783396693
 20
-378.22732913995577
 30
0.0
 11
673.27871216603285
 21
-504.98818892048314
 31
0.0
  0
LINE
  8
0
  6
CONTINUOUS
 62
               3
  5
350
 10
445.00000000000006
 20
-90.243460380787639
 30
0.0
 11
445.68781249320546
 21
-90.243460380787639
 31
0.0
  0
LINE
  8
0
  6
CONTINUOUS
 62
               3
  5
351
 10
448.01625636724134
 20
-87.915016506751755
 30
0.0
 11
445.68781249320546
 21
-90.243460380787639
 31
0.0
  0
LINE
  8
0
  6
CONTINUOUS
 62
               3
  5
352
 10
445.00000000000006
 20
-87.915016506751897
 30
0.0
 11
442.50000000000006
 21
-87.915016506751897
 31
0.0
  0
ARC
  8
0
  6
CONTINUOUS
 62
               3
  5
353
 10
442.50000000000006
 20
-90.415016506751897
 30
0.0
 40
2.5
 50
89.999999999982862
 51
179.99999999996524
  0
LINE
  8
0
  6
CONTINUOUS
 62
               3
  5
354
 10
445.00000000000006
 20
-225.5865726327159
 30
0.0
 11
445.68781249320546
 21
-225.5865726327159
 31
0.0
  0
LINE
  8
0
  6
CONTINUOUS
 62
               3
  5
355
 10
448.01625636724134
 20
-227.91501650675178
 30
0.0
 11
445.68781249320546
 21
-225.5865726327159
 31
0.0
  0
LINE
  8
0
  6
CONTINUOUS
 62
               3
  5
356
 10
445.00000000000006
 20
-227.91501650675164
 30
0.0
 11
442.50000000000006
 21
-227.91501650675164
 31
0.0
  0
ARC
  8
0
  6
CONTINUOUS
 62
               3
  5
357
 10
442.50000000000006
 20
-225.41501650675164
 30
0.0
 40
2.5
 50
179.99999999996507
 51
269.99999999994731
  0
LINE
  8
0
  6
CONTINUOUS
 62
               3
  5
358
 10
440.00000000000006
 20
-90.415016506751897
 30
0.0
 11
440.00000000000006
 21
-225.41501650675164
 31
0.0
  0
LINE
  8
0
  6
CONTINUOUS
 62
               3
  5
359
 10
445.00000000000006
 20
-227.91501650675164
 30
0.0
 11
445.00000000000006
 21
-87.915016506751897
 31
0.0
  0
LINE
  8
0
  6
CONTINUOUS
 62
               3
  5
35A
 10
445.68781249320546
 20
-90.243460380787639
 30
0.0
 11
445.68781249320546
 21
-225.5865726327159
 31
0.0
  0
LINE
  8
0
  6
CONTINUOUS
 62
               3
  5
35B
 10
689.99999999999977
 20
-235.41501650675178
 30
0.0
 11
690.0
 21
-358.22732913995452
 31
0.0
  0
LINE
  8
0
  6
CONTINUOUS
 62
               3
  5
35C
 10
690.48249763853119
 20
-376.07668039660649
 30
0.0
 11
692.20092160477179
 21
-360.99426681356704
 31
0.0
  0
ARC
  8
0
  6
CONTINUOUS
 62
               3
  5
35D
 10
689.71699196558029
 20
-360.71125877914722
 30
0.0
 40
2.5
 50
353.49999999993111
 51
443.49999999991383
  0
ARC
  8
0
  6
CONTINUOUS
 62
               3
  5
35E
 10
688.00429586838686
 20
-375.74339950076421
 30
0.0
 40
2.5
 50
263.49999999994833
 51
353.49999999993111
  0
LINE
  8
0
  6
CONTINUOUS
 62
               3
  5
35F
 10
509.51750236146881
 20
-376.07668039660649
 30
0.0
 11
507.79907839522821
 21
-360.99426681356704
 31
0.0
  0
ARC
  8
0
  6
CONTINUOUS
 62
               3
  5
360
 10
510.28300803441977
 20
-360.71125877914722
 30
0.0
 40
2.5
 50
96.499999999981398
 51
186.49999999996407
  0
ARC
  8
0
  6
CONTINUOUS
 62
               3
  5
361
 10
511.99570413161308
 20
-375.74339950076421
 30
0.0
 40
2.5
 50
186.49999999996407
 51
276.49999999994822
  0
LINE
  8
0
  6
CONTINUOUS
 62
               3
  5
362
 10
512.27871216603307
 20
-378.22732913995577
 30
0.0
 11
526.72128783396693
 21
-504.98818892048314
 31
0.0
  0
LINE
  8
0
  6
CONTINUOUS
 62
               3
  5
363
 10
495.0
 20
-45.707555324813313
 30
0.0
 11
495.0
 21
-61.416234852713629
 31
0.0
  0
LINE
  8
0
  6
CONTINUOUS
 62
               3
  5
364
 10
705.0
 20
-45.707555324813313
 30
0.0
 11
705.0
 21
-61.416234852713629
 31
0.0
  0
ARC
  8
0
  6
CONTINUOUS
 62
               3
  5
365
 10
496.99999999999994
 20
-61.416234852713629
 30
0.0
 40
2.0
 50
179.99999999996518
 51
267.9999999999485
  0
ARC
  8
0
  6
CONTINUOUS
 62
               3
  5
366
 10
102.99999999999977
 20
-45.707555324813313
 30
0.0
 40
2.0
 50
0.0
 51
87.99999999998434
  0
ARC
  8
0
  6
CONTINUOUS
 62
               3
  5
367
 10
-103.00000000000028
 20
-45.707555324813313
 30
0.0
 40
2.0
 50
91.999999999982265
 51
179.99999999996518
  0
ARC
  8
0
  6
CONTINUOUS
 62
               3
  5
368
 10
703.0
 20
-61.416234852713629
 30
0.0
 40
2.0
 50
271.99999999994765
 51
359.99999999993042
  0
LINE
  8
0
  6
CONTINUOUS
 62
               3
  5
369
 10
496.93020100659527
 20
-63.415016506751869
 30
0.0
 11
703.0697989934049
 21
-63.415016506751869
 31
0.0
  0
LINE
  8
0
  6
CONTINUOUS
 62
               3
  5
36A
 10
103.06979899340473
 20
-43.708773670775145
 30
0.0
 11
-103.06979899340519
 21
-43.708773670775074
 31
0.0
  0
LINE
  8
0
  6
CONTINUOUS
 62
               3
  5
36B
 10
499.49999999999994
 20
-63.415016506751869
 30
0.0
 11
499.49999999999994
 21
-71.41501650675184
 31
0.0
  0
LINE
  8
0
  6
CONTINUOUS
 62
               3
  5
36C
 10
700.5
 20
-71.41501650675184
 30
0.0
 11
700.5
 21
-63.415016506751869
 31
0.0
  0
LINE
  8
0
  6
CONTINUOUS
 62
               3
  5
36D
 10
512.27871216603307
 20
-378.22732913995577
 30
0.0
 11
566.26554096839163
 21
-378.22732913995583
 31
0.0
  0
LINE
  8
0
  6
CONTINUOUS
 62
               3
  5
36E
 10
622.49281686746804
 20
-378.22732913995577
 30
0.0
 11
687.72128783396693
 21
-378.22732913995577
 31
0.0
  0
LINE
  8
0
  6
CONTINUOUS
 62
               3
  5
36F
 10
510.00000000000023
 20
-358.22732913995577
 30
0.0
 11
552.26271413286463
 21
-358.22732913995583
 31
0.0
  0
LINE
  8
0
  6
CONTINUOUS
 62
               3
  5
370
 10
598.89704164125374
 20
-358.22732913995577
 30
0.0
 11
690.0
 21
-358.22732913995577
 31
0.0
  0
ARC
  8
0
  6
CONTINUOUS
 62
               3
  5
371
 10
-77.781745930519889
 20
553.55361168863419
 30
0.0
 40
17.5
 50
187.69820970781666
 51
262.3017902920962
  0
ARC
  8
0
  6
CONTINUOUS
 62
               3
  5
372
 10
-77.781745930519889
 20
709.11710354967454
 30
0.0
 40
17.5
 50
97.698209707834252
 51
172.30179029211342
  0
LINE
  8
0
  6
CONTINUOUS
 62
               3
  5
373
 10
-14.065298163392242
 20
735.38903313124206
 30
0.0
 11
-80.125962291085273
 21
726.45938280168912
 31
0.0
  0
ARC
  8
0
  6
CONTINUOUS
 62
               3
  5
374
 10
77.781745930520344
 20
553.55361168863419
 30
0.0
 40
17.5
 50
277.69820970779938
 51
352.30179029207886
  0
LINE
  8
0
  6
CONTINUOUS
 62
               3
  5
375
 10
95.124025182534922
 20
551.20939532806869
 30
0.0
 11
104.05367551208775
 21
617.27005945576184
 31
0.0
  0
ARC
  8
0
  6
CONTINUOUS
 62
               3
  5
376
 10
77.781745930520344
 20
709.11710354967454
 30
0.0
 40
17.5
 50
7.6982097078516123
 51
82.30179029213096
  0
LINE
  8
0
  6
CONTINUOUS
 62
               3
  5
377
 10
95.124025182534922
 20
711.46131991023981
 30
0.0
 11
104.05367551208775
 21
645.40065578254644
 31
0.0
  0
LINE
  8
0
  6
CONTINUOUS
 62
               3
  5
378
 10
14.065298163392697
 20
735.38903313124206
 30
0.0
 11
80.125962291085727
 21
726.45938280168912
 31
0.0
  0
ARC
  8
0
  6
CONTINUOUS
 62
               3
  5
379
 10
0.0000000000000569
 20
631.33535761915437
 30
0.0
 40
105.0
 50
352.30179029207881
 51
367.69820970778198
  0
ARC
  8
0
  6
CONTINUOUS
 62
               3
  5
37A
 10
0.0000000000000569
 20
631.33535761915437
 30
0.0
 40
105.0
 50
82.301790292130931
 51
97.698209707834295
  0
LINE
  8
0
  6
CONTINUOUS
 62
               3
  5
37B
 10
80.35874036988622
 20
686.94536486424317
 30
0.0
 11
90.15611408602507
 21
696.74273858038214
 31
0.0
  0
ARC
  8
0
  6
CONTINUOUS
 62
               3
  5
37C
 10
77.781745930520344
 20
709.11710354967454
 30
0.0
 40
17.499997018320407
 50
315.00000737633798
 51
367.8164458420153
  0
LINE
  8
0
  6
CONTINUOUS
 62
               3
  5
37D
 10
80.35874036988622
 20
575.72535037406533
 30
0.0
 11
90.15611408602507
 21
565.92797665792637
 31
0.0
  0
ARC
  8
0
  6
CONTINUOUS
 62
               3
  5
37E
 10
77.781745930520344
 20
553.55361168863396
 30
0.0
 40
17.499997018320407
 50
352.18355415784561
 51
404.99999262352287
  0
ARC
  8
0
  6
CONTINUOUS
 62
               3
  5
37F
 10
-77.781745930519889
 20
553.55361168863396
 30
0.0
 40
17.499997018320407
 50
135.00000737637271
 51
187.81644584205023
  0
ARC
  8
0
  6
CONTINUOUS
 62
               3
  5
380
 10
-77.781745930519889
 20
709.11710354967454
 30
0.0
 40
17.499997018320407
 50
172.1835541578802
 51
224.9999926235576
  0
LINE
  8
0
  6
CONTINUOUS
 62
               3
  5
381
 10
-80.358740369885766
 20
686.94536486424363
 30
0.0
 11
-84.602312243228482
 21
691.18893673758566
 31
0.0
  0
LINE
  8
0
  6
CONTINUOUS
 62
               3
  5
382
 10
-90.156114086024843
 20
696.74273858038214
 30
0.0
 11
-84.602312243228482
 21
691.18893673758566
 31
0.0
  0
LINE
  8
0
  6
CONTINUOUS
 62
               3
  5
383
 10
-80.358740369886675
 20
575.72535037406305
 30
0.0
 11
-84.602312243229278
 21
571.48177850072375
 31
0.0
  0
LINE
  8
0
  6
CONTINUOUS
 62
               3
  5
384
 10
-90.156114086024843
 20
565.92797665792637
 30
0.0
 11
-84.602312243229278
 21
571.48177850072375
 31
0.0
  0
LINE
  8
0
  6
CONTINUOUS
 62
               3
  5
385
 10
-71.947547727387416
 20
535.1058276211852
 30
0.0
 11
-80.125962291085273
 21
536.21133243661939
 31
0.0
  0
LINE
  8
0
  6
CONTINUOUS
 62
               3
  5
386
 10
-71.947547727387416
 20
535.1058276211852
 30
0.0
 11
-14.065298163392242
 21
527.28168210706644
 31
0.0
  0
ARC
  8
0
  6
CONTINUOUS
 62
               3
  5
387
 10
0.0000000000000569
 20
631.33535761915437
 30
0.0
 40
105.0
 50
262.30179029209609
 51
277.69820970779949
  0
LINE
  8
0
  6
CONTINUOUS
 62
               3
  5
388
 10
71.946977350147392
 20
535.1057505213048
 30
0.0
 11
80.125962291085727
 21
536.21133243661939
 31
0.0
  0
LINE
  8
0
  6
CONTINUOUS
 62
               3
  5
389
 10
14.065298163392697
 20
527.28168210706644
 30
0.0
 11
71.946977350147392
 21
535.1057505213048
 31
0.0
  0
LINE
  8
0
  6
CONTINUOUS
 62
               3
  5
38A
 10
-97.927212261739271
 20
571.94709426277063
 30
0.0
 11
-104.05367551208764
 21
617.27005945576207
 31
0.0
  0
LINE
  8
0
  6
CONTINUOUS
 62
               3
  5
38B
 10
-95.124025182534695
 20
551.20939532806869
 30
0.0
 11
-97.927212261739271
 21
571.94709426277063
 31
0.0
  0
ARC
  8
0
  6
CONTINUOUS
 62
               3
  5
38C
 10
0.0000000000000569
 20
631.33535761915437
 30
0.0
 40
105.0
 50
172.30179029211357
 51
187.69820970781677
  0
LINE
  8
0
  6
CONTINUOUS
 62
               3
  5
38D
 10
-104.05367551208764
 20
645.40065578254644
 30
0.0
 11
-97.942109154802949
 21
690.61341524374438
 31
0.0
  0
LINE
  8
0
  6
CONTINUOUS
 62
               3
  5
38E
 10
-95.124025182534695
 20
711.46131991023981
 30
0.0
 11
-97.942109154802949
 21
690.61341524374438
 31
0.0
  0
CIRCLE
  8
0
  6
CONTINUOUS
 62
               3
  5
38F
 10
0.0000000000000569
 20
631.33535761915414
 30
0.0
 40
90.0
  0
ARC
  8
0
  6
CONTINUOUS
 62
               3
  5
390
 10
87.429808181751753
 20
582.79641818593086
 30
0.0
 40
10.0
 50
150.96201238593227
 51
224.99999999995666
  0
ARC
  8
0
  6
CONTINUOUS
 62
               3
  5
391
 10
87.429808181751525
 20
679.87429705237764
 30
0.0
 40
10.0
 50
134.99999999997351
 51
209.03798761399844
  0
ARC
  8
0
  6
CONTINUOUS
 62
               3
  5
392
 10
-87.42980818175073
 20
582.79641818592972
 30
0.0
 40
10.0
 50
314.99999999992872
 51
389.03798761396382
  0
ARC
  8
0
  6
CONTINUOUS
 62
               3
  5
393
 10
-87.429808181751071
 20
679.8742970523781
 30
0.0
 40
10.0
 50
330.96201238589686
 51
404.99999999992207
  0
LINE
  8
0
  6
CONTINUOUS
 62
               3
  5
394
 10
-69.999999999999602
 20
479.35161398639553
 30
0.0
 11
70.000567684853479
 21
479.35161398639553
 31
0.0
  0
LINE
  8
0
  6
CONTINUOUS
 62
               3
  5
395
 10
-67.671556125963718
 20
476.33535761915431
 30
0.0
 11
-67.671556125963718
 21
477.02317011235965
 31
0.0
  0
LINE
  8
0
  6
CONTINUOUS
 62
               3
  5
396
 10
-69.999999999999602
 20
479.35161398639553
 30
0.0
 11
-67.671556125963718
 21
477.02317011235965
 31
0.0
  0
LINE
  8
0
  6
CONTINUOUS
 62
               3
  5
397
 10
-69.999999999999602
 20
476.33535761915431
 30
0.0
 11
-69.999999999999602
 21
473.83535761915431
 31
0.0
  0
ARC
  8
0
  6
CONTINUOUS
 62
               3
  5
398
 10
-67.499999999999602
 20
473.83535761915431
 30
0.0
 40
2.5
 50
179.99999999996572
 51
269.99999999994793
  0
LINE
  8
0
  6
CONTINUOUS
 62
               3
  5
399
 10
67.671556125964514
 20
476.33535761915431
 30
0.0
 11
67.671556125964514
 21
477.02317011235965
 31
0.0
  0
LINE
  8
0
  6
CONTINUOUS
 62
               3
  5
39A
 10
70.000000000000398
 20
479.35161398639553
 30
0.0
 11
67.671556125964514
 21
477.02317011235965
 31
0.0
  0
LINE
  8
0
  6
CONTINUOUS
 62
               3
  5
39B
 10
70.000000000000057
 20
476.33535761915431
 30
0.0
 11
70.000000000000057
 21
473.83535761915431
 31
0.0
  0
ARC
  8
0
  6
CONTINUOUS
 62
               3
  5
39C
 10
67.500000000000057
 20
473.83535761915431
 30
0.0
 40
2.5
 50
269.99999999994793
 51
359.99999999993145
  0
LINE
  8
0
  6
CONTINUOUS
 62
               3
  5
39D
 10
-67.499999999999602
 20
471.33535761915431
 30
0.0
 11
67.500000000000057
 21
471.33535761915431
 31
0.0
  0
LINE
  8
0
  6
CONTINUOUS
 62
               3
  5
39E
 10
70.000000000000057
 20
476.33535761915431
 30
0.0
 11
-69.999999999999602
 21
476.33535761915431
 31
0.0
  0
LINE
  8
0
  6
CONTINUOUS
 62
               3
  5
39F
 10
-67.671556125963718
 20
477.02317011235965
 30
0.0
 11
67.671556125964514
 21
477.02317011235965
 31
0.0
  0
LINE
  8
0
  6
CONTINUOUS
 62
               3
  5
3A0
 10
-69.999999999999602
 20
479.35161398639553
 30
0.0
 11
-71.946977350146597
 21
535.10575052130457
 31
0.0
  0
LINE
  8
0
  6
CONTINUOUS
 62
               3
  5
3A1
 10
70.000000000000398
 20
479.33535761915442
 30
0.0
 11
71.947547727388439
 21
535.10582762118543
 31
0.0
  0
LINE
  8
0
  6
CONTINUOUS
 62
               3
  5
3A2
 10
-96.999999999999829
 20
-69.915016506751783
 30
0.0
 11
-66.999999999999829
 21
-69.915016506751783
 31
0.0
  0
LINE
  8
0
  6
CONTINUOUS
 62
               3
  5
3A3
 10
105.00000000000003
 20
-71.415016506751812
 30
0.0
 11
105.00000000000003
 21
-86.415016506751954
 31
0.0
  0
LINE
  8
0
  6
CONTINUOUS
 62
               3
  5
3A4
 10
-96.999999999999829
 20
-69.915016506751783
 30
0.0
 11
-97.499999999999829
 21
-71.415016506751769
 31
0.0
  0
LINE
  8
0
  6
CONTINUOUS
 62
               3
  5
3A5
 10
-66.999999999999829
 20
-69.915016506751783
 30
0.0
 11
-65.499999999999829
 21
-71.415016506751769
 31
0.0
  0
LINE
  8
0
  6
CONTINUOUS
 62
               3
  5
3A6
 10
-97.499999999999829
 20
-71.415016506751769
 30
0.0
 11
-105.00000000000006
 21
-71.415016506751769
 31
0.0
  0
LINE
  8
0
  6
CONTINUOUS
 62
               3
  5
3A7
 10
97.000000000000284
 20
-69.915016506751925
 30
0.0
 11
67.000000000000284
 21
-69.915016506751925
 31
0.0
  0
LINE
  8
0
  6
CONTINUOUS
 62
               3
  5
3A8
 10
97.000000000000284
 20
-69.915016506751925
 30
0.0
 11
97.500000000000057
 21
-71.415016506751911
 31
0.0
  0
LINE
  8
0
  6
CONTINUOUS
 62
               3
  5
3A9
 10
67.000000000000284
 20
-69.915016506751925
 30
0.0
 11
65.500000000000171
 21
-71.41501650675184
 31
0.0
  0
LINE
  8
0
  6
CONTINUOUS
 62
               3
  5
3AA
 10
97.500000000000057
 20
-71.415016506751911
 30
0.0
 11
105.0000000000004
 21
-71.415016506751911
 31
0.0
  0
LINE
  8
0
  6
CONTINUOUS
 62
               3
  5
3AB
 10
65.500000000000171
 20
-71.41501650675184
 30
0.0
 11
-65.499999999999829
 21
-71.415016506751769
 31
0.0
  0
ARC
  8
0
  6
CONTINUOUS
 62
               3
  5
3AC
 10
43.284018445715958
 20
-232.91501650675184
 30
0.0
 40
2.5
 50
89.999999999982535
 51
269.99999999994782
  0
LINE
  8
0
  6
CONTINUOUS
 62
               3
  5
3AD
 10
43.284018445715851
 20
-235.41501650675181
 30
0.0
 11
89.999999999999275
 21
-235.41501650675178
 31
0.0
  0
LINE
  8
0
  6
CONTINUOUS
 62
               3
  5
3AE
 10
43.284018445715859
 20
-230.41501650675181
 30
0.0
 11
89.999999999999275
 21
-230.41501650675178
 31
0.0
  0
ARC
  8
0
  6
CONTINUOUS
 62
               3
  5
3AF
 10
-43.284018445715958
 20
-232.91501650675178
 30
0.0
 40
2.5
 50
269.99999999994782
 51
449.99999999991297
  0
LINE
  8
0
  6
CONTINUOUS
 62
               3
  5
3B0
 10
-87.721287833966983
 20
-378.22732913995577
 30
0.0
 11
-73.278712166033017
 21
-504.98818892048314
 31
0.0
  0
ARC
  8
0
  6
CONTINUOUS
 62
               3
  5
3B1
 10
89.999999999999275
 20
-232.91501650675178
 30
0.0
 40
2.5
 50
269.99999999994793
 51
449.99999999991297
  0
LINE
  8
0
  6
CONTINUOUS
 62
               3
  5
3B2
 10
16.673332000533627
 20
-89.415016506751897
 30
0.0
 11
101.9999999999999
 21
-89.415016506751925
 31
0.0
  0
LINE
  8
0
  6
CONTINUOUS
 62
               3
  5
3B3
 10
-90.482497638531129
 20
-376.07668039660649
 30
0.0
 11
-92.200921604771736
 21
-360.99426681356698
 31
0.0
  0
ARC
  8
0
  6
CONTINUOUS
 62
               3
  5
3B4
 10
-89.716991965580235
 20
-360.71125877914722
 30
0.0
 40
2.5
 50
96.499999999981398
 51
186.49999999996413
  0
ARC
  8
0
  6
CONTINUOUS
 62
               3
  5
3B5
 10
-88.004295868386919
 20
-375.74339950076416
 30
0.0
 40
2.5
 50
186.49999999996413
 51
276.49999999994787
  0
LINE
  8
0
  6
CONTINUOUS
 62
               3
  5
3B6
 10
105.00000000000006
 20
-45.707555324813384
 30
0.0
 11
105.00000000000006
 21
-61.4162348527137
 31
0.0
  0
LINE
  8
0
  6
CONTINUOUS
 62
               3
  5
3B7
 10
-104.99999999999983
 20
-45.707555324813242
 30
0.0
 11
-104.99999999999983
 21
-61.416234852713558
 31
0.0
  0
ARC
  8
0
  6
CONTINUOUS
 62
               3
  5
3B8
 10
103.00000000000017
 20
-61.4162348527137
 30
0.0
 40
2.0
 50
271.99999999994685
 51
359.99999999993037
  0
ARC
  8
0
  6
CONTINUOUS
 62
               3
  5
3B9
 10
496.99999999999949
 20
-45.707555324813384
 30
0.0
 40
2.0
 50
91.999999999980631
 51
179.99999999996518
  0
ARC
  8
0
  6
CONTINUOUS
 62
               3
  5
3BA
 10
702.99999999999955
 20
-45.707555324813242
 30
0.0
 40
2.0
 50
0.0
 51
87.999999999983118
  0
ARC
  8
0
  6
CONTINUOUS
 62
               3
  5
3BB
 10
-102.99999999999983
 20
-61.416234852713558
 30
0.0
 40
2.0
 50
179.99999999996515
 51
267.9999999999481
  0
LINE
  8
0
  6
CONTINUOUS
 62
               3
  5
3BC
 10
103.06979899340496
 20
-63.41501650675194
 30
0.0
 11
-103.06979899340473
 21
-63.415016506751797
 31
0.0
  0
LINE
  8
0
  6
CONTINUOUS
 62
               3
  5
3BD
 10
496.93020100659459
 20
-43.708773670775216
 30
0.0
 11
703.06979899340445
 21
-43.708773670775003
 31
0.0
  0
LINE
  8
0
  6
CONTINUOUS
 62
               3
  5
3BE
 10
100.50000000000017
 20
-63.41501650675194
 30
0.0
 11
100.50000000000017
 21
-71.415016506751911
 31
0.0
  0
LINE
  8
0
  6
CONTINUOUS
 62
               3
  5
3BF
 10
-100.49999999999983
 20
-71.415016506751769
 30
0.0
 11
-100.49999999999983
 21
-63.415016506751797
 31
0.0
  0
LINE
  8
0
  6
CONTINUOUS
 62
               3
  5
3C0
 10
71.618330205241762
 20
-378.22732913995526
 30
0.0
 11
-87.721287833966983
 21
-378.22732913995577
 31
0.0
  0
ARC
  8
0
  6
CONTINUOUS
 62
               3
  5
3C1
 10
101.99999999999991
 20
-86.415016506751954
 30
0.0
 40
3.0000000000000004
 50
269.99999999994782
 51
359.99999999993042
  0
LINE
  8
0
  6
CONTINUOUS
 62
               3
  5
3C2
 10
89.999999999999275
 20
-235.41501650675178
 30
0.0
 11
89.999999999999901
 21
-358.22732913995452
 31
0.0
  0
LINE
  8
0
  6
CONTINUOUS
 62
               3
  5
3C3
 10
509.99999999999892
 20
93.382551620026135
 30
0.0
 11
509.99999999999903
 21
-38.423922358787792
 31
0.0
  0
ARC
  8
0
  6
CONTINUOUS
 62
               3
  5
3C4
 10
505.00000000000279
 20
-38.423922358788005
 30
0.0
 40
5.0
 50
271.99999999994765
 51
359.99999999993048
  0
LINE
  8
0
  6
CONTINUOUS
 62
               3
  5
3C5
 10
689.99999999999886
 20
93.382551620026305
 30
0.0
 11
689.99999999999909
 21
-38.423922358787721
 31
0.0
  0
ARC
  8
0
  6
CONTINUOUS
 62
               3
  5
3C6
 10
695.00000000000296
 20
-38.423922358787934
 30
0.0
 40
5.0
 50
179.99999999996524
 51
267.99999999994884
  0
LINE
  8
0
  6
CONTINUOUS
 62
               3
  5
3C7
 10
496.93020100659788
 20
-43.708773670775571
 30
0.0
 11
505.17449748351527
 21
-43.420876493883426
 31
0.0
  0
LINE
  8
0
  6
CONTINUOUS
 62
               3
  5
3C8
 10
703.06979899340786
 20
-43.708773670775429
 30
0.0
 11
694.82550251649013
 21
-43.420876493883355
 31
0.0
  0
ARC
  8
0
  6
CONTINUOUS
 62
               3
  5
3C9
 10
94.999999999999105
 20
-94.415016506751925
 30
0.0
 40
5.0
 50
89.999999999982705
 51
179.99999999996518
  0
CIRCLE
  8
0
  6
CONTINUOUS
 62
               3
  5
3CA
 10
-0.0000000000001705
 20
-157.91501650675175
 30
0.0
 40
60.999999999999879
  0
CIRCLE
  8
0
  6
CONTINUOUS
 62
               3
  5
3CB
 10
-0.0000000000001705
 20
-157.91501650675175
 30
0.0
 40
59.799999999999862
  0
CIRCLE
  8
0
  6
CONTINUOUS
 62
               3
  5
3CC
 10
-0.0000000000001705
 20
-157.91501650675175
 30
0.0
 40
55.499999999999865
  0
CIRCLE
  8
0
  6
CONTINUOUS
 62
               3
  5
3CD
 10
-0.0000000000001705
 20
-157.91501650675175
 30
0.0
 40
51.249999999999865
  0
ARC
  8
0
  6
CONTINUOUS
 62
               3
  5
3CE
 10
-0.0000000000001705
 20
-157.91501650675175
 30
0.0
 40
57.499999999999865
 50
224.99999999995646
 51
314.99999999993912
  0
LINE
  8
0
  6
CONTINUOUS
 62
               3
  5
3CF
 10
-40.658639918226584
 20
-198.57365642497814
 30
0.0
 11
-42.284985514955736
 21
-200.20000202170721
 31
0.0
  0
LINE
  8
0
  6
CONTINUOUS
 62
               3
  5
3D0
 10
40.658639918226243
 20
-198.57365642497814
 30
0.0
 11
42.284985514955281
 21
-200.20000202170721
 31
0.0
  0
CIRCLE
  8
0
  6
CONTINUOUS
 62
               3
  5
3D1
 10
-0.0000000000001705
 20
-157.91501650675175
 30
0.0
 40
70.5
  0
LINE
  8
0
  6
CONTINUOUS
 62
               3
  5
3D2
 10
89.999999999999829
 20
-358.22732913995594
 30
0.0
 11
87.319702451004957
 21
-358.22732913995594
 31
0.0
  0
LINE
  8
0
  6
CONTINUOUS
 62
               3
  5
3D3
 10
63.523568479849189
 20
-358.22732913995605
 30
0.0
 11
-89.999999999999943
 21
-358.22732913995577
 31
0.0
  0
LINE
  8
0
  6
CONTINUOUS
 62
               3
  5
3D4
 10
89.999999999999829
 20
-358.22732913995634
 30
0.0
 11
87.804782795571043
 21
-377.49450326709052
 31
0.0
  0
LINE
  8
0
  6
CONTINUOUS
 62
               3
  5
3D5
 10
83.821482880069368
 20
-412.45547793407911
 30
0.0
 11
73.278712166032903
 21
-504.98818892048325
 31
0.0
  0
ARC
  8
0
  6
CONTINUOUS
 62
               3
  5
3D6
 10
694.99999999999886
 20
-94.415016506751883
 30
0.0
 40
5.0
 50
89.999999999982862
 51
179.99999999996524
  0
LINE
  8
0
  6
CONTINUOUS
 62
               3
  5
3D7
 10
689.99999999999886
 20
-94.415016506751883
 30
0.0
 11
689.99999999999886
 21
-103.80720647678284
 31
0.0
  0
LINE
  8
0
  6
CONTINUOUS
 62
               3
  5
3D8
 10
697.03489949670188
 20
-186.94871855896463
 30
0.0
 11
694.82550251648718
 21
-187.02587240162603
 31
0.0
  0
ARC
  8
0
  6
CONTINUOUS
 62
               3
  5
3D9
 10
695.0
 20
-192.02282653672154
 30
0.0
 40
5.0
 50
91.999999999981284
 51
179.99999999996507
  0
LINE
  8
0
  6
CONTINUOUS
 62
               3
  5
3DA
 10
697.03489949670188
 20
-108.88131445453961
 30
0.0
 11
694.82550251648763
 21
-108.80416061187833
 31
0.0
  0
ARC
  8
0
  6
CONTINUOUS
 62
               3
  5
3DB
 10
695.0
 20
-103.80720647678284
 30
0.0
 40
5.0
 50
179.99999999996518
 51
267.99999999994884
  0
LINE
  8
0
  6
CONTINUOUS
 62
               3
  5
3DC
 10
697.99999999999955
 20
-185.94932773194552
 30
0.0
 11
697.99999999999955
 21
-109.88070528155869
 31
0.0
  0
ARC
  8
0
  6
CONTINUOUS
 62
               3
  5
3DD
 10
696.99999999999955
 20
-185.94932773194552
 30
0.0
 40
1.0
 50
271.99999999994441
 51
359.99999999993082
  0
ARC
  8
0
  6
CONTINUOUS
 62
               3
  5
3DE
 10
696.99999999999955
 20
-109.88070528155869
 30
0.0
 40
1.0
 50
0.0
 51
87.999999999996149
  0
LINE
  8
0
  6
CONTINUOUS
 62
               3
  5
3DF
 10
689.99999999999886
 20
-192.02282653672154
 30
0.0
 11
689.99999999999909
 21
-230.41501650675175
 31
0.0
  0
ARC
  8
0
  6
CONTINUOUS
 62
               3
  5
3E0
 10
689.99999999999909
 20
-232.91501650675175
 30
0.0
 40
2.5
 50
269.99999999994731
 51
449.99999999991297
  0
ARC
  8
0
  6
CONTINUOUS
 62
               3
  5
3E1
 10
701.99999999999977
 20
-86.415016506751911
 30
0.0
 40
3.0000000000000004
 50
269.99999999994731
 51
359.99999999993048
  0
CIRCLE
  8
0
  6
CONTINUOUS
 62
               3
  5
3E2
 10
0.0000000000000569
 20
631.33535761915437
 30
0.0
 40
52.5
  0
LINE
  8
0
  6
CONTINUOUS
 62
               3
  5
3E3
 10
20.000000000000057
 20
717.54585581977881
 30
0.0
 11
20.000000000000057
 21
703.61951909315826
 31
0.0
  0
LINE
  8
0
  6
CONTINUOUS
 62
               3
  5
3E4
 10
-19.999999999999943
 20
703.61951909315826
 30
0.0
 11
-19.999999999999943
 21
717.54585581977881
 31
0.0
  0
ARC
  8
0
  6
CONTINUOUS
 62
               3
  5
3E5
 10
0.0000000000000569
 20
631.33535761915437
 30
0.0
 40
88.5
 50
76.938975885184561
 51
103.06102411478062
  0
LINE
  8
0
  6
CONTINUOUS
 62
               3
  5
3E6
 10
-19.999999999999943
 20
545.12485941852901
 30
0.0
 11
-19.999999999999943
 21
559.05119614514888
 31
0.0
  0
ARC
  8
0
  6
CONTINUOUS
 62
               3
  5
3E7
 10
0.0000000000000569
 20
631.33535761915437
 30
0.0
 40
88.5
 50
256.93897588514983
 51
283.06102411474581
  0
LINE
  8
0
  6
CONTINUOUS
 62
               3
  5
3E8
 10
20.000000000000057
 20
559.05119614514888
 30
0.0
 11
20.000000000000057
 21
545.12485941852901
 31
0.0
  0
LINE
  8
0
  6
CONTINUOUS
 62
               3
  5
3E9
 10
-86.210498200625523
 20
651.33535761915437
 30
0.0
 11
-72.284161474004748
 21
651.33535761915437
 31
0.0
  0
ARC
  8
0
  6
CONTINUOUS
 62
               3
  5
3EA
 10
0.0000000000000569
 20
631.33535761915437
 30
0.0
 40
88.5
 50
166.9389758851672
 51
193.06102411476317
  0
LINE
  8
0
  6
CONTINUOUS
 62
               3
  5
3EB
 10
-72.284161474004748
 20
611.33535761915437
 30
0.0
 11
-86.210498200625523
 21
611.33535761915437
 31
0.0
  0
LINE
  8
0
  6
CONTINUOUS
 62
               3
  5
3EC
 10
86.210498200624954
 20
611.33535761915437
 30
0.0
 11
72.284161474005089
 21
611.33535761915437
 31
0.0
  0
ARC
  8
0
  6
CONTINUOUS
 62
               3
  5
3ED
 10
0.0000000000000569
 20
631.33535761915437
 30
0.0
 40
88.5
 50
346.93897588513232
 51
373.06102411472841
  0
LINE
  8
0
  6
CONTINUOUS
 62
               3
  5
3EE
 10
72.284161474005089
 20
651.33535761915414
 30
0.0
 11
86.210498200624954
 21
651.33535761915414
 31
0.0
  0
CIRCLE
  8
0
  6
CONTINUOUS
 62
               3
  5
3EF
 10
0.0000000000000569
 20
631.33535761915437
 30
0.0
 40
75.0
  0
CIRCLE
  8
0
  6
CONTINUOUS
 62
               3
  5
3F0
 10
0.0000000000001706
 20
631.33535761915414
 30
0.0
 40
59.0
  0
LINE
  8
0
  6
CONTINUOUS
 62
               3
  5
3F1
 10
523.5
 20
179.11164213704336
 30
0.0
 11
523.49999999999818
 21
201.5849834932481
 31
0.0
  0
LINE
  8
0
  6
CONTINUOUS
 62
               3
  5
3F2
 10
676.49999999999977
 20
179.11164213704348
 30
0.0
 11
676.49999999999977
 21
201.5849834932481
 31
0.0
  0
LINE
  8
0
  6
CONTINUOUS
 62
               3
  5
3F3
 10
528.0
 20
174.11468800194774
 30
0.0
 11
528.0
 21
113.88255162002605
 31
0.0
  0
ARC
  8
0
  6
CONTINUOUS
 62
               3
  5
3F4
 10
523.0
 20
174.11468800194774
 30
0.0
 40
5.0
 50
0.0
 51
87.999999999983118
  0
LINE
  8
0
  6
CONTINUOUS
 62
               3
  5
3F5
 10
672.0
 20
174.54438738706386
 30
0.0
 11
672.0
 21
113.88255162002605
 31
0.0
  0
LINE
  8
0
  6
CONTINUOUS
 62
               3
  5
3F6
 10
511.50000000000006
 20
179.51932457259699
 30
0.0
 11
511.50000000000006
 21
186.51932457259664
 31
0.0
  0
LINE
  8
0
  6
CONTINUOUS
 62
               3
  5
3F7
 10
511.50000000000017
 20
179.51932457259699
 30
0.0
 11
523.17449748351237
 21
179.11164213704313
 31
0.0
  0
ARC
  8
0
  6
CONTINUOUS
 62
               3
  5
3F8
 10
677.0
 20
174.11468800194785
 30
0.0
 40
5.0
 50
91.999999999982577
 51
179.99999999996541
  0
LINE
  8
0
  6
CONTINUOUS
 62
               3
  5
3F9
 10
688.49999999999977
 20
179.5193245725971
 30
0.0
 11
688.49999999999977
 21
186.51932457259687
 31
0.0
  0
LINE
  8
0
  6
CONTINUOUS
 62
               3
  5
3FA
 10
688.49999999999977
 20
179.5193245725971
 30
0.0
 11
676.8255025164874
 21
179.11164213704336
 31
0.0
  0
LINE
  8
0
  6
CONTINUOUS
 62
               3
  5
3FB
 10
530.49999999999886
 20
113.88255162002605
 30
0.0
 11
588.27299999999991
 21
113.88255162002605
 31
0.0
  0
LINE
  8
0
  6
CONTINUOUS
 62
               3
  5
3FC
 10
611.72699999999918
 20
113.88255162002605
 30
0.0
 11
669.49999999999886
 21
113.88255162002605
 31
0.0
  0
ARC
  8
0
  6
CONTINUOUS
 62
               3
  5
3FD
 10
530.49999999999886
 20
93.382551620026163
 30
0.0
 40
20.5
 50
89.999999999982649
 51
179.99999999996518
  0
ARC
  8
0
  6
CONTINUOUS
 62
               3
  5
3FE
 10
669.49999999999886
 20
93.382551620026277
 30
0.0
 40
20.5
 50
0.0
 51
89.999999999982649
  0
LINE
  8
0
  6
CONTINUOUS
 62
               3
  5
3FF
 10
-69.500000000001194
 20
113.88255162002616
 30
0.0
 11
69.500000000001421
 21
113.88255162002616
 31
0.0
  0
LINE
  8
0
  6
CONTINUOUS
 62
               3
  5
400
 10
-76.500000000000057
 20
179.11164213704336
 30
0.0
 11
-76.500000000001762
 21
201.5849834932481
 31
0.0
  0
LINE
  8
0
  6
CONTINUOUS
 62
               3
  5
401
 10
76.499999999999829
 20
179.11164213704348
 30
0.0
 11
76.499999999999829
 21
201.5849834932481
 31
0.0
  0
ARC
  8
0
  6
CONTINUOUS
 62
               3
  5
402
 10
-77.000000000000171
 20
174.11468800194785
 30
0.0
 40
5.0
 50
0.0
 51
87.999999999983118
  0
LINE
  8
0
  6
CONTINUOUS
 62
               3
  5
403
 10
-88.499999999999943
 20
179.51932457259699
 30
0.0
 11
-88.499999999999943
 21
186.51932457259676
 31
0.0
  0
LINE
  8
0
  6
CONTINUOUS
 62
               3
  5
404
 10
-88.499999999999943
 20
179.51932457259699
 30
0.0
 11
-76.825502516487575
 21
179.11164213704325
 31
0.0
  0
ARC
  8
0
  6
CONTINUOUS
 62
               3
  5
405
 10
76.999999999999829
 20
174.11468800194785
 30
0.0
 40
5.0
 50
91.999999999982265
 51
179.99999999996541
  0
LINE
  8
0
  6
CONTINUOUS
 62
               3
  5
406
 10
88.499999999999829
 20
179.5193245725971
 30
0.0
 11
88.499999999999829
 21
186.51932457259687
 31
0.0
  0
LINE
  8
0
  6
CONTINUOUS
 62
               3
  5
407
 10
88.499999999999602
 20
179.5193245725971
 30
0.0
 11
76.825502516487347
 21
179.11164213704336
 31
0.0
  0
LINE
  8
0
  6
CONTINUOUS
 62
               3
  5
408
 10
72.000000000000057
 20
174.54438738706398
 30
0.0
 11
72.000000000000057
 21
113.7295415694021
 31
0.0
  0
LINE
  8
0
  6
CONTINUOUS
 62
               3
  5
409
 10
-72.000000000000171
 20
174.11468800194785
 30
0.0
 11
-72.000000000000171
 21
113.72954156940199
 31
0.0
  0
ARC
  8
0
  6
CONTINUOUS
 62
               3
  5
40A
 10
-69.500000000001194
 20
93.382551620026163
 30
0.0
 40
20.5
 50
89.999999999982592
 51
179.99999999996518
  0
ARC
  8
0
  6
CONTINUOUS
 62
               3
  5
40B
 10
69.500000000001421
 20
93.382551620026163
 30
0.0
 40
20.5
 50
359.99999999993037
 51
449.99999999991297
  0
LINE
  8
0
  6
CONTINUOUS
 62
               3
  5
40C
 10
-154.99999999999972
 20
576.33535761915482
 30
0.0
 11
-154.32844387403549
 21
576.33535761915482
 31
0.0
  0
LINE
  8
0
  6
CONTINUOUS
 62
               3
  5
40D
 10
-151.9999999999996
 20
574.00691374511985
 30
0.0
 11
-154.32844387403549
 21
576.33535761915482
 31
0.0
  0
LINE
  8
0
  6
CONTINUOUS
 62
               3
  5
40E
 10
-154.99999999999949
 20
686.33535761915459
 30
0.0
 11
-154.32844387403526
 21
686.33535761915459
 31
0.0
  0
LINE
  8
0
  6
CONTINUOUS
 62
               3
  5
40F
 10
-151.99999999999937
 20
688.66380149319048
 30
0.0
 11
-154.32844387403526
 21
686.33535761915459
 31
0.0
  0
LINE
  8
0
  6
CONTINUOUS
 62
               3
  5
410
 10
-154.32844387403526
 20
686.33535761915459
 30
0.0
 11
-154.32844387403549
 21
576.33535761915482
 31
0.0
  0
LINE
  8
0
  6
CONTINUOUS
 62
               3
  5
411
 10
-151.9999999999996
 20
574.00691374511985
 30
0.0
 11
-151.99999999999937
 21
688.66380149319048
 31
0.0
  0
LINE
  8
0
  6
CONTINUOUS
 62
               3
  5
412
 10
-154.99999999999972
 20
574.00691374511916
 30
0.0
 11
-154.99999999999949
 21
688.66380149319048
 31
0.0
  0
LINE
  8
0
  6
CONTINUOUS
 62
               3
  5
413
 10
-154.99999999999949
 20
688.66380149319048
 30
0.0
 11
-157.49999999999949
 21
688.66380149319048
 31
0.0
  0
ARC
  8
0
  6
CONTINUOUS
 62
               3
  5
414
 10
-157.49999999999949
 20
686.16380149319048
 30
0.0
 40
2.5
 50
89.999999999982222
 51
179.99999999996572
  0
LINE
  8
0
  6
CONTINUOUS
 62
               3
  5
415
 10
-159.99999999999949
 20
686.16380149319048
 30
0.0
 11
-159.99999999999969
 21
576.50691374511916
 31
0.0
  0
LINE
  8
0
  6
CONTINUOUS
 62
               3
  5
416
 10
-154.99999999999972
 20
574.00691374511916
 30
0.0
 11
-157.49999999999972
 21
574.00691374511916
 31
0.0
  0
ARC
  8
0
  6
CONTINUOUS
 62
               3
  5
417
 10
-157.49999999999969
 20
576.50691374511916
 30
0.0
 40
2.5
 50
179.99999999996572
 51
269.99999999994793
  0
LINE
  8
0
  6
CONTINUOUS
 62
               3
  5
418
 10
-151.9999999999996
 20
574.00691374511985
 30
0.0
 11
-97.950512085122526
 21
572.11946403649654
 31
0.0
  0
LINE
  8
0
  6
CONTINUOUS
 62
               3
  5
419
 10
-151.99999999999937
 20
688.66380149319048
 30
0.0
 11
-97.950512085122284
 21
690.55125120181333
 31
0.0
  0
ARC
  8
0
  6
CONTINUOUS
 62
               3
  5
41A
 10
-94.732670528588571
 20
-94.163943402581438
 30
0.0
 40
4.7489268958295181
 50
359.99999999993042
 51
449.99999999991292
  0
ARC
  8
0
  6
CONTINUOUS
 62
               3
  5
41B
 10
-102.00000000000031
 20
-86.41501650675194
 30
0.0
 40
3.0000000000000004
 50
179.99999999996524
 51
269.99999999994782
  0
LINE
  8
0
  6
CONTINUOUS
 62
               3
  5
41C
 10
-155.0
 20
-115.41501650675154
 30
0.0
 11
-154.32844387403577
 21
-115.41501650675154
 31
0.0
  0
LINE
  8
0
  6
CONTINUOUS
 62
               3
  5
41D
 10
-151.99999999999989
 20
-113.08657263271566
 30
0.0
 11
-154.32844387403577
 21
-115.41501650675154
 31
0.0
  0
LINE
  8
0
  6
CONTINUOUS
 62
               3
  5
41E
 10
-155.0
 20
-113.08657263271571
 30
0.0
 11
-157.5
 21
-113.08657263271571
 31
0.0
  0
ARC
  8
0
  6
CONTINUOUS
 62
               3
  5
41F
 10
-157.5
 20
-115.58657263271571
 30
0.0
 40
2.5
 50
89.999999999982862
 51
179.99999999996524
  0
LINE
  8
0
  6
CONTINUOUS
 62
               3
  5
420
 10
-151.99999999999989
 20
-113.08657263271566
 30
0.0
 11
-94.825502516487731
 21
-111.08999518528746
 31
0.0
  0
ARC
  8
0
  6
CONTINUOUS
 62
               3
  5
421
 10
-95.000000000000099
 20
-106.09304105019199
 30
0.0
 40
5.0
 50
271.99999999994748
 51
359.99999999993031
  0
LINE
  8
0
  6
CONTINUOUS
 62
               3
  5
422
 10
-90.000000000000099
 20
-94.163943402581438
 30
0.0
 11
-90.000000000000099
 21
-106.09304105019199
 31
0.0
  0
ARC
  8
0
  6
CONTINUOUS
 62
               3
  5
423
 10
-110.00000000000027
 20
-106.61685259256819
 30
0.0
 40
5.0
 50
271.99999999994748
 51
359.99999999993031
  0
ARC
  8
0
  6
CONTINUOUS
 62
               3
  5
424
 10
-82.00000000000027
 20
-232.91501650675187
 30
0.0
 40
2.5
 50
89.999999999982535
 51
269.99999999994793
  0
LINE
  8
0
  6
CONTINUOUS
 62
               3
  5
425
 10
-155.00000000000006
 20
-225.41501650675136
 30
0.0
 11
-154.32844387403583
 21
-225.41501650675136
 31
0.0
  0
LINE
  8
0
  6
CONTINUOUS
 62
               3
  5
426
 10
-151.99999999999994
 20
-227.74346038078642
 30
0.0
 11
-154.32844387403583
 21
-225.41501650675136
 31
0.0
  0
LINE
  8
0
  6
CONTINUOUS
 62
               3
  5
427
 10
-155.00000000000006
 20
-227.7434603807869
 30
0.0
 11
-157.50000000000006
 21
-227.7434603807869
 31
0.0
  0
ARC
  8
0
  6
CONTINUOUS
 62
               3
  5
428
 10
-157.50000000000006
 20
-225.2434603807869
 30
0.0
 40
2.5
 50
179.99999999996507
 51
269.99999999994793
  0
LINE
  8
0
  6
CONTINUOUS
 62
               3
  5
429
 10
-151.99999999999994
 20
-227.74346038078642
 30
0.0
 11
-104.47275977548502
 21
-229.40314818124608
 31
0.0
  0
LINE
  8
0
  6
CONTINUOUS
 62
               3
  5
42A
 10
-101.11172335306485
 20
-230.86456841040888
 30
0.0
 11
-91.464466094067006
 21
-240.51182566940699
 31
0.0
  0
ARC
  8
0
  6
CONTINUOUS
 62
               3
  5
42B
 10
-94.999999999999943
 20
-244.04735957533956
 30
0.0
 40
5.0
 50
359.99999999993048
 51
404.99999999992122
  0
ARC
  8
0
  6
CONTINUOUS
 62
               3
  5
42C
 10
-104.64725725899761
 20
-234.40010231634159
 30
0.0
 40
5.0
 50
44.999999999990685
 51
87.999999999982478
  0
LINE
  8
0
  6
CONTINUOUS
 62
               3
  5
42D
 10
-105.00000000000043
 20
-71.415016506751854
 30
0.0
 11
-105.00000000000027
 21
-106.61685259256819
 31
0.0
  0
LINE
  8
0
  6
CONTINUOUS
 62
               3
  5
42E
 10
-154.32844387403577
 20
-115.41501650675154
 30
0.0
 11
-154.32844387403583
 21
-225.41501650675136
 31
0.0
  0
LINE
  8
0
  6
CONTINUOUS
 62
               3
  5
42F
 10
-151.99999999999994
 20
-227.74346038078642
 30
0.0
 11
-151.99999999999989
 21
-113.08657263271566
 31
0.0
  0
LINE
  8
0
  6
CONTINUOUS
 62
               3
  5
430
 10
-155.00000000000006
 20
-227.7434603807869
 30
0.0
 11
-155.0
 21
-113.08657263271571
 31
0.0
  0
LINE
  8
0
  6
CONTINUOUS
 62
               3
  5
431
 10
-160.0
 20
-115.58657263271571
 30
0.0
 11
-160.00000000000006
 21
-225.2434603807869
 31
0.0
  0
LINE
  8
0
  6
CONTINUOUS
 62
               3
  5
432
 10
-101.98374363275933
 20
-89.415016506751854
 30
0.0
 11
-16.673332000533783
 21
-89.415016506751897
 31
0.0
  0
LINE
  8
0
  6
CONTINUOUS
 62
               3
  5
433
 10
-82.00000000000027
 20
-235.41501650675187
 30
0.0
 11
-43.284018445716065
 21
-235.41501650675181
 31
0.0
  0
LINE
  8
0
  6
CONTINUOUS
 62
               3
  5
434
 10
-82.00000000000027
 20
-230.41501650675187
 30
0.0
 11
-43.284018445716057
 21
-230.41501650675181
 31
0.0
  0
LINE
  8
0
  6
CONTINUOUS
 62
               3
  5
435
 10
-89.999999999999986
 20
-358.22732913995645
 30
0.0
 11
-89.999999999999943
 21
-244.04735957533958
 31
0.0
  0
LINE
  8
0
  6
CONTINUOUS
 62
               3
  5
436
 10
518.0
 20
-235.41501650675178
 30
0.0
 11
600.0
 21
-235.41501650675178
 31
0.0
  0
LINE
  8
0
  6
CONTINUOUS
 62
               3
  5
437
 10
600.0
 20
-235.41501650675178
 30
0.0
 11
689.99999999999977
 21
-235.41501650675178
 31
0.0
  0
LINE
  8
0
  6
CONTINUOUS
 62
               3
  5
438
 10
518.0
 20
-230.41501650675178
 30
0.0
 11
600.0
 21
-230.41501650675178
 31
0.0
  0
LINE
  8
0
  6
CONTINUOUS
 62
               3
  5
439
 10
600.0
 20
-230.41501650675178
 30
0.0
 11
689.99999999999977
 21
-230.41501650675178
 31
0.0
  0
LINE
  8
0
  6
CONTINUOUS
 62
               3
  5
43A
 10
498.016256367241
 20
-89.415016506751812
 30
0.0
 11
600.0
 21
-89.415016506751812
 31
0.0
  0
LINE
  8
0
  6
CONTINUOUS
 62
               3
  5
43B
 10
600.0
 20
-89.415016506751797
 30
0.0
 11
702.0
 21
-89.415016506751897
 31
0.0
  0
LINE
  8
0
  6
CONTINUOUS
 62
               3
  5
43C
 10
-448.0162563672414
 20
-87.915016506751542
 30
0.0
 11
-492.1046984901073
 21
-86.375414182128708
 31
0.0
  0
LINE
  8
0
  6
CONTINUOUS
 62
               3
  5
43D
 10
-448.00000000000028
 20
-227.91501650675158
 30
0.0
 11
-495.70500399824653
 21
-229.58091195497735
 31
0.0
  0
LINE
  8
0
  6
CONTINUOUS
 62
               3
  5
43E
 10
-499.06604042066681
 20
-231.04233218414007
 30
0.0
 11
-508.53553390593328
 21
-240.51182566940673
 31
0.0
  0
ARC
  8
0
  6
CONTINUOUS
 62
               3
  5
43F
 10
-495.53050651473404
 20
-234.57786609007283
 30
0.0
 40
5.0
 50
91.999999999982577
 51
134.99999999997368
  0
ARC
  8
0
  6
CONTINUOUS
 62
               3
  5
440
 10
-505.00000000000034
 20
-244.04735957533939
 30
0.0
 40
5.0
 50
134.99999999997439
 51
179.99999999996507
  0
LINE
  8
0
  6
CONTINUOUS
 62
               3
  5
441
 10
-697.0
 20
-69.915016506751456
 30
0.0
 11
-667.0
 21
-69.915016506751471
 31
0.0
  0
LINE
  8
0
  6
CONTINUOUS
 62
               3
  5
442
 10
-705.00000000000023
 20
-71.415016506751513
 30
0.0
 11
-705.00000000000023
 21
-86.415016506751584
 31
0.0
  0
LINE
  8
0
  6
CONTINUOUS
 62
               3
  5
443
 10
-448.0162563672414
 20
-87.915016506751542
 30
0.0
 11
-448.01625636724145
 21
-227.91558419160481
 31
0.0
  0
LINE
  8
0
  6
CONTINUOUS
 62
               3
  5
444
 10
-697.0
 20
-69.915016506751456
 30
0.0
 11
-697.5
 21
-71.415016506751513
 31
0.0
  0
LINE
  8
0
  6
CONTINUOUS
 62
               3
  5
445
 10
-667.0
 20
-69.915016506751471
 30
0.0
 11
-665.5
 21
-71.415016506751527
 31
0.0
  0
LINE
  8
0
  6
CONTINUOUS
 62
               3
  5
446
 10
-697.5
 20
-71.415016506751513
 30
0.0
 11
-705.00000000000023
 21
-71.415016506751513
 31
0.0
  0
LINE
  8
0
  6
CONTINUOUS
 62
               3
  5
447
 10
-503.00000000000006
 20
-69.915016506751556
 30
0.0
 11
-533.0
 21
-69.915016506751542
 31
0.0
  0
LINE
  8
0
  6
CONTINUOUS
 62
               3
  5
448
 10
-494.99999999999989
 20
-71.415016506751613
 30
0.0
 11
-494.99999999999994
 21
-86.415016506751613
 31
0.0
  0
ARC
  8
0
  6
CONTINUOUS
 62
               3
  5
449
 10
-498.0
 20
-86.415016506751613
 30
0.0
 40
3.0000000000000004
 50
269.99999999994731
 51
359.99999999993037
  0
LINE
  8
0
  6
CONTINUOUS
 62
               3
  5
44A
 10
-503.00000000000006
 20
-69.915016506751556
 30
0.0
 11
-502.50000000000006
 21
-71.415016506751613
 31
0.0
  0
LINE
  8
0
  6
CONTINUOUS
 62
               3
  5
44B
 10
-533.0
 20
-69.915016506751542
 30
0.0
 11
-534.5
 21
-71.415016506751584
 31
0.0
  0
LINE
  8
0
  6
CONTINUOUS
 62
               3
  5
44C
 10
-502.50000000000006
 20
-71.415016506751613
 30
0.0
 11
-494.99999999999989
 21
-71.415016506751613
 31
0.0
  0
ARC
  8
0
  6
CONTINUOUS
 62
               3
  5
44D
 10
-491.99999999999983
 20
-83.377241701071313
 30
0.0
 40
3.0000000000000004
 50
179.99999999996518
 51
267.99999999994907
  0
LINE
  8
0
  6
CONTINUOUS
 62
               3
  5
44E
 10
-510.00000000000034
 20
-244.04735957533939
 30
0.0
 11
-510.0000000000004
 21
-358.22732913995554
 31
0.0
  0
ARC
  8
0
  6
CONTINUOUS
 62
               3
  5
44F
 10
-518.0
 20
-232.91501650675156
 30
0.0
 40
2.5
 50
269.99999999994731
 51
449.99999999991297
  0
LINE
  8
0
  6
CONTINUOUS
 62
               3
  5
450
 10
-534.5
 20
-71.415016506751584
 30
0.0
 11
-665.5
 21
-71.415016506751527
 31
0.0
  0
LINE
  8
0
  6
CONTINUOUS
 62
               3
  5
451
 10
-687.72128783396715
 20
-378.22732913995543
 30
0.0
 11
-673.27871216603307
 21
-504.9881889204828
 31
0.0
  0
LINE
  8
0
  6
CONTINUOUS
 62
               3
  5
452
 10
-445.00000000000011
 20
-90.24346038078744
 30
0.0
 11
-445.68781249320551
 21
-90.24346038078744
 31
0.0
  0
LINE
  8
0
  6
CONTINUOUS
 62
               3
  5
453
 10
-448.0162563672414
 20
-87.915016506751542
 30
0.0
 11
-445.68781249320551
 21
-90.24346038078744
 31
0.0
  0
LINE
  8
0
  6
CONTINUOUS
 62
               3
  5
454
 10
-445.00000000000011
 20
-87.915016506751698
 30
0.0
 11
-442.50000000000011
 21
-87.915016506751698
 31
0.0
  0
ARC
  8
0
  6
CONTINUOUS
 62
               3
  5
455
 10
-442.50000000000011
 20
-90.415016506751698
 30
0.0
 40
2.5
 50
359.99999999993031
 51
449.99999999991297
  0
LINE
  8
0
  6
CONTINUOUS
 62
               3
  5
456
 10
-445.00000000000017
 20
-225.5865726327157
 30
0.0
 11
-445.68781249320557
 21
-225.5865726327157
 31
0.0
  0
LINE
  8
0
  6
CONTINUOUS
 62
               3
  5
457
 10
-448.01625636724145
 20
-227.91501650675158
 30
0.0
 11
-445.68781249320557
 21
-225.5865726327157
 31
0.0
  0
LINE
  8
0
  6
CONTINUOUS
 62
               3
  5
458
 10
-445.00000000000017
 20
-227.91501650675144
 30
0.0
 11
-442.50000000000017
 21
-227.91501650675144
 31
0.0
  0
ARC
  8
0
  6
CONTINUOUS
 62
               3
  5
459
 10
-442.50000000000017
 20
-225.41501650675144
 30
0.0
 40
2.5
 50
269.99999999994731
 51
359.99999999993014
  0
LINE
  8
0
  6
CONTINUOUS
 62
               3
  5
45A
 10
-440.00000000000011
 20
-90.415016506751698
 30
0.0
 11
-440.00000000000017
 21
-225.41501650675144
 31
0.0
  0
LINE
  8
0
  6
CONTINUOUS
 62
               3
  5
45B
 10
-445.00000000000017
 20
-227.91501650675144
 30
0.0
 11
-445.00000000000011
 21
-87.915016506751698
 31
0.0
  0
LINE
  8
0
  6
CONTINUOUS
 62
               3
  5
45C
 10
-445.68781249320551
 20
-90.24346038078744
 30
0.0
 11
-445.68781249320557
 21
-225.5865726327157
 31
0.0
  0
LINE
  8
0
  6
CONTINUOUS
 62
               3
  5
45D
 10
-690.0
 20
-235.41501650675147
 30
0.0
 11
-690.00000000000023
 21
-358.22732913995418
 31
0.0
  0
LINE
  8
0
  6
CONTINUOUS
 62
               3
  5
45E
 10
-690.48249763853119
 20
-376.07668039660615
 30
0.0
 11
-692.20092160477179
 21
-360.9942668135667
 31
0.0
  0
ARC
  8
0
  6
CONTINUOUS
 62
               3
  5
45F
 10
-689.71699196558052
 20
-360.71125877914687
 30
0.0
 40
2.5
 50
96.499999999980105
 51
186.49999999996422
  0
ARC
  8
0
  6
CONTINUOUS
 62
               3
  5
460
 10
-688.00429586838709
 20
-375.74339950076387
 30
0.0
 40
2.5
 50
186.49999999996422
 51
276.49999999994822
  0
LINE
  8
0
  6
CONTINUOUS
 62
               3
  5
461
 10
-509.51750236146898
 20
-376.07668039660626
 30
0.0
 11
-507.79907839522838
 21
-360.99426681356681
 31
0.0
  0
ARC
  8
0
  6
CONTINUOUS
 62
               3
  5
462
 10
-510.28300803441994
 20
-360.71125877914699
 30
0.0
 40
2.5
 50
353.49999999993111
 51
443.49999999991383
  0
ARC
  8
0
  6
CONTINUOUS
 62
               3
  5
463
 10
-511.99570413161325
 20
-375.74339950076399
 30
0.0
 40
2.5
 50
263.49999999994697
 51
353.49999999993111
  0
LINE
  8
0
  6
CONTINUOUS
 62
               3
  5
464
 10
-512.27871216603307
 20
-378.22732913995554
 30
0.0
 11
-526.72128783396715
 21
-504.98818892048291
 31
0.0
  0
LINE
  8
0
  6
CONTINUOUS
 62
               3
  5
465
 10
-495.00000000000006
 20
-45.707555324813086
 30
0.0
 11
-495.00000000000006
 21
-61.416234852713401
 31
0.0
  0
LINE
  8
0
  6
CONTINUOUS
 62
               3
  5
466
 10
-705.0
 20
-45.707555324812986
 30
0.0
 11
-705.0
 21
-61.416234852713302
 31
0.0
  0
ARC
  8
0
  6
CONTINUOUS
 62
               3
  5
467
 10
-497.0
 20
-61.416234852713401
 30
0.0
 40
2.0
 50
271.99999999994765
 51
359.99999999993037
  0
ARC
  8
0
  6
CONTINUOUS
 62
               3
  5
468
 10
-703.0
 20
-61.416234852713302
 30
0.0
 40
2.0
 50
179.99999999996515
 51
267.99999999994685
  0
LINE
  8
0
  6
CONTINUOUS
 62
               3
  5
469
 10
-496.93020100659533
 20
-63.415016506751641
 30
0.0
 11
-703.0697989934049
 21
-63.415016506751542
 31
0.0
  0
LINE
  8
0
  6
CONTINUOUS
 62
               3
  5
46A
 10
-499.5
 20
-63.415016506751634
 30
0.0
 11
-499.5
 21
-71.415016506751613
 31
0.0
  0
LINE
  8
0
  6
CONTINUOUS
 62
               3
  5
46B
 10
-700.5
 20
-71.415016506751513
 30
0.0
 11
-700.5
 21
-63.415016506751542
 31
0.0
  0
LINE
  8
0
  6
CONTINUOUS
 62
               3
  5
46C
 10
-512.2787121660333
 20
-378.22732913995554
 30
0.0
 11
-600.00000000000023
 21
-378.22732913995554
 31
0.0
  0
LINE
  8
0
  6
CONTINUOUS
 62
               3
  5
46D
 10
-600.00000000000023
 20
-378.22732913995554
 30
0.0
 11
-687.72128783396715
 21
-378.22732913995543
 31
0.0
  0
LINE
  8
0
  6
CONTINUOUS
 62
               3
  5
46E
 10
-510.0000000000004
 20
-358.22732913995554
 30
0.0
 11
-600.00000000000023
 21
-358.22732913995554
 31
0.0
  0
LINE
  8
0
  6
CONTINUOUS
 62
               3
  5
46F
 10
-600.00000000000023
 20
-358.22732913995549
 30
0.0
 11
-690.0
 21
-358.22732913995543
 31
0.0
  0
ARC
  8
0
  6
CONTINUOUS
 62
               3
  5
470
 10
-496.99999999999955
 20
-45.707555324813157
 30
0.0
 40
2.0
 50
359.99999999993031
 51
447.99999999991388
  0
ARC
  8
0
  6
CONTINUOUS
 62
               3
  5
471
 10
-702.99999999999955
 20
-45.707555324812915
 30
0.0
 40
2.0
 50
91.999999999980631
 51
179.9999999999651
  0
LINE
  8
0
  6
CONTINUOUS
 62
               3
  5
472
 10
-496.93020100659464
 20
-43.708773670774988
 30
0.0
 11
-703.06979899340445
 21
-43.708773670774676
 31
0.0
  0
LINE
  8
0
  6
CONTINUOUS
 62
               3
  5
473
 10
-509.99999999999892
 20
93.382551620026362
 30
0.0
 11
-509.99999999999909
 21
-38.423922358787557
 31
0.0
  0
ARC
  8
0
  6
CONTINUOUS
 62
               3
  5
474
 10
-505.00000000000284
 20
-38.42392235878777
 30
0.0
 40
5.0
 50
179.99999999996518
 51
267.99999999994816
  0
LINE
  8
0
  6
CONTINUOUS
 62
               3
  5
475
 10
-689.99999999999886
 20
93.382551620026618
 30
0.0
 11
-689.99999999999909
 21
-38.423922358787401
 31
0.0
  0
ARC
  8
0
  6
CONTINUOUS
 62
               3
  5
476
 10
-695.00000000000296
 20
-38.423922358787607
 30
0.0
 40
5.0
 50
271.99999999994702
 51
359.99999999993031
  0
LINE
  8
0
  6
CONTINUOUS
 62
               3
  5
477
 10
-496.93020100659794
 20
-43.708773670775344
 30
0.0
 11
-505.17449748351532
 21
-43.420876493883192
 31
0.0
  0
LINE
  8
0
  6
CONTINUOUS
 62
               3
  5
478
 10
-703.06979899340786
 20
-43.708773670775102
 30
0.0
 11
-694.82550251649013
 21
-43.420876493883029
 31
0.0
  0
ARC
  8
0
  6
CONTINUOUS
 62
               3
  5
479
 10
-694.99999999999886
 20
-94.415016506751556
 30
0.0
 40
5.0
 50
359.99999999993031
 51
449.99999999991297
  0
LINE
  8
0
  6
CONTINUOUS
 62
               3
  5
47A
 10
-689.99999999999886
 20
-94.415016506751556
 30
0.0
 11
-689.99999999999886
 21
-103.80720647678251
 31
0.0
  0
LINE
  8
0
  6
CONTINUOUS
 62
               3
  5
47B
 10
-697.03489949670188
 20
-186.94871855896429
 30
0.0
 11
-694.82550251648718
 21
-187.02587240162569
 31
0.0
  0
ARC
  8
0
  6
CONTINUOUS
 62
               3
  5
47C
 10
-695.0
 20
-192.0228265367212
 30
0.0
 40
5.0
 50
0.0
 51
87.999999999983118
  0
LINE
  8
0
  6
CONTINUOUS
 62
               3
  5
47D
 10
-697.03489949670188
 20
-108.88131445453928
 30
0.0
 11
-694.82550251648763
 21
-108.804160611878
 31
0.0
  0
ARC
  8
0
  6
CONTINUOUS
 62
               3
  5
47E
 10
-695.0
 20
-103.80720647678251
 30
0.0
 40
5.0
 50
271.99999999994702
 51
359.99999999993048
  0
LINE
  8
0
  6
CONTINUOUS
 62
               3
  5
47F
 10
-697.99999999999955
 20
-185.9493277319452
 30
0.0
 11
-697.99999999999955
 21
-109.88070528155836
 31
0.0
  0
ARC
  8
0
  6
CONTINUOUS
 62
               3
  5
480
 10
-696.99999999999955
 20
-185.9493277319452
 30
0.0
 40
1.0
 50
179.99999999996541
 51
267.99999999995663
  0
ARC
  8
0
  6
CONTINUOUS
 62
               3
  5
481
 10
-696.99999999999955
 20
-109.88070528155836
 30
0.0
 40
1.0
 50
91.999999999970868
 51
179.99999999996498
  0
LINE
  8
0
  6
CONTINUOUS
 62
               3
  5
482
 10
-689.99999999999886
 20
-192.0228265367212
 30
0.0
 11
-689.99999999999932
 21
-230.41501650675144
 31
0.0
  0
ARC
  8
0
  6
CONTINUOUS
 62
               3
  5
483
 10
-689.99999999999932
 20
-232.91501650675144
 30
0.0
 40
2.5
 50
89.999999999981569
 51
269.99999999994731
  0
ARC
  8
0
  6
CONTINUOUS
 62
               3
  5
484
 10
-701.99999999999977
 20
-86.415016506751584
 30
0.0
 40
3.0000000000000004
 50
179.99999999996515
 51
269.99999999994731
  0
LINE
  8
0
  6
CONTINUOUS
 62
               3
  5
485
 10
-523.5
 20
179.11164213704362
 30
0.0
 11
-523.49999999999818
 21
201.58498349324833
 31
0.0
  0
LINE
  8
0
  6
CONTINUOUS
 62
               3
  5
486
 10
-676.49999999999977
 20
179.11164213704379
 30
0.0
 11
-676.49999999999977
 21
201.58498349324844
 31
0.0
  0
LINE
  8
0
  6
CONTINUOUS
 62
               3
  5
487
 10
-527.99999999999977
 20
174.114688001948
 30
0.0
 11
-527.99999999999977
 21
113.88255162002631
 31
0.0
  0
ARC
  8
0
  6
CONTINUOUS
 62
               3
  5
488
 10
-522.99999999999977
 20
174.114688001948
 30
0.0
 40
5.0
 50
91.999999999982577
 51
179.99999999996507
  0
LINE
  8
0
  6
CONTINUOUS
 62
               3
  5
489
 10
-672.0
 20
174.54438738706418
 30
0.0
 11
-672.0
 21
113.88255162002636
 31
0.0
  0
LINE
  8
0
  6
CONTINUOUS
 62
               3
  5
48A
 10
-511.5
 20
179.51932457259721
 30
0.0
 11
-511.5
 21
186.51932457259687
 31
0.0
  0
LINE
  8
0
  6
CONTINUOUS
 62
               3
  5
48B
 10
-511.50000000000011
 20
179.51932457259721
 30
0.0
 11
-523.17449748351214
 21
179.11164213704339
 31
0.0
  0
ARC
  8
0
  6
CONTINUOUS
 62
               3
  5
48C
 10
-676.99999999999977
 20
174.11468800194817
 30
0.0
 40
5.0
 50
359.99999999993048
 51
447.9999999999132
  0
LINE
  8
0
  6
CONTINUOUS
 62
               3
  5
48D
 10
-688.49999999999977
 20
179.51932457259741
 30
0.0
 11
-688.49999999999977
 21
186.51932457259721
 31
0.0
  0
LINE
  8
0
  6
CONTINUOUS
 62
               3
  5
48E
 10
-688.49999999999955
 20
179.51932457259741
 30
0.0
 11
-676.8255025164874
 21
179.11164213704367
 31
0.0
  0
LINE
  8
0
  6
CONTINUOUS
 62
               3
  5
48F
 10
-530.49999999999886
 20
113.88255162002631
 30
0.0
 11
-588.27299999999968
 21
113.88255162002633
 31
0.0
  0
LINE
  8
0
  6
CONTINUOUS
 62
               3
  5
490
 10
-611.72699999999918
 20
113.88255162002633
 30
0.0
 11
-669.49999999999886
 21
113.88255162002636
 31
0.0
  0
ARC
  8
0
  6
CONTINUOUS
 62
               3
  5
491
 10
-530.49999999999886
 20
93.382551620026419
 30
0.0
 40
20.5
 50
359.99999999993037
 51
449.99999999991292
  0
ARC
  8
0
  6
CONTINUOUS
 62
               3
  5
492
 10
-669.49999999999886
 20
93.382551620026589
 30
0.0
 40
20.5
 50
89.999999999982649
 51
179.99999999996518
  0
ARC
  8
0
  6
CONTINUOUS
 62
               3
  5
493
 10
-556.7159815542841
 20
-232.91501650675153
 30
0.0
 40
2.5
 50
89.999999999981569
 51
269.99999999994731
  0
ARC
  8
0
  6
CONTINUOUS
 62
               3
  5
494
 10
-643.28401844571613
 20
-232.91501650675147
 30
0.0
 40
2.5
 50
269.99999999994731
 51
449.99999999991297
  0
CIRCLE
  8
0
  6
CONTINUOUS
 62
               3
  5
495
 10
-600.0
 20
-170.4150165067515
 30
0.0
 40
57.5
  0
LINE
  8
0
  6
CONTINUOUS
 62
               3
  5
496
 10
-626.7873570924794
 20
-142.41501650675161
 30
0.0
 11
-573.2126429075206
 21
-142.41501650675161
 31
0.0
  0
CIRCLE
  8
0
  6
CONTINUOUS
 62
               3
  5
497
 10
-600.0
 20
-170.4150165067515
 30
0.0
 40
48.500000000000014
  0
CIRCLE
  8
0
  6
CONTINUOUS
 62
               3
  5
498
 10
-600.0
 20
-170.4150165067515
 30
0.0
 40
38.75
  0
CIRCLE
  8
0
  6
CONTINUOUS
 62
               3
  5
499
 10
-600.0
 20
-170.4150165067515
 30
0.0
 40
47.299999999999997
  0
LINE
  8
0
  6
CONTINUOUS
 62
               3
  5
49A
 10
-568.18019484660545
 20
-202.23482166014585
 30
0.0
 11
-566.55384924987652
 21
-203.86116725687523
 31
0.0
  0
LINE
  8
0
  6
CONTINUOUS
 62
               3
  5
49B
 10
-631.81980515339478
 20
-202.23482166014583
 30
0.0
 11
-633.44615075012371
 21
-203.86116725687521
 31
0.0
  0
ARC
  8
0
  6
CONTINUOUS
 62
               3
  5
49C
 10
-600.0
 20
-170.4150165067515
 30
0.0
 40
45.0
 50
224.99999999995643
 51
314.99999999993912
  0
CIRCLE
  8
0
  6
CONTINUOUS
 62
               3
  5
49D
 10
-600.0
 20
-170.4150165067515
 30
0.0
 40
43.0
  0
LINE
  8
0
  6
CONTINUOUS
 62
               3
  5
49E
 10
-590.0
 20
-106.74876417355821
 30
0.0
 11
-590.0
 21
-94.415016506751542
 31
0.0
  0
LINE
  8
0
  6
CONTINUOUS
 62
               3
  5
49F
 10
-610.0
 20
-94.415016506751527
 30
0.0
 11
-610.0
 21
-106.74876417355821
 31
0.0
  0
ARC
  8
0
  6
CONTINUOUS
 62
               3
  5
4A0
 10
-585.0
 20
-106.74876417355823
 30
0.0
 40
5.0
 50
179.99999999996518
 51
256.65763620286259
  0
ARC
  8
0
  6
CONTINUOUS
 62
               3
  5
4A1
 10
-615.0
 20
-106.74876417355821
 30
0.0
 40
5.0
 50
283.3423637970331
 51
359.99999999993031
  0
ARC
  8
0
  6
CONTINUOUS
 62
               3
  5
4A2
 10
-585.0
 20
-94.415016506751542
 30
0.0
 40
5.0
 50
89.999999999982862
 51
179.99999999996518
  0
ARC
  8
0
  6
CONTINUOUS
 62
               3
  5
4A3
 10
-615.0
 20
-94.415016506751527
 30
0.0
 40
5.0
 50
359.99999999993031
 51
449.99999999991297
  0
LINE
  8
0
  6
CONTINUOUS
 62
               3
  5
4A4
 10
-518.0
 20
-235.41501650675156
 30
0.0
 11
-556.7159815542841
 21
-235.41501650675153
 31
0.0
  0
LINE
  8
0
  6
CONTINUOUS
 62
               3
  5
4A5
 10
-643.28401844571613
 20
-235.41501650675147
 30
0.0
 11
-690.0
 21
-235.41501650675147
 31
0.0
  0
LINE
  8
0
  6
CONTINUOUS
 62
               3
  5
4A6
 10
-518.0
 20
-230.41501650675156
 30
0.0
 11
-556.7159815542841
 21
-230.41501650675153
 31
0.0
  0
LINE
  8
0
  6
CONTINUOUS
 62
               3
  5
4A7
 10
-643.28401844571613
 20
-230.41501650675147
 30
0.0
 11
-690.0
 21
-230.41501650675147
 31
0.0
  0
LINE
  8
0
  6
CONTINUOUS
 62
               3
  5
4A8
 10
-498.01625636724106
 20
-89.415016506751584
 30
0.0
 11
-585.0
 21
-89.415016506751542
 31
0.0
  0
LINE
  8
0
  6
CONTINUOUS
 62
               3
  5
4A9
 10
-615.0
 20
-89.415016506751527
 30
0.0
 11
-702.0
 21
-89.41501650675157
 31
0.0
  0
CIRCLE
  8
0
  6
CONTINUOUS
 62
               3
  5
4AA
 10
600.0
 20
-147.91501650675229
 30
0.0
 40
39.0
  0
LINE
  8
0
  6
CONTINUOUS
 62
               3
  5
4AB
 10
-71.000000000000185
 20
-524.98818892048257
 30
0.0
 11
70.999999999999773
 21
-524.98818892048382
 31
0.0
  0
LINE
  8
0
  6
CONTINUOUS
 62
               3
  5
4AC
 10
-73.278712166032946
 20
-504.98818892048308
 30
0.0
 11
73.278712166032818
 21
-504.98818892048308
 31
0.0
  0
LINE
  8
0
  6
CONTINUOUS
 62
               3
  5
4AD
 10
73.76120980456389
 20
-522.83754017713466
 30
0.0
 11
75.479633770804469
 21
-507.7551265940952
 31
0.0
  0
ARC
  8
0
  6
CONTINUOUS
 62
               3
  5
4AE
 10
72.995704131613024
 20
-507.47211855967538
 30
0.0
 40
2.5
 50
353.49999999993105
 51
443.49999999991411
  0
ARC
  8
0
  6
CONTINUOUS
 62
               3
  5
4AF
 10
71.283008034419709
 20
-522.50425928129243
 30
0.0
 40
2.5
 50
263.49999999994765
 51
353.49999999993105
  0
LINE
  8
0
  6
CONTINUOUS
 62
               3
  5
4B0
 10
-73.76120980456416
 20
-522.83754017713466
 30
0.0
 11
-75.479633770804739
 21
-507.7551265940952
 31
0.0
  0
ARC
  8
0
  6
CONTINUOUS
 62
               3
  5
4B1
 10
-72.995704131613223
 20
-507.47211855967538
 30
0.0
 40
2.5
 50
96.499999999981398
 51
186.49999999996413
  0
ARC
  8
0
  6
CONTINUOUS
 62
               3
  5
4B2
 10
-71.283008034419908
 20
-522.50425928129243
 30
0.0
 40
2.5
 50
186.49999999996413
 51
276.49999999994787
  0
LINE
  8
0
  6
CONTINUOUS
 62
               3
  5
4B3
 10
-70.999999999999829
 20
-524.98818892048394
 30
0.0
 11
-70.999999999999972
 21
-577.70147495011429
 31
0.0
  0
LINE
  8
0
  6
CONTINUOUS
 62
               3
  5
4B4
 10
70.999999999999773
 20
-524.98818892048394
 30
0.0
 11
70.999999999999773
 21
-577.70147495011429
 31
0.0
  0
LINE
  8
0
  6
CONTINUOUS
 62
               3
  5
4B5
 10
-55.000000000000171
 20
-713.41501650675173
 30
0.0
 11
54.999999999999837
 21
-713.41501650675173
 31
0.0
  0
LINE
  8
0
  6
CONTINUOUS
 62
               3
  5
4B6
 10
56.999999999999865
 20
-711.4150165067515
 30
0.0
 11
56.999999999999865
 21
-613.41501650675173
 31
0.0
  0
LINE
  8
0
  6
CONTINUOUS
 62
               3
  5
4B7
 10
-57.000000000000114
 20
-711.4150165067515
 30
0.0
 11
-57.000000000000114
 21
-613.41501650675173
 31
0.0
  0
LINE
  8
0
  6
CONTINUOUS
 62
               3
  5
4B8
 10
56.999999999999865
 20
-613.41501650675173
 30
0.0
 11
58.053042823173278
 21
-612.36197368357807
 31
0.0
  0
LINE
  8
0
  6
CONTINUOUS
 62
               3
  5
4B9
 10
-57.000000000000114
 20
-613.41501650675173
 30
0.0
 11
-58.053042823173399
 21
-612.3619736835783
 31
0.0
  0
LINE
  8
0
  6
CONTINUOUS
 62
               3
  5
4BA
 10
-55.000000000000171
 20
-713.41501650675173
 30
0.0
 11
-57.000000000000114
 21
-711.4150165067515
 31
0.0
  0
LINE
  8
0
  6
CONTINUOUS
 62
               3
  5
4BB
 10
54.999999999999837
 20
-713.41501650675173
 30
0.0
 11
56.999999999999865
 21
-711.4150165067515
 31
0.0
  0
LINE
  8
0
  6
CONTINUOUS
 62
               3
  5
4BC
 10
58.053042823173243
 20
-612.3619736835783
 30
0.0
 11
58.053042823173243
 21
-608.29871295294606
 31
0.0
  0
ARC
  8
0
  6
CONTINUOUS
 62
               3
  5
4BD
 10
68.053042823173243
 20
-608.29871295294606
 30
0.0
 40
10.0
 50
149.9999999999711
 51
179.99999999996507
  0
LINE
  8
0
  6
CONTINUOUS
 62
               3
  5
4BE
 10
-58.053042823173506
 20
-612.3619736835783
 30
0.0
 11
-58.053042823173506
 21
-608.29871295294606
 31
0.0
  0
ARC
  8
0
  6
CONTINUOUS
 62
               3
  5
4BF
 10
-68.053042823173499
 20
-608.29871295294606
 30
0.0
 40
10.0
 50
359.99999999993014
 51
389.99999999992463
  0
LINE
  8
0
  6
CONTINUOUS
 62
               3
  5
4C0
 10
-671.00000000000023
 20
-524.98818892048246
 30
0.0
 11
-529.00000000000045
 21
-524.98818892048371
 31
0.0
  0
LINE
  8
0
  6
CONTINUOUS
 62
               3
  5
4C1
 10
-673.27871216603307
 20
-504.98818892048303
 30
0.0
 11
-526.72128783396738
 21
-504.98818892048303
 31
0.0
  0
LINE
  8
0
  6
CONTINUOUS
 62
               3
  5
4C2
 10
-526.2387901954362
 20
-522.83754017713454
 30
0.0
 11
-524.52036622919559
 21
-507.75512659409515
 31
0.0
  0
ARC
  8
0
  6
CONTINUOUS
 62
               3
  5
4C3
 10
-527.00429586838709
 20
-507.47211855967532
 30
0.0
 40
2.5
 50
353.49999999993111
 51
443.49999999991383
  0
ARC
  8
0
  6
CONTINUOUS
 62
               3
  5
4C4
 10
-528.71699196558052
 20
-522.50425928129232
 30
0.0
 40
2.5
 50
263.49999999994833
 51
353.49999999993111
  0
LINE
  8
0
  6
CONTINUOUS
 62
               3
  5
4C5
 10
-673.76120980456426
 20
-522.83754017713454
 30
0.0
 11
-675.47963377080487
 21
-507.75512659409515
 31
0.0
  0
ARC
  8
0
  6
CONTINUOUS
 62
               3
  5
4C6
 10
-672.99570413161337
 20
-507.47211855967532
 30
0.0
 40
2.5
 50
96.499999999980105
 51
186.49999999996422
  0
ARC
  8
0
  6
CONTINUOUS
 62
               3
  5
4C7
 10
-671.28300803441994
 20
-522.50425928129232
 30
0.0
 40
2.5
 50
186.49999999996422
 51
276.49999999994822
  0
LINE
  8
0
  6
CONTINUOUS
 62
               3
  5
4C8
 10
-671.0
 20
-524.98818892048382
 30
0.0
 11
-671.0
 21
-577.70147495011429
 31
0.0
  0
LINE
  8
0
  6
CONTINUOUS
 62
               3
  5
4C9
 10
-529.00000000000045
 20
-524.98818892048382
 30
0.0
 11
-529.00000000000045
 21
-577.70147495011429
 31
0.0
  0
LINE
  8
0
  6
CONTINUOUS
 62
               3
  5
4CA
 10
-655.00000000000023
 20
-713.41501650675173
 30
0.0
 11
-545.00000000000023
 21
-713.41501650675173
 31
0.0
  0
LINE
  8
0
  6
CONTINUOUS
 62
               3
  5
4CB
 10
-543.00000000000023
 20
-711.4150165067515
 30
0.0
 11
-543.00000000000023
 21
-613.41501650675173
 31
0.0
  0
LINE
  8
0
  6
CONTINUOUS
 62
               3
  5
4CC
 10
-657.00000000000023
 20
-711.4150165067515
 30
0.0
 11
-657.00000000000023
 21
-613.41501650675173
 31
0.0
  0
LINE
  8
0
  6
CONTINUOUS
 62
               3
  5
4CD
 10
-543.00000000000023
 20
-613.41501650675173
 30
0.0
 11
-541.9469571768268
 21
-612.36197368357807
 31
0.0
  0
LINE
  8
0
  6
CONTINUOUS
 62
               3
  5
4CE
 10
-657.00000000000023
 20
-613.41501650675173
 30
0.0
 11
-658.05304282317343
 21
-612.3619736835783
 31
0.0
  0
LINE
  8
0
  6
CONTINUOUS
 62
               3
  5
4CF
 10
-655.00000000000023
 20
-713.41501650675173
 30
0.0
 11
-657.00000000000023
 21
-711.4150165067515
 31
0.0
  0
LINE
  8
0
  6
CONTINUOUS
 62
               3
  5
4D0
 10
-545.00000000000023
 20
-713.41501650675173
 30
0.0
 11
-543.00000000000023
 21
-711.4150165067515
 31
0.0
  0
LINE
  8
0
  6
CONTINUOUS
 62
               3
  5
4D1
 10
-541.9469571768268
 20
-612.3619736835783
 30
0.0
 11
-541.9469571768268
 21
-608.29871295294606
 31
0.0
  0
ARC
  8
0
  6
CONTINUOUS
 62
               3
  5
4D2
 10
-531.9469571768268
 20
-608.29871295294606
 30
0.0
 40
10.0
 50
149.99999999997118
 51
179.99999999996507
  0
LINE
  8
0
  6
CONTINUOUS
 62
               3
  5
4D3
 10
-658.05304282317366
 20
-612.3619736835783
 30
0.0
 11
-658.05304282317366
 21
-608.29871295294606
 31
0.0
  0
ARC
  8
0
  6
CONTINUOUS
 62
               3
  5
4D4
 10
-668.05304282317366
 20
-608.29871295294606
 30
0.0
 40
10.0
 50
359.99999999993014
 51
389.99999999992457
  0
LINE
  8
0
  6
CONTINUOUS
 62
               3
  5
4D5
 10
529.0
 20
-524.9881889204828
 30
0.0
 11
671.0
 21
-524.98818892048416
 31
0.0
  0
LINE
  8
0
  6
CONTINUOUS
 62
               3
  5
4D6
 10
526.72128783396738
 20
-504.98818892048337
 30
0.0
 11
673.27871216603307
 21
-504.98818892048337
 31
0.0
  0
LINE
  8
0
  6
CONTINUOUS
 62
               3
  5
4D7
 10
673.76120980456403
 20
-522.837540177135
 30
0.0
 11
675.47963377080464
 21
-507.75512659409549
 31
0.0
  0
ARC
  8
0
  6
CONTINUOUS
 62
               3
  5
4D8
 10
672.99570413161314
 20
-507.47211855967566
 30
0.0
 40
2.5
 50
353.49999999993111
 51
443.49999999991383
  0
ARC
  8
0
  6
CONTINUOUS
 62
               3
  5
4D9
 10
671.28300803441994
 20
-522.50425928129266
 30
0.0
 40
2.5
 50
263.49999999994833
 51
353.49999999993111
  0
LINE
  8
0
  6
CONTINUOUS
 62
               3
  5
4DA
 10
526.23879019543597
 20
-522.837540177135
 30
0.0
 11
524.52036622919559
 21
-507.75512659409549
 31
0.0
  0
ARC
  8
0
  6
CONTINUOUS
 62
               3
  5
4DB
 10
527.00429586838709
 20
-507.47211855967566
 30
0.0
 40
2.5
 50
96.499999999980105
 51
186.49999999996422
  0
ARC
  8
0
  6
CONTINUOUS
 62
               3
  5
4DC
 10
528.71699196558029
 20
-522.50425928129266
 30
0.0
 40
2.5
 50
186.49999999996422
 51
276.49999999994822
  0
LINE
  8
0
  6
CONTINUOUS
 62
               3
  5
4DD
 10
529.00000000000045
 20
-524.98818892048416
 30
0.0
 11
529.00000000000023
 21
-577.70147495011452
 31
0.0
  0
LINE
  8
0
  6
CONTINUOUS
 62
               3
  5
4DE
 10
671.0
 20
-524.98818892048416
 30
0.0
 11
671.0
 21
-577.70147495011452
 31
0.0
  0
LINE
  8
0
  6
CONTINUOUS
 62
               3
  5
4DF
 10
545.0
 20
-713.41501650675195
 30
0.0
 11
655.0
 21
-713.41501650675195
 31
0.0
  0
LINE
  8
0
  6
CONTINUOUS
 62
               3
  5
4E0
 10
657.0
 20
-711.41501650675173
 30
0.0
 11
657.0
 21
-613.41501650675195
 31
0.0
  0
LINE
  8
0
  6
CONTINUOUS
 62
               3
  5
4E1
 10
543.0
 20
-711.41501650675173
 30
0.0
 11
543.0
 21
-613.41501650675195
 31
0.0
  0
LINE
  8
0
  6
CONTINUOUS
 62
               3
  5
4E2
 10
657.0
 20
-613.41501650675195
 30
0.0
 11
658.05304282317343
 21
-612.3619736835783
 31
0.0
  0
LINE
  8
0
  6
CONTINUOUS
 62
               3
  5
4E3
 10
543.0
 20
-613.41501650675195
 30
0.0
 11
541.9469571768268
 21
-612.36197368357853
 31
0.0
  0
LINE
  8
0
  6
CONTINUOUS
 62
               3
  5
4E4
 10
545.0
 20
-713.41501650675195
 30
0.0
 11
543.0
 21
-711.41501650675173
 31
0.0
  0
LINE
  8
0
  6
CONTINUOUS
 62
               3
  5
4E5
 10
655.0
 20
-713.41501650675195
 30
0.0
 11
657.0
 21
-711.41501650675173
 31
0.0
  0
LINE
  8
0
  6
CONTINUOUS
 62
               3
  5
4E6
 10
658.05304282317343
 20
-612.36197368357853
 30
0.0
 11
658.05304282317343
 21
-608.29871295294629
 31
0.0
  0
ARC
  8
0
  6
CONTINUOUS
 62
               3
  5
4E7
 10
668.05304282317343
 20
-608.29871295294629
 30
0.0
 40
10.0
 50
149.99999999997118
 51
179.99999999996507
  0
LINE
  8
0
  6
CONTINUOUS
 62
               3
  5
4E8
 10
541.9469571768268
 20
-612.36197368357853
 30
0.0
 11
541.9469571768268
 21
-608.29871295294629
 31
0.0
  0
ARC
  8
0
  6
CONTINUOUS
 62
               3
  5
4E9
 10
531.9469571768268
 20
-608.29871295294629
 30
0.0
 40
10.0
 50
359.99999999993014
 51
389.99999999992457
  0
LINE
  8
0
  6
CONTINUOUS
 62
               3
  5
4EA
 10
97.034899496701826
 20
-186.94871855896457
 30
0.0
 11
94.82550251648712
 21
-187.02587240162597
 31
0.0
  0
ARC
  8
0
  6
CONTINUOUS
 62
               3
  5
4EB
 10
94.999999999999829
 20
-192.02282653672148
 30
0.0
 40
5.0
 50
91.999999999981938
 51
179.99999999996507
  0
LINE
  8
0
  6
CONTINUOUS
 62
               3
  5
4EC
 10
97.034899496701712
 20
-108.88131445453956
 30
0.0
 11
94.825502516487461
 21
-108.8041606118783
 31
0.0
  0
ARC
  8
0
  6
CONTINUOUS
 62
               3
  5
4ED
 10
94.999999999999943
 20
-103.8072064767828
 30
0.0
 40
5.0
 50
179.99999999996518
 51
267.99999999994833
  0
LINE
  8
0
  6
CONTINUOUS
 62
               3
  5
4EE
 10
97.999999999999375
 20
-185.94932773194549
 30
0.0
 11
97.999999999999375
 21
-109.88070528155865
 31
0.0
  0
ARC
  8
0
  6
CONTINUOUS
 62
               3
  5
4EF
 10
96.999999999999488
 20
-185.94932773194549
 30
0.0
 40
1.0
 50
271.99999999994117
 51
359.99999999993082
  0
ARC
  8
0
  6
CONTINUOUS
 62
               3
  5
4F0
 10
96.999999999999488
 20
-109.88070528155865
 30
0.0
 40
1.0
 50
0.0
 51
87.999999999996959
  0
LINE
  8
0
  6
CONTINUOUS
 62
               3
  5
4F1
 10
89.999999999998806
 20
-94.41501650675184
 30
0.0
 11
89.999999999998806
 21
-103.8072064767828
 31
0.0
  0
LINE
  8
0
  6
CONTINUOUS
 62
               3
  5
4F2
 10
89.999999999998806
 20
-192.02282653672148
 30
0.0
 11
89.999999999999034
 21
-230.41501650675173
 31
0.0
  0
CIRCLE
  8
0
  6
CONTINUOUS
 62
               3
  5
4F3
 10
609.28652321630773
 20
-1077.3787764161514
 30
0.0
 40
75.0
  0
CIRCLE
  8
0
  6
CONTINUOUS
 62
               3
  5
4F4
 10
609.28652321630773
 20
-1077.3787764161514
 30
0.0
 40
52.5
  0
LINE
  8
0
  6
CONTINUOUS
 62
               3
  5
4F5
 10
523.07602501568238
 20
-1057.3787764161514
 30
0.0
 11
537.00236174230224
 21
-1057.3787764161514
 31
0.0
  0
LINE
  8
0
  6
CONTINUOUS
 62
               3
  5
4F6
 10
537.00236174230224
 20
-1097.3787764161514
 30
0.0
 11
523.07602501568238
 21
-1097.3787764161514
 31
0.0
  0
ARC
  8
0
  6
CONTINUOUS
 62
               3
  5
4F7
 10
609.28652321630773
 20
-1077.3787764161514
 30
0.0
 40
88.5
 50
166.93897588510336
 51
193.06102411468945
  0
LINE
  8
0
  6
CONTINUOUS
 62
               3
  5
4F8
 10
589.28652321630773
 20
-1163.5892746167763
 30
0.0
 11
589.28652321630773
 21
-1149.6629378901564
 31
0.0
  0
LINE
  8
0
  6
CONTINUOUS
 62
               3
  5
4F9
 10
629.28652321630773
 20
-1149.6629378901564
 30
0.0
 11
629.28652321630773
 21
-1163.5892746167763
 31
0.0
  0
ARC
  8
0
  6
CONTINUOUS
 62
               3
  5
4FA
 10
609.28652321630773
 20
-1077.3787764161514
 30
0.0
 40
88.5
 50
256.93897588505166
 51
283.06102411463769
  0
LINE
  8
0
  6
CONTINUOUS
 62
               3
  5
4FB
 10
695.4970214169324
 20
-1097.3787764161514
 30
0.0
 11
681.57068469031185
 21
-1097.3787764161514
 31
0.0
  0
LINE
  8
0
  6
CONTINUOUS
 62
               3
  5
4FC
 10
681.57068469031185
 20
-1057.3787764161514
 30
0.0
 11
695.4970214169324
 21
-1057.3787764161514
 31
0.0
  0
ARC
  8
0
  6
CONTINUOUS
 62
               3
  5
4FD
 10
609.28652321630773
 20
-1077.3787764161514
 30
0.0
 40
88.5
 50
346.93897588499982
 51
373.06102411458585
  0
LINE
  8
0
  6
CONTINUOUS
 62
               3
  5
4FE
 10
629.28652321630773
 20
-991.16827821552567
 30
0.0
 11
629.28652321630773
 21
-1005.0946149421462
 31
0.0
  0
LINE
  8
0
  6
CONTINUOUS
 62
               3
  5
4FF
 10
589.28652321630773
 20
-1005.0946149421462
 30
0.0
 11
589.28652321630773
 21
-991.16827821552567
 31
0.0
  0
ARC
  8
0
  6
CONTINUOUS
 62
               3
  5
500
 10
609.28652321630773
 20
-1077.3787764161514
 30
0.0
 40
88.5
 50
76.938975885155216
 51
103.06102411474124
  0
LINE
  8
0
  6
CONTINUOUS
 62
               3
  5
501
 10
561.61839969544656
 20
-1099.3787764161518
 30
0.0
 11
656.95464673716754
 21
-1099.3787764161518
 31
0.0
  0
ARC
  8
0
  6
CONTINUOUS
 62
               3
  5
502
 10
621.79013486568886
 20
-1068.6723787885323
 30
0.0
 40
54.763804151667173
 50
141.3859176367566
 51
145.15009542087031
  0
ARC
  8
0
  6
CONTINUOUS
 62
               3
  5
503
 10
609.28652321630773
 20
-1077.3787764161514
 30
0.0
 40
51.5
 50
334.71098847326505
 51
410.95932736340404
  0
ARC
  8
0
  6
CONTINUOUS
 62
               3
  5
504
 10
609.28652321630773
 20
-1077.3787764161514
 30
0.0
 40
51.5
 50
129.04067263628559
 51
205.28901152642416
  0
ARC
  8
0
  6
CONTINUOUS
 62
               3
  5
505
 10
609.28652321630773
 20
-1077.3787764161514
 30
0.0
 40
77.5
 50
104.95524831658301
 51
128.57288309095932
  0
ARC
  8
0
  6
CONTINUOUS
 62
               3
  5
506
 10
609.28652321630773
 20
-1077.3787764161514
 30
0.0
 40
77.5
 50
14.9552483166347
 51
75.044751683313535
  0
ARC
  8
0
  6
CONTINUOUS
 62
               3
  5
507
 10
609.28652321630773
 20
-1077.3787764161514
 30
0.0
 40
77.5
 50
321.42711690878122
 51
345.04475168315804
  0
LINE
  8
0
  6
CONTINUOUS
 62
               3
  5
508
 10
469.28652321630767
 20
-1132.3787764161514
 30
0.0
 11
469.9580793422719
 21
-1132.3787764161514
 31
0.0
  0
LINE
  8
0
  6
CONTINUOUS
 62
               3
  5
509
 10
472.45807934227236
 20
-1134.8787764161514
 30
0.0
 11
469.9580793422719
 21
-1132.3787764161514
 31
0.0
  0
LINE
  8
0
  6
CONTINUOUS
 62
               3
  5
50A
 10
469.28652321630767
 20
-1022.3787764161513
 30
0.0
 11
469.9580793422719
 21
-1022.3787764161513
 31
0.0
  0
LINE
  8
0
  6
CONTINUOUS
 62
               3
  5
50B
 10
472.4580793422719
 20
-1019.8787764161513
 30
0.0
 11
469.9580793422719
 21
-1022.3787764161513
 31
0.0
  0
LINE
  8
0
  6
CONTINUOUS
 62
               3
  5
50C
 10
469.9580793422719
 20
-1022.3787764161513
 30
0.0
 11
469.9580793422719
 21
-1132.3787764161514
 31
0.0
  0
LINE
  8
0
  6
CONTINUOUS
 62
               3
  5
50D
 10
563.79618742992977
 20
-1016.6891793978097
 30
0.0
 11
472.4580793422719
 21
-1019.8787764161513
 31
0.0
  0
LINE
  8
0
  6
CONTINUOUS
 62
               3
  5
50E
 10
544.45005149975657
 20
-1137.392791481119
 30
0.0
 11
472.45807934227247
 21
-1134.8787764161514
 31
0.0
  0
LINE
  8
0
  6
CONTINUOUS
 62
               3
  5
50F
 10
464.28652321630767
 20
-1022.5503325421154
 30
0.0
 11
464.28652321630767
 21
-1132.4787764161513
 31
0.0
  0
LINE
  8
0
  6
CONTINUOUS
 62
               3
  5
510
 10
469.28652321630767
 20
-1134.9787764161513
 30
0.0
 11
469.28652321630767
 21
-1019.7787764161511
 31
0.0
  0
LINE
  8
0
  6
CONTINUOUS
 62
               3
  5
511
 10
469.28652321630767
 20
-1019.7787764161511
 30
0.0
 11
466.78652321630767
 21
-1019.7787764161511
 31
0.0
  0
LINE
  8
0
  6
CONTINUOUS
 62
               3
  5
512
 10
469.28652321630767
 20
-1134.9787764161513
 30
0.0
 11
466.78652321630767
 21
-1134.9787764161513
 31
0.0
  0
ARC
  8
0
  6
CONTINUOUS
 62
               3
  5
513
 10
466.78652321630767
 20
-1132.4787764161513
 30
0.0
 40
2.5
 50
179.99999999989538
 51
269.99999999984436
  0
ARC
  8
0
  6
CONTINUOUS
 62
               3
  5
514
 10
466.78652321630767
 20
-1022.2787764161511
 30
0.0
 40
2.5
 50
89.999999999948997
 51
179.99999999989538
  0
LINE
  8
0
  6
CONTINUOUS
 62
               3
  5
515
 10
576.84812004969001
 20
-1037.3787764161514
 30
0.0
 11
609.28652321630773
 21
-1037.3787764161514
 31
0.0
  0
LINE
  8
0
  6
CONTINUOUS
 62
               3
  5
516
 10
609.28652321630773
 20
-1037.3787764161514
 30
0.0
 11
643.29019948814641
 21
-1037.3787764161514
 31
0.0
  0
LINE
  8
0
  6
CONTINUOUS
 62
               3
  5
517
 10
472.45807934227236
 20
-1134.8787764161514
 30
0.0
 11
472.4580793422719
 21
-1019.8787764161513
 31
0.0
  0
ARC
  8
0
  6
CONTINUOUS
 62
               3
  5
518
 10
563.62168994641718
 20
-1011.692225262714
 30
0.0
 40
5.0
 50
271.99999999984402
 51
304.806757870252
  0
LINE
  8
0
  6
CONTINUOUS
 62
               3
  5
519
 10
664.2865232163075
 20
-1217.3787764161514
 30
0.0
 11
664.2865232163075
 21
-1216.707220290187
 31
0.0
  0
LINE
  8
0
  6
CONTINUOUS
 62
               3
  5
51A
 10
666.7865232163075
 20
-1214.2072202901866
 30
0.0
 11
664.2865232163075
 21
-1216.707220290187
 31
0.0
  0
LINE
  8
0
  6
CONTINUOUS
 62
               3
  5
51B
 10
554.2865232163075
 20
-1217.3787764161514
 30
0.0
 11
554.2865232163075
 21
-1216.707220290187
 31
0.0
  0
LINE
  8
0
  6
CONTINUOUS
 62
               3
  5
51C
 10
551.7865232163075
 20
-1214.207220290187
 30
0.0
 11
554.2865232163075
 21
-1216.707220290187
 31
0.0
  0
LINE
  8
0
  6
CONTINUOUS
 62
               3
  5
51D
 10
554.2865232163075
 20
-1216.707220290187
 30
0.0
 11
664.2865232163075
 21
-1216.707220290187
 31
0.0
  0
LINE
  8
0
  6
CONTINUOUS
 62
               3
  5
51E
 10
554.45807934227162
 20
-1222.3787764161514
 30
0.0
 11
664.38652321630764
 21
-1222.3787764161514
 31
0.0
  0
LINE
  8
0
  6
CONTINUOUS
 62
               3
  5
51F
 10
666.88652321630764
 20
-1217.3787764161514
 30
0.0
 11
551.68652321630759
 21
-1217.3787764161514
 31
0.0
  0
LINE
  8
0
  6
CONTINUOUS
 62
               3
  5
520
 10
551.68652321630759
 20
-1217.3787764161514
 30
0.0
 11
551.68652321630759
 21
-1219.8787764161514
 31
0.0
  0
LINE
  8
0
  6
CONTINUOUS
 62
               3
  5
521
 10
666.88652321630764
 20
-1217.3787764161514
 30
0.0
 11
666.88652321630764
 21
-1219.8787764161514
 31
0.0
  0
ARC
  8
0
  6
CONTINUOUS
 62
               3
  5
522
 10
664.38652321630764
 20
-1219.8787764161514
 30
0.0
 40
2.5
 50
269.99999999984567
 51
359.99999999979337
  0
ARC
  8
0
  6
CONTINUOUS
 62
               3
  5
523
 10
554.18652321630759
 20
-1219.8787764161514
 30
0.0
 40
2.5
 50
179.99999999989538
 51
269.99999999984567
  0
LINE
  8
0
  6
CONTINUOUS
 62
               3
  5
524
 10
666.7865232163075
 20
-1214.2072202901866
 30
0.0
 11
551.7865232163075
 21
-1214.207220290187
 31
0.0
  0
LINE
  8
0
  6
CONTINUOUS
 62
               3
  5
525
 10
669.97612023464865
 20
-1122.8691122025295
 30
0.0
 11
666.7865232163075
 21
-1214.2072202901866
 31
0.0
  0
ARC
  8
0
  6
CONTINUOUS
 62
               3
  5
526
 10
674.97307436974427
 20
-1123.0436096860424
 30
0.0
 40
5.0
 50
145.19324212948862
 51
177.99999999989819
  0
LINE
  8
0
  6
CONTINUOUS
 62
               3
  5
527
 10
549.27250815133959
 20
-1142.2152481327023
 30
0.0
 11
551.7865232163075
 21
-1214.207220290187
 31
0.0
  0
ARC
  8
0
  6
CONTINUOUS
 62
               3
  5
528
 10
544.2755540162442
 20
-1142.3897456162142
 30
0.0
 40
5.0
 50
1.9999999999958187
 51
87.99999999994921
  0
LINE
  8
0
  6
CONTINUOUS
 62
               3
  5
529
 10
534.28652321630773
 20
-1385.8782101647355
 30
0.0
 11
684.28652321630773
 21
-1385.8782101647355
 31
0.0
  0
LINE
  8
0
  6
CONTINUOUS
 62
               3
  5
52A
 10
520.7865232163075
 20
-1395.8782101647355
 30
0.0
 11
520.7865232163075
 21
-1402.878210164735
 31
0.0
  0
LINE
  8
0
  6
CONTINUOUS
 62
               3
  5
52B
 10
520.7865232163075
 20
-1395.8782101647355
 30
0.0
 11
534.28652321630773
 21
-1385.8782101647355
 31
0.0
  0
ARC
  8
0
  6
CONTINUOUS
 62
               3
  5
52C
 10
532.28652321630773
 20
-1407.4607858596908
 30
0.0
 40
4.9999999999999991
 50
0.0
 51
66.421821521760023
  0
LINE
  8
0
  6
CONTINUOUS
 62
               3
  5
52D
 10
520.7865232163075
 20
-1402.878210164735
 30
0.0
 11
697.78652321630727
 21
-1402.878210164735
 31
0.0
  0
ARC
  8
0
  6
CONTINUOUS
 62
               3
  5
52E
 10
554.28652321630773
 20
-1492.8782101647355
 30
0.0
 40
19.999999999999996
 50
148.21166938286279
 51
167.26981986159123
  0
LINE
  8
0
  6
CONTINUOUS
 62
               3
  5
52F
 10
537.28652321630773
 20
-1407.4607858596908
 30
0.0
 11
537.28652321630773
 21
-1482.3425564118827
 31
0.0
  0
LINE
  8
0
  6
CONTINUOUS
 62
               3
  5
530
 10
681.2865232163075
 20
-1477.3425564118822
 30
0.0
 11
681.2865232163075
 21
-1407.4607858596908
 31
0.0
  0
LINE
  8
0
  6
CONTINUOUS
 62
               3
  5
531
 10
537.28652321630773
 20
-1482.3425564118827
 30
0.0
 11
680.78652321630796
 21
-1482.3425564118827
 31
0.0
  0
LINE
  8
0
  6
CONTINUOUS
 62
               3
  5
532
 10
589.28652321630773
 20
-1402.878210164735
 30
0.0
 11
589.28652321630773
 21
-1385.8782101647355
 31
0.0
  0
LINE
  8
0
  6
CONTINUOUS
 62
               3
  5
533
 10
629.28652321630773
 20
-1385.8782101647355
 30
0.0
 11
629.28652321630773
 21
-1402.878210164735
 31
0.0
  0
LINE
  8
0
  6
CONTINUOUS
 62
               3
  5
534
 10
589.28652321630773
 20
-1395.8782101647355
 30
0.0
 11
629.28652321630773
 21
-1395.8782101647355
 31
0.0
  0
LINE
  8
0
  6
CONTINUOUS
 62
               3
  5
535
 10
537.00236174230224
 20
-1385.8782101647355
 30
0.0
 11
537.00236174230224
 21
-1402.878210164735
 31
0.0
  0
LINE
  8
0
  6
CONTINUOUS
 62
               3
  5
536
 10
523.07602501568238
 20
-1395.8782101647355
 30
0.0
 11
523.07602501568238
 21
-1402.878210164735
 31
0.0
  0
LINE
  8
0
  6
CONTINUOUS
 62
               3
  5
537
 10
520.7865232163075
 20
-1395.8782101647355
 30
0.0
 11
523.07602501568238
 21
-1395.8782101647355
 31
0.0
  0
LINE
  8
0
  6
CONTINUOUS
 62
               3
  5
538
 10
523.07602501568238
 20
-1395.8782101647355
 30
0.0
 11
537.00236174230224
 21
-1385.8782101647355
 31
0.0
  0
LINE
  8
0
  6
CONTINUOUS
 62
               3
  5
539
 10
697.78652321630727
 20
-1395.8782101647355
 30
0.0
 11
697.78652321630727
 21
-1402.878210164735
 31
0.0
  0
LINE
  8
0
  6
CONTINUOUS
 62
               3
  5
53A
 10
697.78652321630727
 20
-1395.8782101647355
 30
0.0
 11
684.28652321630773
 21
-1385.8782101647355
 31
0.0
  0
ARC
  8
0
  6
CONTINUOUS
 62
               3
  5
53B
 10
686.2865232163075
 20
-1407.4607858596908
 30
0.0
 40
4.9999999999999991
 50
113.57817847813573
 51
179.99999999989538
  0
LINE
  8
0
  6
CONTINUOUS
 62
               3
  5
53C
 10
681.57068469031185
 20
-1385.8782101647355
 30
0.0
 11
681.57068469031185
 21
-1402.878210164735
 31
0.0
  0
LINE
  8
0
  6
CONTINUOUS
 62
               3
  5
53D
 10
695.49702141693285
 20
-1395.8782101647355
 30
0.0
 11
695.49702141693285
 21
-1402.878210164735
 31
0.0
  0
LINE
  8
0
  6
CONTINUOUS
 62
               3
  5
53E
 10
697.78652321630727
 20
-1395.8782101647355
 30
0.0
 11
695.49702141693285
 21
-1395.8782101647355
 31
0.0
  0
LINE
  8
0
  6
CONTINUOUS
 62
               3
  5
53F
 10
695.49702141693285
 20
-1395.8782101647355
 30
0.0
 11
681.57068469031185
 21
-1385.8782101647355
 31
0.0
  0
ARC
  8
0
  6
CONTINUOUS
 62
               3
  5
540
 10
544.28652321630773
 20
-1614.3782101647355
 30
0.0
 40
2.4999999999999996
 50
89.99999999994769
 51
269.99999999984567
  0
ARC
  8
0
  6
CONTINUOUS
 62
               3
  5
541
 10
684.28652321630773
 20
-1614.3782101647355
 30
0.0
 40
2.4999999999999996
 50
269.99999999984567
 51
449.99999999974102
  0
LINE
  8
0
  6
CONTINUOUS
 62
               3
  5
542
 10
469.28652321630767
 20
-1606.8782101647355
 30
0.0
 11
469.95807934227201
 21
-1606.8782101647355
 31
0.0
  0
LINE
  8
0
  6
CONTINUOUS
 62
               3
  5
543
 10
472.45807934227213
 20
-1609.378210164735
 30
0.0
 11
469.95807934227201
 21
-1606.8782101647355
 31
0.0
  0
LINE
  8
0
  6
CONTINUOUS
 62
               3
  5
544
 10
472.45807934227292
 20
-1609.3782101647355
 30
0.0
 11
514.62318959855031
 21
-1610.8506482605897
 31
0.0
  0
LINE
  8
0
  6
CONTINUOUS
 62
               3
  5
545
 10
532.82205712224015
 20
-1627.1498995910217
 30
0.0
 11
517.98422602097037
 21
-1612.3120684897524
 31
0.0
  0
ARC
  8
0
  6
CONTINUOUS
 62
               3
  5
546
 10
529.28652321630773
 20
-1630.6854334969546
 30
0.0
 40
4.9999999999999991
 50
0.0
 51
44.999999999973191
  0
LINE
  8
0
  6
CONTINUOUS
 62
               3
  5
547
 10
469.28652321630767
 20
-1496.8782101647355
 30
0.0
 11
469.95807934227201
 21
-1496.8782101647355
 31
0.0
  0
LINE
  8
0
  6
CONTINUOUS
 62
               3
  5
548
 10
472.45807934227213
 20
-1494.3782101647355
 30
0.0
 11
469.95807934227201
 21
-1496.8782101647355
 31
0.0
  0
LINE
  8
0
  6
CONTINUOUS
 62
               3
  5
549
 10
472.45807934227201
 20
-1494.3782101647355
 30
0.0
 11
530.07555554444627
 21
-1492.3661635595834
 31
0.0
  0
LINE
  8
0
  6
CONTINUOUS
 62
               3
  5
54A
 10
469.95807934227201
 20
-1496.8782101647355
 30
0.0
 11
469.95807934227201
 21
-1606.8782101647355
 31
0.0
  0
LINE
  8
0
  6
CONTINUOUS
 62
               3
  5
54B
 10
469.28652321630767
 20
-1609.4782101647354
 30
0.0
 11
469.28652321630767
 21
-1494.2782101647356
 31
0.0
  0
LINE
  8
0
  6
CONTINUOUS
 62
               3
  5
54C
 10
469.28652321630767
 20
-1494.2782101647356
 30
0.0
 11
466.78652321630767
 21
-1494.2782101647356
 31
0.0
  0
ARC
  8
0
  6
CONTINUOUS
 62
               3
  5
54D
 10
466.78652321630767
 20
-1496.7782101647356
 30
0.0
 40
2.5
 50
89.999999999948997
 51
179.99999999989538
  0
LINE
  8
0
  6
CONTINUOUS
 62
               3
  5
54E
 10
464.28652321630767
 20
-1496.7782101647356
 30
0.0
 11
464.28652321630767
 21
-1606.9782101647354
 31
0.0
  0
LINE
  8
0
  6
CONTINUOUS
 62
               3
  5
54F
 10
469.28652321630767
 20
-1609.4782101647354
 30
0.0
 11
466.78652321630767
 21
-1609.4782101647354
 31
0.0
  0
ARC
  8
0
  6
CONTINUOUS
 62
               3
  5
550
 10
466.78652321630767
 20
-1606.9782101647354
 30
0.0
 40
2.5
 50
179.99999999989538
 51
269.99999999984436
  0
LINE
  8
0
  6
CONTINUOUS
 62
               3
  5
551
 10
472.45807934227213
 20
-1494.3782101647355
 30
0.0
 11
472.45807934227292
 21
-1609.3782101647355
 31
0.0
  0
ARC
  8
0
  6
CONTINUOUS
 62
               3
  5
552
 10
514.44869211503772
 20
-1615.8476023956853
 30
0.0
 40
5.0
 50
44.999999999975948
 51
87.999999999949253
  0
ARC
  8
0
  6
CONTINUOUS
 62
               3
  5
553
 10
529.90105806093391
 20
-1487.3692094244877
 30
0.0
 40
5.0
 50
271.99999999984408
 51
347.26981986148661
  0
CIRCLE
  8
0
  6
CONTINUOUS
 62
               3
  5
554
 10
609.28652321630773
 20
-1551.8782101647355
 30
0.0
 40
48.5
  0
CIRCLE
  8
0
  6
CONTINUOUS
 62
               3
  5
555
 10
609.28652321630773
 20
-1551.8782101647355
 30
0.0
 40
47.299999999999997
  0
LINE
  8
0
  6
CONTINUOUS
 62
               3
  5
556
 10
577.46671806291317
 20
-1583.69801531813
 30
0.0
 11
575.84037246618402
 21
-1585.3243609148592
 31
0.0
  0
LINE
  8
0
  6
CONTINUOUS
 62
               3
  5
557
 10
641.10632836970228
 20
-1583.69801531813
 30
0.0
 11
642.73267396643143
 21
-1585.3243609148592
 31
0.0
  0
ARC
  8
0
  6
CONTINUOUS
 62
               3
  5
558
 10
609.28652321630773
 20
-1551.8782101647355
 30
0.0
 40
45.0
 50
224.99999999987043
 51
314.99999999981884
  0
CIRCLE
  8
0
  6
CONTINUOUS
 62
               3
  5
559
 10
609.28652321630773
 20
-1551.8782101647355
 30
0.0
 40
57.600000000000001
  0
ARC
  8
0
  6
CONTINUOUS
 62
               3
  5
55A
 10
586.78652321630818
 20
-1614.3782101647355
 30
0.0
 40
2.4999999999999996
 50
269.99999999984567
 51
449.99999999974102
  0
ARC
  8
0
  6
CONTINUOUS
 62
               3
  5
55B
 10
631.78652321630818
 20
-1614.3782101647355
 30
0.0
 40
2.4999999999999996
 50
89.99999999994769
 51
269.99999999984567
  0
LINE
  8
0
  6
CONTINUOUS
 62
               3
  5
55C
 10
544.28652321630773
 20
-1616.8782101647355
 30
0.0
 11
586.78652321630818
 21
-1616.8782101647355
 31
0.0
  0
LINE
  8
0
  6
CONTINUOUS
 62
               3
  5
55D
 10
544.28652321630773
 20
-1611.8782101647355
 30
0.0
 11
586.78652321630818
 21
-1611.8782101647355
 31
0.0
  0
LINE
  8
0
  6
CONTINUOUS
 62
               3
  5
55E
 10
631.78652321630818
 20
-1611.8782101647355
 30
0.0
 11
684.28652321630773
 21
-1611.8782101647355
 31
0.0
  0
LINE
  8
0
  6
CONTINUOUS
 62
               3
  5
55F
 10
631.78652321630818
 20
-1616.8782101647355
 30
0.0
 11
684.28652321630773
 21
-1616.8782101647355
 31
0.0
  0
CIRCLE
  8
0
  6
CONTINUOUS
 62
               3
  5
560
 10
609.28652321630773
 20
-1077.3787764161514
 30
0.0
 40
59.0
  0
LINE
  8
0
  6
DASHED2
 62
               3
  5
561
 10
-51.500000000000369
 20
-713.41501650675173
 30
0.0
 11
-51.500000000000369
 21
-633.41501650675173
 31
0.0
  0
LINE
  8
0
  6
DASHED2
 62
               3
  5
562
 10
51.499999999999538
 20
-713.41501650675173
 30
0.0
 11
51.499999999999538
 21
-633.41501650675173
 31
0.0
  0
LINE
  8
0
  6
DASHED2
 62
               3
  5
563
 10
-651.50000000000045
 20
-713.41501650675173
 30
0.0
 11
-651.50000000000045
 21
-633.41501650675173
 31
0.0
  0
LINE
  8
0
  6
DASHED2
 62
               3
  5
564
 10
-548.50000000000068
 20
-713.41501650675173
 30
0.0
 11
-548.50000000000068
 21
-633.41501650675173
 31
0.0
  0
LINE
  8
0
  6
DASHED2
 62
               3
  5
565
 10
548.49999999999977
 20
-713.41501650675195
 30
0.0
 11
548.49999999999977
 21
-633.41501650675195
 31
0.0
  0
LINE
  8
0
  6
DASHED2
 62
               3
  5
566
 10
651.49999999999977
 20
-713.41501650675195
 30
0.0
 11
651.49999999999977
 21
-633.41501650675195
 31
0.0
  0
INSERT
  8
0
  6
CONTINUOUS
  5
567
  2
GROUP_1
 10
0.0
 20
0.0
 30
0.0
  0
INSERT
  8
0
  6
CONTINUOUS
  5
568
  2
GROUP_2
 10
0.0
 20
0.0
 30
0.0
  0
INSERT
  8
0
  6
CONTINUOUS
  5
569
  2
GROUP_3
 10
0.0
 20
0.0
 30
0.0
  0
INSERT
  8
0
  6
CONTINUOUS
  5
56A
  2
GROUP_4
 10
0.0
 20
0.0
 30
0.0
  0
INSERT
  8
0
  6
CONTINUOUS
  5
56B
  2
GROUP_5
 10
0.0
 20
0.0
 30
0.0
  0
INSERT
  8
0
  6
CONTINUOUS
  5
56C
  2
GROUP_6
 10
0.0
 20
0.0
 30
0.0
  0
INSERT
  8
0
  6
CONTINUOUS
  5
56D
  2
GROUP_7
 10
0.0
 20
0.0
 30
0.0
  0
INSERT
  8
0
  6
CONTINUOUS
  5
56E
  2
GROUP_8
 10
0.0
 20
0.0
 30
0.0
  0
INSERT
  8
0
  6
CONTINUOUS
  5
56F
  2
GROUP_9
 10
0.0
 20
0.0
 30
0.0
  0
INSERT
  8
0
  6
CONTINUOUS
  5
570
  2
GROUP_10
 10
0.0
 20
0.0
 30
0.0
  0
INSERT
  8
0
  6
CONTINUOUS
  5
571
  2
GROUP_11
 10
0.0
 20
0.0
 30
0.0
  0
INSERT
  8
0
  6
CONTINUOUS
  5
572
  2
GROUP_12
 10
0.0
 20
0.0
 30
0.0
  0
LINE
  8
LAYER192
  6
CONTINUOUS
 62
               3
  5
573
 10
45.321076774498408
 20
604.83535761915391
 30
0.0
 11
-0.0000000000001705
 21
604.83535761915414
 31
0.0
  0
LINE
  8
LAYER192
  6
CONTINUOUS
 62
               3
  5
574
 10
-0.0000000000001705
 20
604.83535761915414
 30
0.0
 11
-24.040450961130489
 21
584.66302408433421
 31
0.0
  0
LINE
  8
LAYER192
  6
CONTINUOUS
 62
               3
  5
575
 10
27.500000000005059
 20
604.83535761915391
 30
0.0
 11
27.500000000009607
 21
676.05671716914412
 31
0.0
  0
LINE
  8
LAYER192
  6
CONTINUOUS
 62
               3
  5
576
 10
-49.999999999999488
 20
615.32754702557077
 30
0.0
 11
-49.999999999999034
 21
647.34316821273956
 31
0.0
  0
LINE
  8
LAYER192
  6
CONTINUOUS
 62
               3
  5
577
 10
511.50000000000006
 20
186.51932457259664
 30
0.0
 11
523.5
 21
201.58498349324788
 31
0.0
  0
LINE
  8
LAYER192
  6
CONTINUOUS
 62
               3
  5
578
 10
688.49999999999977
 20
186.51932457259687
 30
0.0
 11
676.49999999999977
 21
201.5849834932481
 31
0.0
  0
LINE
  8
LAYER192
  6
CONTINUOUS
 62
               3
  5
579
 10
523.50000000000023
 20
201.5849834932481
 30
0.0
 11
676.49999999999977
 21
201.5849834932481
 31
0.0
  0
LINE
  8
LAYER192
  6
CONTINUOUS
 62
               3
  5
57A
 10
511.49999999999869
 20
179.51932457259699
 30
0.0
 11
688.5
 21
179.5193245725971
 31
0.0
  0
LINE
  8
LAYER192
  6
CONTINUOUS
 62
               3
  5
57B
 10
579.99999999999932
 20
186.5193245725971
 30
0.0
 11
579.99999999999932
 21
179.51932457259699
 31
0.0
  0
LINE
  8
LAYER192
  6
CONTINUOUS
 62
               3
  5
57C
 10
619.99999999999932
 20
186.5193245725971
 30
0.0
 11
619.99999999999932
 21
179.51932457259699
 31
0.0
  0
LINE
  8
LAYER192
  6
CONTINUOUS
 62
               3
  5
57D
 10
579.49999999999955
 20
201.5849834932481
 30
0.0
 11
579.49999999999955
 21
179.51932457259699
 31
0.0
  0
LINE
  8
LAYER192
  6
CONTINUOUS
 62
               3
  5
57E
 10
620.49999999999955
 20
201.5849834932481
 30
0.0
 11
620.49999999999955
 21
179.51932457259699
 31
0.0
  0
LINE
  8
LAYER192
  6
CONTINUOUS
 62
               3
  5
57F
 10
579.99999999999932
 20
186.51932457259664
 30
0.0
 11
619.99999999999932
 21
186.5193245725971
 31
0.0
  0
LINE
  8
LAYER192
  6
CONTINUOUS
 62
               3
  5
580
 10
579.99999999999932
 20
186.51932457259664
 30
0.0
 11
579.49999999999955
 21
201.5849834932481
 31
0.0
  0
LINE
  8
LAYER192
  6
CONTINUOUS
 62
               3
  5
581
 10
619.99999999999932
 20
186.51932457259664
 30
0.0
 11
620.49999999999955
 21
201.5849834932481
 31
0.0
  0
LINE
  8
LAYER192
  6
CONTINUOUS
 62
               3
  5
582
 10
-88.499999999999943
 20
186.51932457259676
 30
0.0
 11
-76.500000000000057
 21
201.58498349324788
 31
0.0
  0
LINE
  8
LAYER192
  6
CONTINUOUS
 62
               3
  5
583
 10
88.499999999999829
 20
186.51932457259687
 30
0.0
 11
76.499999999999829
 21
201.5849834932481
 31
0.0
  0
LINE
  8
LAYER192
  6
CONTINUOUS
 62
               3
  5
584
 10
-76.499999999999716
 20
201.5849834932481
 30
0.0
 11
76.499999999999829
 21
201.5849834932481
 31
0.0
  0
LINE
  8
LAYER192
  6
CONTINUOUS
 62
               3
  5
585
 10
-88.500000000001307
 20
179.5193245725971
 30
0.0
 11
88.499999999999829
 21
179.5193245725971
 31
0.0
  0
LINE
  8
LAYER192
  6
CONTINUOUS
 62
               3
  5
586
 10
-20.000000000000739
 20
186.51932457259721
 30
0.0
 11
-20.000000000000739
 21
179.51932457259699
 31
0.0
  0
LINE
  8
LAYER192
  6
CONTINUOUS
 62
               3
  5
587
 10
19.999999999999261
 20
186.51932457259721
 30
0.0
 11
19.999999999999261
 21
179.51932457259699
 31
0.0
  0
LINE
  8
LAYER192
  6
CONTINUOUS
 62
               3
  5
588
 10
-20.500000000000512
 20
201.5849834932481
 30
0.0
 11
-20.500000000000512
 21
179.51932457259699
 31
0.0
  0
LINE
  8
LAYER192
  6
CONTINUOUS
 62
               3
  5
589
 10
20.499999999999375
 20
201.5849834932481
 30
0.0
 11
20.499999999999375
 21
179.51932457259699
 31
0.0
  0
LINE
  8
LAYER192
  6
CONTINUOUS
 62
               3
  5
58A
 10
-20.000000000000739
 20
186.51932457259676
 30
0.0
 11
19.999999999999261
 21
186.51932457259721
 31
0.0
  0
LINE
  8
LAYER192
  6
CONTINUOUS
 62
               3
  5
58B
 10
-20.000000000000739
 20
186.51932457259676
 30
0.0
 11
-20.500000000000512
 21
201.5849834932481
 31
0.0
  0
LINE
  8
LAYER192
  6
CONTINUOUS
 62
               3
  5
58C
 10
19.999999999999261
 20
186.51932457259676
 30
0.0
 11
20.499999999999375
 21
201.5849834932481
 31
0.0
  0
LINE
  8
LAYER192
  6
CONTINUOUS
 62
               3
  5
58D
 10
-511.5
 20
186.51932457259687
 30
0.0
 11
-523.5
 21
201.5849834932481
 31
0.0
  0
LINE
  8
LAYER192
  6
CONTINUOUS
 62
               3
  5
58E
 10
-688.49999999999977
 20
186.51932457259721
 30
0.0
 11
-676.49999999999977
 21
201.58498349324844
 31
0.0
  0
LINE
  8
LAYER192
  6
CONTINUOUS
 62
               3
  5
58F
 10
-523.50000000000023
 20
201.58498349324833
 30
0.0
 11
-676.49999999999977
 21
201.58498349324844
 31
0.0
  0
LINE
  8
LAYER192
  6
CONTINUOUS
 62
               3
  5
590
 10
-511.49999999999864
 20
179.51932457259721
 30
0.0
 11
-688.49999999999977
 21
179.51932457259741
 31
0.0
  0
LINE
  8
LAYER192
  6
CONTINUOUS
 62
               3
  5
591
 10
-579.99999999999932
 20
186.51932457259738
 30
0.0
 11
-579.99999999999932
 21
179.51932457259727
 31
0.0
  0
LINE
  8
LAYER192
  6
CONTINUOUS
 62
               3
  5
592
 10
-619.99999999999932
 20
186.51932457259738
 30
0.0
 11
-619.99999999999932
 21
179.51932457259727
 31
0.0
  0
LINE
  8
LAYER192
  6
CONTINUOUS
 62
               3
  5
593
 10
-579.49999999999932
 20
201.58498349324839
 30
0.0
 11
-579.49999999999932
 21
179.51932457259724
 31
0.0
  0
LINE
  8
LAYER192
  6
CONTINUOUS
 62
               3
  5
594
 10
-620.49999999999932
 20
201.58498349324839
 30
0.0
 11
-620.49999999999932
 21
179.51932457259727
 31
0.0
  0
LINE
  8
LAYER192
  6
CONTINUOUS
 62
               3
  5
595
 10
-579.99999999999932
 20
186.51932457259693
 30
0.0
 11
-619.99999999999932
 21
186.51932457259738
 31
0.0
  0
LINE
  8
LAYER192
  6
CONTINUOUS
 62
               3
  5
596
 10
-579.99999999999932
 20
186.51932457259693
 30
0.0
 11
-579.49999999999932
 21
201.58498349324839
 31
0.0
  0
LINE
  8
LAYER192
  6
CONTINUOUS
 62
               3
  5
597
 10
-619.99999999999932
 20
186.51932457259693
 30
0.0
 11
-620.49999999999932
 21
201.58498349324839
 31
0.0
  0
LINE
  8
LAYER192
  6
CONTINUOUS
 62
               3
  5
598
 10
-68.253520777581286
 20
-587.95147495011406
 30
0.0
 11
-59.339745962155654
 21
-603.39058581765926
 31
0.0
  0
ARC
  8
LAYER192
  6
CONTINUOUS
 62
               3
  5
599
 10
-50.500000000000277
 20
-577.70147495011429
 30
0.0
 40
20.500000000000004
 50
179.99999999996513
 51
209.99999999995936
  0
LINE
  8
LAYER192
  6
CONTINUOUS
 62
               3
  5
59A
 10
68.253520777581087
 20
-587.95147495011406
 30
0.0
 11
59.392788785328833
 21
-603.29871295294606
 31
0.0
  0
ARC
  8
LAYER192
  6
CONTINUOUS
 62
               3
  5
59B
 10
50.500000000000092
 20
-577.70147495011429
 30
0.0
 40
20.500000000000004
 50
329.99999999993628
 51
359.99999999993037
  0
LINE
  8
LAYER192
  6
CONTINUOUS
 62
               3
  5
59C
 10
-668.25352077758134
 20
-587.95147495011406
 30
0.0
 11
-659.3397459621558
 21
-603.39058581765926
 31
0.0
  0
ARC
  8
LAYER192
  6
CONTINUOUS
 62
               3
  5
59D
 10
-650.50000000000045
 20
-577.70147495011429
 30
0.0
 40
20.500000000000004
 50
179.99999999996513
 51
209.99999999995924
  0
LINE
  8
LAYER192
  6
CONTINUOUS
 62
               3
  5
59E
 10
-531.74647922241911
 20
-587.95147495011406
 30
0.0
 11
-540.60721121467122
 21
-603.29871295294606
 31
0.0
  0
ARC
  8
LAYER192
  6
CONTINUOUS
 62
               3
  5
59F
 10
-549.5
 20
-577.70147495011429
 30
0.0
 40
20.500000000000004
 50
329.99999999993622
 51
359.99999999993037
  0
LINE
  8
LAYER192
  6
CONTINUOUS
 62
               3
  5
5A0
 10
531.74647922241888
 20
-587.95147495011429
 30
0.0
 11
540.66025403784465
 21
-603.39058581765948
 31
0.0
  0
ARC
  8
LAYER192
  6
CONTINUOUS
 62
               3
  5
5A1
 10
549.5
 20
-577.70147495011452
 30
0.0
 40
20.500000000000004
 50
179.99999999996513
 51
209.99999999995924
  0
LINE
  8
LAYER192
  6
CONTINUOUS
 62
               3
  5
5A2
 10
668.25352077758134
 20
-587.95147495011429
 30
0.0
 11
659.392788785329
 21
-603.29871295294629
 31
0.0
  0
ARC
  8
LAYER192
  6
CONTINUOUS
 62
               3
  5
5A3
 10
650.50000000000023
 20
-577.70147495011452
 30
0.0
 40
20.500000000000004
 50
329.99999999993622
 51
359.99999999993037
  0
LINE
  8
LAYER192
  6
CONTINUOUS
 62
               4
  5
5A4
 10
-85.500000000000171
 20
106.19855723800373
 30
0.0
 11
-92.000000000000171
 21
99.698557238003616
 31
0.0
  0
LINE
  8
LAYER192
  6
CONTINUOUS
 62
               4
  5
5A5
 10
85.500000000000398
 20
106.19855723800373
 30
0.0
 11
92.000000000000512
 21
99.698557238003616
 31
0.0
  0
POINT
  8
0
  6
CONTINUOUS
 62
               5
  5
5A6
 10
-392.13776905046888
 20
-1135.0632119879422
 30
0.0
  0
POINT
  8
0
  6
CONTINUOUS
 62
               5
  5
5A7
 10
-218.90769754050854
 20
-1136.3540060628313
 30
0.0
  0
POINT
  8
0
  6
CONTINUOUS
 62
               5
  5
5A8
 10
-565.36784056042904
 20
-1136.3540060628309
 30
0.0
  0
POINT
  8
0
  6
CONTINUOUS
 62
               5
  5
5A9
 10
-395.37452052112445
 20
-954.36525640894695
 30
0.0
  0
POINT
  8
0
  6
CONTINUOUS
 62
               5
  5
5AA
 10
493.01659472626801
 20
-1553.1690042396247
 30
0.0
  0
POINT
  8
0
  6
CONTINUOUS
 62
               5
  5
5AB
 10
493.01659472626812
 20
-1076.0879823412622
 30
0.0
  0
CIRCLE
  8
0
  6
CONTINUOUS
 62
               7
  5
5AC
 10
-392.13776905046888
 20
-1141.5632119879422
 30
0.0
 40
38.0
  0
CIRCLE
  8
0
  6
CONTINUOUS
 62
               7
  5
5AD
 10
-392.13776905046888
 20
-1141.5632119879422
 30
0.0
 40
33.5
  0
LINE
  8
0
  6
CONTINUOUS
 62
               7
  5
5AE
 10
-247.63776905046888
 20
-1090.5632119879422
 30
0.0
 11
-247.63776905046888
 21
-1179.5579758672677
 31
0.0
  0
LINE
  8
0
  6
CONTINUOUS
 62
               7
  5
5AF
 10
-247.03776905046885
 20
-1090.5632119879422
 30
0.0
 11
-247.63776905046888
 21
-1090.5632119879422
 31
0.0
  0
LINE
  8
0
  6
CONTINUOUS
 62
               7
  5
5B0
 10
-282.63776905046888
 20
-1178.5632119879422
 30
0.0
 11
-282.63776905046888
 21
-1104.5632119879422
 31
0.0
  0
LINE
  8
0
  6
CONTINUOUS
 62
               7
  5
5B1
 10
-189.63776905046888
 20
-1178.5632119879422
 30
0.0
 11
-189.63776905046888
 21
-1091.5632119879422
 31
0.0
  0
LINE
  8
0
  6
CONTINUOUS
 62
               7
  5
5B2
 10
-247.63776905046888
 20
-1090.5632119879422
 30
0.0
 11
-190.63776905046888
 21
-1090.5632119879422
 31
0.0
  0
LINE
  8
0
  6
CONTINUOUS
 62
               7
  5
5B3
 10
-281.63776905046888
 20
-1179.5632119879422
 30
0.0
 11
-190.63776905046888
 21
-1179.5632119879422
 31
0.0
  0
LINE
  8
0
  6
CONTINUOUS
 62
               7
  5
5B4
 10
-190.63776905046888
 20
-1090.5632119879422
 30
0.0
 11
-189.63776905046888
 21
-1091.5632119879422
 31
0.0
  0
LINE
  8
0
  6
CONTINUOUS
 62
               7
  5
5B5
 10
-189.63776905046888
 20
-1178.5632119879422
 30
0.0
 11
-190.63776905046888
 21
-1179.5632119879422
 31
0.0
  0
LINE
  8
0
  6
CONTINUOUS
 62
               7
  5
5B6
 10
-281.63776905046888
 20
-1103.5632119879422
 30
0.0
 11
-247.63776905046888
 21
-1103.5632119879422
 31
0.0
  0
CIRCLE
  8
0
  6
CONTINUOUS
 62
               7
  5
5B7
 10
-392.13776905046888
 20
-1135.0632119879422
 30
0.0
 40
44.5
  0
LINE
  8
0
  6
CONTINUOUS
 62
               7
  5
5B8
 10
-281.63776905046888
 20
-1103.5632119879422
 30
0.0
 11
-282.63776905046888
 21
-1104.5632119879422
 31
0.0
  0
LINE
  8
0
  6
CONTINUOUS
 62
               7
  5
5B9
 10
-282.63776905046888
 20
-1178.5632119879422
 30
0.0
 11
-281.63776905046888
 21
-1179.5632119879422
 31
0.0
  0
LINE
  8
0
  6
CONTINUOUS
 62
               7
  5
5BA
 10
-536.63776905046882
 20
-1090.5632119879422
 30
0.0
 11
-536.63776905046882
 21
-1179.5579758672677
 31
0.0
  0
LINE
  8
0
  6
CONTINUOUS
 62
               7
  5
5BB
 10
-537.23776905046873
 20
-1090.5632119879422
 30
0.0
 11
-536.63776905046882
 21
-1090.5632119879422
 31
0.0
  0
LINE
  8
0
  6
CONTINUOUS
 62
               7
  5
5BC
 10
-501.63776905046882
 20
-1178.5632119879422
 30
0.0
 11
-501.63776905046882
 21
-1104.5632119879422
 31
0.0
  0
LINE
  8
0
  6
CONTINUOUS
 62
               7
  5
5BD
 10
-594.63776905046882
 20
-1178.5632119879422
 30
0.0
 11
-594.63776905046882
 21
-1091.5632119879422
 31
0.0
  0
LINE
  8
0
  6
CONTINUOUS
 62
               7
  5
5BE
 10
-536.63776905046882
 20
-1090.5632119879422
 30
0.0
 11
-593.63776905046882
 21
-1090.5632119879422
 31
0.0
  0
LINE
  8
0
  6
CONTINUOUS
 62
               7
  5
5BF
 10
-502.63776905046882
 20
-1179.5632119879422
 30
0.0
 11
-593.63776905046882
 21
-1179.5632119879422
 31
0.0
  0
LINE
  8
0
  6
CONTINUOUS
 62
               7
  5
5C0
 10
-593.63776905046882
 20
-1090.5632119879422
 30
0.0
 11
-594.63776905046882
 21
-1091.5632119879422
 31
0.0
  0
LINE
  8
0
  6
CONTINUOUS
 62
               7
  5
5C1
 10
-594.63776905046882
 20
-1178.5632119879422
 30
0.0
 11
-593.63776905046882
 21
-1179.5632119879422
 31
0.0
  0
LINE
  8
0
  6
CONTINUOUS
 62
               7
  5
5C2
 10
-502.63776905046882
 20
-1103.5632119879422
 30
0.0
 11
-536.63776905046882
 21
-1103.5632119879422
 31
0.0
  0
LINE
  8
0
  6
CONTINUOUS
 62
               7
  5
5C3
 10
-502.63776905046882
 20
-1103.5632119879422
 30
0.0
 11
-501.63776905046882
 21
-1104.5632119879422
 31
0.0
  0
LINE
  8
0
  6
CONTINUOUS
 62
               7
  5
5C4
 10
-501.63776905046882
 20
-1178.5632119879422
 30
0.0
 11
-502.63776905046882
 21
-1179.5632119879422
 31
0.0
  0
LINE
  8
0
  6
CONTINUOUS
 62
               7
  5
5C5
 10
-349.5837264462354
 20
-983.0953279189074
 30
0.0
 11
-438.57849032556089
 21
-983.09532791890717
 31
0.0
  0
LINE
  8
0
  6
CONTINUOUS
 62
               7
  5
5C6
 10
-349.5837264462354
 20
-982.49532791890726
 30
0.0
 11
-349.5837264462354
 21
-983.0953279189074
 31
0.0
  0
LINE
  8
0
  6
CONTINUOUS
 62
               7
  5
5C7
 10
-431.08372644623535
 20
-1018.0953279189072
 30
0.0
 11
-357.0837264462354
 21
-1018.0953279189074
 31
0.0
  0
LINE
  8
0
  6
CONTINUOUS
 62
               7
  5
5C8
 10
-437.58372644623535
 20
-925.09532791890717
 30
0.0
 11
-350.5837264462354
 21
-925.0953279189074
 31
0.0
  0
LINE
  8
0
  6
CONTINUOUS
 62
               7
  5
5C9
 10
-349.5837264462354
 20
-983.0953279189074
 30
0.0
 11
-349.5837264462354
 21
-926.0953279189074
 31
0.0
  0
LINE
  8
0
  6
CONTINUOUS
 62
               7
  5
5CA
 10
-432.08372644623535
 20
-1017.0953279189072
 30
0.0
 11
-432.08372644623535
 21
-983.09532791890717
 31
0.0
  0
LINE
  8
0
  6
CONTINUOUS
 62
               7
  5
5CB
 10
-349.5837264462354
 20
-926.0953279189074
 30
0.0
 11
-350.5837264462354
 21
-925.0953279189074
 31
0.0
  0
LINE
  8
0
  6
CONTINUOUS
 62
               7
  5
5CC
 10
-437.58372644623535
 20
-925.09532791890717
 30
0.0
 11
-438.58372644623535
 21
-926.09532791890717
 31
0.0
  0
LINE
  8
0
  6
CONTINUOUS
 62
               7
  5
5CD
 10
-356.0837264462354
 20
-1017.0953279189074
 30
0.0
 11
-356.0837264462354
 21
-983.09532791890717
 31
0.0
  0
LINE
  8
0
  6
CONTINUOUS
 62
               7
  5
5CE
 10
-356.0837264462354
 20
-1017.0953279189074
 30
0.0
 11
-357.0837264462354
 21
-1018.0953279189074
 31
0.0
  0
LINE
  8
0
  6
CONTINUOUS
 62
               7
  5
5CF
 10
-431.08372644623535
 20
-1018.0953279189072
 30
0.0
 11
-432.08372644623535
 21
-1017.0953279189072
 31
0.0
  0
LINE
  8
0
  6
CONTINUOUS
 62
               7
  5
5D0
 10
-438.58372644623535
 20
-983.09532791890717
 30
0.0
 11
-438.58372644623535
 21
-926.09532791890717
 31
0.0
  0
LINE
  8
0
  6
CONTINUOUS
 62
               7
  5
5D1
 10
216.6339236858808
 20
-1178.5632119879422
 30
0.0
 11
216.6339236858808
 21
-1120.5632119879422
 31
0.0
  0
LINE
  8
0
  6
CONTINUOUS
 62
               7
  5
5D2
 10
242.23392368588071
 20
-1090.5632119879422
 30
0.0
 11
242.23392368588071
 21
-1179.5632119879422
 31
0.0
  0
LINE
  8
0
  6
CONTINUOUS
 62
               7
  5
5D3
 10
242.83392368588085
 20
-1090.5632119879422
 30
0.0
 11
242.23392368588071
 21
-1090.5632119879422
 31
0.0
  0
LINE
  8
0
  6
CONTINUOUS
 62
               7
  5
5D4
 10
300.23392368588094
 20
-1178.5632119879422
 30
0.0
 11
300.23392368588094
 21
-1091.5632119879422
 31
0.0
  0
CIRCLE
  8
0
  6
CONTINUOUS
 62
               7
  5
5D5
 10
120.8779074606378
 20
-1149.5632119879422
 30
0.0
 40
30.0
  0
CIRCLE
  8
0
  6
CONTINUOUS
 62
               7
  5
5D6
 10
120.8779074606378
 20
-1149.5632119879422
 30
0.0
 40
25.5
  0
CIRCLE
  8
0
  6
CONTINUOUS
 62
               7
  5
5D7
 10
120.8779074606378
 20
-1135.0632119879422
 30
0.0
 40
44.5
  0
LINE
  8
0
  6
CONTINUOUS
 62
               7
  5
5D8
 10
242.36837543136113
 20
-1090.5632119879422
 30
0.0
 11
299.23392368588094
 21
-1090.5632119879422
 31
0.0
  0
LINE
  8
0
  6
CONTINUOUS
 62
               7
  5
5D9
 10
217.6339236858808
 20
-1179.5632119879422
 30
0.0
 11
299.23392368588094
 21
-1179.5632119879422
 31
0.0
  0
LINE
  8
0
  6
CONTINUOUS
 62
               7
  5
5DA
 10
217.6339236858808
 20
-1119.5632119879422
 30
0.0
 11
242.23392368588071
 21
-1119.5632119879422
 31
0.0
  0
LINE
  8
0
  6
CONTINUOUS
 62
               7
  5
5DB
 10
217.6339236858808
 20
-1119.5632119879422
 30
0.0
 11
216.6339236858808
 21
-1120.5632119879422
 31
0.0
  0
LINE
  8
0
  6
CONTINUOUS
 62
               7
  5
5DC
 10
299.23392368588094
 20
-1090.5632119879422
 30
0.0
 11
300.23392368588094
 21
-1091.5632119879422
 31
0.0
  0
LINE
  8
0
  6
CONTINUOUS
 62
               7
  5
5DD
 10
216.6339236858808
 20
-1178.5632119879422
 30
0.0
 11
217.6339236858808
 21
-1179.5632119879422
 31
0.0
  0
LINE
  8
0
  6
CONTINUOUS
 62
               7
  5
5DE
 10
300.23392368588094
 20
-1178.5632119879422
 30
0.0
 11
299.23392368588094
 21
-1179.5632119879422
 31
0.0
  0
LINE
  8
0
  6
CONTINUOUS
 62
               7
  5
5DF
 10
25.121891235395026
 20
-1178.5632119879422
 30
0.0
 11
25.121891235395026
 21
-1120.5632119879422
 31
0.0
  0
LINE
  8
0
  6
CONTINUOUS
 62
               7
  5
5E0
 10
-0.4781087646049969
 20
-1090.5632119879422
 30
0.0
 11
-0.4781087646049969
 21
-1179.5632119879422
 31
0.0
  0
LINE
  8
0
  6
CONTINUOUS
 62
               7
  5
5E1
 10
-1.0781087646050196
 20
-1090.5632119879422
 30
0.0
 11
-0.4781087646049969
 21
-1090.5632119879422
 31
0.0
  0
LINE
  8
0
  6
CONTINUOUS
 62
               7
  5
5E2
 10
-58.478108764604997
 20
-1178.5632119879422
 30
0.0
 11
-58.478108764604997
 21
-1091.5632119879422
 31
0.0
  0
LINE
  8
0
  6
CONTINUOUS
 62
               7
  5
5E3
 10
-0.6125605100853022
 20
-1090.5632119879422
 30
0.0
 11
-57.478108764604997
 21
-1090.5632119879422
 31
0.0
  0
LINE
  8
0
  6
CONTINUOUS
 62
               7
  5
5E4
 10
24.121891235395026
 20
-1179.5632119879422
 30
0.0
 11
-57.478108764604997
 21
-1179.5632119879422
 31
0.0
  0
LINE
  8
0
  6
CONTINUOUS
 62
               7
  5
5E5
 10
24.121891235395026
 20
-1119.5632119879422
 30
0.0
 11
-0.4781087646049969
 21
-1119.5632119879422
 31
0.0
  0
LINE
  8
0
  6
CONTINUOUS
 62
               7
  5
5E6
 10
24.121891235395026
 20
-1119.5632119879422
 30
0.0
 11
25.121891235395026
 21
-1120.5632119879422
 31
0.0
  0
LINE
  8
0
  6
CONTINUOUS
 62
               7
  5
5E7
 10
-57.478108764604997
 20
-1090.5632119879422
 30
0.0
 11
-58.478108764604997
 21
-1091.5632119879422
 31
0.0
  0
LINE
  8
0
  6
CONTINUOUS
 62
               7
  5
5E8
 10
25.121891235395026
 20
-1178.5632119879422
 30
0.0
 11
24.121891235395026
 21
-1179.5632119879422
 31
0.0
  0
LINE
  8
0
  6
CONTINUOUS
 62
               7
  5
5E9
 10
-58.478108764604997
 20
-1178.5632119879422
 30
0.0
 11
-57.478108764604997
 21
-1179.5632119879422
 31
0.0
  0
LINE
  8
0
  6
CONTINUOUS
 62
               7
  5
5EA
 10
91.877907460638028
 20
-1028.8071957626996
 30
0.0
 11
149.87790746063803
 21
-1028.8071957626996
 31
0.0
  0
LINE
  8
0
  6
CONTINUOUS
 62
               7
  5
5EB
 10
165.37790746063803
 20
-1003.2071957626994
 30
0.0
 11
76.377907460638028
 21
-1003.2071957626994
 31
0.0
  0
LINE
  8
0
  6
CONTINUOUS
 62
               7
  5
5EC
 10
165.37790746063803
 20
-1002.6071957626995
 30
0.0
 11
165.37790746063803
 21
-1003.2071957626994
 31
0.0
  0
LINE
  8
0
  6
CONTINUOUS
 62
               7
  5
5ED
 10
77.377907460638028
 20
-945.20719576269937
 30
0.0
 11
164.37790746063803
 21
-945.20719576269937
 31
0.0
  0
LINE
  8
0
  6
CONTINUOUS
 62
               7
  5
5EE
 10
165.37790746063803
 20
-1003.0727440172192
 30
0.0
 11
165.37790746063803
 21
-946.20719576269937
 31
0.0
  0
LINE
  8
0
  6
CONTINUOUS
 62
               7
  5
5EF
 10
90.877907460638028
 20
-1027.8071957626996
 30
0.0
 11
90.877907460638028
 21
-1003.2071957626994
 31
0.0
  0
LINE
  8
0
  6
CONTINUOUS
 62
               7
  5
5F0
 10
150.87790746063803
 20
-1027.8071957626996
 30
0.0
 11
150.87790746063803
 21
-1003.2071957626994
 31
0.0
  0
LINE
  8
0
  6
CONTINUOUS
 62
               7
  5
5F1
 10
150.87790746063803
 20
-1027.8071957626996
 30
0.0
 11
149.87790746063803
 21
-1028.8071957626996
 31
0.0
  0
LINE
  8
0
  6
CONTINUOUS
 62
               7
  5
5F2
 10
165.37790746063803
 20
-946.20719576269937
 30
0.0
 11
164.37790746063803
 21
-945.20719576269937
 31
0.0
  0
LINE
  8
0
  6
CONTINUOUS
 62
               7
  5
5F3
 10
91.877907460638028
 20
-1028.8071957626996
 30
0.0
 11
90.877907460638028
 21
-1027.8071957626996
 31
0.0
  0
LINE
  8
0
  6
CONTINUOUS
 62
               7
  5
5F4
 10
77.377907460638028
 20
-945.20719576269937
 30
0.0
 11
76.377907460638028
 21
-946.20719576269937
 31
0.0
  0
LINE
  8
0
  6
CONTINUOUS
 62
               7
  5
5F5
 10
76.377907460638028
 20
-1003.072744017219
 30
0.0
 11
76.377907460638028
 21
-946.20719576269937
 31
0.0
  0
CIRCLE
  8
0
  6
CONTINUOUS
 62
               7
  5
5F6
 10
609.28652321630773
 20
-1566.3782101647355
 30
0.0
 40
25.5
  0
CIRCLE
  8
0
  6
CONTINUOUS
 62
               7
  5
5F7
 10
609.28652321630773
 20
-1551.8782101647355
 30
0.0
 40
44.5
  0
CIRCLE
  8
0
  6
CONTINUOUS
 62
               7
  5
5F8
 10
609.28652321630773
 20
-1566.3782101647355
 30
0.0
 40
30.0
  0
LINE
  8
0
  6
CONTINUOUS
 62
               7
  5
5F9
 10
580.28652321630773
 20
-1247.9787764161513
 30
0.0
 11
638.28652321630773
 21
-1247.9787764161513
 31
0.0
  0
LINE
  8
0
  6
CONTINUOUS
 62
               7
  5
5FA
 10
653.78652321630773
 20
-1222.3787764161514
 30
0.0
 11
564.78652321630773
 21
-1222.3787764161514
 31
0.0
  0
LINE
  8
0
  6
CONTINUOUS
 62
               7
  5
5FB
 10
653.78652321630773
 20
-1221.7787764161515
 30
0.0
 11
653.78652321630773
 21
-1222.3787764161514
 31
0.0
  0
LINE
  8
0
  6
CONTINUOUS
 62
               7
  5
5FC
 10
565.78652321630773
 20
-1164.3787764161509
 30
0.0
 11
652.78652321630773
 21
-1164.3787764161509
 31
0.0
  0
LINE
  8
0
  6
CONTINUOUS
 62
               7
  5
5FD
 10
653.78652321630773
 20
-1222.2443246706709
 30
0.0
 11
653.78652321630773
 21
-1165.3787764161509
 31
0.0
  0
LINE
  8
0
  6
CONTINUOUS
 62
               7
  5
5FE
 10
579.28652321630773
 20
-1246.9787764161513
 30
0.0
 11
579.28652321630773
 21
-1222.3787764161514
 31
0.0
  0
LINE
  8
0
  6
CONTINUOUS
 62
               7
  5
5FF
 10
639.28652321630773
 20
-1246.9787764161513
 30
0.0
 11
639.28652321630773
 21
-1222.3787764161514
 31
0.0
  0
LINE
  8
0
  6
CONTINUOUS
 62
               7
  5
600
 10
639.28652321630773
 20
-1246.9787764161513
 30
0.0
 11
638.28652321630773
 21
-1247.9787764161513
 31
0.0
  0
LINE
  8
0
  6
CONTINUOUS
 62
               7
  5
601
 10
653.78652321630773
 20
-1165.3787764161509
 30
0.0
 11
652.78652321630773
 21
-1164.3787764161509
 31
0.0
  0
LINE
  8
0
  6
CONTINUOUS
 62
               7
  5
602
 10
580.28652321630773
 20
-1247.9787764161513
 30
0.0
 11
579.28652321630773
 21
-1246.9787764161513
 31
0.0
  0
LINE
  8
0
  6
CONTINUOUS
 62
               7
  5
603
 10
565.78652321630773
 20
-1164.3787764161509
 30
0.0
 11
564.78652321630773
 21
-1165.3787764161509
 31
0.0
  0
LINE
  8
0
  6
CONTINUOUS
 62
               7
  5
604
 10
564.78652321630773
 20
-1222.2443246706709
 30
0.0
 11
564.78652321630773
 21
-1165.3787764161509
 31
0.0
  0
LINE
  8
0
  6
CONTINUOUS
 62
               7
  5
605
 10
464.28652321630767
 20
-1507.3782101647355
 30
0.0
 11
464.28652321630767
 21
-1596.372974044061
 31
0.0
  0
LINE
  8
0
  6
CONTINUOUS
 62
               7
  5
606
 10
464.88652321630769
 20
-1507.3782101647355
 30
0.0
 11
464.28652321630767
 21
-1507.3782101647355
 31
0.0
  0
LINE
  8
0
  6
CONTINUOUS
 62
               7
  5
607
 10
429.28652321630767
 20
-1595.3782101647355
 30
0.0
 11
429.28652321630767
 21
-1521.3782101647355
 31
0.0
  0
LINE
  8
0
  6
CONTINUOUS
 62
               7
  5
608
 10
522.28652321630773
 20
-1595.3782101647355
 30
0.0
 11
522.28652321630773
 21
-1508.3782101647355
 31
0.0
  0
LINE
  8
0
  6
CONTINUOUS
 62
               7
  5
609
 10
464.28652321630767
 20
-1507.3782101647355
 30
0.0
 11
521.28652321630773
 21
-1507.3782101647355
 31
0.0
  0
LINE
  8
0
  6
CONTINUOUS
 62
               7
  5
60A
 10
430.28652321630767
 20
-1596.3782101647355
 30
0.0
 11
521.28652321630773
 21
-1596.3782101647355
 31
0.0
  0
LINE
  8
0
  6
CONTINUOUS
 62
               7
  5
60B
 10
521.28652321630773
 20
-1507.3782101647355
 30
0.0
 11
522.28652321630773
 21
-1508.3782101647355
 31
0.0
  0
LINE
  8
0
  6
CONTINUOUS
 62
               7
  5
60C
 10
522.28652321630773
 20
-1595.3782101647355
 30
0.0
 11
521.28652321630773
 21
-1596.3782101647355
 31
0.0
  0
LINE
  8
0
  6
CONTINUOUS
 62
               7
  5
60D
 10
430.28652321630767
 20
-1520.3782101647355
 30
0.0
 11
464.28652321630767
 21
-1520.3782101647355
 31
0.0
  0
LINE
  8
0
  6
CONTINUOUS
 62
               7
  5
60E
 10
430.28652321630767
 20
-1520.3782101647355
 30
0.0
 11
429.28652321630767
 21
-1521.3782101647355
 31
0.0
  0
LINE
  8
0
  6
CONTINUOUS
 62
               7
  5
60F
 10
429.28652321630767
 20
-1595.3782101647355
 30
0.0
 11
430.28652321630767
 21
-1596.3782101647355
 31
0.0
  0
LINE
  8
0
  6
CONTINUOUS
 62
               7
  5
610
 10
464.28652321630767
 20
-1121.8787764161509
 30
0.0
 11
464.2865232163079
 21
-1032.8840125368254
 31
0.0
  0
LINE
  8
0
  6
CONTINUOUS
 62
               7
  5
611
 10
464.88652321630781
 20
-1121.8787764161509
 30
0.0
 11
464.28652321630767
 21
-1121.8787764161509
 31
0.0
  0
LINE
  8
0
  6
CONTINUOUS
 62
               7
  5
612
 10
429.2865232163079
 20
-1040.3787764161509
 30
0.0
 11
429.28652321630767
 21
-1114.3787764161509
 31
0.0
  0
LINE
  8
0
  6
CONTINUOUS
 62
               7
  5
613
 10
522.28652321630796
 20
-1033.8787764161514
 30
0.0
 11
522.28652321630773
 21
-1120.8787764161509
 31
0.0
  0
LINE
  8
0
  6
CONTINUOUS
 62
               7
  5
614
 10
464.28652321630767
 20
-1121.8787764161509
 30
0.0
 11
521.28652321630773
 21
-1121.8787764161509
 31
0.0
  0
LINE
  8
0
  6
CONTINUOUS
 62
               7
  5
615
 10
430.2865232163079
 20
-1039.3787764161509
 30
0.0
 11
464.2865232163079
 21
-1039.3787764161509
 31
0.0
  0
LINE
  8
0
  6
CONTINUOUS
 62
               7
  5
616
 10
521.28652321630773
 20
-1121.8787764161509
 30
0.0
 11
522.28652321630773
 21
-1120.8787764161509
 31
0.0
  0
LINE
  8
0
  6
CONTINUOUS
 62
               7
  5
617
 10
522.28652321630796
 20
-1033.8787764161514
 30
0.0
 11
521.28652321630796
 21
-1032.8787764161514
 31
0.0
  0
LINE
  8
0
  6
CONTINUOUS
 62
               7
  5
618
 10
430.28652321630767
 20
-1115.3787764161509
 30
0.0
 11
464.2865232163079
 21
-1115.3787764161509
 31
0.0
  0
LINE
  8
0
  6
CONTINUOUS
 62
               7
  5
619
 10
430.28652321630767
 20
-1115.3787764161509
 30
0.0
 11
429.28652321630767
 21
-1114.3787764161509
 31
0.0
  0
LINE
  8
0
  6
CONTINUOUS
 62
               7
  5
61A
 10
429.2865232163079
 20
-1040.3787764161509
 30
0.0
 11
430.2865232163079
 21
-1039.3787764161509
 31
0.0
  0
LINE
  8
0
  6
CONTINUOUS
 62
               7
  5
61B
 10
464.2865232163079
 20
-1032.8787764161509
 30
0.0
 11
521.28652321630796
 21
-1032.8787764161509
 31
0.0
  0
CIRCLE
  8
0
  6
CONTINUOUS
 62
               7
  5
61C
 10
120.87790746063791
 20
-1637.7716163701457
 30
0.0
 40
44.5
  0
CIRCLE
  8
0
  6
CONTINUOUS
 62
               7
  5
61D
 10
120.87790746063786
 20
-1625.2716163701457
 30
0.0
 40
57.0
  0
CIRCLE
  8
0
  6
CONTINUOUS
 62
               7
  5
61E
 10
120.87790746063786
 20
-1637.7716163701457
 30
0.0
 40
40.625
  0
LINE
  8
0
  6
CONTINUOUS
 62
               7
  5
61F
 10
247.98631184284125
 20
-1681.2716163701457
 30
0.0
 11
247.98631184284136
 21
-1594.2716163701457
 31
0.0
  0
LINE
  8
0
  6
CONTINUOUS
 62
               7
  5
620
 10
288.58631184284138
 20
-1568.2716163701459
 30
0.0
 11
288.58631184284127
 21
-1682.2716163701459
 31
0.0
  0
LINE
  8
0
  6
CONTINUOUS
 62
               7
  5
621
 10
346.58631184284127
 20
-1681.2716163701459
 30
0.0
 11
346.58631184284138
 21
-1569.2716163701459
 31
0.0
  0
LINE
  8
0
  6
CONTINUOUS
 62
               7
  5
622
 10
345.58631184284138
 20
-1568.2716163701459
 30
0.0
 11
288.58631184284138
 21
-1568.2716163701459
 31
0.0
  0
LINE
  8
0
  6
CONTINUOUS
 62
               7
  5
623
 10
345.58631184284127
 20
-1682.2716163701459
 30
0.0
 11
288.58631184284127
 21
-1682.2716163701459
 31
0.0
  0
LINE
  8
0
  6
CONTINUOUS
 62
               7
  5
624
 10
288.58631184284127
 20
-1682.2716163701459
 30
0.0
 11
248.98631184284127
 21
-1682.2716163701457
 31
0.0
  0
LINE
  8
0
  6
CONTINUOUS
 62
               7
  5
625
 10
288.58631184284138
 20
-1593.2716163701459
 30
0.0
 11
248.98631184284133
 21
-1593.2716163701459
 31
0.0
  0
LINE
  8
0
  6
CONTINUOUS
 62
               7
  5
626
 10
345.58631184284138
 20
-1568.2716163701459
 30
0.0
 11
346.58631184284138
 21
-1569.2716163701459
 31
0.0
  0
LINE
  8
0
  6
CONTINUOUS
 62
               7
  5
627
 10
346.58631184284127
 20
-1681.2716163701459
 30
0.0
 11
345.58631184284127
 21
-1682.2716163701459
 31
0.0
  0
LINE
  8
0
  6
CONTINUOUS
 62
               7
  5
628
 10
248.98631184284133
 20
-1593.2716163701459
 30
0.0
 11
247.98631184284136
 21
-1594.2716163701457
 31
0.0
  0
LINE
  8
0
  6
CONTINUOUS
 62
               7
  5
629
 10
247.98631184284125
 20
-1681.2716163701457
 30
0.0
 11
248.98631184284127
 21
-1682.2716163701457
 31
0.0
  0
LINE
  8
0
  6
CONTINUOUS
 62
               7
  5
62A
 10
-6.2304969215655888
 20
-1681.2716163701457
 30
0.0
 11
-6.2304969215655888
 21
-1594.2716163701457
 31
0.0
  0
LINE
  8
0
  6
CONTINUOUS
 62
               7
  5
62B
 10
-46.830496921565555
 20
-1568.2716163701457
 30
0.0
 11
-46.830496921565555
 21
-1682.2716163701457
 31
0.0
  0
LINE
  8
0
  6
CONTINUOUS
 62
               7
  5
62C
 10
-104.83049692156561
 20
-1681.2716163701457
 30
0.0
 11
-104.83049692156561
 21
-1569.2716163701457
 31
0.0
  0
LINE
  8
0
  6
CONTINUOUS
 62
               7
  5
62D
 10
-103.83049692156561
 20
-1568.2716163701457
 30
0.0
 11
-46.830496921565555
 21
-1568.2716163701457
 31
0.0
  0
LINE
  8
0
  6
CONTINUOUS
 62
               7
  5
62E
 10
-103.83049692156561
 20
-1682.2716163701457
 30
0.0
 11
-46.830496921565555
 21
-1682.2716163701457
 31
0.0
  0
LINE
  8
0
  6
CONTINUOUS
 62
               7
  5
62F
 10
-46.830496921565555
 20
-1682.2716163701457
 30
0.0
 11
-7.2304969215655888
 21
-1682.2716163701457
 31
0.0
  0
LINE
  8
0
  6
CONTINUOUS
 62
               7
  5
630
 10
-46.830496921565555
 20
-1593.2716163701457
 30
0.0
 11
-7.2304969215655888
 21
-1593.2716163701457
 31
0.0
  0
LINE
  8
0
  6
CONTINUOUS
 62
               7
  5
631
 10
-103.83049692156561
 20
-1568.2716163701457
 30
0.0
 11
-104.83049692156561
 21
-1569.2716163701457
 31
0.0
  0
LINE
  8
0
  6
CONTINUOUS
 62
               7
  5
632
 10
-104.83049692156561
 20
-1681.2716163701457
 30
0.0
 11
-103.83049692156561
 21
-1682.2716163701457
 31
0.0
  0
LINE
  8
0
  6
CONTINUOUS
 62
               7
  5
633
 10
-7.2304969215655888
 20
-1593.2716163701457
 30
0.0
 11
-6.2304969215655888
 21
-1594.2716163701457
 31
0.0
  0
LINE
  8
0
  6
CONTINUOUS
 62
               7
  5
634
 10
-6.2304969215655888
 20
-1681.2716163701457
 30
0.0
 11
-7.2304969215655888
 21
-1682.2716163701457
 31
0.0
  0
LINE
  8
0
  6
CONTINUOUS
 62
               7
  5
635
 10
77.3779074606378
 20
-1498.1632119879423
 30
0.0
 11
164.3779074606378
 21
-1498.1632119879423
 31
0.0
  0
LINE
  8
0
  6
CONTINUOUS
 62
               7
  5
636
 10
177.8779074606378
 20
-1457.5632119879422
 30
0.0
 11
63.8779074606378
 21
-1457.5632119879422
 31
0.0
  0
LINE
  8
0
  6
CONTINUOUS
 62
               7
  5
637
 10
64.8779074606378
 20
-1399.5632119879422
 30
0.0
 11
176.8779074606378
 21
-1399.5632119879422
 31
0.0
  0
LINE
  8
0
  6
CONTINUOUS
 62
               7
  5
638
 10
177.8779074606378
 20
-1400.5632119879422
 30
0.0
 11
177.8779074606378
 21
-1457.5632119879424
 31
0.0
  0
LINE
  8
0
  6
CONTINUOUS
 62
               7
  5
639
 10
63.8779074606378
 20
-1400.5632119879422
 30
0.0
 11
63.8779074606378
 21
-1457.5632119879424
 31
0.0
  0
LINE
  8
0
  6
CONTINUOUS
 62
               7
  5
63A
 10
76.3779074606378
 20
-1457.5632119879424
 30
0.0
 11
76.3779074606378
 21
-1497.1632119879423
 31
0.0
  0
LINE
  8
0
  6
CONTINUOUS
 62
               7
  5
63B
 10
165.3779074606378
 20
-1457.5632119879424
 30
0.0
 11
165.3779074606378
 21
-1497.1632119879423
 31
0.0
  0
LINE
  8
0
  6
CONTINUOUS
 62
               7
  5
63C
 10
177.8779074606378
 20
-1400.5632119879422
 30
0.0
 11
176.8779074606378
 21
-1399.5632119879422
 31
0.0
  0
LINE
  8
0
  6
CONTINUOUS
 62
               7
  5
63D
 10
64.8779074606378
 20
-1399.5632119879422
 30
0.0
 11
63.8779074606378
 21
-1400.5632119879422
 31
0.0
  0
LINE
  8
0
  6
CONTINUOUS
 62
               7
  5
63E
 10
165.3779074606378
 20
-1497.1632119879423
 30
0.0
 11
164.3779074606378
 21
-1498.1632119879423
 31
0.0
  0
LINE
  8
0
  6
CONTINUOUS
 62
               7
  5
63F
 10
77.3779074606378
 20
-1498.1632119879423
 30
0.0
 11
76.3779074606378
 21
-1497.1632119879423
 31
0.0
  0
CIRCLE
  8
0
  6
DASHED
 62
               7
  5
640
 10
-392.13776905046888
 20
-1135.0632119879422
 30
0.0
 40
40.0
  0
CIRCLE
  8
0
  6
DASHED
 62
               7
  5
641
 10
120.8779074606378
 20
-1135.0632119879422
 30
0.0
 40
40.0
  0
CIRCLE
  8
0
  6
DASHED
 62
               7
  5
642
 10
609.28652321630773
 20
-1551.8782101647355
 30
0.0
 40
40.0
  0
TEXT
  8
0
 62
               3
  5
643
 10
-392.13776905046888
 20
-1219.5632119879422
 30
0.0
 40
40.0
  1
EMB_80×65
 41
0.8
 72
               1
 11
-392.13776905046888
 21
-1219.5632119879422
 31
0.0
 73
               3
  0
TEXT
  8
0
 62
               3
  5
644
 10
120.8779074606378
 20
-1219.5632119879422
 30
0.0
 40
40.0
  1
EMB_80×50
 41
0.8
 72
               1
 11
120.8779074606378
 21
-1219.5632119879422
 31
0.0
 73
               3
  0
TEXT
  8
0
 62
               3
  5
645
 10
605.58911923866742
 20
-897.93240791093183
 30
0.0
 40
40.0
  1
EMB使用例
 41
0.8
 72
               1
 11
605.58911923866742
 21
-897.93240791093183
 31
0.0
 73
               3
  0
TEXT
  8
0
 62
               3
  5
646
 10
-123.74270409089107
 20
-843.57227201059243
 30
0.0
 40
35.0
  1
横枝管を縮径して管を接続するときは、EMBをご使用ください。
 41
0.8
 72
               1
 11
-123.74270409089107
 21
-843.57227201059243
 31
0.0
 73
               3
  0
TEXT
  8
0
 62
               3
  5
647
 10
120.8779074606378
 20
-1709.7716163701455
 30
0.0
 40
40.0
  1
EMB_100×80
 41
0.8
 72
               1
 11
120.8779074606378
 21
-1709.7716163701455
 31
0.0
 73
               3
  0
ENDSEC
  0
EOF
