  0
SECTION
  2
HEADER
  9
$ACADVER
  1
AC1009
  9
$INSBASE
 10
0.0
 20
0.0
 30
0.0
  9
$EXTMIN
 10
-738.60051192420565
 20
-1758.8718198374768
 30
0.0
  9
$EXTMAX
 10
746.34313174847478
 20
794.33876046372507
 30
0.0
  9
$LIMMIN
 10
-785.00500078897687
 20
-1838.6596504718893
  9
$LIMMAX
 10
792.747620613246
 20
874.12659109813762
  9
$ORTHOMODE
 70
               0
  9
$REGENMODE
 70
               1
  9
$FILLMODE
 70
               1
  9
$QTEXTMODE
 70
               0
  9
$MIRRTEXT
 70
               1
  9
$DRAGMODE
 70
               2
  9
$LTSCALE
 40
1.0
  9
$OSMODE
 70
               0
  9
$ATTMODE
 70
               1
  9
$TEXTSIZE
 40
0.2
  9
$TRACEWID
 40
0.05
  9
$TEXTSTYLE
  7
STANDARD
  9
$CLAYER
  8
0
  9
$CELTYPE
  6
CONTINUOUS
  9
$CECOLOR
 62
             256
  9
$DIMSCALE
 40
1.0
  9
$DIMASZ
 40
0.18
  9
$DIMEXO
 40
0.0625
  9
$DIMDLI
 40
0.38
  9
$DIMRND
 40
0.0
  9
$DIMDLE
 40
0.0
  9
$DIMEXE
 40
0.18
  9
$DIMTP
 40
0.0
  9
$DIMTM
 40
0.0
  9
$DIMTXT
 40
0.18
  9
$DIMCEN
 40
0.09
  9
$DIMTSZ
 40
0.0
  9
$DIMTOL
 70
               0
  9
$DIMLIM
 70
               0
  9
$DIMTIH
 70
               1
  9
$DIMTOH
 70
               1
  9
$DIMSE1
 70
               0
  9
$DIMSE2
 70
               0
  9
$DIMTAD
 70
               0
  9
$DIMZIN
 70
               0
  9
$DIMBLK
  1

  9
$DIMASO
 70
               1
  9
$DIMSHO
 70
               1
  9
$DIMPOST
  1

  9
$DIMAPOST
  1

  9
$DIMALT
 70
               0
  9
$DIMALTD
 70
               2
  9
$DIMALTF
 40
25.399999999999999
  9
$DIMLFAC
 40
1.0
  9
$DIMTOFL
 70
               0
  9
$DIMTVP
 40
0.0
  9
$DIMTIX
 70
               0
  9
$DIMSOXD
 70
               0
  9
$DIMSAH
 70
               0
  9
$DIMBLK1
  1

  9
$DIMBLK2
  1

  9
$DIMSTYLE
  2
STANDARD
  9
$DIMCLRD
 70
               0
  9
$DIMCLRE
 70
               0
  9
$DIMCLRT
 70
               0
  9
$DIMTFAC
 40
1.0
  9
$DIMGAP
 40
0.09
  9
$LUNITS
 70
               2
  9
$LUPREC
 70
               4
  9
$AXISMODE
 70
               0
  9
$AXISUNIT
 10
0.0
 20
0.0
  9
$SKETCHINC
 40
0.1
  9
$FILLETRAD
 40
0.0
  9
$AUNITS
 70
               0
  9
$AUPREC
 70
               0
  9
$MENU
  1
acad
  9
$ELEVATION
 40
0.0
  9
$PELEVATION
 40
0.0
  9
$THICKNESS
 40
0.0
  9
$LIMCHECK
 70
               0
  9
$BLIPMODE
 70
               1
  9
$CHAMFERA
 40
0.0
  9
$CHAMFERB
 40
0.0
  9
$SKPOLY
 70
               0
  9
$TDCREATE
 40
0.000000000
  9
$TDUPDATE
 40
0.000000000
  9
$TDINDWG
 40
0.0000000000
  9
$TDUSRTIMER
 40
0.0000000000
  9
$USRTIMER
 70
               1
  9
$ANGBASE
 50
0.0
  9
$ANGDIR
 70
               0
  9
$PDMODE
 70
               0
  9
$PDSIZE
 40
1.0
  9
$PLINEWID
 40
0.0
  9
$COORDS
 70
               1
  9
$SPLFRAME
 70
               0
  9
$SPLINETYPE
 70
               6
  9
$SPLINESEGS
 70
               8
  9
$ATTDIA
 70
               0
  9
$ATTREQ
 70
               1
  9
$HANDLING
 70
               1
  9
$HANDSEED
  5
63C
  9
$SURFTAB1
 70
               6
  9
$SURFTAB2
 70
               6
  9
$SURFTYPE
 70
               6
  9
$SURFU
 70
               6
  9
$SURFV
 70
               6
  9
$UCSNAME
  2

  9
$UCSORG
 10
0.0
 20
0.0
 30
0.0
  9
$UCSXDIR
 10
1.0
 20
0.0
 30
0.0
  9
$UCSYDIR
 10
0.0
 20
1.0
 30
0.0
  9
$PUCSNAME
  2

  9
$PUCSORG
 10
0.0
 20
0.0
 30
0.0
  9
$PUCSXDIR
 10
1.0
 20
0.0
 30
0.0
  9
$PUCSYDIR
 10
0.0
 20
1.0
 30
0.0
  9
$USERI1
 70
               0
  9
$USERI2
 70
               0
  9
$USERI3
 70
               0
  9
$USERI4
 70
               0
  9
$USERI5
 70
               0
  9
$USERR1
 40
0.0
  9
$USERR2
 40
0.0
  9
$USERR3
 40
0.0
  9
$USERR4
 40
0.0
  9
$USERR5
 40
0.0
  9
$WORLDVIEW
 70
               1
  9
$SHADEDGE
 70
               3
  9
$SHADEDIF
 70
              70
  9
$TILEMODE
 70
               1
  9
$MAXACTVP
 70
              16
  9
$PINSBASE
 10
0.0
 20
0.0
 30
0.0
  9
$PLIMCHECK
 70
               0
  9
$PEXTMIN
 10
1.0000000000000000E+20
 20
1.0000000000000000E+20
 30
1.0000000000000000E+20
  9
$PEXTMAX
 10
-1.0000000000000000E+20
 20
-1.0000000000000000E+20
 30
-1.0000000000000000E+20
  9
$PLIMMIN
 10
0.0
 20
0.0
  9
$PLIMMAX
 10
12.0
 20
9.0
  9
$UNITMODE
 70
               0
  9
$VISRETAIN
 70
               0
  9
$PLINEGEN
 70
               1
  9
$PSLTSCALE
 70
               0
  9
$TREEDEPTH
 70
            3020
  9
$DWGCODEPAGE
  3
dos932
  0
ENDSEC
  0
SECTION
  2
TABLES
  0
TABLE
  2
VPORT
 70
               1
  0
VPORT
  2
*ACTIVE
 70
               0
 10
0.0
 20
0.0
 11
1.0
 21
1.0
 12
3.8713099121345635
 22
-482.26652968687586
 13
0.0
 23
0.0
 14
1.0
 24
1.0
 15
0.0
 25
0.0
 16
0.0
 26
0.0
 36
1.0
 17
0.0
 27
0.0
 37
0.0
 40
2712.786241570027
 41
0.5815985783270182
 42
50.0
 43
0.0
 44
0.0
 50
0.0
 51
0.0
 71
               0
 72
             100
 73
               1
 74
               1
 75
               0
 76
               0
 77
               0
 78
               0
  0
ENDTAB
  0
TABLE
  2
LTYPE
 70
              26
  0
LTYPE
  2
CONTINUOUS
 70
               0
  3
Solid line
 72
              65
 73
               0
 40
0.0
  0
LTYPE
  2
HIDDENX2
 70
               0
  3
CADPAC FUSION LINETYPE
 72
              65
 73
               2
 40
47.560000000000002
 49
35.670000000000002
 49
-11.890000000000001
  0
LTYPE
  2
HIDDEN
 70
               0
  3
CADPAC FUSION LINETYPE
 72
              65
 73
               2
 40
35.670000000000002
 49
23.780000000000001
 49
-11.890000000000001
  0
LTYPE
  2
HIDDEN2
 70
               0
  3
CADPAC FUSION LINETYPE
 72
              65
 73
               2
 40
29.725000000000001
 49
17.835000000000001
 49
-11.890000000000001
  0
LTYPE
  2
DASHED
 70
               0
  3
CADPAC FUSION LINETYPE
 72
              65
 73
               2
 40
35.670000000000002
 49
23.780000000000001
 49
-11.890000000000001
  0
LTYPE
  2
DASHED2
 70
               0
  3
CADPAC FUSION LINETYPE
 72
              65
 73
               2
 40
26.752500000000001
 49
17.835000000000001
 49
-8.9175000000000004
  0
LTYPE
  2
DASHEDX2
 70
               0
  3
CADPAC FUSION LINETYPE
 72
              65
 73
               2
 40
53.505000000000003
 49
35.670000000000002
 49
-17.835000000000001
  0
LTYPE
  2
DOTX2
 70
               0
  3
CADPAC FUSION LINETYPE
 72
              65
 73
               2
 40
14.862500000000001
 49
0.0
 49
-14.862500000000001
  0
LTYPE
  2
DOT
 70
               0
  3
CADPAC FUSION LINETYPE
 72
              65
 73
               2
 40
11.890000000000001
 49
0.0
 49
-11.890000000000001
  0
LTYPE
  2
DOTS
 70
               0
  3
CADPAC FUSION LINETYPE
 72
              65
 73
               2
 40
11.890000000000001
 49
0.0
 49
-11.890000000000001
  0
LTYPE
  2
DOT2
 70
               0
  3
CADPAC FUSION LINETYPE
 72
              65
 73
               2
 40
8.9175000000000004
 49
0.0
 49
-8.9175000000000004
  0
LTYPE
  2
CENTERX2
 70
               0
  3
CADPAC FUSION LINETYPE
 72
              65
 73
               4
 40
71.340000000000003
 49
29.725000000000001
 49
-14.862500000000001
 49
11.890000000000001
 49
-14.862500000000001
  0
LTYPE
  2
CENTER
 70
               0
  3
CADPAC FUSION LINETYPE
 72
              65
 73
               4
 40
54.694000000000003
 49
23.780000000000001
 49
-11.890000000000001
 49
7.1340000000000003
 49
-11.890000000000001
  0
LTYPE
  2
CENTER2
 70
               0
  3
CADPAC FUSION LINETYPE
 72
              65
 73
               4
 40
38.048000000000002
 49
17.835000000000001
 49
-8.9175000000000004
 49
2.3780000000000001
 49
-8.9175000000000004
  0
LTYPE
  2
DASHDOTX2
 70
               0
  3
CADPAC FUSION LINETYPE
 72
              65
 73
               4
 40
59.450000000000003
 49
29.725000000000001
 49
-14.862500000000001
 49
0.0
 49
-14.862500000000001
  0
LTYPE
  2
DASHDOT
 70
               0
  3
CADPAC FUSION LINETYPE
 72
              65
 73
               4
 40
47.560000000000002
 49
23.780000000000001
 49
-11.890000000000001
 49
0.0
 49
-11.890000000000001
  0
LTYPE
  2
DASHDOT2
 70
               0
  3
CADPAC FUSION LINETYPE
 72
              65
 73
               4
 40
35.670000000000002
 49
17.835000000000001
 49
-8.9175000000000004
 49
0.0
 49
-8.9175000000000004
  0
LTYPE
  2
DIVIDEX2
 70
               0
  3
CADPAC FUSION LINETYPE
 72
              65
 73
               6
 40
74.3125
 49
29.725000000000001
 49
-14.862500000000001
 49
0.0
 49
-14.862500000000001
 49
0.0
 49
-14.862500000000001
  0
LTYPE
  2
DIVIDE
 70
               0
  3
CADPAC FUSION LINETYPE
 72
              65
 73
               6
 40
59.450000000000003
 49
23.780000000000001
 49
-11.890000000000001
 49
0.0
 49
-11.890000000000001
 49
0.0
 49
-11.890000000000001
  0
LTYPE
  2
DIVIDE2
 70
               0
  3
CADPAC FUSION LINETYPE
 72
              65
 73
               6
 40
44.587500000000006
 49
17.835000000000001
 49
-8.9175000000000004
 49
0.0
 49
-8.9175000000000004
 49
0.0
 49
-8.9175000000000004
  0
LTYPE
  2
BORDERX2
 70
               0
  3
CADPAC FUSION LINETYPE
 72
              65
 73
               6
 40
104.03750000000001
 49
29.725000000000001
 49
-14.862500000000001
 49
29.725000000000001
 49
-14.862500000000001
 49
0.0
 49
-14.862500000000001
  0
LTYPE
  2
BORDER
 70
               0
  3
CADPAC FUSION LINETYPE
 72
              65
 73
               6
 40
83.230000000000004
 49
23.780000000000001
 49
-11.890000000000001
 49
23.780000000000001
 49
-11.890000000000001
 49
0.0
 49
-11.890000000000001
  0
LTYPE
  2
BORDER2
 70
               0
  3
CADPAC FUSION LINETYPE
 72
              65
 73
               6
 40
62.422499999999999
 49
17.835000000000001
 49
-8.9175000000000004
 49
17.835000000000001
 49
-8.9175000000000004
 49
0.0
 49
-8.9175000000000004
  0
LTYPE
  2
PHANTOMX2
 70
               0
  3
CADPAC FUSION LINETYPE
 72
              65
 73
               6
 40
89.175000000000011
 49
29.725000000000001
 49
-11.890000000000001
 49
11.890000000000001
 49
-11.890000000000001
 49
11.890000000000001
 49
-11.890000000000001
  0
LTYPE
  2
PHANTOM
 70
               0
  3
CADPAC FUSION LINETYPE
 72
              65
 73
               6
 40
73.718000000000004
 49
23.780000000000001
 49
-11.890000000000001
 49
7.1340000000000003
 49
-11.890000000000001
 49
7.1340000000000003
 49
-11.890000000000001
  0
LTYPE
  2
PHANTOM2
 70
               0
  3
CADPAC FUSION LINETYPE
 72
              65
 73
               6
 40
63.017000000000003
 49
17.835000000000001
 49
-11.890000000000001
 49
4.7560000000000002
 49
-11.890000000000001
 49
4.7560000000000002
 49
-11.890000000000001
  0
ENDTAB
  0
TABLE
  2
LAYER
 70
             256
  0
LAYER
  2
0
 70
               0
 62
               7
  6
CONTINUOUS
  0
LAYER
  2
LAYER001
 70
               0
 62
               7
  6
CONTINUOUS
  0
LAYER
  2
LAYER002
 70
               0
 62
               7
  6
CONTINUOUS
  0
LAYER
  2
LAYER003
 70
               0
 62
               7
  6
CONTINUOUS
  0
LAYER
  2
LAYER004
 70
               0
 62
               7
  6
CONTINUOUS
  0
LAYER
  2
LAYER005
 70
               0
 62
               7
  6
CONTINUOUS
  0
LAYER
  2
LAYER006
 70
               0
 62
               7
  6
CONTINUOUS
  0
LAYER
  2
LAYER007
 70
               0
 62
               7
  6
CONTINUOUS
  0
LAYER
  2
LAYER008
 70
               0
 62
               7
  6
CONTINUOUS
  0
LAYER
  2
LAYER009
 70
               0
 62
               7
  6
CONTINUOUS
  0
LAYER
  2
LAYER010
 70
               0
 62
               7
  6
CONTINUOUS
  0
LAYER
  2
LAYER011
 70
               0
 62
               7
  6
CONTINUOUS
  0
LAYER
  2
LAYER012
 70
               0
 62
               7
  6
CONTINUOUS
  0
LAYER
  2
LAYER013
 70
               0
 62
               7
  6
CONTINUOUS
  0
LAYER
  2
LAYER014
 70
               0
 62
               7
  6
CONTINUOUS
  0
LAYER
  2
LAYER015
 70
               0
 62
               7
  6
CONTINUOUS
  0
LAYER
  2
LAYER016
 70
               0
 62
               7
  6
CONTINUOUS
  0
LAYER
  2
LAYER017
 70
               0
 62
               7
  6
CONTINUOUS
  0
LAYER
  2
LAYER018
 70
               0
 62
               7
  6
CONTINUOUS
  0
LAYER
  2
LAYER019
 70
               0
 62
               7
  6
CONTINUOUS
  0
LAYER
  2
LAYER020
 70
               0
 62
               7
  6
CONTINUOUS
  0
LAYER
  2
LAYER021
 70
               0
 62
               7
  6
CONTINUOUS
  0
LAYER
  2
LAYER022
 70
               0
 62
               7
  6
CONTINUOUS
  0
LAYER
  2
LAYER023
 70
               0
 62
               7
  6
CONTINUOUS
  0
LAYER
  2
LAYER024
 70
               0
 62
               7
  6
CONTINUOUS
  0
LAYER
  2
LAYER025
 70
               0
 62
               7
  6
CONTINUOUS
  0
LAYER
  2
LAYER026
 70
               0
 62
               7
  6
CONTINUOUS
  0
LAYER
  2
LAYER027
 70
               0
 62
               7
  6
CONTINUOUS
  0
LAYER
  2
LAYER028
 70
               0
 62
               7
  6
CONTINUOUS
  0
LAYER
  2
LAYER029
 70
               0
 62
               7
  6
CONTINUOUS
  0
LAYER
  2
LAYER030
 70
               0
 62
               7
  6
CONTINUOUS
  0
LAYER
  2
LAYER031
 70
               0
 62
               7
  6
CONTINUOUS
  0
LAYER
  2
LAYER032
 70
               0
 62
               7
  6
CONTINUOUS
  0
LAYER
  2
LAYER033
 70
               0
 62
               7
  6
CONTINUOUS
  0
LAYER
  2
LAYER034
 70
               0
 62
               7
  6
CONTINUOUS
  0
LAYER
  2
LAYER035
 70
               0
 62
               7
  6
CONTINUOUS
  0
LAYER
  2
LAYER036
 70
               0
 62
               7
  6
CONTINUOUS
  0
LAYER
  2
LAYER037
 70
               0
 62
               7
  6
CONTINUOUS
  0
LAYER
  2
LAYER038
 70
               0
 62
               7
  6
CONTINUOUS
  0
LAYER
  2
LAYER039
 70
               0
 62
               7
  6
CONTINUOUS
  0
LAYER
  2
LAYER040
 70
               0
 62
               7
  6
CONTINUOUS
  0
LAYER
  2
LAYER041
 70
               0
 62
               7
  6
CONTINUOUS
  0
LAYER
  2
LAYER042
 70
               0
 62
               7
  6
CONTINUOUS
  0
LAYER
  2
LAYER043
 70
               0
 62
               7
  6
CONTINUOUS
  0
LAYER
  2
LAYER044
 70
               0
 62
               7
  6
CONTINUOUS
  0
LAYER
  2
LAYER045
 70
               0
 62
               7
  6
CONTINUOUS
  0
LAYER
  2
LAYER046
 70
               0
 62
               7
  6
CONTINUOUS
  0
LAYER
  2
LAYER047
 70
               0
 62
               7
  6
CONTINUOUS
  0
LAYER
  2
LAYER048
 70
               0
 62
               7
  6
CONTINUOUS
  0
LAYER
  2
LAYER049
 70
               0
 62
               7
  6
CONTINUOUS
  0
LAYER
  2
LAYER050
 70
               0
 62
               7
  6
CONTINUOUS
  0
LAYER
  2
LAYER051
 70
               0
 62
               7
  6
CONTINUOUS
  0
LAYER
  2
LAYER052
 70
               0
 62
               7
  6
CONTINUOUS
  0
LAYER
  2
LAYER053
 70
               0
 62
               7
  6
CONTINUOUS
  0
LAYER
  2
LAYER054
 70
               0
 62
               7
  6
CONTINUOUS
  0
LAYER
  2
LAYER055
 70
               0
 62
               7
  6
CONTINUOUS
  0
LAYER
  2
LAYER056
 70
               0
 62
               7
  6
CONTINUOUS
  0
LAYER
  2
LAYER057
 70
               0
 62
               7
  6
CONTINUOUS
  0
LAYER
  2
LAYER058
 70
               0
 62
               7
  6
CONTINUOUS
  0
LAYER
  2
LAYER059
 70
               0
 62
               7
  6
CONTINUOUS
  0
LAYER
  2
LAYER060
 70
               0
 62
               7
  6
CONTINUOUS
  0
LAYER
  2
LAYER061
 70
               0
 62
               7
  6
CONTINUOUS
  0
LAYER
  2
LAYER062
 70
               0
 62
               7
  6
CONTINUOUS
  0
LAYER
  2
LAYER063
 70
               0
 62
               7
  6
CONTINUOUS
  0
LAYER
  2
LAYER064
 70
               0
 62
               7
  6
CONTINUOUS
  0
LAYER
  2
LAYER065
 70
               0
 62
               7
  6
CONTINUOUS
  0
LAYER
  2
LAYER066
 70
               0
 62
               7
  6
CONTINUOUS
  0
LAYER
  2
LAYER067
 70
               0
 62
               7
  6
CONTINUOUS
  0
LAYER
  2
LAYER068
 70
               0
 62
               7
  6
CONTINUOUS
  0
LAYER
  2
LAYER069
 70
               0
 62
               7
  6
CONTINUOUS
  0
LAYER
  2
LAYER070
 70
               0
 62
               7
  6
CONTINUOUS
  0
LAYER
  2
LAYER071
 70
               0
 62
               7
  6
CONTINUOUS
  0
LAYER
  2
LAYER072
 70
               0
 62
               7
  6
CONTINUOUS
  0
LAYER
  2
LAYER073
 70
               0
 62
               7
  6
CONTINUOUS
  0
LAYER
  2
LAYER074
 70
               0
 62
               7
  6
CONTINUOUS
  0
LAYER
  2
LAYER075
 70
               0
 62
               7
  6
CONTINUOUS
  0
LAYER
  2
LAYER076
 70
               0
 62
               7
  6
CONTINUOUS
  0
LAYER
  2
LAYER077
 70
               0
 62
               7
  6
CONTINUOUS
  0
LAYER
  2
LAYER078
 70
               0
 62
               7
  6
CONTINUOUS
  0
LAYER
  2
LAYER079
 70
               0
 62
               7
  6
CONTINUOUS
  0
LAYER
  2
LAYER080
 70
               0
 62
               7
  6
CONTINUOUS
  0
LAYER
  2
LAYER081
 70
               0
 62
               7
  6
CONTINUOUS
  0
LAYER
  2
LAYER082
 70
               0
 62
               7
  6
CONTINUOUS
  0
LAYER
  2
LAYER083
 70
               0
 62
               7
  6
CONTINUOUS
  0
LAYER
  2
LAYER084
 70
               0
 62
               7
  6
CONTINUOUS
  0
LAYER
  2
LAYER085
 70
               0
 62
               7
  6
CONTINUOUS
  0
LAYER
  2
LAYER086
 70
               0
 62
               7
  6
CONTINUOUS
  0
LAYER
  2
LAYER087
 70
               0
 62
               7
  6
CONTINUOUS
  0
LAYER
  2
LAYER088
 70
               0
 62
               7
  6
CONTINUOUS
  0
LAYER
  2
LAYER089
 70
               0
 62
               7
  6
CONTINUOUS
  0
LAYER
  2
LAYER090
 70
               0
 62
               7
  6
CONTINUOUS
  0
LAYER
  2
LAYER091
 70
               0
 62
               7
  6
CONTINUOUS
  0
LAYER
  2
LAYER092
 70
               0
 62
               7
  6
CONTINUOUS
  0
LAYER
  2
LAYER093
 70
               0
 62
               7
  6
CONTINUOUS
  0
LAYER
  2
LAYER094
 70
               0
 62
               7
  6
CONTINUOUS
  0
LAYER
  2
LAYER095
 70
               0
 62
               7
  6
CONTINUOUS
  0
LAYER
  2
LAYER096
 70
               0
 62
               7
  6
CONTINUOUS
  0
LAYER
  2
LAYER097
 70
               0
 62
               7
  6
CONTINUOUS
  0
LAYER
  2
LAYER098
 70
               0
 62
               7
  6
CONTINUOUS
  0
LAYER
  2
LAYER099
 70
               0
 62
               7
  6
CONTINUOUS
  0
LAYER
  2
LAYER100
 70
               0
 62
               7
  6
CONTINUOUS
  0
LAYER
  2
LAYER101
 70
               0
 62
               7
  6
CONTINUOUS
  0
LAYER
  2
LAYER102
 70
               0
 62
               7
  6
CONTINUOUS
  0
LAYER
  2
LAYER103
 70
               0
 62
               7
  6
CONTINUOUS
  0
LAYER
  2
LAYER104
 70
               0
 62
               7
  6
CONTINUOUS
  0
LAYER
  2
LAYER105
 70
               0
 62
               7
  6
CONTINUOUS
  0
LAYER
  2
LAYER106
 70
               0
 62
               7
  6
CONTINUOUS
  0
LAYER
  2
LAYER107
 70
               0
 62
               7
  6
CONTINUOUS
  0
LAYER
  2
LAYER108
 70
               0
 62
               7
  6
CONTINUOUS
  0
LAYER
  2
LAYER109
 70
               0
 62
               7
  6
CONTINUOUS
  0
LAYER
  2
LAYER110
 70
               0
 62
               7
  6
CONTINUOUS
  0
LAYER
  2
LAYER111
 70
               0
 62
               7
  6
CONTINUOUS
  0
LAYER
  2
LAYER112
 70
               0
 62
               7
  6
CONTINUOUS
  0
LAYER
  2
LAYER113
 70
               0
 62
               7
  6
CONTINUOUS
  0
LAYER
  2
LAYER114
 70
               0
 62
               7
  6
CONTINUOUS
  0
LAYER
  2
LAYER115
 70
               0
 62
               7
  6
CONTINUOUS
  0
LAYER
  2
LAYER116
 70
               0
 62
               7
  6
CONTINUOUS
  0
LAYER
  2
LAYER117
 70
               0
 62
               7
  6
CONTINUOUS
  0
LAYER
  2
LAYER118
 70
               0
 62
               7
  6
CONTINUOUS
  0
LAYER
  2
LAYER119
 70
               0
 62
               7
  6
CONTINUOUS
  0
LAYER
  2
LAYER120
 70
               0
 62
               7
  6
CONTINUOUS
  0
LAYER
  2
LAYER121
 70
               0
 62
               7
  6
CONTINUOUS
  0
LAYER
  2
LAYER122
 70
               0
 62
               7
  6
CONTINUOUS
  0
LAYER
  2
LAYER123
 70
               0
 62
               7
  6
CONTINUOUS
  0
LAYER
  2
LAYER124
 70
               0
 62
               7
  6
CONTINUOUS
  0
LAYER
  2
LAYER125
 70
               0
 62
               7
  6
CONTINUOUS
  0
LAYER
  2
LAYER126
 70
               0
 62
               7
  6
CONTINUOUS
  0
LAYER
  2
LAYER127
 70
               0
 62
               7
  6
CONTINUOUS
  0
LAYER
  2
LAYER128
 70
               0
 62
               7
  6
CONTINUOUS
  0
LAYER
  2
LAYER129
 70
               0
 62
               7
  6
CONTINUOUS
  0
LAYER
  2
LAYER130
 70
               0
 62
               7
  6
CONTINUOUS
  0
LAYER
  2
LAYER131
 70
               0
 62
               7
  6
CONTINUOUS
  0
LAYER
  2
LAYER132
 70
               0
 62
               7
  6
CONTINUOUS
  0
LAYER
  2
LAYER133
 70
               0
 62
               7
  6
CONTINUOUS
  0
LAYER
  2
LAYER134
 70
               0
 62
               7
  6
CONTINUOUS
  0
LAYER
  2
LAYER135
 70
               0
 62
               7
  6
CONTINUOUS
  0
LAYER
  2
LAYER136
 70
               0
 62
               7
  6
CONTINUOUS
  0
LAYER
  2
LAYER137
 70
               0
 62
               7
  6
CONTINUOUS
  0
LAYER
  2
LAYER138
 70
               0
 62
               7
  6
CONTINUOUS
  0
LAYER
  2
LAYER139
 70
               0
 62
               7
  6
CONTINUOUS
  0
LAYER
  2
LAYER140
 70
               0
 62
               7
  6
CONTINUOUS
  0
LAYER
  2
LAYER141
 70
               0
 62
               7
  6
CONTINUOUS
  0
LAYER
  2
LAYER142
 70
               0
 62
               7
  6
CONTINUOUS
  0
LAYER
  2
LAYER143
 70
               0
 62
               7
  6
CONTINUOUS
  0
LAYER
  2
LAYER144
 70
               0
 62
               7
  6
CONTINUOUS
  0
LAYER
  2
LAYER145
 70
               0
 62
               7
  6
CONTINUOUS
  0
LAYER
  2
LAYER146
 70
               0
 62
               7
  6
CONTINUOUS
  0
LAYER
  2
LAYER147
 70
               0
 62
               7
  6
CONTINUOUS
  0
LAYER
  2
LAYER148
 70
               0
 62
               7
  6
CONTINUOUS
  0
LAYER
  2
LAYER149
 70
               0
 62
               7
  6
CONTINUOUS
  0
LAYER
  2
LAYER150
 70
               0
 62
               7
  6
CONTINUOUS
  0
LAYER
  2
LAYER151
 70
               0
 62
               7
  6
CONTINUOUS
  0
LAYER
  2
LAYER152
 70
               0
 62
               7
  6
CONTINUOUS
  0
LAYER
  2
LAYER153
 70
               0
 62
               7
  6
CONTINUOUS
  0
LAYER
  2
LAYER154
 70
               0
 62
               7
  6
CONTINUOUS
  0
LAYER
  2
LAYER155
 70
               0
 62
               7
  6
CONTINUOUS
  0
LAYER
  2
LAYER156
 70
               0
 62
               7
  6
CONTINUOUS
  0
LAYER
  2
LAYER157
 70
               0
 62
               7
  6
CONTINUOUS
  0
LAYER
  2
LAYER158
 70
               0
 62
               7
  6
CONTINUOUS
  0
LAYER
  2
LAYER159
 70
               0
 62
               7
  6
CONTINUOUS
  0
LAYER
  2
LAYER160
 70
               0
 62
               7
  6
CONTINUOUS
  0
LAYER
  2
LAYER161
 70
               0
 62
               7
  6
CONTINUOUS
  0
LAYER
  2
LAYER162
 70
               0
 62
               7
  6
CONTINUOUS
  0
LAYER
  2
LAYER163
 70
               0
 62
               7
  6
CONTINUOUS
  0
LAYER
  2
LAYER164
 70
               0
 62
               7
  6
CONTINUOUS
  0
LAYER
  2
LAYER165
 70
               0
 62
               7
  6
CONTINUOUS
  0
LAYER
  2
LAYER166
 70
               0
 62
               7
  6
CONTINUOUS
  0
LAYER
  2
LAYER167
 70
               0
 62
               7
  6
CONTINUOUS
  0
LAYER
  2
LAYER168
 70
               0
 62
               7
  6
CONTINUOUS
  0
LAYER
  2
LAYER169
 70
               0
 62
               7
  6
CONTINUOUS
  0
LAYER
  2
LAYER170
 70
               0
 62
               7
  6
CONTINUOUS
  0
LAYER
  2
LAYER171
 70
               0
 62
               7
  6
CONTINUOUS
  0
LAYER
  2
LAYER172
 70
               0
 62
               7
  6
CONTINUOUS
  0
LAYER
  2
LAYER173
 70
               0
 62
               7
  6
CONTINUOUS
  0
LAYER
  2
LAYER174
 70
               0
 62
               7
  6
CONTINUOUS
  0
LAYER
  2
LAYER175
 70
               0
 62
               7
  6
CONTINUOUS
  0
LAYER
  2
LAYER176
 70
               0
 62
               7
  6
CONTINUOUS
  0
LAYER
  2
LAYER177
 70
               0
 62
               7
  6
CONTINUOUS
  0
LAYER
  2
LAYER178
 70
               0
 62
               7
  6
CONTINUOUS
  0
LAYER
  2
LAYER179
 70
               0
 62
               7
  6
CONTINUOUS
  0
LAYER
  2
LAYER180
 70
               0
 62
               7
  6
CONTINUOUS
  0
LAYER
  2
LAYER181
 70
               0
 62
               7
  6
CONTINUOUS
  0
LAYER
  2
LAYER182
 70
               0
 62
               7
  6
CONTINUOUS
  0
LAYER
  2
LAYER183
 70
               0
 62
               7
  6
CONTINUOUS
  0
LAYER
  2
LAYER184
 70
               0
 62
               7
  6
CONTINUOUS
  0
LAYER
  2
LAYER185
 70
               0
 62
               7
  6
CONTINUOUS
  0
LAYER
  2
LAYER186
 70
               0
 62
               7
  6
CONTINUOUS
  0
LAYER
  2
LAYER187
 70
               0
 62
               7
  6
CONTINUOUS
  0
LAYER
  2
LAYER188
 70
               0
 62
               7
  6
CONTINUOUS
  0
LAYER
  2
LAYER189
 70
               0
 62
               7
  6
CONTINUOUS
  0
LAYER
  2
LAYER190
 70
               0
 62
               7
  6
CONTINUOUS
  0
LAYER
  2
LAYER191
 70
               0
 62
               7
  6
CONTINUOUS
  0
LAYER
  2
LAYER192
 70
               0
 62
               7
  6
CONTINUOUS
  0
LAYER
  2
LAYER193
 70
               0
 62
               7
  6
CONTINUOUS
  0
LAYER
  2
LAYER194
 70
               0
 62
               7
  6
CONTINUOUS
  0
LAYER
  2
LAYER195
 70
               0
 62
               7
  6
CONTINUOUS
  0
LAYER
  2
LAYER196
 70
               0
 62
               7
  6
CONTINUOUS
  0
LAYER
  2
LAYER197
 70
               0
 62
               7
  6
CONTINUOUS
  0
LAYER
  2
LAYER198
 70
               0
 62
               7
  6
CONTINUOUS
  0
LAYER
  2
LAYER199
 70
               0
 62
               7
  6
CONTINUOUS
  0
LAYER
  2
LAYER200
 70
               0
 62
               7
  6
CONTINUOUS
  0
LAYER
  2
LAYER201
 70
               0
 62
               7
  6
CONTINUOUS
  0
LAYER
  2
LAYER202
 70
               0
 62
               7
  6
CONTINUOUS
  0
LAYER
  2
LAYER203
 70
               0
 62
               7
  6
CONTINUOUS
  0
LAYER
  2
LAYER204
 70
               0
 62
               7
  6
CONTINUOUS
  0
LAYER
  2
LAYER205
 70
               0
 62
               7
  6
CONTINUOUS
  0
LAYER
  2
LAYER206
 70
               0
 62
               7
  6
CONTINUOUS
  0
LAYER
  2
LAYER207
 70
               0
 62
               7
  6
CONTINUOUS
  0
LAYER
  2
LAYER208
 70
               0
 62
               7
  6
CONTINUOUS
  0
LAYER
  2
LAYER209
 70
               0
 62
               7
  6
CONTINUOUS
  0
LAYER
  2
LAYER210
 70
               0
 62
               7
  6
CONTINUOUS
  0
LAYER
  2
LAYER211
 70
               0
 62
               7
  6
CONTINUOUS
  0
LAYER
  2
LAYER212
 70
               0
 62
               7
  6
CONTINUOUS
  0
LAYER
  2
LAYER213
 70
               0
 62
               7
  6
CONTINUOUS
  0
LAYER
  2
LAYER214
 70
               0
 62
               7
  6
CONTINUOUS
  0
LAYER
  2
LAYER215
 70
               0
 62
               7
  6
CONTINUOUS
  0
LAYER
  2
LAYER216
 70
               0
 62
               7
  6
CONTINUOUS
  0
LAYER
  2
LAYER217
 70
               0
 62
               7
  6
CONTINUOUS
  0
LAYER
  2
LAYER218
 70
               0
 62
               7
  6
CONTINUOUS
  0
LAYER
  2
LAYER219
 70
               0
 62
               7
  6
CONTINUOUS
  0
LAYER
  2
LAYER220
 70
               0
 62
               7
  6
CONTINUOUS
  0
LAYER
  2
LAYER221
 70
               0
 62
               7
  6
CONTINUOUS
  0
LAYER
  2
LAYER222
 70
               0
 62
               7
  6
CONTINUOUS
  0
LAYER
  2
LAYER223
 70
               0
 62
               7
  6
CONTINUOUS
  0
LAYER
  2
LAYER224
 70
               0
 62
               7
  6
CONTINUOUS
  0
LAYER
  2
LAYER225
 70
               0
 62
               7
  6
CONTINUOUS
  0
LAYER
  2
LAYER226
 70
               0
 62
               7
  6
CONTINUOUS
  0
LAYER
  2
LAYER227
 70
               0
 62
               7
  6
CONTINUOUS
  0
LAYER
  2
LAYER228
 70
               0
 62
               7
  6
CONTINUOUS
  0
LAYER
  2
LAYER229
 70
               0
 62
               7
  6
CONTINUOUS
  0
LAYER
  2
LAYER230
 70
               0
 62
               7
  6
CONTINUOUS
  0
LAYER
  2
LAYER231
 70
               0
 62
               7
  6
CONTINUOUS
  0
LAYER
  2
LAYER232
 70
               0
 62
               7
  6
CONTINUOUS
  0
LAYER
  2
LAYER233
 70
               0
 62
               7
  6
CONTINUOUS
  0
LAYER
  2
LAYER234
 70
               0
 62
               7
  6
CONTINUOUS
  0
LAYER
  2
LAYER235
 70
               0
 62
               7
  6
CONTINUOUS
  0
LAYER
  2
LAYER236
 70
               0
 62
               7
  6
CONTINUOUS
  0
LAYER
  2
LAYER237
 70
               0
 62
               7
  6
CONTINUOUS
  0
LAYER
  2
LAYER238
 70
               0
 62
               7
  6
CONTINUOUS
  0
LAYER
  2
LAYER239
 70
               0
 62
               7
  6
CONTINUOUS
  0
LAYER
  2
LAYER240
 70
               0
 62
               7
  6
CONTINUOUS
  0
LAYER
  2
LAYER241
 70
               0
 62
               7
  6
CONTINUOUS
  0
LAYER
  2
LAYER242
 70
               0
 62
               7
  6
CONTINUOUS
  0
LAYER
  2
LAYER243
 70
               0
 62
               7
  6
CONTINUOUS
  0
LAYER
  2
LAYER244
 70
               0
 62
               7
  6
CONTINUOUS
  0
LAYER
  2
LAYER245
 70
               0
 62
               7
  6
CONTINUOUS
  0
LAYER
  2
LAYER246
 70
               0
 62
               7
  6
CONTINUOUS
  0
LAYER
  2
LAYER247
 70
               0
 62
               7
  6
CONTINUOUS
  0
LAYER
  2
LAYER248
 70
               0
 62
               7
  6
CONTINUOUS
  0
LAYER
  2
LAYER249
 70
               0
 62
               7
  6
CONTINUOUS
  0
LAYER
  2
LAYER250
 70
               0
 62
               7
  6
CONTINUOUS
  0
LAYER
  2
LAYER251
 70
               0
 62
               7
  6
CONTINUOUS
  0
LAYER
  2
LAYER252
 70
               0
 62
               7
  6
CONTINUOUS
  0
LAYER
  2
LAYER253
 70
               0
 62
               7
  6
CONTINUOUS
  0
LAYER
  2
LAYER254
 70
               0
 62
               7
  6
CONTINUOUS
  0
LAYER
  2
LAYER255
 70
               0
 62
               7
  6
CONTINUOUS
  0
ENDTAB
  0
TABLE
  2
STYLE
 70
               1
  0
STYLE
  2
STANDARD
 70
               0
 40
0.0
 41
0.8
 50
0.0
 71
               0
 42
40.0
  3
MS PGothic.ttf
  4

  0
ENDTAB
  0
TABLE
  2
VIEW
 70
               0
  0
VIEW
  2
QQQQ
 70
               0
 40
2712.786241570027
 10
3.8713099121345635
 20
-482.26652968687586
 41
1577.7526214022228
 11
0.0
 21
0.0
 31
1.0
 12
100.0
 22
100.0
 32
0.0
 42
50.0
 43
0.0
 44
0.0
 50
0.0
 71
               0
  0
ENDTAB
  0
TABLE
  2
UCS
 70
               0
  0
ENDTAB
  0
TABLE
  2
APPID
 70
               1
  0
APPID
  2
ACAD
 70
               0
  0
ENDTAB
  0
TABLE
  2
DIMSTYLE
 70
               1
  0
DIMSTYLE
  2
STANDARD
 70
               0
  3

  4

  5

  6

  7

 40
1.0
 41
0.18
 42
0.0625
 43
0.38
 44
0.18
 45
0.0
 46
0.0
 47
0.0
 48
0.0
140
0.18
141
0.09
142
0.0
143
25.399999999999999
144
1.0
145
0.0
146
1.0
147
0.09
 71
               0
 72
               0
 73
               1
 74
               1
 75
               0
 76
               0
 77
               0
 78
               0
170
               0
171
               2
172
               0
173
               0
174
               0
175
               0
176
               0
177
               0
178
               0
  0
ENDTAB
  0
ENDSEC
  0
SECTION
  2
BLOCKS
  0
BLOCK
  8
0
  5
142
  2
GROUP_1
 70
               0
 10
0.0
 20
0.0
 30
0.0
  3
GROUP_1
  0
LINE
  8
0
  6
CONTINUOUS
 62
               4
  5
143
 10
-72.753934824881327
 20
-302.30610679215658
 30
0.0
 11
-71.386324971861001
 21
-303.18030577653684
 31
0.0
  0
LINE
  8
0
  6
CONTINUOUS
 62
               4
  5
144
 10
-71.386324971861001
 20
-303.18030577653684
 30
0.0
 11
-70.018715118838259
 21
-304.05939524568078
 31
0.0
  0
LINE
  8
0
  6
CONTINUOUS
 62
               4
  5
145
 10
-70.018715118838259
 20
-304.05939524568078
 30
0.0
 11
-68.651105265813811
 21
-304.94826568426782
 31
0.0
  0
LINE
  8
0
  6
CONTINUOUS
 62
               4
  5
146
 10
-68.651105265813811
 20
-304.94826568426782
 30
0.0
 11
-67.283495412788582
 21
-305.85180757697742
 31
0.0
  0
LINE
  8
0
  6
CONTINUOUS
 62
               4
  5
147
 10
-67.283495412788582
 20
-305.85180757697742
 30
0.0
 11
-65.915885559763495
 21
-306.77491140848895
 31
0.0
  0
LINE
  8
0
  6
CONTINUOUS
 62
               4
  5
148
 10
-65.915885559763495
 20
-306.77491140848895
 30
0.0
 11
-64.548275706739119
 21
-307.72103317878566
 31
0.0
  0
LINE
  8
0
  6
CONTINUOUS
 62
               4
  5
149
 10
-64.548275706739119
 20
-307.72103317878566
 30
0.0
 11
-63.180665853715311
 21
-308.68789094906549
 31
0.0
  0
LINE
  8
0
  6
CONTINUOUS
 62
               4
  5
14A
 10
-63.180665853715311
 20
-308.68789094906549
 30
0.0
 11
-61.81305600069193
 21
-309.67176829583019
 31
0.0
  0
LINE
  8
0
  6
CONTINUOUS
 62
               4
  5
14B
 10
-61.81305600069193
 20
-309.67176829583019
 30
0.0
 11
-60.445446147668761
 21
-310.66894879558163
 31
0.0
  0
LINE
  8
0
  6
CONTINUOUS
 62
               4
  5
14C
 10
-60.445446147668761
 20
-310.66894879558163
 30
0.0
 11
-59.077836294645664
 21
-311.67571602482144
 31
0.0
  0
LINE
  8
0
  6
CONTINUOUS
 62
               4
  5
14D
 10
-59.077836294645664
 20
-311.67571602482144
 30
0.0
 11
-57.710226441622353
 21
-312.68897949885354
 31
0.0
  0
LINE
  8
0
  6
CONTINUOUS
 62
               4
  5
14E
 10
-57.710226441622353
 20
-312.68897949885354
 30
0.0
 11
-56.342616588598759
 21
-313.70815248818928
 31
0.0
  0
LINE
  8
0
  6
CONTINUOUS
 62
               4
  5
14F
 10
-56.342616588598759
 20
-313.70815248818928
 30
0.0
 11
-54.975006735575164
 21
-314.7332742021423
 31
0.0
  0
LINE
  8
0
  6
CONTINUOUS
 62
               4
  5
150
 10
-54.975006735575164
 20
-314.7332742021423
 30
0.0
 11
-53.607396882551569
 21
-315.76438385002598
 31
0.0
  0
LINE
  8
0
  6
CONTINUOUS
 62
               4
  5
151
 10
-53.607396882551569
 20
-315.76438385002598
 30
0.0
 11
-52.23978702952769
 21
-316.8015206411539
 31
0.0
  0
LINE
  8
0
  6
CONTINUOUS
 62
               4
  5
152
 10
-52.23978702952769
 20
-316.8015206411539
 30
0.0
 11
-50.872177176504096
 21
-317.84466251432809
 31
0.0
  0
LINE
  8
0
  6
CONTINUOUS
 62
               4
  5
153
 10
-50.872177176504096
 20
-317.84466251432809
 30
0.0
 11
-49.504567323480572
 21
-318.89354232630416
 31
0.0
  0
LINE
  8
0
  6
CONTINUOUS
 62
               4
  5
154
 10
-49.504567323480572
 20
-318.89354232630416
 30
0.0
 11
-48.136957470457048
 21
-319.9478316633265
 31
0.0
  0
LINE
  8
0
  6
CONTINUOUS
 62
               4
  5
155
 10
-48.136957470457048
 20
-319.9478316633265
 30
0.0
 11
-46.769347617433525
 21
-321.00720211163912
 31
0.0
  0
LINE
  8
0
  6
CONTINUOUS
 62
               4
  5
156
 10
-46.769347617433525
 20
-321.00720211163912
 30
0.0
 11
-45.401737764410001
 21
-322.07132525748636
 31
0.0
  0
LINE
  8
0
  6
CONTINUOUS
 62
               4
  5
157
 10
-45.401737764410001
 20
-322.07132525748636
 30
0.0
 11
-44.034127911386335
 21
-323.13985183035669
 31
0.0
  0
LINE
  8
0
  6
CONTINUOUS
 62
               4
  5
158
 10
-44.034127911386335
 20
-323.13985183035669
 30
0.0
 11
-42.666518058362882
 21
-324.21234913271553
 31
0.0
  0
LINE
  8
0
  6
CONTINUOUS
 62
               4
  5
159
 10
-42.666518058362882
 20
-324.21234913271553
 30
0.0
 11
-41.298908205339359
 21
-325.28836361027243
 31
0.0
  0
LINE
  8
0
  6
CONTINUOUS
 62
               4
  5
15A
 10
-41.298908205339359
 20
-325.28836361027243
 30
0.0
 11
-39.931298352315764
 21
-326.36744170873692
 31
0.0
  0
LINE
  8
0
  6
CONTINUOUS
 62
               4
  5
15B
 10
-39.931298352315764
 20
-326.36744170873692
 30
0.0
 11
-38.563688499292169
 21
-327.44912987381883
 31
0.0
  0
LINE
  8
0
  6
CONTINUOUS
 62
               4
  5
15C
 10
-38.563688499292169
 20
-327.44912987381883
 30
0.0
 11
-37.196078646268646
 21
-328.53311924876226
 31
0.0
  0
LINE
  8
0
  6
CONTINUOUS
 62
               4
  5
15D
 10
-37.196078646268646
 20
-328.53311924876226
 30
0.0
 11
-35.828468793245051
 21
-329.6196797669499
 31
0.0
  0
LINE
  8
0
  6
CONTINUOUS
 62
               4
  5
15E
 10
-35.828468793245051
 20
-329.6196797669499
 30
0.0
 11
-34.460858940221456
 21
-330.70922605929911
 31
0.0
  0
LINE
  8
0
  6
CONTINUOUS
 62
               4
  5
15F
 10
-34.460858940221456
 20
-330.70922605929911
 30
0.0
 11
-33.09324908719779
 21
-331.80217275672709
 31
0.0
  0
LINE
  8
0
  6
CONTINUOUS
 62
               4
  5
160
 10
-33.09324908719779
 20
-331.80217275672709
 30
0.0
 11
-31.725639234174338
 21
-332.8989344901513
 31
0.0
  0
LINE
  8
0
  6
CONTINUOUS
 62
               4
  5
161
 10
-31.725639234174338
 20
-332.8989344901513
 30
0.0
 11
-30.358029381150743
 21
-333.99972795710619
 31
0.0
  0
LINE
  8
0
  6
CONTINUOUS
 62
               4
  5
162
 10
-30.358029381150743
 20
-333.99972795710619
 30
0.0
 11
-28.990419528127077
 21
-335.10397812159567
 31
0.0
  0
LINE
  8
0
  6
CONTINUOUS
 62
               4
  5
163
 10
-28.990419528127077
 20
-335.10397812159567
 30
0.0
 11
-27.622809675103625
 21
-336.21091201424099
 31
0.0
  0
LINE
  8
0
  6
CONTINUOUS
 62
               4
  5
164
 10
-27.622809675103625
 20
-336.21091201424099
 30
0.0
 11
-26.25519982208003
 21
-337.31975666566331
 31
0.0
  0
LINE
  8
0
  6
CONTINUOUS
 62
               4
  5
165
 10
-26.25519982208003
 20
-337.31975666566331
 30
0.0
 11
-24.887589969056435
 21
-338.42973910648374
 31
0.0
  0
LINE
  8
0
  6
CONTINUOUS
 62
               4
  5
166
 10
-24.887589969056435
 20
-338.42973910648374
 30
0.0
 11
-23.519980116032983
 21
-339.54037340331968
 31
0.0
  0
LINE
  8
0
  6
CONTINUOUS
 62
               4
  5
167
 10
-23.519980116032983
 20
-339.54037340331968
 30
0.0
 11
-22.152370263009388
 21
-340.6523217667729
 31
0.0
  0
LINE
  8
0
  6
CONTINUOUS
 62
               4
  5
168
 10
-22.152370263009388
 20
-340.6523217667729
 30
0.0
 11
-20.784760409985722
 21
-341.76653344344146
 31
0.0
  0
LINE
  8
0
  6
CONTINUOUS
 62
               4
  5
169
 10
-20.784760409985722
 20
-341.76653344344146
 30
0.0
 11
-19.417150556962127
 21
-342.88395767992324
 31
0.0
  0
LINE
  8
0
  6
CONTINUOUS
 62
               4
  5
16A
 10
-19.417150556962127
 20
-342.88395767992324
 30
0.0
 11
-18.049540703938604
 21
-344.00554372281624
 31
0.0
  0
LINE
  8
0
  6
CONTINUOUS
 62
               4
  5
16B
 10
-18.049540703938604
 20
-344.00554372281624
 30
0.0
 11
-16.681930850914938
 21
-345.13193860811651
 31
0.0
  0
LINE
  8
0
  6
CONTINUOUS
 62
               4
  5
16C
 10
-16.681930850914938
 20
-345.13193860811651
 30
0.0
 11
-15.314320997891414
 21
-346.26258052941296
 31
0.0
  0
LINE
  8
0
  6
CONTINUOUS
 62
               4
  5
16D
 10
-15.314320997891414
 20
-346.26258052941296
 30
0.0
 11
-13.946711144867891
 21
-347.39660546969247
 31
0.0
  0
LINE
  8
0
  6
CONTINUOUS
 62
               4
  5
16E
 10
-13.946711144867891
 20
-347.39660546969247
 30
0.0
 11
-12.579101291844225
 21
-348.53314941194208
 31
0.0
  0
LINE
  8
0
  6
CONTINUOUS
 62
               4
  5
16F
 10
-12.579101291844225
 20
-348.53314941194208
 30
0.0
 11
-11.211491438820701
 21
-349.67134833914866
 31
0.0
  0
LINE
  8
0
  6
CONTINUOUS
 62
               4
  5
170
 10
-11.211491438820701
 20
-349.67134833914866
 30
0.0
 11
-9.8438815858015829
 21
-350.81036967227021
 31
0.0
  0
LINE
  8
0
  6
CONTINUOUS
 62
               4
  5
171
 10
-9.8438815858015829
 20
-350.81036967227021
 30
0.0
 11
-8.47627173278687
 21
-351.95035842634962
 31
0.0
  0
LINE
  8
0
  6
CONTINUOUS
 62
               4
  5
172
 10
-8.47627173278687
 20
-351.95035842634962
 30
0.0
 11
-7.1086618797699543
 21
-353.09191697550153
 31
0.0
  0
LINE
  8
0
  6
CONTINUOUS
 62
               4
  5
173
 10
-7.1086618797699543
 20
-353.09191697550153
 30
0.0
 11
-5.7410520267441569
 21
-354.23564769384052
 31
0.0
  0
LINE
  8
0
  6
CONTINUOUS
 62
               4
  5
174
 10
-5.7410520267441569
 20
-354.23564769384052
 30
0.0
 11
-4.3734421737028697
 21
-355.38215295548116
 31
0.0
  0
LINE
  8
0
  6
CONTINUOUS
 62
               4
  5
175
 10
-4.3734421737028697
 20
-355.38215295548116
 30
0.0
 11
-3.0058323206603745
 21
-356.53145101416277
 31
0.0
  0
LINE
  8
0
  6
CONTINUOUS
 62
               4
  5
176
 10
-3.0058323206603745
 20
-356.53145101416277
 30
0.0
 11
-1.6382224676323034
 21
-357.68292732658381
 31
0.0
  0
LINE
  8
0
  6
CONTINUOUS
 62
               4
  5
177
 10
-1.6382224676323034
 20
-357.68292732658381
 30
0.0
 11
-0.2706126146136115
 21
-358.83623507129721
 31
0.0
  0
LINE
  8
0
  6
CONTINUOUS
 62
               4
  5
178
 10
-0.2706126146136115
 20
-358.83623507129721
 30
0.0
 11
1.0969972384006041
 21
-359.99102742685608
 31
0.0
  0
LINE
  8
0
  6
CONTINUOUS
 62
               4
  5
179
 10
1.0969972384006041
 20
-359.99102742685608
 30
0.0
 11
2.4646070914148908
 21
-361.14695757181363
 31
0.0
  0
LINE
  8
0
  6
CONTINUOUS
 62
               4
  5
17A
 10
2.4646070914148908
 20
-361.14695757181363
 30
0.0
 11
3.8322169444334406
 21
-362.30388049113247
 31
0.0
  0
LINE
  8
0
  6
CONTINUOUS
 62
               4
  5
17B
 10
3.8322169444334406
 20
-362.30388049113247
 30
0.0
 11
5.1998267974558274
 21
-363.46245839541399
 31
0.0
  0
LINE
  8
0
  6
CONTINUOUS
 62
               4
  5
17C
 10
5.1998267974558274
 20
-363.46245839541399
 30
0.0
 11
6.5674366504807011
 21
-364.6235553016694
 31
0.0
  0
LINE
  8
0
  6
CONTINUOUS
 62
               4
  5
17D
 10
6.5674366504807011
 20
-364.6235553016694
 30
0.0
 11
7.9350465035067828
 21
-365.78803522690976
 31
0.0
  0
LINE
  8
0
  6
CONTINUOUS
 62
               4
  5
17E
 10
7.9350465035067828
 20
-365.78803522690976
 30
0.0
 11
9.3026563565327933
 21
-366.95676218814606
 31
0.0
  0
LINE
  8
0
  6
CONTINUOUS
 62
               4
  5
17F
 10
9.3026563565327933
 20
-366.95676218814606
 30
0.0
 11
10.670266209557667
 21
-368.13029799178815
 31
0.0
  0
LINE
  8
0
  6
CONTINUOUS
 62
               4
  5
180
 10
10.670266209557667
 20
-368.13029799178815
 30
0.0
 11
12.037876062581759
 21
-369.30799560183988
 31
0.0
  0
LINE
  8
0
  6
CONTINUOUS
 62
               4
  5
181
 10
12.037876062581759
 20
-369.30799560183988
 30
0.0
 11
13.405485915604856
 21
-370.48890577170374
 31
0.0
  0
LINE
  8
0
  6
CONTINUOUS
 62
               4
  5
182
 10
13.405485915604856
 20
-370.48890577170374
 30
0.0
 11
14.773095768627741
 21
-371.67207925478249
 31
0.0
  0
LINE
  8
0
  6
CONTINUOUS
 62
               4
  5
183
 10
14.773095768627741
 20
-371.67207925478249
 30
0.0
 11
16.140705621650625
 21
-372.85656680447858
 31
0.0
  0
LINE
  8
0
  6
CONTINUOUS
 62
               4
  5
184
 10
16.140705621650625
 20
-372.85656680447858
 30
0.0
 11
17.508315474673793
 21
-374.04170621019051
 31
0.0
  0
LINE
  8
0
  6
CONTINUOUS
 62
               4
  5
185
 10
17.508315474673793
 20
-374.04170621019051
 30
0.0
 11
18.875925327697459
 21
-375.22798340530113
 31
0.0
  0
LINE
  8
0
  6
CONTINUOUS
 62
               4
  5
186
 10
18.875925327697459
 20
-375.22798340530113
 30
0.0
 11
20.243535180720983
 21
-376.41617135918892
 31
0.0
  0
LINE
  8
0
  6
CONTINUOUS
 62
               4
  5
187
 10
20.243535180720983
 20
-376.41617135918892
 30
0.0
 11
21.61114503374472
 21
-377.60704304123266
 31
0.0
  0
LINE
  8
0
  6
CONTINUOUS
 62
               4
  5
188
 10
21.61114503374472
 20
-377.60704304123266
 30
0.0
 11
22.978754886768385
 21
-378.80137142081099
 31
0.0
  0
LINE
  8
0
  6
CONTINUOUS
 62
               4
  5
189
 10
22.978754886768385
 20
-378.80137142081099
 30
0.0
 11
24.346364739792193
 21
-379.99973153391994
 31
0.0
  0
LINE
  8
0
  6
CONTINUOUS
 62
               4
  5
18A
 10
24.346364739792193
 20
-379.99973153391994
 30
0.0
 11
25.713974592815717
 21
-381.20190668302484
 31
0.0
  0
LINE
  8
0
  6
CONTINUOUS
 62
               4
  5
18B
 10
25.713974592815717
 20
-381.20190668302484
 30
0.0
 11
27.081584445839241
 21
-382.40748223720863
 31
0.0
  0
LINE
  8
0
  6
CONTINUOUS
 62
               4
  5
18C
 10
27.081584445839241
 20
-382.40748223720863
 30
0.0
 11
28.449194298862764
 21
-383.61604356555387
 31
0.0
  0
LINE
  8
0
  6
CONTINUOUS
 62
               4
  5
18D
 10
28.449194298862764
 20
-383.61604356555387
 30
0.0
 11
29.816804151886359
 21
-384.82717603714349
 31
0.0
  0
LINE
  8
0
  6
CONTINUOUS
 62
               4
  5
18E
 10
29.816804151886359
 20
-384.82717603714349
 30
0.0
 11
31.184414004909812
 21
-386.04060971859479
 31
0.0
  0
LINE
  8
0
  6
CONTINUOUS
 62
               4
  5
18F
 10
31.184414004909812
 20
-386.04060971859479
 30
0.0
 11
32.552023857933406
 21
-387.25665346666341
 31
0.0
  0
LINE
  8
0
  6
CONTINUOUS
 62
               4
  5
190
 10
32.552023857933406
 20
-387.25665346666341
 30
0.0
 11
33.91963371095693
 21
-388.47576083563968
 31
0.0
  0
LINE
  8
0
  6
CONTINUOUS
 62
               4
  5
191
 10
33.91963371095693
 20
-388.47576083563968
 30
0.0
 11
35.287243563980454
 21
-389.69838537981371
 31
0.0
  0
LINE
  8
0
  6
CONTINUOUS
 62
               4
  5
192
 10
35.287243563980454
 20
-389.69838537981371
 30
0.0
 11
36.654853417004119
 21
-390.92498065347593
 31
0.0
  0
LINE
  8
0
  6
CONTINUOUS
 62
               4
  5
193
 10
36.654853417004119
 20
-390.92498065347593
 30
0.0
 11
38.022463270027643
 21
-392.15597935416088
 31
0.0
  0
LINE
  8
0
  6
CONTINUOUS
 62
               4
  5
194
 10
38.022463270027643
 20
-392.15597935416088
 30
0.0
 11
39.390073123051167
 21
-393.39173075238028
 31
0.0
  0
LINE
  8
0
  6
CONTINUOUS
 62
               4
  5
195
 10
39.390073123051167
 20
-393.39173075238028
 30
0.0
 11
40.757682976074832
 21
-394.63256326189065
 31
0.0
  0
LINE
  8
0
  6
CONTINUOUS
 62
               4
  5
196
 10
40.757682976074832
 20
-394.63256326189065
 30
0.0
 11
42.125292829098356
 21
-395.87880529644787
 31
0.0
  0
LINE
  8
0
  6
CONTINUOUS
 62
               4
  5
197
 10
42.125292829098356
 20
-395.87880529644787
 30
0.0
 11
43.49290268212188
 21
-397.13078526980837
 31
0.0
  0
LINE
  8
0
  6
CONTINUOUS
 62
               4
  5
198
 10
43.49290268212188
 20
-397.13078526980837
 30
0.0
 11
44.860512535145546
 21
-398.38877032521629
 31
0.0
  0
LINE
  8
0
  6
CONTINUOUS
 62
               4
  5
199
 10
44.860512535145546
 20
-398.38877032521629
 30
0.0
 11
46.228122388169211
 21
-399.65278252386861
 31
0.0
  0
LINE
  8
0
  6
CONTINUOUS
 62
               4
  5
19A
 10
46.228122388169211
 20
-399.65278252386861
 30
0.0
 11
47.595732241192735
 21
-400.92278265645012
 31
0.0
  0
LINE
  8
0
  6
CONTINUOUS
 62
               4
  5
19B
 10
47.595732241192735
 20
-400.92278265645012
 30
0.0
 11
48.96334209421633
 21
-402.1987315136459
 31
0.0
  0
LINE
  8
0
  6
CONTINUOUS
 62
               4
  5
19C
 10
48.96334209421633
 20
-402.1987315136459
 30
0.0
 11
50.330951947239782
 21
-403.48058988614088
 31
0.0
  0
LINE
  8
0
  6
CONTINUOUS
 62
               4
  5
19D
 10
50.330951947239782
 20
-403.48058988614088
 30
0.0
 11
51.698561800263164
 21
-404.76894450342309
 31
0.0
  0
LINE
  8
0
  6
CONTINUOUS
 62
               4
  5
19E
 10
51.698561800263164
 20
-404.76894450342309
 30
0.0
 11
53.066171653286688
 21
-406.06688585019339
 31
0.0
  0
LINE
  8
0
  6
CONTINUOUS
 62
               4
  5
19F
 10
53.066171653286688
 20
-406.06688585019339
 30
0.0
 11
54.433781506310211
 21
-407.37813034995594
 31
0.0
  0
LINE
  8
0
  6
CONTINUOUS
 62
               4
  5
1A0
 10
54.433781506310211
 20
-407.37813034995594
 30
0.0
 11
55.801391359333735
 21
-408.70639442621456
 31
0.0
  0
LINE
  8
0
  6
CONTINUOUS
 62
               4
  5
1A1
 10
55.801391359333735
 20
-408.70639442621456
 30
0.0
 11
57.169001212357614
 21
-410.05539450247335
 31
0.0
  0
LINE
  8
0
  6
CONTINUOUS
 62
               4
  5
1A2
 10
57.169001212357614
 20
-410.05539450247335
 30
0.0
 11
58.536611065381635
 21
-411.42741251753552
 31
0.0
  0
LINE
  8
0
  6
CONTINUOUS
 62
               4
  5
1A3
 10
58.536611065381635
 20
-411.42741251753552
 30
0.0
 11
59.90422091840594
 21
-412.81899247140097
 31
0.0
  0
LINE
  8
0
  6
CONTINUOUS
 62
               4
  5
1A4
 10
59.90422091840594
 20
-412.81899247140097
 30
0.0
 11
61.271830771430388
 21
-414.22524387936897
 31
0.0
  0
LINE
  8
0
  6
CONTINUOUS
 62
               4
  5
1A5
 10
61.271830771430388
 20
-414.22524387936897
 30
0.0
 11
62.639440624454906
 21
-415.64127625673871
 31
0.0
  0
LINE
  8
0
  6
CONTINUOUS
 62
               4
  5
1A6
 10
62.639440624454906
 20
-415.64127625673871
 30
0.0
 11
64.007050477479567
 21
-417.06219911880913
 31
0.0
  0
ENDBLK
  8
0
  5
1A7
  0
BLOCK
  8
0
  5
1A8
  2
GROUP_2
 70
               0
 10
0.0
 20
0.0
 30
0.0
  3
GROUP_2
  0
LINE
  8
0
  6
CONTINUOUS
 62
               4
  5
1A9
 10
-72.753934824881327
 20
-302.30610679215653
 30
0.0
 11
-71.386324971861001
 21
-306.60570100490816
 31
0.0
  0
LINE
  8
0
  6
CONTINUOUS
 62
               4
  5
1AA
 10
-71.386324971861001
 20
-306.60570100490816
 30
0.0
 11
-70.018715118838259
 21
-310.84763689521839
 31
0.0
  0
LINE
  8
0
  6
CONTINUOUS
 62
               4
  5
1AB
 10
-70.018715118838259
 20
-310.84763689521839
 30
0.0
 11
-68.651105265813811
 21
-314.974256140786
 31
0.0
  0
LINE
  8
0
  6
CONTINUOUS
 62
               4
  5
1AC
 10
-68.651105265813811
 20
-314.974256140786
 30
0.0
 11
-67.283495412788582
 21
-318.92790041930994
 31
0.0
  0
LINE
  8
0
  6
CONTINUOUS
 62
               4
  5
1AD
 10
-67.283495412788582
 20
-318.92790041930994
 30
0.0
 11
-65.915885559763495
 21
-322.65091140848898
 31
0.0
  0
LINE
  8
0
  6
CONTINUOUS
 62
               4
  5
1AE
 10
-65.915885559763495
 20
-322.65091140848898
 30
0.0
 11
-64.548275706739119
 21
-326.10289710835121
 31
0.0
  0
LINE
  8
0
  6
CONTINUOUS
 62
               4
  5
1AF
 10
-64.548275706739119
 20
-326.10289710835121
 30
0.0
 11
-63.180665853715311
 21
-329.31253080824138
 31
0.0
  0
LINE
  8
0
  6
CONTINUOUS
 62
               4
  5
1B0
 10
-63.180665853715311
 20
-329.31253080824138
 30
0.0
 11
-61.81305600069193
 21
-332.32575211983374
 31
0.0
  0
LINE
  8
0
  6
CONTINUOUS
 62
               4
  5
1B1
 10
-61.81305600069193
 20
-332.32575211983374
 30
0.0
 11
-60.445446147668761
 21
-335.1885006548024
 31
0.0
  0
LINE
  8
0
  6
CONTINUOUS
 62
               4
  5
1B2
 10
-60.445446147668761
 20
-335.1885006548024
 30
0.0
 11
-59.077836294645664
 21
-337.94671602482146
 31
0.0
  0
LINE
  8
0
  6
CONTINUOUS
 62
               4
  5
1B3
 10
-59.077836294645664
 20
-337.94671602482146
 30
0.0
 11
-57.710226441622353
 21
-340.63811255222021
 31
0.0
  0
LINE
  8
0
  6
CONTINUOUS
 62
               4
  5
1B4
 10
-57.710226441622353
 20
-340.63811255222021
 30
0.0
 11
-56.342616588598759
 21
-343.26750340194809
 31
0.0
  0
LINE
  8
0
  6
CONTINUOUS
 62
               4
  5
1B5
 10
-56.342616588598759
 20
-343.26750340194809
 30
0.0
 11
-54.975006735575164
 21
-345.83147644960991
 31
0.0
  0
LINE
  8
0
  6
CONTINUOUS
 62
               4
  5
1B6
 10
-54.975006735575164
 20
-345.83147644960991
 30
0.0
 11
-53.607396882551569
 21
-348.32661957081029
 31
0.0
  0
LINE
  8
0
  6
CONTINUOUS
 62
               4
  5
1B7
 10
-53.607396882551569
 20
-348.32661957081029
 30
0.0
 11
-52.23978702952769
 21
-350.74952064115394
 31
0.0
  0
LINE
  8
0
  6
CONTINUOUS
 62
               4
  5
1B8
 10
-52.23978702952769
 20
-350.74952064115394
 30
0.0
 11
-50.872177176504096
 21
-353.09843437129587
 31
0.0
  0
LINE
  8
0
  6
CONTINUOUS
 62
               4
  5
1B9
 10
-50.872177176504096
 20
-353.09843437129587
 30
0.0
 11
-49.504567323480572
 21
-355.37828281209289
 31
0.0
  0
LINE
  8
0
  6
CONTINUOUS
 62
               4
  5
1BA
 10
-49.504567323480572
 20
-355.37828281209289
 30
0.0
 11
-48.136957470457048
 21
-357.59565484945222
 31
0.0
  0
LINE
  8
0
  6
CONTINUOUS
 62
               4
  5
1BB
 10
-48.136957470457048
 20
-357.59565484945222
 30
0.0
 11
-46.769347617433525
 21
-359.75713936928099
 31
0.0
  0
LINE
  8
0
  6
CONTINUOUS
 62
               4
  5
1BC
 10
-46.769347617433525
 20
-359.75713936928099
 30
0.0
 11
-45.401737764410001
 21
-361.86932525748642
 31
0.0
  0
LINE
  8
0
  6
CONTINUOUS
 62
               4
  5
1BD
 10
-45.401737764410001
 20
-361.86932525748642
 30
0.0
 11
-44.034127911386335
 21
-363.93783934911892
 31
0.0
  0
LINE
  8
0
  6
CONTINUOUS
 62
               4
  5
1BE
 10
-44.034127911386335
 20
-363.93783934911892
 30
0.0
 11
-42.666518058362882
 21
-365.96446027580186
 31
0.0
  0
LINE
  8
0
  6
CONTINUOUS
 62
               4
  5
1BF
 10
-42.666518058362882
 20
-365.96446027580186
 30
0.0
 11
-41.298908205339359
 21
-367.95000461830176
 31
0.0
  0
LINE
  8
0
  6
CONTINUOUS
 62
               4
  5
1C0
 10
-41.298908205339359
 20
-367.95000461830176
 30
0.0
 11
-39.931298352315764
 21
-369.89528895738528
 31
0.0
  0
LINE
  8
0
  6
CONTINUOUS
 62
               4
  5
1C1
 10
-39.931298352315764
 20
-369.89528895738528
 30
0.0
 11
-38.563688499292169
 21
-371.80112987381887
 31
0.0
  0
LINE
  8
0
  6
CONTINUOUS
 62
               4
  5
1C2
 10
-38.563688499292169
 20
-371.80112987381887
 30
0.0
 11
-37.196078646268646
 21
-373.66843731674578
 31
0.0
  0
LINE
  8
0
  6
CONTINUOUS
 62
               4
  5
1C3
 10
-37.196078646268646
 20
-373.66843731674578
 30
0.0
 11
-35.828468793245051
 21
-375.49849470881594
 31
0.0
  0
LINE
  8
0
  6
CONTINUOUS
 62
               4
  5
1C4
 10
-35.828468793245051
 20
-375.49849470881594
 30
0.0
 11
-34.460858940221456
 21
-377.29267884105587
 31
0.0
  0
LINE
  8
0
  6
CONTINUOUS
 62
               4
  5
1C5
 10
-34.460858940221456
 20
-377.29267884105587
 30
0.0
 11
-33.09324908719779
 21
-379.05236650449223
 31
0.0
  0
LINE
  8
0
  6
CONTINUOUS
 62
               4
  5
1C6
 10
-33.09324908719779
 20
-379.05236650449223
 30
0.0
 11
-31.725639234174338
 21
-380.7789344901513
 31
0.0
  0
LINE
  8
0
  6
CONTINUOUS
 62
               4
  5
1C7
 10
-31.725639234174338
 20
-380.7789344901513
 30
0.0
 11
-30.358029381150743
 21
-382.47355616640999
 31
0.0
  0
LINE
  8
0
  6
CONTINUOUS
 62
               4
  5
1C8
 10
-30.358029381150743
 20
-382.47355616640999
 30
0.0
 11
-28.990419528127077
 21
-384.13659121104524
 31
0.0
  0
LINE
  8
0
  6
CONTINUOUS
 62
               4
  5
1C9
 10
-28.990419528127077
 20
-384.13659121104524
 30
0.0
 11
-27.622809675103625
 21
-385.76819587918442
 31
0.0
  0
LINE
  8
0
  6
CONTINUOUS
 62
               4
  5
1CA
 10
-27.622809675103625
 20
-385.76819587918442
 30
0.0
 11
-26.25519982208003
 21
-387.36852642595483
 31
0.0
  0
LINE
  8
0
  6
CONTINUOUS
 62
               4
  5
1CB
 10
-26.25519982208003
 20
-387.36852642595483
 30
0.0
 11
-24.887589969056435
 21
-388.93773910648378
 31
0.0
  0
LINE
  8
0
  6
CONTINUOUS
 62
               4
  5
1CC
 10
-24.887589969056435
 20
-388.93773910648378
 30
0.0
 11
-23.519980116032983
 21
-390.47613449812127
 31
0.0
  0
LINE
  8
0
  6
CONTINUOUS
 62
               4
  5
1CD
 10
-23.519980116032983
 20
-390.47613449812127
 30
0.0
 11
-22.152370263009388
 21
-391.98459046710889
 31
0.0
  0
LINE
  8
0
  6
CONTINUOUS
 62
               4
  5
1CE
 10
-22.152370263009388
 20
-391.98459046710889
 30
0.0
 11
-20.784760409985722
 21
-393.46412920191091
 31
0.0
  0
LINE
  8
0
  6
CONTINUOUS
 62
               4
  5
1CF
 10
-20.784760409985722
 20
-393.46412920191091
 30
0.0
 11
-19.417150556962127
 21
-394.915772890992
 31
0.0
  0
LINE
  8
0
  6
CONTINUOUS
 62
               4
  5
1D0
 10
-19.417150556962127
 20
-394.915772890992
 30
0.0
 11
-18.049540703938604
 21
-396.34054372281622
 31
0.0
  0
LINE
  8
0
  6
CONTINUOUS
 62
               4
  5
1D1
 10
-18.049540703938604
 20
-396.34054372281622
 30
0.0
 11
-16.681930850914938
 21
-397.73923401960661
 31
0.0
  0
LINE
  8
0
  6
CONTINUOUS
 62
               4
  5
1D2
 10
-16.681930850914938
 20
-397.73923401960661
 30
0.0
 11
-15.314320997891556
 21
-399.11171663861984
 31
0.0
  0
LINE
  8
0
  6
CONTINUOUS
 62
               4
  5
1D3
 10
-15.314320997891556
 20
-399.11171663861984
 30
0.0
 11
-13.946711144867891
 21
-400.45763457087111
 31
0.0
  0
LINE
  8
0
  6
CONTINUOUS
 62
               4
  5
1D4
 10
-13.946711144867891
 20
-400.45763457087111
 30
0.0
 11
-12.579101291844367
 21
-401.77663080737568
 31
0.0
  0
LINE
  8
0
  6
CONTINUOUS
 62
               4
  5
1D5
 10
-12.579101291844367
 20
-401.77663080737568
 30
0.0
 11
-11.211491438820843
 21
-403.06834833914871
 31
0.0
  0
LINE
  8
0
  6
CONTINUOUS
 62
               4
  5
1D6
 10
-11.211491438820843
 20
-403.06834833914871
 30
0.0
 11
-9.843881585801654
 21
-404.33349098891483
 31
0.0
  0
LINE
  8
0
  6
CONTINUOUS
 62
               4
  5
1D7
 10
-9.843881585801654
 20
-404.33349098891483
 30
0.0
 11
-8.4762717327870121
 21
-405.57269746140554
 31
0.0
  0
LINE
  8
0
  6
CONTINUOUS
 62
               4
  5
1D8
 10
-8.4762717327870121
 20
-405.57269746140554
 30
0.0
 11
-7.1086618797700964
 21
-406.78551307064646
 31
0.0
  0
LINE
  8
0
  6
CONTINUOUS
 62
               4
  5
1D9
 10
-7.1086618797700964
 20
-406.78551307064646
 30
0.0
 11
-5.741052026744299
 21
-407.97148313066322
 31
0.0
  0
LINE
  8
0
  6
CONTINUOUS
 62
               4
  5
1DA
 10
-5.741052026744299
 20
-407.97148313066322
 30
0.0
 11
-4.3734421737030118
 21
-409.13015295548115
 31
0.0
  0
LINE
  8
0
  6
CONTINUOUS
 62
               4
  5
1DB
 10
-4.3734421737030118
 20
-409.13015295548115
 30
0.0
 11
-3.0058323206605166
 21
-410.26315822130408
 31
0.0
  0
LINE
  8
0
  6
CONTINUOUS
 62
               4
  5
1DC
 10
-3.0058323206605166
 20
-410.26315822130408
 30
0.0
 11
-1.6382224676323034
 21
-411.37187916333062
 31
0.0
  0
LINE
  8
0
  6
CONTINUOUS
 62
               4
  5
1DD
 10
-1.6382224676323034
 20
-411.37187916333062
 30
0.0
 11
-0.2706126146137536
 21
-412.45547793407906
 31
0.0
  0
LINE
  8
0
  6
CONTINUOUS
 62
               4
  5
1DE
 10
-0.2706126146137536
 20
-412.45547793407906
 30
0.0
 11
1.096997238400462
 21
-413.51311668606729
 31
0.0
  0
LINE
  8
0
  6
CONTINUOUS
 62
               4
  5
1DF
 10
1.096997238400462
 20
-413.51311668606729
 30
0.0
 11
2.4646070914148908
 21
-414.54395757181362
 31
0.0
  0
LINE
  8
0
  6
CONTINUOUS
 62
               4
  5
1E0
 10
2.4646070914148908
 20
-414.54395757181362
 30
0.0
 11
3.8322169444334406
 21
-415.54736188658092
 31
0.0
  0
LINE
  8
0
  6
CONTINUOUS
 62
               4
  5
1E1
 10
3.8322169444334406
 20
-415.54736188658092
 30
0.0
 11
5.1998267974558274
 21
-416.5234874966111
 31
0.0
  0
LINE
  8
0
  6
CONTINUOUS
 62
               4
  5
1E2
 10
5.1998267974558274
 20
-416.5234874966111
 30
0.0
 11
6.5674366504806301
 21
-417.472691410891
 31
0.0
  0
LINE
  8
0
  6
CONTINUOUS
 62
               4
  5
1E3
 10
6.5674366504806301
 20
-417.472691410891
 30
0.0
 11
7.9350465035067117
 21
-418.39533063840707
 31
0.0
  0
LINE
  8
0
  6
CONTINUOUS
 62
               4
  5
1E4
 10
7.9350465035067117
 20
-418.39533063840707
 30
0.0
 11
9.3026563565326512
 21
-419.29176218814604
 31
0.0
  0
LINE
  8
0
  6
CONTINUOUS
 62
               4
  5
1E5
 10
9.3026563565326512
 20
-419.29176218814604
 30
0.0
 11
10.670266209557596
 21
-420.16211320285282
 31
0.0
  0
LINE
  8
0
  6
CONTINUOUS
 62
               4
  5
1E6
 10
10.670266209557596
 20
-420.16211320285282
 30
0.0
 11
12.037876062581759
 21
-421.00559136030432
 31
0.0
  0
LINE
  8
0
  6
CONTINUOUS
 62
               4
  5
1E7
 10
12.037876062581759
 20
-421.00559136030432
 30
0.0
 11
13.405485915604856
 21
-421.82117447203581
 31
0.0
  0
LINE
  8
0
  6
CONTINUOUS
 62
               4
  5
1E8
 10
13.405485915604856
 20
-421.82117447203581
 30
0.0
 11
14.773095768627741
 21
-422.60784034958209
 31
0.0
  0
LINE
  8
0
  6
CONTINUOUS
 62
               4
  5
1E9
 10
14.773095768627741
 20
-422.60784034958209
 30
0.0
 11
16.140705621650625
 21
-423.36456680447856
 31
0.0
  0
LINE
  8
0
  6
CONTINUOUS
 62
               4
  5
1EA
 10
16.140705621650625
 20
-423.36456680447856
 30
0.0
 11
17.508315474673793
 21
-424.09047597048317
 31
0.0
  0
LINE
  8
0
  6
CONTINUOUS
 62
               4
  5
1EB
 10
17.508315474673793
 20
-424.09047597048317
 30
0.0
 11
18.875925327697317
 21
-424.78526727024581
 31
0.0
  0
LINE
  8
0
  6
CONTINUOUS
 62
               4
  5
1EC
 10
18.875925327697317
 20
-424.78526727024581
 30
0.0
 11
20.243535180720841
 21
-425.4487844486394
 31
0.0
  0
LINE
  8
0
  6
CONTINUOUS
 62
               4
  5
1ED
 10
20.243535180720841
 20
-425.4487844486394
 30
0.0
 11
21.61114503374472
 21
-426.08087125053686
 31
0.0
  0
LINE
  8
0
  6
CONTINUOUS
 62
               4
  5
1EE
 10
21.61114503374472
 20
-426.08087125053686
 30
0.0
 11
22.978754886768385
 21
-426.68137142081093
 31
0.0
  0
LINE
  8
0
  6
CONTINUOUS
 62
               4
  5
1EF
 10
22.978754886768385
 20
-426.68137142081093
 30
0.0
 11
24.346364739792051
 21
-427.2499252816848
 31
0.0
  0
LINE
  8
0
  6
CONTINUOUS
 62
               4
  5
1F0
 10
24.346364739792051
 20
-427.2499252816848
 30
0.0
 11
25.713974592815717
 21
-427.78535946478161
 31
0.0
  0
LINE
  8
0
  6
CONTINUOUS
 62
               4
  5
1F1
 10
25.713974592815717
 20
-427.78535946478161
 30
0.0
 11
27.081584445839241
 21
-428.28629717907467
 31
0.0
  0
LINE
  8
0
  6
CONTINUOUS
 62
               4
  5
1F2
 10
27.081584445839241
 20
-428.28629717907467
 30
0.0
 11
28.449194298862764
 21
-428.75136163353756
 31
0.0
  0
LINE
  8
0
  6
CONTINUOUS
 62
               4
  5
1F3
 10
28.449194298862764
 20
-428.75136163353756
 30
0.0
 11
29.816804151886288
 21
-429.17917603714352
 31
0.0
  0
LINE
  8
0
  6
CONTINUOUS
 62
               4
  5
1F4
 10
29.816804151886288
 20
-429.17917603714352
 30
0.0
 11
31.184414004909812
 21
-429.56845696724258
 31
0.0
  0
LINE
  8
0
  6
CONTINUOUS
 62
               4
  5
1F5
 10
31.184414004909812
 20
-429.56845696724258
 30
0.0
 11
32.552023857933406
 21
-429.91829447469172
 31
0.0
  0
LINE
  8
0
  6
CONTINUOUS
 62
               4
  5
1F6
 10
32.552023857933406
 20
-429.91829447469172
 30
0.0
 11
33.919633710956859
 21
-430.22787197872464
 31
0.0
  0
LINE
  8
0
  6
CONTINUOUS
 62
               4
  5
1F7
 10
33.919633710956859
 20
-430.22787197872464
 30
0.0
 11
35.287243563980454
 21
-430.49637289857475
 31
0.0
  0
LINE
  8
0
  6
CONTINUOUS
 62
               4
  5
1F8
 10
35.287243563980454
 20
-430.49637289857475
 30
0.0
 11
36.654853417004119
 21
-430.72298065347587
 31
0.0
  0
LINE
  8
0
  6
CONTINUOUS
 62
               4
  5
1F9
 10
36.654853417004119
 20
-430.72298065347587
 30
0.0
 11
38.022463270027501
 21
-430.90591661180468
 31
0.0
  0
LINE
  8
0
  6
CONTINUOUS
 62
               4
  5
1FA
 10
38.022463270027501
 20
-430.90591661180468
 30
0.0
 11
39.390073123051167
 21
-431.03955393851027
 31
0.0
  0
LINE
  8
0
  6
CONTINUOUS
 62
               4
  5
1FB
 10
39.390073123051167
 20
-431.03955393851027
 30
0.0
 11
40.757682976074832
 21
-431.11730374768462
 31
0.0
  0
LINE
  8
0
  6
CONTINUOUS
 62
               4
  5
1FC
 10
40.757682976074832
 20
-431.11730374768462
 30
0.0
 11
42.125292829098214
 21
-431.13257715341996
 31
0.0
  0
LINE
  8
0
  6
CONTINUOUS
 62
               4
  5
1FD
 10
42.125292829098214
 20
-431.13257715341996
 30
0.0
 11
43.49290268212188
 21
-431.07878526980835
 31
0.0
  0
LINE
  8
0
  6
CONTINUOUS
 62
               4
  5
1FE
 10
43.49290268212188
 20
-431.07878526980835
 30
0.0
 11
44.860512535145546
 21
-430.95100604599298
 31
0.0
  0
LINE
  8
0
  6
CONTINUOUS
 62
               4
  5
1FF
 10
44.860512535145546
 20
-430.95100604599298
 30
0.0
 11
46.228122388169069
 21
-430.7509847713207
 31
0.0
  0
LINE
  8
0
  6
CONTINUOUS
 62
               4
  5
200
 10
46.228122388169069
 20
-430.7509847713207
 30
0.0
 11
47.595732241192735
 21
-430.48213357018926
 31
0.0
  0
LINE
  8
0
  6
CONTINUOUS
 62
               4
  5
201
 10
47.595732241192735
 20
-430.48213357018926
 30
0.0
 11
48.963342094216259
 21
-430.1478645669967
 31
0.0
  0
LINE
  8
0
  6
CONTINUOUS
 62
               4
  5
202
 10
48.963342094216259
 20
-430.1478645669967
 30
0.0
 11
50.330951947239782
 21
-429.75158988614083
 31
0.0
  0
LINE
  8
0
  6
CONTINUOUS
 62
               4
  5
203
 10
50.330951947239782
 20
-429.75158988614083
 30
0.0
 11
51.698561800263164
 21
-429.28849636267262
 31
0.0
  0
LINE
  8
0
  6
CONTINUOUS
 62
               4
  5
204
 10
51.698561800263164
 20
-429.28849636267262
 30
0.0
 11
53.066171653286688
 21
-428.72086967425531
 31
0.0
  0
LINE
  8
0
  6
CONTINUOUS
 62
               4
  5
205
 10
53.066171653286688
 20
-428.72086967425531
 30
0.0
 11
54.433781506310211
 21
-428.00277020920549
 31
0.0
  0
LINE
  8
0
  6
CONTINUOUS
 62
               4
  5
206
 10
54.433781506310211
 20
-428.00277020920549
 30
0.0
 11
55.801391359333735
 21
-427.08825835583929
 31
0.0
  0
LINE
  8
0
  6
CONTINUOUS
 62
               4
  5
207
 10
55.801391359333735
 20
-427.08825835583929
 30
0.0
 11
57.169001212357614
 21
-425.93139450247332
 31
0.0
  0
LINE
  8
0
  6
CONTINUOUS
 62
               4
  5
208
 10
57.169001212357614
 20
-425.93139450247332
 30
0.0
 11
58.536611065381635
 21
-424.5035053597606
 31
0.0
  0
LINE
  8
0
  6
CONTINUOUS
 62
               4
  5
209
 10
58.536611065381635
 20
-424.5035053597606
 30
0.0
 11
59.90422091840594
 21
-422.84498292770121
 31
0.0
  0
LINE
  8
0
  6
CONTINUOUS
 62
               4
  5
20A
 10
59.90422091840594
 20
-422.84498292770121
 30
0.0
 11
61.271830771430388
 21
-421.01348552863163
 31
0.0
  0
LINE
  8
0
  6
CONTINUOUS
 62
               4
  5
20B
 10
61.271830771430388
 20
-421.01348552863163
 30
0.0
 11
62.639440624454906
 21
-419.06667148488873
 31
0.0
  0
LINE
  8
0
  6
CONTINUOUS
 62
               4
  5
20C
 10
62.639440624454906
 20
-419.06667148488873
 30
0.0
 11
64.007050477479567
 21
-417.06219911880913
 31
0.0
  0
ENDBLK
  8
0
  5
20D
  0
BLOCK
  8
0
  5
20E
  2
GROUP_3
 70
               0
 10
0.0
 20
0.0
 30
0.0
  3
GROUP_3
  0
CIRCLE
  8
0
  6
CONTINUOUS
 62
               4
  5
20F
 10
77.781745930520231
 20
553.55361168863396
 30
0.0
 40
9.5
  0
LINE
  8
0
  6
CONTINUOUS
 62
               4
  5
210
 10
88.751401045123274
 20
553.55361168863396
 30
0.0
 11
83.266573487821503
 21
563.05361168863374
 31
0.0
  0
LINE
  8
0
  6
CONTINUOUS
 62
               4
  5
211
 10
83.266573487821503
 20
563.05361168863374
 30
0.0
 11
72.296918373218531
 21
563.05361168863374
 31
0.0
  0
LINE
  8
0
  6
CONTINUOUS
 62
               4
  5
212
 10
72.296918373218531
 20
563.05361168863374
 30
0.0
 11
66.812090815917188
 21
553.55361168863396
 31
0.0
  0
LINE
  8
0
  6
CONTINUOUS
 62
               4
  5
213
 10
66.812090815917188
 20
553.55361168863396
 30
0.0
 11
72.296918373218531
 21
544.05361168863374
 31
0.0
  0
LINE
  8
0
  6
CONTINUOUS
 62
               4
  5
214
 10
72.296918373218531
 20
544.05361168863374
 30
0.0
 11
83.266573487821503
 21
544.05361168863374
 31
0.0
  0
LINE
  8
0
  6
CONTINUOUS
 62
               4
  5
215
 10
83.266573487821503
 20
544.05361168863374
 30
0.0
 11
88.751401045123274
 21
553.55361168863396
 31
0.0
  0
CIRCLE
  8
0
  6
CONTINUOUS
 62
               4
  5
216
 10
77.781745930520231
 20
553.55361168863396
 30
0.0
 40
5.1250000000000009
  0
CIRCLE
  8
0
  6
CONTINUOUS
 62
               4
  5
217
 10
77.781745930520231
 20
553.55361168863396
 30
0.0
 40
6.0000000000000009
  0
ENDBLK
  8
0
  5
218
  0
BLOCK
  8
0
  5
219
  2
GROUP_4
 70
               0
 10
0.0
 20
0.0
 30
0.0
  3
GROUP_4
  0
CIRCLE
  8
0
  6
CONTINUOUS
 62
               4
  5
21A
 10
77.781745930520302
 20
709.11710354967454
 30
0.0
 40
9.5
  0
LINE
  8
0
  6
CONTINUOUS
 62
               4
  5
21B
 10
88.751401045123345
 20
709.11710354967454
 30
0.0
 11
83.266573487821574
 21
718.61710354967431
 31
0.0
  0
LINE
  8
0
  6
CONTINUOUS
 62
               4
  5
21C
 10
83.266573487821574
 20
718.61710354967431
 30
0.0
 11
72.296918373218531
 21
718.61710354967431
 31
0.0
  0
LINE
  8
0
  6
CONTINUOUS
 62
               4
  5
21D
 10
72.296918373218531
 20
718.61710354967431
 30
0.0
 11
66.812090815917259
 21
709.11710354967454
 31
0.0
  0
LINE
  8
0
  6
CONTINUOUS
 62
               4
  5
21E
 10
66.812090815917259
 20
709.11710354967454
 30
0.0
 11
72.296918373218531
 21
699.61710354967431
 31
0.0
  0
LINE
  8
0
  6
CONTINUOUS
 62
               4
  5
21F
 10
72.296918373218531
 20
699.61710354967431
 30
0.0
 11
83.266573487821574
 21
699.61710354967431
 31
0.0
  0
LINE
  8
0
  6
CONTINUOUS
 62
               4
  5
220
 10
83.266573487821574
 20
699.61710354967431
 30
0.0
 11
88.751401045123345
 21
709.11710354967454
 31
0.0
  0
CIRCLE
  8
0
  6
CONTINUOUS
 62
               4
  5
221
 10
77.781745930520302
 20
709.11710354967454
 30
0.0
 40
5.1250000000000009
  0
CIRCLE
  8
0
  6
CONTINUOUS
 62
               4
  5
222
 10
77.781745930520302
 20
709.11710354967454
 30
0.0
 40
6.0000000000000009
  0
ENDBLK
  8
0
  5
223
  0
BLOCK
  8
0
  5
224
  2
GROUP_5
 70
               0
 10
0.0
 20
0.0
 30
0.0
  3
GROUP_5
  0
CIRCLE
  8
0
  6
CONTINUOUS
 62
               4
  5
225
 10
-77.781745930520273
 20
709.11710354967408
 30
0.0
 40
9.5
  0
LINE
  8
0
  6
CONTINUOUS
 62
               4
  5
226
 10
-66.81209081591723
 20
709.11710354967408
 30
0.0
 11
-72.296918373219
 21
718.61710354967408
 31
0.0
  0
LINE
  8
0
  6
CONTINUOUS
 62
               4
  5
227
 10
-72.296918373219
 20
718.61710354967408
 30
0.0
 11
-83.266573487822043
 21
718.61710354967408
 31
0.0
  0
LINE
  8
0
  6
CONTINUOUS
 62
               4
  5
228
 10
-83.266573487822043
 20
718.61710354967408
 30
0.0
 11
-88.751401045123245
 21
709.11710354967408
 31
0.0
  0
LINE
  8
0
  6
CONTINUOUS
 62
               4
  5
229
 10
-88.751401045123245
 20
709.11710354967408
 30
0.0
 11
-83.266573487822043
 21
699.61710354967408
 31
0.0
  0
LINE
  8
0
  6
CONTINUOUS
 62
               4
  5
22A
 10
-83.266573487822043
 20
699.61710354967408
 30
0.0
 11
-72.296918373219
 21
699.61710354967408
 31
0.0
  0
LINE
  8
0
  6
CONTINUOUS
 62
               4
  5
22B
 10
-72.296918373219
 20
699.61710354967408
 30
0.0
 11
-66.81209081591723
 21
709.11710354967408
 31
0.0
  0
CIRCLE
  8
0
  6
CONTINUOUS
 62
               4
  5
22C
 10
-77.781745930520273
 20
709.11710354967408
 30
0.0
 40
5.1250000000000009
  0
CIRCLE
  8
0
  6
CONTINUOUS
 62
               4
  5
22D
 10
-77.781745930520273
 20
709.11710354967408
 30
0.0
 40
6.0000000000000009
  0
ENDBLK
  8
0
  5
22E
  0
BLOCK
  8
0
  5
22F
  2
GROUP_6
 70
               0
 10
0.0
 20
0.0
 30
0.0
  3
GROUP_6
  0
CIRCLE
  8
0
  6
CONTINUOUS
 62
               4
  5
230
 10
-77.781745930520131
 20
553.55361168863396
 30
0.0
 40
9.5
  0
LINE
  8
0
  6
CONTINUOUS
 62
               4
  5
231
 10
-66.812090815917088
 20
553.55361168863396
 30
0.0
 11
-72.296918373218858
 21
563.05361168863374
 31
0.0
  0
LINE
  8
0
  6
CONTINUOUS
 62
               4
  5
232
 10
-72.296918373218858
 20
563.05361168863374
 30
0.0
 11
-83.266573487821901
 21
563.05361168863374
 31
0.0
  0
LINE
  8
0
  6
CONTINUOUS
 62
               4
  5
233
 10
-83.266573487821901
 20
563.05361168863374
 30
0.0
 11
-88.751401045123103
 21
553.55361168863396
 31
0.0
  0
LINE
  8
0
  6
CONTINUOUS
 62
               4
  5
234
 10
-88.751401045123103
 20
553.55361168863396
 30
0.0
 11
-83.266573487821901
 21
544.05361168863374
 31
0.0
  0
LINE
  8
0
  6
CONTINUOUS
 62
               4
  5
235
 10
-83.266573487821901
 20
544.05361168863374
 30
0.0
 11
-72.296918373218858
 21
544.05361168863374
 31
0.0
  0
LINE
  8
0
  6
CONTINUOUS
 62
               4
  5
236
 10
-72.296918373218858
 20
544.05361168863374
 30
0.0
 11
-66.812090815917088
 21
553.55361168863396
 31
0.0
  0
CIRCLE
  8
0
  6
CONTINUOUS
 62
               4
  5
237
 10
-77.781745930520131
 20
553.55361168863396
 30
0.0
 40
5.1250000000000009
  0
CIRCLE
  8
0
  6
CONTINUOUS
 62
               4
  5
238
 10
-77.781745930520131
 20
553.55361168863396
 30
0.0
 40
6.0000000000000009
  0
ENDBLK
  8
0
  5
239
  0
BLOCK
  8
0
  5
23A
  2
GROUP_7
 70
               0
 10
0.0
 20
0.0
 30
0.0
  3
GROUP_7
  0
LINE
  8
0
  6
CONTINUOUS
 62
               4
  5
23B
 10
-511.26825406948103
 20
-41.40877367077637
 30
0.0
 11
-511.26825406948103
 21
-32.53460669569607
 31
0.0
  0
LINE
  8
0
  6
CONTINUOUS
 62
               4
  5
23C
 10
-516.75308162678243
 20
-41.40877367077637
 30
0.0
 11
-516.75308162678243
 21
-32.53460669569607
 31
0.0
  0
LINE
  8
0
  6
CONTINUOUS
 62
               4
  5
23D
 10
-511.26825406948103
 20
-41.40877367077637
 30
0.0
 11
-533.16825406948078
 21
-41.40877367077637
 31
0.0
  0
LINE
  8
0
  6
CONTINUOUS
 62
               4
  5
23E
 10
-514.01066784813167
 20
-31.40877367077637
 30
0.0
 11
-530.42584029083002
 21
-31.40877367077637
 31
0.0
  0
LINE
  8
0
  6
CONTINUOUS
 62
               4
  5
23F
 10
-533.16825406948078
 20
-41.40877367077637
 30
0.0
 11
-533.16825406948078
 21
-32.53460669569607
 31
0.0
  0
LINE
  8
0
  6
CONTINUOUS
 62
               4
  5
240
 10
-527.68342651217938
 20
-41.40877367077637
 30
0.0
 11
-527.68342651217938
 21
-32.53460669569607
 31
0.0
  0
ARC
  8
0
  6
CONTINUOUS
 62
               4
  5
241
 10
-514.01066784813167
 20
-35.311809529028736
 30
0.0
 40
3.9030358582523994
 50
45.36111921404013
 51
134.63888078592291
  0
ARC
  8
0
  6
CONTINUOUS
 62
               4
  5
242
 10
-530.42584029083002
 20
-35.311809529028736
 30
0.0
 40
3.9030358582525593
 50
45.361119214041885
 51
134.63888078592535
  0
ARC
  8
0
  6
CONTINUOUS
 62
               4
  5
243
 10
-522.21825406948085
 20
-45.236583452182387
 30
0.0
 40
13.827809781406303
 50
66.719648257516468
 51
113.28035174244877
  0
ENDBLK
  8
0
  5
244
  0
BLOCK
  8
0
  5
245
  2
GROUP_8
 70
               0
 10
0.0
 20
0.0
 30
0.0
  3
GROUP_8
  0
LINE
  8
0
  6
CONTINUOUS
 62
               4
  5
246
 10
-666.83174593052161
 20
-41.40877367077637
 30
0.0
 11
-666.83174593052161
 21
-32.53460669569607
 31
0.0
  0
LINE
  8
0
  6
CONTINUOUS
 62
               4
  5
247
 10
-672.31657348782301
 20
-41.40877367077637
 30
0.0
 11
-672.31657348782301
 21
-32.53460669569607
 31
0.0
  0
LINE
  8
0
  6
CONTINUOUS
 62
               4
  5
248
 10
-666.83174593052161
 20
-41.40877367077637
 30
0.0
 11
-688.73174593052136
 21
-41.40877367077637
 31
0.0
  0
LINE
  8
0
  6
CONTINUOUS
 62
               4
  5
249
 10
-669.57415970917225
 20
-31.40877367077637
 30
0.0
 11
-685.9893321518706
 21
-31.40877367077637
 31
0.0
  0
LINE
  8
0
  6
CONTINUOUS
 62
               4
  5
24A
 10
-688.73174593052136
 20
-41.40877367077637
 30
0.0
 11
-688.73174593052136
 21
-32.53460669569607
 31
0.0
  0
LINE
  8
0
  6
CONTINUOUS
 62
               4
  5
24B
 10
-683.24691837321996
 20
-41.40877367077637
 30
0.0
 11
-683.24691837321996
 21
-32.53460669569607
 31
0.0
  0
ARC
  8
0
  6
CONTINUOUS
 62
               4
  5
24C
 10
-669.57415970917225
 20
-35.311809529028736
 30
0.0
 40
3.9030358582523994
 50
45.36111921403954
 51
134.63888078592291
  0
ARC
  8
0
  6
CONTINUOUS
 62
               4
  5
24D
 10
-685.9893321518706
 20
-35.311809529028736
 30
0.0
 40
3.9030358582525593
 50
45.361119214041885
 51
134.63888078592535
  0
ARC
  8
0
  6
CONTINUOUS
 62
               4
  5
24E
 10
-677.78174593052142
 20
-45.236583452182387
 30
0.0
 40
13.827809781406303
 50
66.719648257516468
 51
113.28035174244877
  0
ENDBLK
  8
0
  5
24F
  0
BLOCK
  8
0
  5
250
  2
GROUP_9
 70
               0
 10
0.0
 20
0.0
 30
0.0
  3
GROUP_9
  0
LINE
  8
0
  6
CONTINUOUS
 62
               4
  5
251
 10
-88.731745930520219
 20
-41.408773670776441
 30
0.0
 11
-88.731745930520219
 21
-32.534606695696141
 31
0.0
  0
LINE
  8
0
  6
CONTINUOUS
 62
               4
  5
252
 10
-83.246918373218875
 20
-41.408773670776441
 30
0.0
 11
-83.246918373218875
 21
-32.534606695696141
 31
0.0
  0
LINE
  8
0
  6
CONTINUOUS
 62
               4
  5
253
 10
-88.731745930520219
 20
-41.408773670776441
 30
0.0
 11
-66.831745930520526
 21
-41.408773670776441
 31
0.0
  0
LINE
  8
0
  6
CONTINUOUS
 62
               4
  5
254
 10
-85.989332151869547
 20
-31.408773670776441
 30
0.0
 11
-69.574159709171198
 21
-31.408773670776441
 31
0.0
  0
LINE
  8
0
  6
CONTINUOUS
 62
               4
  5
255
 10
-66.831745930520526
 20
-41.408773670776441
 30
0.0
 11
-66.831745930520526
 21
-32.534606695696141
 31
0.0
  0
LINE
  8
0
  6
CONTINUOUS
 62
               4
  5
256
 10
-72.31657348782187
 20
-41.408773670776441
 30
0.0
 11
-72.31657348782187
 21
-32.534606695696141
 31
0.0
  0
ARC
  8
0
  6
CONTINUOUS
 62
               4
  5
257
 10
-85.989332151869547
 20
-35.311809529028807
 30
0.0
 40
3.9030358582523994
 50
45.36111921404234
 51
134.63888078592547
  0
ARC
  8
0
  6
CONTINUOUS
 62
               4
  5
258
 10
-69.574159709171198
 20
-35.311809529028807
 30
0.0
 40
3.9030358582525593
 50
45.361119214039817
 51
134.63888078592296
  0
ARC
  8
0
  6
CONTINUOUS
 62
               4
  5
259
 10
-77.781745930520373
 20
-45.236583452182458
 30
0.0
 40
13.827809781406303
 50
66.719648257516582
 51
113.28035174244872
  0
ENDBLK
  8
0
  5
25A
  0
BLOCK
  8
0
  5
25B
  2
GROUP_10
 70
               0
 10
0.0
 20
0.0
 30
0.0
  3
GROUP_10
  0
LINE
  8
0
  6
CONTINUOUS
 62
               4
  5
25C
 10
66.831745930520214
 20
-41.40877367077637
 30
0.0
 11
66.831745930520214
 21
-32.53460669569607
 31
0.0
  0
LINE
  8
0
  6
CONTINUOUS
 62
               4
  5
25D
 10
72.316573487821557
 20
-41.40877367077637
 30
0.0
 11
72.316573487821557
 21
-32.53460669569607
 31
0.0
  0
LINE
  8
0
  6
CONTINUOUS
 62
               4
  5
25E
 10
66.831745930520214
 20
-41.40877367077637
 30
0.0
 11
88.731745930519907
 21
-41.40877367077637
 31
0.0
  0
LINE
  8
0
  6
CONTINUOUS
 62
               4
  5
25F
 10
69.574159709171028
 20
-31.40877367077637
 30
0.0
 11
85.989332151869377
 21
-31.40877367077637
 31
0.0
  0
LINE
  8
0
  6
CONTINUOUS
 62
               4
  5
260
 10
88.731745930519907
 20
-41.40877367077637
 30
0.0
 11
88.731745930519907
 21
-32.53460669569607
 31
0.0
  0
LINE
  8
0
  6
CONTINUOUS
 62
               4
  5
261
 10
83.246918373218563
 20
-41.40877367077637
 30
0.0
 11
83.246918373218563
 21
-32.53460669569607
 31
0.0
  0
ARC
  8
0
  6
CONTINUOUS
 62
               4
  5
262
 10
69.574159709171028
 20
-35.311809529028736
 30
0.0
 40
3.9030358582523994
 50
45.36111921404234
 51
134.63888078592547
  0
ARC
  8
0
  6
CONTINUOUS
 62
               4
  5
263
 10
85.989332151869377
 20
-35.311809529028736
 30
0.0
 40
3.9030358582525593
 50
45.361119214039817
 51
134.63888078592296
  0
ARC
  8
0
  6
CONTINUOUS
 62
               4
  5
264
 10
77.781745930520202
 20
-45.236583452182387
 30
0.0
 40
13.827809781406303
 50
66.719648257516582
 51
113.28035174244872
  0
ENDBLK
  8
0
  5
265
  0
BLOCK
  8
0
  5
266
  2
GROUP_11
 70
               0
 10
0.0
 20
0.0
 30
0.0
  3
GROUP_11
  0
LINE
  8
0
  6
CONTINUOUS
 62
               4
  5
267
 10
511.2682540694808
 20
-41.408773670776725
 30
0.0
 11
511.2682540694808
 21
-32.534606695696425
 31
0.0
  0
LINE
  8
0
  6
CONTINUOUS
 62
               4
  5
268
 10
516.75308162678209
 20
-41.408773670776725
 30
0.0
 11
516.75308162678209
 21
-32.534606695696425
 31
0.0
  0
LINE
  8
0
  6
CONTINUOUS
 62
               4
  5
269
 10
511.2682540694808
 20
-41.408773670776725
 30
0.0
 11
533.16825406948044
 21
-41.408773670776725
 31
0.0
  0
LINE
  8
0
  6
CONTINUOUS
 62
               4
  5
26A
 10
514.01066784813145
 20
-31.408773670776725
 30
0.0
 11
530.4258402908298
 21
-31.408773670776725
 31
0.0
  0
LINE
  8
0
  6
CONTINUOUS
 62
               4
  5
26B
 10
533.16825406948044
 20
-41.408773670776725
 30
0.0
 11
533.16825406948044
 21
-32.534606695696425
 31
0.0
  0
LINE
  8
0
  6
CONTINUOUS
 62
               4
  5
26C
 10
527.68342651217915
 20
-41.408773670776725
 30
0.0
 11
527.68342651217915
 21
-32.534606695696425
 31
0.0
  0
ARC
  8
0
  6
CONTINUOUS
 62
               4
  5
26D
 10
514.01066784813145
 20
-35.311809529029091
 30
0.0
 40
3.9030358582523994
 50
45.361119214041821
 51
134.63888078592527
  0
ARC
  8
0
  6
CONTINUOUS
 62
               4
  5
26E
 10
530.4258402908298
 20
-35.311809529029091
 30
0.0
 40
3.9030358582525593
 50
45.361119214039448
 51
134.63888078592291
  0
ARC
  8
0
  6
CONTINUOUS
 62
               4
  5
26F
 10
522.21825406948062
 20
-45.236583452182742
 30
0.0
 40
13.827809781406303
 50
66.719648257516468
 51
113.28035174244877
  0
ENDBLK
  8
0
  5
270
  0
BLOCK
  8
0
  5
271
  2
GROUP_12
 70
               0
 10
0.0
 20
0.0
 30
0.0
  3
GROUP_12
  0
LINE
  8
0
  6
CONTINUOUS
 62
               4
  5
272
 10
666.83174593052149
 20
-41.408773670776725
 30
0.0
 11
666.83174593052149
 21
-32.534606695696425
 31
0.0
  0
LINE
  8
0
  6
CONTINUOUS
 62
               4
  5
273
 10
672.31657348782289
 20
-41.408773670776725
 30
0.0
 11
672.31657348782289
 21
-32.534606695696425
 31
0.0
  0
LINE
  8
0
  6
CONTINUOUS
 62
               4
  5
274
 10
666.83174593052149
 20
-41.408773670776725
 30
0.0
 11
688.73174593052124
 21
-41.408773670776725
 31
0.0
  0
LINE
  8
0
  6
CONTINUOUS
 62
               4
  5
275
 10
669.57415970917225
 20
-31.408773670776725
 30
0.0
 11
685.9893321518706
 21
-31.408773670776725
 31
0.0
  0
LINE
  8
0
  6
CONTINUOUS
 62
               4
  5
276
 10
688.73174593052124
 20
-41.408773670776725
 30
0.0
 11
688.73174593052124
 21
-32.534606695696425
 31
0.0
  0
LINE
  8
0
  6
CONTINUOUS
 62
               4
  5
277
 10
683.24691837321984
 20
-41.408773670776725
 30
0.0
 11
683.24691837321984
 21
-32.534606695696425
 31
0.0
  0
ARC
  8
0
  6
CONTINUOUS
 62
               4
  5
278
 10
669.57415970917225
 20
-35.311809529029091
 30
0.0
 40
3.9030358582523994
 50
45.361119214041821
 51
134.63888078592527
  0
ARC
  8
0
  6
CONTINUOUS
 62
               4
  5
279
 10
685.9893321518706
 20
-35.311809529029091
 30
0.0
 40
3.9030358582525593
 50
45.361119214039448
 51
134.63888078592291
  0
ARC
  8
0
  6
CONTINUOUS
 62
               4
  5
27A
 10
677.78174593052142
 20
-45.236583452182742
 30
0.0
 40
13.827809781406303
 50
66.719648257516468
 51
113.28035174244877
  0
ENDBLK
  8
0
  5
27B
  0
ENDSEC
  0
SECTION
  2
ENTITIES
  0
LINE
  8
0
  6
DASHDOT
 62
               4
  5
27C
 10
-0.0000000000003411
 20
-745.23855699639421
 30
0.0
 11
-0.0000000000000569
 21
234.83535761915397
 31
0.0
  0
LINE
  8
0
  6
DASHDOT
 62
               4
  5
27D
 10
-162.01839599130329
 20
-157.91501650675181
 30
0.0
 11
-90.000000000000057
 21
-157.91501650675181
 31
0.0
  0
LINE
  8
0
  6
DASHDOT
 62
               4
  5
27E
 10
-600.00000000000045
 20
-741.23855699639421
 30
0.0
 11
-600.00000000000023
 21
234.83535761915397
 31
0.0
  0
LINE
  8
0
  6
DASHDOT
 62
               4
  5
27F
 10
599.99999999999989
 20
-741.23855699639421
 30
0.0
 11
600.00000000000023
 21
234.83535761915351
 31
0.0
  0
LINE
  8
0
  6
DASHDOT
 62
               4
  5
280
 10
-0.0000000000001989
 20
517.43215824191384
 30
0.0
 11
0.0000000000000142
 21
745.23855699639421
 31
0.0
  0
LINE
  8
0
  6
DASHDOT
 62
               4
  5
281
 10
113.90319937723996
 20
631.33535761915391
 30
0.0
 11
-113.90319937724041
 21
631.33535761915414
 31
0.0
  0
LINE
  8
0
  6
DASHDOT
 62
               4
  5
282
 10
-113.90319937724014
 20
631.33535761915414
 30
0.0
 11
-180.0
 21
631.33535761915414
 31
0.0
  0
LINE
  8
0
  6
DASHDOT
 62
               4
  5
283
 10
-489.95609660796197
 20
-147.91501650675218
 30
0.0
 11
-529.95609660796197
 21
-147.91501650675218
 31
0.0
  0
LINE
  8
0
  6
DASHDOT
 62
               4
  5
284
 10
-675.50000000000045
 20
-157.91501650675181
 30
0.0
 11
-524.50000000000045
 21
-157.91501650675181
 31
0.0
  0
LINE
  8
0
  6
DASHDOT
 62
               4
  5
285
 10
113.90319937724007
 20
631.33535761915414
 30
0.0
 11
179.99999999999989
 21
631.33535761915414
 31
0.0
  0
LINE
  8
0
  6
DASHDOT
 62
               4
  5
286
 10
168.14092777451538
 20
-170.41501650675201
 30
0.0
 11
89.999999999999659
 21
-170.41501650675195
 31
0.0
  0
LINE
  8
0
  6
DASHDOT
 62
               4
  5
287
 10
667.49999999999989
 20
-170.41501650675212
 30
0.0
 11
532.5
 21
-170.41501650675212
 31
0.0
  0
LINE
  8
0
  6
DASHDOT
 62
               4
  5
288
 10
710.04390339203871
 20
-147.91501650675261
 30
0.0
 11
670.04390339203871
 21
-147.91501650675261
 31
0.0
  0
LINE
  8
0
  6
DASHDOT
 62
               4
  5
289
 10
39.999999999999659
 20
-147.91501650675261
 30
0.0
 11
-40.000000000000341
 21
-147.91501650675261
 31
0.0
  0
LINE
  8
0
  6
DASHDOT
 62
               4
  5
28A
 10
489.95609660796151
 20
-147.91501650675258
 30
0.0
 11
529.95609660796151
 21
-147.91501650675258
 31
0.0
  0
LINE
  8
0
  6
DASHDOT
 62
               4
  5
28B
 10
-710.04390339203871
 20
-147.91501650675218
 30
0.0
 11
-670.04390339203871
 21
-147.91501650675221
 31
0.0
  0
LINE
  8
0
  6
DASHDOT
 62
               4
  5
28C
 10
-392.13776905046905
 20
-1199.5632119879426
 30
0.0
 11
-392.13776905046893
 21
-1070.5632119879426
 31
0.0
  0
LINE
  8
0
  6
DASHDOT
 62
               4
  5
28D
 10
-450.13776905046899
 20
-1141.5632119879426
 30
0.0
 11
-334.13776905046905
 21
-1141.5632119879426
 31
0.0
  0
LINE
  8
0
  6
DASHDOT
 62
               4
  5
28E
 10
-461.94094753457654
 20
-1135.0632119879426
 30
0.0
 11
-327.63776905046905
 21
-1135.0632119879426
 31
0.0
  0
LINE
  8
0
  6
DASHDOT
 62
               4
  5
28F
 10
-268.23776905046896
 20
-1135.0632119879426
 30
0.0
 11
-169.63776905046905
 21
-1135.0632119879426
 31
0.0
  0
LINE
  8
0
  6
DASHDOT
 62
               4
  5
290
 10
-302.63776905046905
 20
-1141.5632119879426
 30
0.0
 11
-228.23776905046907
 21
-1141.5632119879426
 31
0.0
  0
LINE
  8
0
  6
DASHDOT
 62
               4
  5
291
 10
-516.0377690504688
 20
-1135.0632119879426
 30
0.0
 11
-614.63776905046893
 21
-1135.0632119879422
 31
0.0
  0
LINE
  8
0
  6
DASHDOT
 62
               4
  5
292
 10
-481.63776905046899
 20
-1141.5632119879426
 30
0.0
 11
-556.0377690504688
 21
-1141.5632119879426
 31
0.0
  0
LINE
  8
0
  6
DASHDOT
 62
               4
  5
293
 10
-394.08372644623557
 20
-1038.0953279189077
 30
0.0
 11
-394.08372644623557
 21
-905.09532791890763
 31
0.0
  0
LINE
  8
0
  6
DASHDOT
 62
               4
  5
294
 10
221.63392368588063
 20
-1135.0632119879426
 30
0.0
 11
320.23392368588077
 21
-1135.0632119879426
 31
0.0
  0
LINE
  8
0
  6
DASHDOT
 62
               4
  5
295
 10
196.63392368588063
 20
-1149.5632119879426
 30
0.0
 11
261.63392368588063
 21
-1149.5632119879426
 31
0.0
  0
LINE
  8
0
  6
DASHDOT
 62
               4
  5
296
 10
70.87790746063763
 20
-1149.5632119879426
 30
0.0
 11
170.87790746063786
 21
-1149.5632119879426
 31
0.0
  0
LINE
  8
0
  6
DASHDOT
 62
               4
  5
297
 10
120.87790746063763
 20
-1199.5632119879426
 30
0.0
 11
120.87790746063786
 21
-1070.5632119879426
 31
0.0
  0
LINE
  8
0
  6
DASHDOT
 62
               4
  5
298
 10
56.37790746063763
 20
-1135.0632119879426
 30
0.0
 11
190.92191724058887
 21
-1135.0632119879426
 31
0.0
  0
LINE
  8
0
  6
DASHDOT
 62
               4
  5
299
 10
20.121891235394855
 20
-1135.0632119879426
 30
0.0
 11
-78.478108764605167
 21
-1135.0632119879426
 31
0.0
  0
LINE
  8
0
  6
DASHDOT
 62
               4
  5
29A
 10
45.121891235394855
 20
-1149.5632119879426
 30
0.0
 11
-19.878108764605145
 21
-1149.5632119879426
 31
0.0
  0
LINE
  8
0
  6
DASHDOT
 62
               4
  5
29B
 10
120.87790746063786
 20
-1048.8071957627001
 30
0.0
 11
120.87790746063786
 21
-925.20719576269983
 31
0.0
  0
LINE
  8
0
  6
DASHDOT
 62
               4
  5
29C
 10
609.28652321630761
 20
-968.87877641615171
 30
0.0
 11
609.28652321630761
 21
-1239.4255632159782
 31
0.0
  0
LINE
  8
0
  6
DASHDOT
 62
               4
  5
29D
 10
447.28652321630761
 20
-1077.3787764161518
 30
0.0
 11
717.78652321630784
 21
-1077.3787764161518
 31
0.0
  0
LINE
  8
0
  6
DASHDOT
 62
               4
  5
29E
 10
677.81174799153223
 20
-1551.8782101647359
 30
0.0
 11
447.55790992287928
 21
-1551.8782101647359
 31
0.0
  0
LINE
  8
0
  6
DASHDOT
 62
               4
  5
29F
 10
609.28652321630761
 20
-1365.8782101647359
 30
0.0
 11
609.28652321630761
 21
-1616.8782101647359
 31
0.0
  0
LINE
  8
0
  6
DASHDOT
 62
               4
  5
2A0
 10
559.28652321630761
 20
-1566.3782101647359
 30
0.0
 11
659.28652321630784
 21
-1566.3782101647359
 31
0.0
  0
LINE
  8
0
  6
DASHDOT
 62
               4
  5
2A1
 10
609.28652321630761
 20
-1267.9787764161517
 30
0.0
 11
609.28652321630761
 21
-1144.3787764161514
 31
0.0
  0
LINE
  8
0
  6
DASHDOT
 62
               4
  5
2A2
 10
409.2865232163075
 20
-1558.3782101647359
 30
0.0
 11
483.68652321630748
 21
-1558.3782101647359
 31
0.0
  0
LINE
  8
0
  6
DASHDOT
 62
               4
  5
2A3
 10
409.28652321630773
 20
-1077.3787764161514
 30
0.0
 11
542.28652321630784
 21
-1077.3787764161514
 31
0.0
  0
LINE
  8
0
  6
DASHDOT
 62
               4
  5
2A4
 10
120.87790746063769
 20
-1702.2716163701461
 30
0.0
 11
120.87790746063774
 21
-1548.2716163701461
 31
0.0
  0
LINE
  8
0
  6
DASHDOT
 62
               4
  5
2A5
 10
56.377907460637743
 20
-1637.7716163701461
 30
0.0
 11
185.37790746063774
 21
-1637.7716163701461
 31
0.0
  0
LINE
  8
0
  6
DASHDOT
 62
               4
  5
2A6
 10
43.877907460637687
 20
-1625.2716163701461
 30
0.0
 11
197.87790746063769
 21
-1625.2716163701461
 31
0.0
  0
LINE
  8
0
  6
DASHDOT
 62
               4
  5
2A7
 10
307.98631184284119
 20
-1637.7716163701464
 30
0.0
 11
227.98631184284113
 21
-1637.7716163701461
 31
0.0
  0
LINE
  8
0
  6
DASHDOT
 62
               4
  5
2A8
 10
366.58631184284116
 20
-1625.2716163701464
 30
0.0
 11
267.98631184284119
 21
-1625.2716163701464
 31
0.0
  0
LINE
  8
0
  6
DASHDOT
 62
               4
  5
2A9
 10
-66.230496921565759
 20
-1637.7716163701461
 30
0.0
 11
13.769503078434241
 21
-1637.7716163701461
 31
0.0
  0
LINE
  8
0
  6
DASHDOT
 62
               4
  5
2AA
 10
120.87790746063763
 20
-1379.5632119879426
 30
0.0
 11
120.87790746063763
 21
-1518.1632119879428
 31
0.0
  0
LINE
  8
0
  6
DASHDOT
 62
               4
  5
2AB
 10
-124.83049692156578
 20
-1625.2716163701461
 30
0.0
 11
-26.230496921565759
 21
-1625.2716163701461
 31
0.0
  0
LINE
  8
0
  6
CONTINUOUS
 62
               4
  5
2AC
 10
-510.00000000000063
 20
93.382551620026106
 30
0.0
 11
-510.00000000000063
 21
-38.423922358787564
 31
0.0
  0
LINE
  8
0
  6
CONTINUOUS
 62
               4
  5
2AD
 10
-690.00000000000045
 20
93.382551620026106
 30
0.0
 11
-690.00000000000045
 21
-38.423922358787564
 31
0.0
  0
LINE
  8
0
  6
CONTINUOUS
 62
               4
  5
2AE
 10
-496.93020100659572
 20
-43.708773670775201
 30
0.0
 11
-505.17449748351305
 21
-43.420876493883128
 31
0.0
  0
LINE
  8
0
  6
CONTINUOUS
 62
               4
  5
2AF
 10
-703.06979899340547
 20
-43.70877367077513
 30
0.0
 11
-694.82550251648809
 21
-43.420876493883128
 31
0.0
  0
ARC
  8
0
  6
CONTINUOUS
 62
               4
  5
2B0
 10
-505.00000000000063
 20
-38.423922358787564
 30
0.0
 40
5.0
 50
179.99999999996524
 51
267.99999999994816
  0
ARC
  8
0
  6
CONTINUOUS
 62
               4
  5
2B1
 10
-695.00000000000045
 20
-38.423922358787564
 30
0.0
 40
5.0
 50
271.99999999994702
 51
359.99999999993037
  0
LINE
  8
0
  6
CONTINUOUS
 62
               4
  5
2B2
 10
-508.00000000000057
 20
99.698557238004355
 30
0.0
 11
-508.00000000000057
 21
-38.493763897771146
 31
0.0
  0
ARC
  8
0
  6
CONTINUOUS
 62
               4
  5
2B3
 10
-503.00000000000057
 20
-38.493763897771146
 30
0.0
 40
5.0
 50
179.99999999996524
 51
267.99999999994816
  0
LINE
  8
0
  6
CONTINUOUS
 62
               4
  5
2B4
 10
-692.00000000000057
 20
99.698557238003502
 30
0.0
 11
-692.00000000000057
 21
-38.493763897771146
 31
0.0
  0
ARC
  8
0
  6
CONTINUOUS
 62
               4
  5
2B5
 10
-697.00000000000057
 20
-38.493763897771146
 30
0.0
 40
5.0
 50
271.99999999994702
 51
359.99999999993037
  0
LINE
  8
0
  6
CONTINUOUS
 62
               4
  5
2B6
 10
-72.753934824881327
 20
-302.30610679215653
 30
0.0
 11
64.007050477479567
 21
-417.06219911880913
 31
0.0
  0
CIRCLE
  8
0
  6
CONTINUOUS
 62
               4
  5
2B7
 10
77.781745930520231
 20
553.55361168863396
 30
0.0
 40
13.0
  0
CIRCLE
  8
0
  6
CONTINUOUS
 62
               4
  5
2B8
 10
77.781745930520302
 20
709.11710354967454
 30
0.0
 40
13.0
  0
CIRCLE
  8
0
  6
CONTINUOUS
 62
               4
  5
2B9
 10
-77.781745930520273
 20
709.11710354967408
 30
0.0
 40
13.0
  0
CIRCLE
  8
0
  6
CONTINUOUS
 62
               4
  5
2BA
 10
-77.781745930520131
 20
553.55361168863396
 30
0.0
 40
13.0
  0
LINE
  8
0
  6
CONTINUOUS
 62
               4
  5
2BB
 10
-6.0000000000013145
 20
113.88255162002642
 30
0.0
 11
-6.0000000000011724
 21
-43.708773670775628
 31
0.0
  0
LINE
  8
0
  6
CONTINUOUS
 62
               4
  5
2BC
 10
5.999999999998856
 20
113.88255162002585
 30
0.0
 11
5.9999999999989981
 21
-43.708773670775628
 31
0.0
  0
LINE
  8
0
  6
CONTINUOUS
 62
               4
  5
2BD
 10
-8.0000000000012008
 20
103.26052398873051
 30
0.0
 11
-8.0000000000010587
 21
-43.708773670775628
 31
0.0
  0
LINE
  8
0
  6
CONTINUOUS
 62
               4
  5
2BE
 10
7.9999999999987423
 20
103.26052398873051
 30
0.0
 11
7.9999999999988844
 21
-43.708773670775628
 31
0.0
  0
LINE
  8
0
  6
CONTINUOUS
 62
               4
  5
2BF
 10
-535.21825406948074
 20
-41.408773670775233
 30
0.0
 11
-535.21825406948074
 21
-43.70877367077513
 31
0.0
  0
LINE
  8
0
  6
CONTINUOUS
 62
               4
  5
2C0
 10
-535.21825406948074
 20
-43.70877367077513
 30
0.0
 11
-509.21825406948062
 21
-43.70877367077513
 31
0.0
  0
LINE
  8
0
  6
CONTINUOUS
 62
               4
  5
2C1
 10
-509.21825406948062
 20
-43.70877367077513
 30
0.0
 11
-509.21825406948062
 21
-41.408773670775233
 31
0.0
  0
LINE
  8
0
  6
CONTINUOUS
 62
               4
  5
2C2
 10
-509.21825406948062
 20
-41.408773670775233
 30
0.0
 11
-535.21825406948074
 21
-41.408773670775233
 31
0.0
  0
LINE
  8
0
  6
CONTINUOUS
 62
               4
  5
2C3
 10
-86.468963291263549
 20
-101.41501650675204
 30
0.0
 11
-86.468963291263549
 21
-89.415016506751869
 31
0.0
  0
LINE
  8
0
  6
CONTINUOUS
 62
               4
  5
2C4
 10
-74.651270255117254
 20
-101.41501650675204
 30
0.0
 11
-74.651270255117254
 21
-89.415016506751869
 31
0.0
  0
LINE
  8
0
  6
CONTINUOUS
 62
               4
  5
2C5
 10
-69.09452856977515
 20
-101.41501650675204
 30
0.0
 11
-69.09452856977515
 21
-89.415016506751869
 31
0.0
  0
LINE
  8
0
  6
CONTINUOUS
 62
               4
  5
2C6
 10
-69.09452856977515
 20
-101.41501650675204
 30
0.0
 11
-86.468963291263549
 21
-101.41501650675204
 31
0.0
  0
LINE
  8
0
  6
CONTINUOUS
 62
               4
  5
2C7
 10
-528.21825406948074
 20
-31.40877367077637
 30
0.0
 11
-528.21825406948074
 21
-22.708773670776182
 31
0.0
  0
LINE
  8
0
  6
CONTINUOUS
 62
               4
  5
2C8
 10
-516.21825406948062
 20
-22.708773670776182
 30
0.0
 11
-516.21825406948062
 21
-31.40877367077637
 31
0.0
  0
LINE
  8
0
  6
CONTINUOUS
 62
               4
  5
2C9
 10
-516.21825406948062
 20
-22.708773670776182
 30
0.0
 11
-528.21825406948074
 21
-22.708773670776182
 31
0.0
  0
LINE
  8
0
  6
CONTINUOUS
 62
               4
  5
2CA
 10
69.094528569776955
 20
-101.41501650675204
 30
0.0
 11
69.094528569776955
 21
-89.415016506751869
 31
0.0
  0
LINE
  8
0
  6
CONTINUOUS
 62
               4
  5
2CB
 10
80.91222160592325
 20
-101.41501650675204
 30
0.0
 11
80.91222160592325
 21
-89.415016506751869
 31
0.0
  0
LINE
  8
0
  6
CONTINUOUS
 62
               4
  5
2CC
 10
86.468963291265354
 20
-101.41501650675204
 30
0.0
 11
86.468963291265354
 21
-89.415016506751869
 31
0.0
  0
LINE
  8
0
  6
CONTINUOUS
 62
               4
  5
2CD
 10
86.468963291265354
 20
-101.41501650675204
 30
0.0
 11
69.094528569776955
 21
-101.41501650675204
 31
0.0
  0
LINE
  8
0
  6
CONTINUOUS
 62
               4
  5
2CE
 10
-690.78174593052131
 20
-41.408773670775233
 30
0.0
 11
-690.78174593052131
 21
-43.70877367077513
 31
0.0
  0
LINE
  8
0
  6
CONTINUOUS
 62
               4
  5
2CF
 10
-690.78174593052131
 20
-43.70877367077513
 30
0.0
 11
-664.7817459305212
 21
-43.70877367077513
 31
0.0
  0
LINE
  8
0
  6
CONTINUOUS
 62
               4
  5
2D0
 10
-664.7817459305212
 20
-43.70877367077513
 30
0.0
 11
-664.7817459305212
 21
-41.408773670775233
 31
0.0
  0
LINE
  8
0
  6
CONTINUOUS
 62
               4
  5
2D1
 10
-664.7817459305212
 20
-41.408773670775233
 30
0.0
 11
-690.78174593052131
 21
-41.408773670775233
 31
0.0
  0
LINE
  8
0
  6
CONTINUOUS
 62
               4
  5
2D2
 10
-683.78174593052131
 20
-31.40877367077637
 30
0.0
 11
-683.78174593052131
 21
-22.708773670776182
 31
0.0
  0
LINE
  8
0
  6
CONTINUOUS
 62
               4
  5
2D3
 10
-671.7817459305212
 20
-22.708773670776182
 30
0.0
 11
-671.7817459305212
 21
-31.40877367077637
 31
0.0
  0
LINE
  8
0
  6
CONTINUOUS
 62
               4
  5
2D4
 10
-671.7817459305212
 20
-22.708773670776182
 30
0.0
 11
-683.78174593052131
 21
-22.708773670776182
 31
0.0
  0
LINE
  8
0
  6
CONTINUOUS
 62
               4
  5
2D5
 10
-64.781745930520543
 20
-41.408773670775304
 30
0.0
 11
-64.781745930520543
 21
-43.708773670775201
 31
0.0
  0
LINE
  8
0
  6
CONTINUOUS
 62
               4
  5
2D6
 10
-64.781745930520543
 20
-43.708773670775201
 30
0.0
 11
-90.781745930520628
 21
-43.708773670775201
 31
0.0
  0
LINE
  8
0
  6
CONTINUOUS
 62
               4
  5
2D7
 10
-90.781745930520628
 20
-43.708773670775201
 30
0.0
 11
-90.781745930520628
 21
-41.408773670775304
 31
0.0
  0
LINE
  8
0
  6
CONTINUOUS
 62
               4
  5
2D8
 10
-90.781745930520628
 20
-41.408773670775304
 30
0.0
 11
-64.781745930520543
 21
-41.408773670775304
 31
0.0
  0
LINE
  8
0
  6
CONTINUOUS
 62
               4
  5
2D9
 10
-686.46896329126355
 20
-101.41501650675204
 30
0.0
 11
-686.46896329126355
 21
-89.415016506751869
 31
0.0
  0
LINE
  8
0
  6
CONTINUOUS
 62
               4
  5
2DA
 10
-674.65127025511731
 20
-101.41501650675204
 30
0.0
 11
-674.65127025511731
 21
-89.415016506751869
 31
0.0
  0
LINE
  8
0
  6
CONTINUOUS
 62
               4
  5
2DB
 10
-669.09452856977521
 20
-101.41501650675204
 30
0.0
 11
-669.09452856977521
 21
-89.415016506751869
 31
0.0
  0
LINE
  8
0
  6
CONTINUOUS
 62
               4
  5
2DC
 10
-669.09452856977521
 20
-101.41501650675204
 30
0.0
 11
-686.46896329126355
 21
-101.41501650675204
 31
0.0
  0
LINE
  8
0
  6
CONTINUOUS
 62
               4
  5
2DD
 10
-71.781745930520572
 20
-31.408773670776441
 30
0.0
 11
-71.781745930520572
 21
-22.708773670776253
 31
0.0
  0
LINE
  8
0
  6
CONTINUOUS
 62
               4
  5
2DE
 10
-83.7817459305206
 20
-22.708773670776253
 30
0.0
 11
-83.7817459305206
 21
-31.408773670776441
 31
0.0
  0
LINE
  8
0
  6
CONTINUOUS
 62
               4
  5
2DF
 10
-83.7817459305206
 20
-22.708773670776253
 30
0.0
 11
-71.781745930520572
 21
-22.708773670776253
 31
0.0
  0
LINE
  8
0
  6
CONTINUOUS
 62
               4
  5
2E0
 10
64.781745930519804
 20
-43.70877367077513
 30
0.0
 11
64.781745930519804
 21
-41.408773670775233
 31
0.0
  0
LINE
  8
0
  6
CONTINUOUS
 62
               4
  5
2E1
 10
83.781745930519861
 20
-31.40877367077637
 30
0.0
 11
83.781745930519861
 21
-22.708773670776182
 31
0.0
  0
LINE
  8
0
  6
CONTINUOUS
 62
               4
  5
2E2
 10
71.781745930519975
 20
-22.708773670776182
 30
0.0
 11
71.781745930519975
 21
-31.40877367077637
 31
0.0
  0
LINE
  8
0
  6
CONTINUOUS
 62
               4
  5
2E3
 10
71.781745930519975
 20
-22.708773670776182
 30
0.0
 11
83.781745930519861
 21
-22.708773670776182
 31
0.0
  0
LINE
  8
0
  6
CONTINUOUS
 62
               4
  5
2E4
 10
90.781745930520032
 20
-41.408773670775233
 30
0.0
 11
90.781745930520032
 21
-43.70877367077513
 31
0.0
  0
LINE
  8
0
  6
CONTINUOUS
 62
               4
  5
2E5
 10
90.781745930520032
 20
-43.70877367077513
 30
0.0
 11
64.781745930519804
 21
-43.70877367077513
 31
0.0
  0
LINE
  8
0
  6
CONTINUOUS
 62
               4
  5
2E6
 10
64.781745930519804
 20
-41.408773670775233
 30
0.0
 11
90.781745930520032
 21
-41.408773670775233
 31
0.0
  0
ARC
  8
0
  6
CONTINUOUS
 62
               4
  5
2E7
 10
-1169.8433590460345
 20
-626.21317647804244
 30
0.0
 40
687.72820158627314
 50
18.108480790465826
 51
28.098008730082476
  0
ARC
  8
0
  6
CONTINUOUS
 62
               4
  5
2E8
 10
-581.48963228257765
 20
-369.59940193325502
 30
0.0
 40
69.74273142123306
 50
332.35940834662927
 51
434.76997683374913
  0
LINE
  8
0
  6
CONTINUOUS
 62
               4
  5
2E9
 10
496.93020100659544
 20
-43.708773670775486
 30
0.0
 11
505.17449748351277
 21
-43.420876493883412
 31
0.0
  0
LINE
  8
0
  6
CONTINUOUS
 62
               4
  5
2EA
 10
703.06979899340547
 20
-43.708773670775486
 30
0.0
 11
694.82550251648797
 21
-43.420876493883554
 31
0.0
  0
ARC
  8
0
  6
CONTINUOUS
 62
               4
  5
2EB
 10
505.00000000000034
 20
-38.423922358787848
 30
0.0
 40
5.0
 50
271.99999999994765
 51
359.99999999993031
  0
ARC
  8
0
  6
CONTINUOUS
 62
               4
  5
2EC
 10
695.00000000000034
 20
-38.423922358787991
 30
0.0
 40
5.0
 50
179.99999999996518
 51
267.99999999994884
  0
ARC
  8
0
  6
CONTINUOUS
 62
               4
  5
2ED
 10
503.00000000000034
 20
-38.49376389777143
 30
0.0
 40
5.0
 50
271.99999999994765
 51
359.99999999993031
  0
ARC
  8
0
  6
CONTINUOUS
 62
               4
  5
2EE
 10
697.00000000000034
 20
-38.493763897771572
 30
0.0
 40
5.0
 50
179.99999999996518
 51
267.99999999994753
  0
LINE
  8
0
  6
CONTINUOUS
 62
               4
  5
2EF
 10
535.21825406948051
 20
-41.408773670775588
 30
0.0
 11
535.21825406948051
 21
-43.708773670775486
 31
0.0
  0
LINE
  8
0
  6
CONTINUOUS
 62
               4
  5
2F0
 10
535.21825406948051
 20
-43.708773670775486
 30
0.0
 11
509.21825406948039
 21
-43.708773670775486
 31
0.0
  0
LINE
  8
0
  6
CONTINUOUS
 62
               4
  5
2F1
 10
509.21825406948039
 20
-43.708773670775486
 30
0.0
 11
509.21825406948039
 21
-41.408773670775588
 31
0.0
  0
LINE
  8
0
  6
CONTINUOUS
 62
               4
  5
2F2
 10
509.21825406948039
 20
-41.408773670775588
 30
0.0
 11
535.21825406948051
 21
-41.408773670775588
 31
0.0
  0
LINE
  8
0
  6
CONTINUOUS
 62
               4
  5
2F3
 10
528.21825406948039
 20
-31.408773670776725
 30
0.0
 11
528.21825406948039
 21
-22.708773670776537
 31
0.0
  0
LINE
  8
0
  6
CONTINUOUS
 62
               4
  5
2F4
 10
516.21825406948039
 20
-22.708773670776537
 30
0.0
 11
516.21825406948039
 21
-31.408773670776725
 31
0.0
  0
LINE
  8
0
  6
CONTINUOUS
 62
               4
  5
2F5
 10
516.21825406948039
 20
-22.708773670776537
 30
0.0
 11
528.21825406948039
 21
-22.708773670776537
 31
0.0
  0
LINE
  8
0
  6
CONTINUOUS
 62
               4
  5
2F6
 10
690.7817459305212
 20
-41.408773670775588
 30
0.0
 11
690.7817459305212
 21
-43.708773670775486
 31
0.0
  0
LINE
  8
0
  6
CONTINUOUS
 62
               4
  5
2F7
 10
690.7817459305212
 20
-43.708773670775486
 30
0.0
 11
664.78174593052108
 21
-43.708773670775486
 31
0.0
  0
LINE
  8
0
  6
CONTINUOUS
 62
               4
  5
2F8
 10
664.78174593052108
 20
-43.708773670775486
 30
0.0
 11
664.78174593052108
 21
-41.408773670775588
 31
0.0
  0
LINE
  8
0
  6
CONTINUOUS
 62
               4
  5
2F9
 10
664.78174593052108
 20
-41.408773670775588
 30
0.0
 11
690.7817459305212
 21
-41.408773670775588
 31
0.0
  0
LINE
  8
0
  6
CONTINUOUS
 62
               4
  5
2FA
 10
683.7817459305212
 20
-31.408773670776725
 30
0.0
 11
683.7817459305212
 21
-22.708773670776537
 31
0.0
  0
LINE
  8
0
  6
CONTINUOUS
 62
               4
  5
2FB
 10
671.7817459305212
 20
-22.708773670776537
 30
0.0
 11
671.7817459305212
 21
-31.408773670776725
 31
0.0
  0
LINE
  8
0
  6
CONTINUOUS
 62
               4
  5
2FC
 10
671.7817459305212
 20
-22.708773670776537
 30
0.0
 11
683.7817459305212
 21
-22.708773670776537
 31
0.0
  0
ARC
  8
0
  6
CONTINUOUS
 62
               4
  5
2FD
 10
577.51175440469285
 20
-401.82199677175726
 30
0.0
 40
62.379470432471358
 50
153.87479529774379
 51
191.49340995895585
  0
ARC
  8
0
  6
CONTINUOUS
 62
               4
  5
2FE
 10
542.63468447666207
 20
-417.3697542155258
 30
0.0
 40
10.0
 50
324.29736943372262
 51
398.20421175358553
  0
LINE
  8
0
  6
CONTINUOUS
 62
               4
  5
2FF
 10
550.49279880155063
 20
-411.18509260336117
 30
0.0
 11
510.20094803717859
 21
-359.99102742685648
 31
0.0
  0
ARC
  8
0
  6
CONTINUOUS
 62
               4
  5
300
 10
535.29686529161665
 20
-412.09648537116703
 30
0.0
 40
19.036091782253322
 50
186.49999999996379
 51
324.29736943372262
  0
ARC
  8
0
  6
CONTINUOUS
 62
               4
  5
301
 10
473.68129117649653
 20
-452.41383163610197
 30
0.0
 40
204.24864340422488
 50
353.49999999993162
 51
373.4368021674054
  0
ARC
  8
0
  6
CONTINUOUS
 62
               4
  5
302
 10
511.37230094455754
 20
-450.12941456669427
 30
0.0
 40
167.18634723772169
 50
351.25933879886691
 51
375.67746336847057
  0
ARC
  8
0
  6
CONTINUOUS
 62
               4
  5
303
 10
-426.64065013564903
 20
-148.05469958471923
 30
0.0
 40
92.090694433536868
 50
155.07010251999947
 51
205.15144555827746
  0
LINE
  8
0
  6
CONTINUOUS
 62
               4
  5
304
 10
-11.727000000001425
 20
118.88255162002599
 30
0.0
 11
11.726999999998981
 21
118.88255162002599
 31
0.0
  0
LINE
  8
0
  6
CONTINUOUS
 62
               4
  5
305
 10
11.726999999998981
 20
113.88255162002599
 30
0.0
 11
11.726999999998981
 21
118.88255162002599
 31
0.0
  0
LINE
  8
0
  6
CONTINUOUS
 62
               4
  5
306
 10
-11.727000000001425
 20
113.88255162002599
 30
0.0
 11
-11.727000000001425
 21
118.88255162002599
 31
0.0
  0
LINE
  8
0
  6
CONTINUOUS
 62
               4
  5
307
 10
11.726999999998981
 20
118.88255162002599
 30
0.0
 11
5.9999999999990052
 21
113.88255162002599
 31
0.0
  0
LINE
  8
0
  6
CONTINUOUS
 62
               4
  5
308
 10
-6.0000000000008811
 20
113.88255162002599
 30
0.0
 11
-11.727000000001425
 21
118.88255162002599
 31
0.0
  0
LINE
  8
0
  6
CONTINUOUS
 62
               4
  5
309
 10
5.9999999999990052
 20
113.88255162002599
 30
0.0
 11
-6.0000000000008811
 21
113.88255162002599
 31
0.0
  0
ARC
  8
0
  6
CONTINUOUS
 62
               4
  5
30A
 10
24.999999999998778
 20
103.26052398873048
 30
0.0
 40
17.0
 50
141.33064456987887
 51
179.99999999996521
  0
ARC
  8
0
  6
CONTINUOUS
 62
               4
  5
30B
 10
-25.000000000000227
 20
103.26052398873048
 30
0.0
 40
17.0
 50
0.0
 51
38.669355430086384
  0
LINE
  8
0
  6
CONTINUOUS
 62
               4
  5
30C
 10
689.99999999999989
 20
93.382551620025794
 30
0.0
 11
689.99999999999989
 21
-38.423922358787884
 31
0.0
  0
LINE
  8
0
  6
CONTINUOUS
 62
               4
  5
30D
 10
510.0
 20
93.382551620025794
 30
0.0
 11
510.0
 21
-38.423922358787884
 31
0.0
  0
LINE
  8
0
  6
CONTINUOUS
 62
               4
  5
30E
 10
691.99999999999989
 20
99.698557238004042
 30
0.0
 11
691.99999999999989
 21
-38.493763897771466
 31
0.0
  0
LINE
  8
0
  6
CONTINUOUS
 62
               4
  5
30F
 10
507.99999999999989
 20
99.69855723800319
 30
0.0
 11
507.99999999999989
 21
-38.493763897771466
 31
0.0
  0
LINE
  8
0
  6
CONTINUOUS
 62
               4
  5
310
 10
-530.9054714302232
 20
-101.41501650675204
 30
0.0
 11
-530.9054714302232
 21
-89.415016506751869
 31
0.0
  0
LINE
  8
0
  6
CONTINUOUS
 62
               4
  5
311
 10
-519.08777839407696
 20
-101.41501650675204
 30
0.0
 11
-519.08777839407696
 21
-89.415016506751869
 31
0.0
  0
LINE
  8
0
  6
CONTINUOUS
 62
               4
  5
312
 10
-513.53103670873486
 20
-101.41501650675204
 30
0.0
 11
-513.53103670873486
 21
-89.415016506751869
 31
0.0
  0
LINE
  8
0
  6
CONTINUOUS
 62
               4
  5
313
 10
-513.53103670873486
 20
-101.41501650675204
 30
0.0
 11
-530.9054714302232
 21
-101.41501650675204
 31
0.0
  0
ARC
  8
0
  6
CONTINUOUS
 62
               4
  5
314
 10
773.35934986435154
 20
-148.05469958471971
 30
0.0
 40
92.090694433536868
 50
155.07010251999944
 51
205.15144555827743
  0
LINE
  8
0
  6
CONTINUOUS
 62
               4
  5
315
 10
513.53103670873691
 20
-101.41501650675247
 30
0.0
 11
513.53103670873691
 21
-89.415016506752295
 31
0.0
  0
LINE
  8
0
  6
CONTINUOUS
 62
               4
  5
316
 10
525.34872974488314
 20
-101.41501650675247
 30
0.0
 11
525.34872974488314
 21
-89.415016506752295
 31
0.0
  0
LINE
  8
0
  6
CONTINUOUS
 62
               4
  5
317
 10
530.90547143022525
 20
-101.41501650675247
 30
0.0
 11
530.90547143022525
 21
-89.415016506752295
 31
0.0
  0
LINE
  8
0
  6
CONTINUOUS
 62
               4
  5
318
 10
530.90547143022525
 20
-101.41501650675247
 30
0.0
 11
513.53103670873691
 21
-101.41501650675247
 31
0.0
  0
LINE
  8
0
  6
CONTINUOUS
 62
               4
  5
319
 10
669.09452856977714
 20
-101.41501650675232
 30
0.0
 11
669.09452856977714
 21
-89.415016506752153
 31
0.0
  0
LINE
  8
0
  6
CONTINUOUS
 62
               4
  5
31A
 10
680.91222160592349
 20
-101.41501650675232
 30
0.0
 11
680.91222160592349
 21
-89.415016506752153
 31
0.0
  0
LINE
  8
0
  6
CONTINUOUS
 62
               4
  5
31B
 10
686.4689632912656
 20
-101.41501650675232
 30
0.0
 11
686.4689632912656
 21
-89.415016506752153
 31
0.0
  0
LINE
  8
0
  6
CONTINUOUS
 62
               4
  5
31C
 10
686.4689632912656
 20
-101.41501650675232
 30
0.0
 11
669.09452856977714
 21
-101.41501650675232
 31
0.0
  0
ARC
  8
0
  6
CONTINUOUS
 62
               4
  5
31D
 10
426.64065013564868
 20
-148.05469958471963
 30
0.0
 40
92.090694433536868
 50
334.84855444161809
 51
384.92989747989617
  0
ARC
  8
0
  6
CONTINUOUS
 62
               4
  5
31E
 10
-773.35934986435166
 20
-148.05469958471917
 30
0.0
 40
92.090694433536868
 50
334.84855444161809
 51
384.92989747989617
  0
LINE
  8
0
  6
CONTINUOUS
 62
               4
  5
31F
 10
56.999999999999694
 20
-613.41501650675218
 30
0.0
 11
-57.000000000000284
 21
-613.41501650675218
 31
0.0
  0
LINE
  8
0
  6
CONTINUOUS
 62
               4
  5
320
 10
58.053042823173072
 20
-612.36197368357875
 30
0.0
 11
-58.053042823173627
 21
-612.36197368357875
 31
0.0
  0
LINE
  8
0
  6
CONTINUOUS
 62
               4
  5
321
 10
-543.00000000000045
 20
-613.41501650675218
 30
0.0
 11
-657.00000000000034
 21
-613.41501650675218
 31
0.0
  0
LINE
  8
0
  6
CONTINUOUS
 62
               4
  5
322
 10
-541.94695717682703
 20
-612.36197368357875
 30
0.0
 11
-658.05304282317377
 21
-612.36197368357875
 31
0.0
  0
LINE
  8
0
  6
CONTINUOUS
 62
               4
  5
323
 10
656.99999999999989
 20
-613.41501650675241
 30
0.0
 11
542.99999999999989
 21
-613.41501650675241
 31
0.0
  0
LINE
  8
0
  6
CONTINUOUS
 62
               4
  5
324
 10
658.05304282317331
 20
-612.36197368357898
 30
0.0
 11
541.94695717682657
 21
-612.36197368357898
 31
0.0
  0
POINT
  8
0
  6
CONTINUOUS
 62
               4
  5
325
 10
-247.03776905046902
 20
-1090.5632119879426
 30
0.0
  0
POINT
  8
0
  6
CONTINUOUS
 62
               4
  5
326
 10
-537.23776905046884
 20
-1090.5632119879426
 30
0.0
  0
POINT
  8
0
  6
CONTINUOUS
 62
               4
  5
327
 10
-349.58372644623557
 20
-982.49532791890772
 30
0.0
  0
POINT
  8
0
  6
CONTINUOUS
 62
               4
  5
328
 10
242.83392368588068
 20
-1090.5632119879426
 30
0.0
  0
POINT
  8
0
  6
CONTINUOUS
 62
               4
  5
329
 10
-1.0781087646051901
 20
-1090.5632119879426
 30
0.0
  0
POINT
  8
0
  6
CONTINUOUS
 62
               4
  5
32A
 10
165.37790746063786
 20
-1002.6071957626999
 30
0.0
  0
LINE
  8
0
  6
CONTINUOUS
 62
               4
  5
32B
 10
686.28652321630739
 20
-1482.3425564118832
 30
0.0
 11
681.28652321630739
 21
-1477.3425564118832
 31
0.0
  0
ARC
  8
0
  6
CONTINUOUS
 62
               4
  5
32C
 10
663.78652321630739
 20
-1492.8782101647359
 30
0.0
 40
19.999999999999996
 50
0.0
 51
31.78833061703342
  0
LINE
  8
0
  6
CONTINUOUS
 62
               4
  5
32D
 10
680.78652321630784
 20
-1482.3425564118832
 30
0.0
 11
680.78652321630784
 21
-1477.3425564118827
 31
0.0
  0
LINE
  8
0
  6
CONTINUOUS
 62
               4
  5
32E
 10
681.28652321630739
 20
-1477.3425564118832
 30
0.0
 11
680.78652321630784
 21
-1477.3425564118832
 31
0.0
  0
LINE
  8
0
  6
CONTINUOUS
 62
               4
  5
32F
 10
686.03652321630761
 20
-1482.5925564118832
 30
0.0
 11
680.78652321630784
 21
-1477.3425564118832
 31
0.0
  0
LINE
  8
0
  6
CONTINUOUS
 62
               4
  5
330
 10
686.03652321630761
 20
-1482.5925564118832
 30
0.0
 11
686.28652321630739
 21
-1482.3425564118832
 31
0.0
  0
LINE
  8
0
  6
CONTINUOUS
 62
               4
  5
331
 10
686.28652321630739
 20
-1482.3425564118832
 30
0.0
 11
686.28652321630739
 21
-1613.0312337618532
 31
0.0
  0
LINE
  8
0
  6
CONTINUOUS
 62
               4
  5
332
 10
686.03652321630761
 20
-1482.5925564118832
 30
0.0
 11
686.03652321630761
 21
-1612.7458766547177
 31
0.0
  0
LINE
  8
0
  6
CONTINUOUS
 62
               4
  5
333
 10
683.78652321630739
 20
-1492.7251865676187
 30
0.0
 11
683.78652321630739
 21
-1611.8782101647359
 31
0.0
  0
POINT
  8
0
  6
CONTINUOUS
 62
               4
  5
334
 10
653.78652321630761
 20
-1221.7787764161519
 30
0.0
  0
POINT
  8
0
  6
CONTINUOUS
 62
               4
  5
335
 10
464.88652321630752
 20
-1507.3782101647359
 30
0.0
  0
POINT
  8
0
  6
CONTINUOUS
 62
               4
  5
336
 10
464.88652321630764
 20
-1121.8787764161514
 30
0.0
  0
LINE
  8
0
  6
DASHED2
 62
               4
  5
337
 10
-57.000000000000327
 20
136.58498349324805
 30
0.0
 11
56.999999999999666
 21
136.58498349324805
 31
0.0
  0
LINE
  8
0
  6
DASHED2
 62
               4
  5
338
 10
-657.00000000000045
 20
136.58498349324805
 30
0.0
 11
-543.00000000000045
 21
136.58498349324805
 31
0.0
  0
LINE
  8
0
  6
DASHED2
 62
               4
  5
339
 10
543.0
 20
136.58498349324773
 30
0.0
 11
657.0
 21
136.58498349324773
 31
0.0
  0
LINE
  8
0
  6
DASHED2
 62
               4
  5
33A
 10
552.28652321630761
 20
-1450.8782101647359
 30
0.0
 11
666.28652321630739
 21
-1450.8782101647359
 31
0.0
  0
CIRCLE
  8
0
  6
DASHED
 62
               4
  5
33B
 10
120.87790746063769
 20
-1625.2716163701461
 30
0.0
 40
53.124999999999986
  0
LINE
  8
0
  6
CONTINUOUS
 62
               3
  5
33C
 10
-151.98374363275894
 20
-87.915016506751812
 30
0.0
 11
-107.89530150989306
 21
-86.375414182128992
 31
0.0
  0
LINE
  8
0
  6
CONTINUOUS
 62
               3
  5
33D
 10
-152.00000000000009
 20
-227.91501650675184
 30
0.0
 11
-104.29499600175389
 21
-229.58091195497764
 31
0.0
  0
LINE
  8
0
  6
CONTINUOUS
 62
               3
  5
33E
 10
-100.93395957933359
 20
-231.04233218414035
 30
0.0
 11
-91.464466094067149
 21
-240.51182566940702
 31
0.0
  0
ARC
  8
0
  6
CONTINUOUS
 62
               3
  5
33F
 10
-104.46949348526636
 20
-234.57786609007312
 30
0.0
 40
5.0
 50
44.999999999991267
 51
87.99999999998262
  0
ARC
  8
0
  6
CONTINUOUS
 62
               3
  5
340
 10
-95.000000000000057
 20
-244.04735957533967
 30
0.0
 40
5.0
 50
0.0
 51
44.999999999990806
  0
LINE
  8
0
  6
CONTINUOUS
 62
               3
  5
341
 10
96.999999999999687
 20
-69.91501650675184
 30
0.0
 11
66.999999999999687
 21
-69.91501650675184
 31
0.0
  0
LINE
  8
0
  6
CONTINUOUS
 62
               3
  5
342
 10
-495.00000000000017
 20
-71.415016506751869
 30
0.0
 11
-495.00000000000017
 21
-86.415016506751925
 31
0.0
  0
LINE
  8
0
  6
CONTINUOUS
 62
               3
  5
343
 10
-151.98374363275894
 20
-87.915016506751812
 30
0.0
 11
-151.98374363275894
 21
-227.91558419160506
 31
0.0
  0
LINE
  8
0
  6
CONTINUOUS
 62
               3
  5
344
 10
96.999999999999687
 20
-69.91501650675184
 30
0.0
 11
97.499999999999659
 21
-71.415016506751897
 31
0.0
  0
LINE
  8
0
  6
CONTINUOUS
 62
               3
  5
345
 10
66.999999999999687
 20
-69.91501650675184
 30
0.0
 11
65.499999999999773
 21
-71.415016506751897
 31
0.0
  0
LINE
  8
0
  6
CONTINUOUS
 62
               3
  5
346
 10
97.499999999999659
 20
-71.415016506751897
 30
0.0
 11
104.99999999999994
 21
-71.415016506751897
 31
0.0
  0
LINE
  8
0
  6
CONTINUOUS
 62
               3
  5
347
 10
-97.000000000000298
 20
-69.91501650675184
 30
0.0
 11
-67.000000000000298
 21
-69.91501650675184
 31
0.0
  0
LINE
  8
0
  6
CONTINUOUS
 62
               3
  5
348
 10
-105.00000000000048
 20
-71.415016506751897
 30
0.0
 11
-105.00000000000041
 21
-86.415016506751897
 31
0.0
  0
ARC
  8
0
  6
CONTINUOUS
 62
               3
  5
349
 10
-102.00000000000037
 20
-86.415016506751897
 30
0.0
 40
3.0000000000000004
 50
179.99999999996524
 51
269.99999999994782
  0
LINE
  8
0
  6
CONTINUOUS
 62
               3
  5
34A
 10
-97.000000000000298
 20
-69.91501650675184
 30
0.0
 11
-97.50000000000027
 21
-71.415016506751897
 31
0.0
  0
LINE
  8
0
  6
CONTINUOUS
 62
               3
  5
34B
 10
-67.000000000000298
 20
-69.91501650675184
 30
0.0
 11
-65.500000000000313
 21
-71.415016506751897
 31
0.0
  0
LINE
  8
0
  6
CONTINUOUS
 62
               3
  5
34C
 10
-97.50000000000027
 20
-71.415016506751897
 30
0.0
 11
-105.00000000000048
 21
-71.415016506751897
 31
0.0
  0
ARC
  8
0
  6
CONTINUOUS
 62
               3
  5
34D
 10
-108.00000000000053
 20
-83.377241701071597
 30
0.0
 40
3.0000000000000004
 50
271.99999999994657
 51
359.99999999993042
  0
LINE
  8
0
  6
CONTINUOUS
 62
               3
  5
34E
 10
-90.000000000000057
 20
-244.04735957533967
 30
0.0
 11
-90.000000000000057
 21
-358.22732913995583
 31
0.0
  0
ARC
  8
0
  6
CONTINUOUS
 62
               3
  5
34F
 10
-82.000000000000298
 20
-232.91501650675184
 30
0.0
 40
2.5
 50
89.999999999982535
 51
269.99999999994793
  0
LINE
  8
0
  6
CONTINUOUS
 62
               3
  5
350
 10
-65.500000000000313
 20
-71.415016506751897
 30
0.0
 11
65.499999999999773
 21
-71.415016506751897
 31
0.0
  0
LINE
  8
0
  6
CONTINUOUS
 62
               3
  5
351
 10
87.721287833966755
 20
-378.22732913995583
 30
0.0
 11
73.278712166032648
 21
-504.9881889204832
 31
0.0
  0
LINE
  8
0
  6
CONTINUOUS
 62
               3
  5
352
 10
-155.0000000000002
 20
-90.243460380787695
 30
0.0
 11
-154.31218750679483
 21
-90.243460380787695
 31
0.0
  0
LINE
  8
0
  6
CONTINUOUS
 62
               3
  5
353
 10
-151.98374363275894
 20
-87.915016506751812
 30
0.0
 11
-154.31218750679483
 21
-90.243460380787695
 31
0.0
  0
LINE
  8
0
  6
CONTINUOUS
 62
               3
  5
354
 10
-155.0000000000002
 20
-87.915016506751954
 30
0.0
 11
-157.5000000000002
 21
-87.915016506751954
 31
0.0
  0
ARC
  8
0
  6
CONTINUOUS
 62
               3
  5
355
 10
-157.5000000000002
 20
-90.415016506751954
 30
0.0
 40
2.5
 50
89.999999999982862
 51
179.99999999996524
  0
LINE
  8
0
  6
CONTINUOUS
 62
               3
  5
356
 10
-155.0000000000002
 20
-225.58657263271596
 30
0.0
 11
-154.31218750679483
 21
-225.58657263271596
 31
0.0
  0
LINE
  8
0
  6
CONTINUOUS
 62
               3
  5
357
 10
-151.98374363275894
 20
-227.91501650675184
 30
0.0
 11
-154.31218750679483
 21
-225.58657263271596
 31
0.0
  0
LINE
  8
0
  6
CONTINUOUS
 62
               3
  5
358
 10
-155.0000000000002
 20
-227.9150165067517
 30
0.0
 11
-157.5000000000002
 21
-227.9150165067517
 31
0.0
  0
ARC
  8
0
  6
CONTINUOUS
 62
               3
  5
359
 10
-157.5000000000002
 20
-225.4150165067517
 30
0.0
 40
2.5
 50
179.99999999996507
 51
269.99999999994793
  0
LINE
  8
0
  6
CONTINUOUS
 62
               3
  5
35A
 10
-160.0000000000002
 20
-90.415016506751954
 30
0.0
 11
-160.0000000000002
 21
-225.4150165067517
 31
0.0
  0
LINE
  8
0
  6
CONTINUOUS
 62
               3
  5
35B
 10
-155.0000000000002
 20
-227.9150165067517
 30
0.0
 11
-155.0000000000002
 21
-87.915016506751954
 31
0.0
  0
LINE
  8
0
  6
CONTINUOUS
 62
               3
  5
35C
 10
-154.31218750679483
 20
-90.243460380787695
 30
0.0
 11
-154.31218750679483
 21
-225.58657263271596
 31
0.0
  0
LINE
  8
0
  6
CONTINUOUS
 62
               3
  5
35D
 10
-510.00000000000057
 20
-235.41501650675181
 30
0.0
 11
-510.00000000000034
 21
-358.22732913995452
 31
0.0
  0
LINE
  8
0
  6
CONTINUOUS
 62
               3
  5
35E
 10
90.482497638530873
 20
-376.07668039660655
 30
0.0
 11
92.200921604771452
 21
-360.99426681356709
 31
0.0
  0
ARC
  8
0
  6
CONTINUOUS
 62
               3
  5
35F
 10
89.716991965580007
 20
-360.71125877914727
 30
0.0
 40
2.5
 50
353.49999999993105
 51
443.49999999991411
  0
ARC
  8
0
  6
CONTINUOUS
 62
               3
  5
360
 10
88.004295868386691
 20
-375.74339950076427
 30
0.0
 40
2.5
 50
263.49999999994765
 51
353.49999999993105
  0
LINE
  8
0
  6
CONTINUOUS
 62
               3
  5
361
 10
-90.482497638531484
 20
-376.07668039660655
 30
0.0
 11
-92.200921604772063
 21
-360.99426681356709
 31
0.0
  0
ARC
  8
0
  6
CONTINUOUS
 62
               3
  5
362
 10
-89.716991965580547
 20
-360.71125877914727
 30
0.0
 40
2.5
 50
96.499999999981398
 51
186.49999999996413
  0
ARC
  8
0
  6
CONTINUOUS
 62
               3
  5
363
 10
-88.004295868387231
 20
-375.74339950076427
 30
0.0
 40
2.5
 50
186.49999999996413
 51
276.49999999994787
  0
LINE
  8
0
  6
CONTINUOUS
 62
               3
  5
364
 10
-87.721287833967295
 20
-378.22732913995583
 30
0.0
 11
-73.278712166033259
 21
-504.9881889204832
 31
0.0
  0
LINE
  8
0
  6
CONTINUOUS
 62
               3
  5
365
 10
-105.00000000000027
 20
-45.70755532481337
 30
0.0
 11
-105.00000000000027
 21
-61.416234852713686
 31
0.0
  0
LINE
  8
0
  6
CONTINUOUS
 62
               3
  5
366
 10
104.99999999999966
 20
-45.70755532481337
 30
0.0
 11
104.99999999999966
 21
-61.416234852713686
 31
0.0
  0
ARC
  8
0
  6
CONTINUOUS
 62
               3
  5
367
 10
-103.00000000000031
 20
-61.416234852713686
 30
0.0
 40
2.0
 50
179.99999999996518
 51
267.9999999999485
  0
ARC
  8
0
  6
CONTINUOUS
 62
               3
  5
368
 10
-497.00000000000051
 20
-45.70755532481337
 30
0.0
 40
2.0
 50
0.0
 51
87.999999999984752
  0
ARC
  8
0
  6
CONTINUOUS
 62
               3
  5
369
 10
-703.00000000000057
 20
-45.70755532481337
 30
0.0
 40
2.0
 50
91.999999999980631
 51
179.99999999996518
  0
ARC
  8
0
  6
CONTINUOUS
 62
               3
  5
36A
 10
102.99999999999977
 20
-61.416234852713686
 30
0.0
 40
2.0
 50
271.99999999994725
 51
359.99999999993042
  0
LINE
  8
0
  6
CONTINUOUS
 62
               3
  5
36B
 10
-103.06979899340503
 20
-63.415016506751925
 30
0.0
 11
103.06979899340456
 21
-63.415016506751925
 31
0.0
  0
LINE
  8
0
  6
CONTINUOUS
 62
               3
  5
36C
 10
-496.93020100659555
 20
-43.708773670775201
 30
0.0
 11
-703.06979899340547
 21
-43.70877367077513
 31
0.0
  0
LINE
  8
0
  6
CONTINUOUS
 62
               3
  5
36D
 10
-100.50000000000031
 20
-63.415016506751925
 30
0.0
 11
-100.50000000000031
 21
-71.415016506751897
 31
0.0
  0
LINE
  8
0
  6
CONTINUOUS
 62
               3
  5
36E
 10
100.49999999999977
 20
-71.415016506751897
 30
0.0
 11
100.49999999999977
 21
-63.415016506751925
 31
0.0
  0
LINE
  8
0
  6
CONTINUOUS
 62
               3
  5
36F
 10
-87.721287833967153
 20
-378.22732913995583
 30
0.0
 11
-33.734459031608694
 21
-378.22732913995588
 31
0.0
  0
LINE
  8
0
  6
CONTINUOUS
 62
               3
  5
370
 10
22.492816867467781
 20
-378.22732913995583
 30
0.0
 11
87.721287833966755
 21
-378.22732913995583
 31
0.0
  0
LINE
  8
0
  6
CONTINUOUS
 62
               3
  5
371
 10
-90.000000000000057
 20
-358.22732913995583
 30
0.0
 11
-47.737285867135583
 21
-358.22732913995588
 31
0.0
  0
LINE
  8
0
  6
CONTINUOUS
 62
               3
  5
372
 10
-1.1029583587464344
 20
-358.22732913995583
 30
0.0
 11
89.999999999999659
 21
-358.22732913995583
 31
0.0
  0
ARC
  8
0
  6
CONTINUOUS
 62
               3
  5
373
 10
-77.781745930520131
 20
709.11710354967408
 30
0.0
 40
17.5
 50
97.698209707834295
 51
172.30179029211342
  0
ARC
  8
0
  6
CONTINUOUS
 62
               3
  5
374
 10
77.781745930520231
 20
709.11710354967408
 30
0.0
 40
17.5
 50
7.6982097078516123
 51
82.30179029213096
  0
LINE
  8
0
  6
CONTINUOUS
 62
               3
  5
375
 10
104.05367551208785
 20
645.40065578254644
 30
0.0
 11
95.124025182534822
 21
711.46131991023958
 31
0.0
  0
ARC
  8
0
  6
CONTINUOUS
 62
               3
  5
376
 10
-77.781745930520131
 20
553.55361168863396
 30
0.0
 40
17.5
 50
187.69820970781666
 51
262.3017902920962
  0
LINE
  8
0
  6
CONTINUOUS
 62
               3
  5
377
 10
-80.125962291085514
 20
536.21133243661939
 30
0.0
 11
-14.065298163392285
 21
527.28168210706644
 31
0.0
  0
ARC
  8
0
  6
CONTINUOUS
 62
               3
  5
378
 10
77.781745930520231
 20
553.55361168863396
 30
0.0
 40
17.5
 50
277.69820970779944
 51
352.30179029207886
  0
LINE
  8
0
  6
CONTINUOUS
 62
               3
  5
379
 10
80.125962291085472
 20
536.21133243661939
 30
0.0
 11
14.065298163392242
 21
527.28168210706644
 31
0.0
  0
LINE
  8
0
  6
CONTINUOUS
 62
               3
  5
37A
 10
104.05367551208785
 20
617.27005945576161
 30
0.0
 11
95.124025182534822
 21
551.20939532806847
 31
0.0
  0
ARC
  8
0
  6
CONTINUOUS
 62
               3
  5
37B
 10
0.0000000000000142
 20
631.33535761915414
 30
0.0
 40
105.0
 50
262.30179029209626
 51
277.69820970779938
  0
ARC
  8
0
  6
CONTINUOUS
 62
               3
  5
37C
 10
0.0000000000000142
 20
631.33535761915414
 30
0.0
 40
105.0
 50
352.30179029207875
 51
367.69820970778204
  0
LINE
  8
0
  6
CONTINUOUS
 62
               3
  5
37D
 10
55.610007245089022
 20
550.97661724926797
 30
0.0
 11
65.407380961227815
 21
541.17924353312924
 31
0.0
  0
ARC
  8
0
  6
CONTINUOUS
 62
               3
  5
37E
 10
77.781745930520231
 20
553.55361168863396
 30
0.0
 40
17.499997018320407
 50
225.0000073763552
 51
277.81644584203264
  0
LINE
  8
0
  6
CONTINUOUS
 62
               3
  5
37F
 10
-55.610007245088994
 20
550.97661724926797
 30
0.0
 11
-65.407380961227787
 21
541.17924353312924
 31
0.0
  0
ARC
  8
0
  6
CONTINUOUS
 62
               3
  5
380
 10
-77.781745930520273
 20
553.55361168863396
 30
0.0
 40
17.499997018320407
 50
262.18355415786294
 51
314.99999262354038
  0
ARC
  8
0
  6
CONTINUOUS
 62
               3
  5
381
 10
-77.781745930520273
 20
709.11710354967408
 30
0.0
 40
17.499997018320407
 50
45.000007376390187
 51
97.816445842067509
  0
ARC
  8
0
  6
CONTINUOUS
 62
               3
  5
382
 10
77.781745930520231
 20
709.11710354967408
 30
0.0
 40
17.499997018320407
 50
82.183554157897746
 51
134.99999262357511
  0
LINE
  8
0
  6
CONTINUOUS
 62
               3
  5
383
 10
55.610007245089307
 20
711.69409798904007
 30
0.0
 11
59.853579118431469
 21
715.93766986238279
 31
0.0
  0
LINE
  8
0
  6
CONTINUOUS
 62
               3
  5
384
 10
65.407380961227815
 20
721.49147170517904
 30
0.0
 11
59.853579118431469
 21
715.93766986238279
 31
0.0
  0
LINE
  8
0
  6
CONTINUOUS
 62
               3
  5
385
 10
-55.610007245091268
 20
711.69409798904098
 30
0.0
 11
-59.853579118430517
 21
715.93766986238347
 31
0.0
  0
LINE
  8
0
  6
CONTINUOUS
 62
               3
  5
386
 10
-65.407380961227787
 20
721.49147170517904
 30
0.0
 11
-59.853579118430517
 21
715.93766986238347
 31
0.0
  0
LINE
  8
0
  6
CONTINUOUS
 62
               3
  5
387
 10
-96.229529997969067
 20
703.28290534654161
 30
0.0
 11
-95.124025182534794
 21
711.46131991023958
 31
0.0
  0
LINE
  8
0
  6
CONTINUOUS
 62
               3
  5
388
 10
-96.229529997969067
 20
703.28290534654161
 30
0.0
 11
-104.05367551208782
 21
645.40065578254644
 31
0.0
  0
ARC
  8
0
  6
CONTINUOUS
 62
               3
  5
389
 10
0.0000000000000142
 20
631.33535761915414
 30
0.0
 40
105.0
 50
172.30179029211342
 51
187.69820970781697
  0
LINE
  8
0
  6
CONTINUOUS
 62
               3
  5
38A
 10
-96.229607097849467
 20
559.3883802690068
 30
0.0
 11
-95.124025182534794
 21
551.20939532806847
 31
0.0
  0
LINE
  8
0
  6
CONTINUOUS
 62
               3
  5
38B
 10
-104.05367551208782
 20
617.27005945576161
 30
0.0
 11
-96.229607097849467
 21
559.3883802690068
 31
0.0
  0
LINE
  8
0
  6
CONTINUOUS
 62
               3
  5
38C
 10
-59.388263356383518
 20
729.26256988089358
 30
0.0
 11
-14.065298163392285
 21
735.38903313124183
 31
0.0
  0
LINE
  8
0
  6
CONTINUOUS
 62
               3
  5
38D
 10
-80.125962291085514
 20
726.45938280168889
 30
0.0
 11
-59.388263356383518
 21
729.26256988089358
 31
0.0
  0
ARC
  8
0
  6
CONTINUOUS
 62
               3
  5
38E
 10
0.0000000000000142
 20
631.33535761915414
 30
0.0
 40
105.0
 50
82.30179029213096
 51
97.698209707834224
  0
LINE
  8
0
  6
CONTINUOUS
 62
               3
  5
38F
 10
14.065298163392242
 20
735.38903313124183
 30
0.0
 11
59.278057624590033
 21
729.27746677395726
 31
0.0
  0
LINE
  8
0
  6
CONTINUOUS
 62
               3
  5
390
 10
80.125962291085472
 20
726.45938280168889
 30
0.0
 11
59.278057624590033
 21
729.27746677395726
 31
0.0
  0
CIRCLE
  8
0
  6
CONTINUOUS
 62
               3
  5
391
 10
-0.0000000000000569
 20
631.33535761915414
 30
0.0
 40
90.0
  0
ARC
  8
0
  6
CONTINUOUS
 62
               3
  5
392
 10
-48.538939433223462
 20
543.90554943740244
 30
0.0
 40
10.0
 50
60.96201238594967
 51
134.99999999997425
  0
ARC
  8
0
  6
CONTINUOUS
 62
               3
  5
393
 10
48.53893943322349
 20
543.90554943740267
 30
0.0
 40
10.0
 50
44.999999999991061
 51
119.03798761401569
  0
ARC
  8
0
  6
CONTINUOUS
 62
               3
  5
394
 10
-48.538939433224527
 20
718.76516580090492
 30
0.0
 40
10.0
 50
224.9999999999458
 51
299.03798761398139
  0
ARC
  8
0
  6
CONTINUOUS
 62
               3
  5
395
 10
48.538939433223845
 20
718.76516580090538
 30
0.0
 40
10.0
 50
240.96201238591431
 51
314.99999999993912
  0
LINE
  8
0
  6
CONTINUOUS
 62
               3
  5
396
 10
-151.98374363275866
 20
701.33535761915391
 30
0.0
 11
-151.98374363275866
 21
561.33478993430072
 31
0.0
  0
LINE
  8
0
  6
CONTINUOUS
 62
               3
  5
397
 10
-154.99999999999991
 20
699.00691374511803
 30
0.0
 11
-154.31218750679454
 21
699.00691374511803
 31
0.0
  0
LINE
  8
0
  6
CONTINUOUS
 62
               3
  5
398
 10
-151.98374363275866
 20
701.33535761915391
 30
0.0
 11
-154.31218750679454
 21
699.00691374511803
 31
0.0
  0
LINE
  8
0
  6
CONTINUOUS
 62
               3
  5
399
 10
-154.99999999999991
 20
701.33535761915391
 30
0.0
 11
-157.49999999999991
 21
701.33535761915391
 31
0.0
  0
ARC
  8
0
  6
CONTINUOUS
 62
               3
  5
39A
 10
-157.49999999999991
 20
698.83535761915391
 30
0.0
 40
2.5
 50
89.999999999982862
 51
179.99999999996572
  0
LINE
  8
0
  6
CONTINUOUS
 62
               3
  5
39B
 10
-154.99999999999991
 20
563.66380149318979
 30
0.0
 11
-154.31218750679454
 21
563.66380149318979
 31
0.0
  0
LINE
  8
0
  6
CONTINUOUS
 62
               3
  5
39C
 10
-151.98374363275866
 20
561.33535761915391
 30
0.0
 11
-154.31218750679454
 21
563.66380149318979
 31
0.0
  0
LINE
  8
0
  6
CONTINUOUS
 62
               3
  5
39D
 10
-154.99999999999991
 20
561.33535761915414
 30
0.0
 11
-157.49999999999991
 21
561.33535761915414
 31
0.0
  0
ARC
  8
0
  6
CONTINUOUS
 62
               3
  5
39E
 10
-157.49999999999991
 20
563.83535761915414
 30
0.0
 40
2.5
 50
179.99999999996572
 51
269.99999999994793
  0
LINE
  8
0
  6
CONTINUOUS
 62
               3
  5
39F
 10
-159.99999999999991
 20
698.83535761915391
 30
0.0
 11
-159.99999999999991
 21
563.83535761915414
 31
0.0
  0
LINE
  8
0
  6
CONTINUOUS
 62
               3
  5
3A0
 10
-154.99999999999991
 20
561.33535761915414
 30
0.0
 11
-154.99999999999991
 21
701.33535761915391
 31
0.0
  0
LINE
  8
0
  6
CONTINUOUS
 62
               3
  5
3A1
 10
-154.31218750679454
 20
699.00691374511803
 30
0.0
 11
-154.31218750679454
 21
563.66380149318979
 31
0.0
  0
LINE
  8
0
  6
CONTINUOUS
 62
               3
  5
3A2
 10
-151.98374363275866
 20
701.33535761915391
 30
0.0
 11
-96.22960709784968
 21
703.28233496930079
 31
0.0
  0
LINE
  8
0
  6
CONTINUOUS
 62
               3
  5
3A3
 10
-151.9999999999998
 20
561.33535761915391
 30
0.0
 11
-96.229529997968854
 21
559.38780989176576
 31
0.0
  0
LINE
  8
0
  6
CONTINUOUS
 62
               3
  5
3A4
 10
-697.00000000000011
 20
-69.91501650675184
 30
0.0
 11
-667.00000000000011
 21
-69.91501650675184
 31
0.0
  0
LINE
  8
0
  6
CONTINUOUS
 62
               3
  5
3A5
 10
-705.00000000000034
 20
-71.415016506751826
 30
0.0
 11
-705.00000000000034
 21
-86.415016506751968
 31
0.0
  0
LINE
  8
0
  6
CONTINUOUS
 62
               3
  5
3A6
 10
-697.00000000000011
 20
-69.91501650675184
 30
0.0
 11
-697.50000000000011
 21
-71.415016506751826
 31
0.0
  0
LINE
  8
0
  6
CONTINUOUS
 62
               3
  5
3A7
 10
-667.00000000000011
 20
-69.91501650675184
 30
0.0
 11
-665.50000000000011
 21
-71.415016506751826
 31
0.0
  0
LINE
  8
0
  6
CONTINUOUS
 62
               3
  5
3A8
 10
-697.50000000000011
 20
-71.415016506751826
 30
0.0
 11
-705.00000000000034
 21
-71.415016506751826
 31
0.0
  0
LINE
  8
0
  6
CONTINUOUS
 62
               3
  5
3A9
 10
-503.0
 20
-69.915016506751982
 30
0.0
 11
-533.0
 21
-69.915016506751982
 31
0.0
  0
LINE
  8
0
  6
CONTINUOUS
 62
               3
  5
3AA
 10
-503.0
 20
-69.915016506751982
 30
0.0
 11
-502.50000000000023
 21
-71.415016506751968
 31
0.0
  0
LINE
  8
0
  6
CONTINUOUS
 62
               3
  5
3AB
 10
-533.0
 20
-69.915016506751982
 30
0.0
 11
-534.50000000000011
 21
-71.415016506751897
 31
0.0
  0
LINE
  8
0
  6
CONTINUOUS
 62
               3
  5
3AC
 10
-502.50000000000023
 20
-71.415016506751968
 30
0.0
 11
-494.99999999999989
 21
-71.415016506751968
 31
0.0
  0
LINE
  8
0
  6
CONTINUOUS
 62
               3
  5
3AD
 10
-534.50000000000011
 20
-71.415016506751897
 30
0.0
 11
-665.50000000000011
 21
-71.415016506751826
 31
0.0
  0
ARC
  8
0
  6
CONTINUOUS
 62
               3
  5
3AE
 10
-556.71598155428433
 20
-232.9150165067519
 30
0.0
 40
2.5
 50
89.999999999981569
 51
269.99999999994731
  0
LINE
  8
0
  6
CONTINUOUS
 62
               3
  5
3AF
 10
-643.28401844571624
 20
-235.41501650675184
 30
0.0
 11
-689.99999999999966
 21
-235.41501650675181
 31
0.0
  0
LINE
  8
0
  6
CONTINUOUS
 62
               3
  5
3B0
 10
-643.28401844571624
 20
-230.41501650675184
 30
0.0
 11
-689.99999999999966
 21
-230.41501650675181
 31
0.0
  0
ARC
  8
0
  6
CONTINUOUS
 62
               3
  5
3B1
 10
-643.28401844571624
 20
-232.91501650675184
 30
0.0
 40
2.5
 50
269.99999999994731
 51
449.99999999991297
  0
LINE
  8
0
  6
CONTINUOUS
 62
               3
  5
3B2
 10
-687.72128783396727
 20
-378.22732913995583
 30
0.0
 11
-673.2787121660333
 21
-504.9881889204832
 31
0.0
  0
ARC
  8
0
  6
CONTINUOUS
 62
               3
  5
3B3
 10
-689.99999999999966
 20
-232.91501650675181
 30
0.0
 40
2.5
 50
89.999999999981569
 51
269.99999999994731
  0
LINE
  8
0
  6
CONTINUOUS
 62
               3
  5
3B4
 10
-616.67333200053395
 20
-89.41501650675194
 30
0.0
 11
-702.00000000000023
 21
-89.41501650675194
 31
0.0
  0
LINE
  8
0
  6
CONTINUOUS
 62
               3
  5
3B5
 10
-690.48249763853141
 20
-376.07668039660655
 30
0.0
 11
-692.20092160477202
 21
-360.99426681356704
 31
0.0
  0
ARC
  8
0
  6
CONTINUOUS
 62
               3
  5
3B6
 10
-689.71699196558052
 20
-360.71125877914727
 30
0.0
 40
2.5
 50
96.499999999980105
 51
186.49999999996422
  0
ARC
  8
0
  6
CONTINUOUS
 62
               3
  5
3B7
 10
-688.0042958683872
 20
-375.74339950076421
 30
0.0
 40
2.5
 50
186.49999999996422
 51
276.49999999994822
  0
LINE
  8
0
  6
CONTINUOUS
 62
               3
  5
3B8
 10
-495.00000000000023
 20
-45.707555324813441
 30
0.0
 11
-495.00000000000023
 21
-61.416234852713757
 31
0.0
  0
LINE
  8
0
  6
CONTINUOUS
 62
               3
  5
3B9
 10
-705.00000000000011
 20
-45.707555324813299
 30
0.0
 11
-705.00000000000011
 21
-61.416234852713615
 31
0.0
  0
ARC
  8
0
  6
CONTINUOUS
 62
               3
  5
3BA
 10
-497.00000000000011
 20
-61.416234852713757
 30
0.0
 40
2.0
 50
271.99999999994765
 51
359.99999999993037
  0
ARC
  8
0
  6
CONTINUOUS
 62
               3
  5
3BB
 10
-103.00000000000077
 20
-45.707555324813441
 30
0.0
 40
2.0
 50
91.999999999981043
 51
179.99999999996518
  0
ARC
  8
0
  6
CONTINUOUS
 62
               3
  5
3BC
 10
102.99999999999932
 20
-45.707555324813299
 30
0.0
 40
2.0
 50
0.0
 51
87.999999999983118
  0
ARC
  8
0
  6
CONTINUOUS
 62
               3
  5
3BD
 10
-703.00000000000011
 20
-61.416234852713615
 30
0.0
 40
2.0
 50
179.99999999996515
 51
267.99999999994685
  0
LINE
  8
0
  6
CONTINUOUS
 62
               3
  5
3BE
 10
-496.93020100659533
 20
-63.415016506751996
 30
0.0
 11
-703.06979899340502
 21
-63.415016506751854
 31
0.0
  0
LINE
  8
0
  6
CONTINUOUS
 62
               3
  5
3BF
 10
-103.0697989934057
 20
-43.708773670775273
 30
0.0
 11
103.06979899340425
 21
-43.708773670775059
 31
0.0
  0
LINE
  8
0
  6
CONTINUOUS
 62
               3
  5
3C0
 10
-499.50000000000011
 20
-63.415016506751996
 30
0.0
 11
-499.50000000000011
 21
-71.415016506751968
 31
0.0
  0
LINE
  8
0
  6
CONTINUOUS
 62
               3
  5
3C1
 10
-700.50000000000011
 20
-71.415016506751826
 30
0.0
 11
-700.50000000000011
 21
-63.415016506751854
 31
0.0
  0
LINE
  8
0
  6
CONTINUOUS
 62
               3
  5
3C2
 10
-528.38166979475852
 20
-378.22732913995532
 30
0.0
 11
-687.72128783396727
 21
-378.22732913995583
 31
0.0
  0
ARC
  8
0
  6
CONTINUOUS
 62
               3
  5
3C3
 10
-702.00000000000023
 20
-86.415016506751968
 30
0.0
 40
3.0000000000000004
 50
179.99999999996518
 51
269.99999999994731
  0
LINE
  8
0
  6
CONTINUOUS
 62
               3
  5
3C4
 10
-689.99999999999966
 20
-235.41501650675181
 30
0.0
 11
-690.00000000000034
 21
-358.22732913995452
 31
0.0
  0
LINE
  8
0
  6
CONTINUOUS
 62
               3
  5
3C5
 10
-90.00000000000135
 20
93.382551620026078
 30
0.0
 11
-90.000000000001222
 21
-38.423922358787848
 31
0.0
  0
ARC
  8
0
  6
CONTINUOUS
 62
               3
  5
3C6
 10
-94.999999999997527
 20
-38.423922358788062
 30
0.0
 40
5.0
 50
271.99999999994748
 51
359.99999999993048
  0
LINE
  8
0
  6
CONTINUOUS
 62
               3
  5
3C7
 10
89.99999999999865
 20
93.382551620026248
 30
0.0
 11
89.999999999998778
 21
-38.423922358787777
 31
0.0
  0
ARC
  8
0
  6
CONTINUOUS
 62
               3
  5
3C8
 10
95.000000000002615
 20
-38.423922358787991
 30
0.0
 40
5.0
 50
179.99999999996524
 51
267.99999999994833
  0
LINE
  8
0
  6
CONTINUOUS
 62
               3
  5
3C9
 10
-103.06979899340243
 20
-43.708773670775628
 30
0.0
 11
-94.825502516484988
 21
-43.420876493883483
 31
0.0
  0
LINE
  8
0
  6
CONTINUOUS
 62
               3
  5
3CA
 10
103.06979899340752
 20
-43.708773670775486
 30
0.0
 11
94.825502516489934
 21
-43.420876493883412
 31
0.0
  0
ARC
  8
0
  6
CONTINUOUS
 62
               3
  5
3CB
 10
-694.99999999999943
 20
-94.41501650675194
 30
0.0
 40
5.0
 50
359.99999999993031
 51
449.99999999991297
  0
CIRCLE
  8
0
  6
CONTINUOUS
 62
               3
  5
3CC
 10
-600.00000000000045
 20
-157.91501650675181
 30
0.0
 40
60.999999999999879
  0
CIRCLE
  8
0
  6
CONTINUOUS
 62
               3
  5
3CD
 10
-600.00000000000045
 20
-157.91501650675181
 30
0.0
 40
59.799999999999862
  0
CIRCLE
  8
0
  6
CONTINUOUS
 62
               3
  5
3CE
 10
-600.00000000000045
 20
-157.91501650675181
 30
0.0
 40
55.499999999999865
  0
CIRCLE
  8
0
  6
CONTINUOUS
 62
               3
  5
3CF
 10
-600.00000000000045
 20
-157.91501650675181
 30
0.0
 40
51.249999999999865
  0
ARC
  8
0
  6
CONTINUOUS
 62
               3
  5
3D0
 10
-600.00000000000045
 20
-157.91501650675181
 30
0.0
 40
57.499999999999865
 50
224.99999999995649
 51
314.99999999993912
  0
LINE
  8
0
  6
CONTINUOUS
 62
               3
  5
3D1
 10
-640.65863991822687
 20
-198.5736564249782
 30
0.0
 11
-642.28498551495602
 21
-200.20000202170726
 31
0.0
  0
LINE
  8
0
  6
CONTINUOUS
 62
               3
  5
3D2
 10
-559.34136008177404
 20
-198.5736564249782
 30
0.0
 11
-557.715014485045
 21
-200.20000202170726
 31
0.0
  0
CIRCLE
  8
0
  6
CONTINUOUS
 62
               3
  5
3D3
 10
-600.00000000000045
 20
-157.91501650675181
 30
0.0
 40
70.5
  0
LINE
  8
0
  6
CONTINUOUS
 62
               3
  5
3D4
 10
-510.00000000000045
 20
-358.227329139956
 30
0.0
 11
-512.68029754899533
 21
-358.227329139956
 31
0.0
  0
LINE
  8
0
  6
CONTINUOUS
 62
               3
  5
3D5
 10
-536.4764315201511
 20
-358.22732913995611
 30
0.0
 11
-690.00000000000023
 21
-358.22732913995583
 31
0.0
  0
LINE
  8
0
  6
CONTINUOUS
 62
               3
  5
3D6
 10
-510.00000000000045
 20
-358.2273291399564
 30
0.0
 11
-512.19521720442924
 21
-377.49450326709058
 31
0.0
  0
LINE
  8
0
  6
CONTINUOUS
 62
               3
  5
3D7
 10
-516.17851711993092
 20
-412.45547793407917
 30
0.0
 11
-526.72128783396738
 21
-504.98818892048331
 31
0.0
  0
ARC
  8
0
  6
CONTINUOUS
 62
               3
  5
3D8
 10
497.00000000000023
 20
-45.707555324813654
 30
0.0
 40
2.0
 50
91.999999999980631
 51
179.99999999996518
  0
ARC
  8
0
  6
CONTINUOUS
 62
               3
  5
3D9
 10
703.00000000000045
 20
-45.707555324813796
 30
0.0
 40
2.0
 50
359.99999999993031
 51
447.99999999991388
  0
LINE
  8
0
  6
CONTINUOUS
 62
               3
  5
3DA
 10
496.93020100659533
 20
-43.708773670775486
 30
0.0
 11
703.06979899340547
 21
-43.708773670775486
 31
0.0
  0
LINE
  8
0
  6
CONTINUOUS
 62
               3
  5
3DB
 10
697.0
 20
-69.915016506752266
 30
0.0
 11
667.0
 21
-69.915016506752266
 31
0.0
  0
LINE
  8
0
  6
CONTINUOUS
 62
               3
  5
3DC
 10
697.0
 20
-69.915016506752266
 30
0.0
 11
697.49999999999989
 21
-71.415016506752181
 31
0.0
  0
LINE
  8
0
  6
CONTINUOUS
 62
               3
  5
3DD
 10
667.0
 20
-69.915016506752266
 30
0.0
 11
665.50000000000011
 21
-71.415016506752181
 31
0.0
  0
LINE
  8
0
  6
CONTINUOUS
 62
               3
  5
3DE
 10
697.49999999999989
 20
-71.415016506752181
 30
0.0
 11
705.00000000000023
 21
-71.415016506752181
 31
0.0
  0
LINE
  8
0
  6
CONTINUOUS
 62
               3
  5
3DF
 10
502.99999999999977
 20
-69.915016506752266
 30
0.0
 11
532.99999999999977
 21
-69.915016506752266
 31
0.0
  0
LINE
  8
0
  6
CONTINUOUS
 62
               3
  5
3E0
 10
502.99999999999977
 20
-69.915016506752266
 30
0.0
 11
502.49999999999994
 21
-71.415016506752323
 31
0.0
  0
LINE
  8
0
  6
CONTINUOUS
 62
               3
  5
3E1
 10
532.99999999999977
 20
-69.915016506752266
 30
0.0
 11
534.49999999999989
 21
-71.415016506752181
 31
0.0
  0
LINE
  8
0
  6
CONTINUOUS
 62
               3
  5
3E2
 10
502.49999999999994
 20
-71.415016506752323
 30
0.0
 11
494.99999999999966
 21
-71.415016506752323
 31
0.0
  0
LINE
  8
0
  6
CONTINUOUS
 62
               3
  5
3E3
 10
534.49999999999989
 20
-71.415016506752181
 30
0.0
 11
665.50000000000011
 21
-71.415016506752181
 31
0.0
  0
LINE
  8
0
  6
CONTINUOUS
 62
               3
  5
3E4
 10
687.72128783396693
 20
-378.22732913995623
 30
0.0
 11
673.27871216603296
 21
-504.98818892048354
 31
0.0
  0
LINE
  8
0
  6
CONTINUOUS
 62
               3
  5
3E5
 10
494.99999999999994
 20
-45.707555324813796
 30
0.0
 11
494.99999999999994
 21
-61.416234852714041
 31
0.0
  0
LINE
  8
0
  6
CONTINUOUS
 62
               3
  5
3E6
 10
704.99999999999989
 20
-45.707555324813654
 30
0.0
 11
704.99999999999989
 21
-61.416234852714041
 31
0.0
  0
ARC
  8
0
  6
CONTINUOUS
 62
               3
  5
3E7
 10
496.99999999999983
 20
-61.416234852714041
 30
0.0
 40
2.0
 50
179.99999999996518
 51
267.9999999999485
  0
ARC
  8
0
  6
CONTINUOUS
 62
               3
  5
3E8
 10
703.00000000000011
 20
-61.416234852714041
 30
0.0
 40
2.0
 50
271.99999999994765
 51
359.99999999993042
  0
LINE
  8
0
  6
CONTINUOUS
 62
               3
  5
3E9
 10
496.93020100659504
 20
-63.415016506752352
 30
0.0
 11
703.06979899340479
 21
-63.41501650675221
 31
0.0
  0
LINE
  8
0
  6
CONTINUOUS
 62
               3
  5
3EA
 10
499.49999999999983
 20
-63.415016506752352
 30
0.0
 11
499.49999999999983
 21
-71.415016506752323
 31
0.0
  0
LINE
  8
0
  6
CONTINUOUS
 62
               3
  5
3EB
 10
700.50000000000011
 20
-71.415016506752181
 30
0.0
 11
700.50000000000011
 21
-63.41501650675221
 31
0.0
  0
LINE
  8
0
  6
CONTINUOUS
 62
               3
  5
3EC
 10
516.17851711993046
 20
-412.45547793407951
 30
0.0
 11
526.72128783396693
 21
-504.98818892048354
 31
0.0
  0
LINE
  8
0
  6
CONTINUOUS
 62
               3
  5
3ED
 10
690.48249763853119
 20
-376.07668039660695
 30
0.0
 11
692.20092160477168
 21
-360.99426681356749
 31
0.0
  0
ARC
  8
0
  6
CONTINUOUS
 62
               3
  5
3EE
 10
689.71699196558029
 20
-360.71125877914767
 30
0.0
 40
2.5
 50
353.49999999993111
 51
443.49999999991383
  0
ARC
  8
0
  6
CONTINUOUS
 62
               3
  5
3EF
 10
688.00429586838698
 20
-375.74339950076467
 30
0.0
 40
2.5
 50
263.49999999994833
 51
353.49999999993111
  0
LINE
  8
0
  6
CONTINUOUS
 62
               3
  5
3F0
 10
524.55367319359959
 20
-378.22732913995634
 30
0.0
 11
687.72128783396704
 21
-378.22732913995623
 31
0.0
  0
LINE
  8
0
  6
CONTINUOUS
 62
               3
  5
3F1
 10
510.00000000000023
 20
-358.22732913995634
 30
0.0
 11
689.99999999999989
 21
-358.22732913995623
 31
0.0
  0
LINE
  8
0
  6
CONTINUOUS
 62
               3
  5
3F2
 10
510.00000000000023
 20
-358.22732913995691
 30
0.0
 11
510.20094803717859
 21
-359.99102742685648
 31
0.0
  0
ARC
  8
0
  6
CONTINUOUS
 62
               3
  5
3F3
 10
-505.00000000000148
 20
-94.415016506751897
 30
0.0
 40
5.0
 50
89.999999999982862
 51
179.99999999996524
  0
LINE
  8
0
  6
CONTINUOUS
 62
               3
  5
3F4
 10
-510.00000000000148
 20
-94.415016506751897
 30
0.0
 11
-510.00000000000148
 21
-103.80720647678285
 31
0.0
  0
LINE
  8
0
  6
CONTINUOUS
 62
               3
  5
3F5
 10
-502.96510050329846
 20
-186.94871855896463
 30
0.0
 11
-505.17449748351316
 21
-187.02587240162603
 31
0.0
  0
ARC
  8
0
  6
CONTINUOUS
 62
               3
  5
3F6
 10
-505.00000000000045
 20
-192.02282653672154
 30
0.0
 40
5.0
 50
91.999999999981938
 51
179.99999999996507
  0
LINE
  8
0
  6
CONTINUOUS
 62
               3
  5
3F7
 10
-502.96510050329857
 20
-108.88131445453962
 30
0.0
 11
-505.17449748351282
 21
-108.80416061187836
 31
0.0
  0
ARC
  8
0
  6
CONTINUOUS
 62
               3
  5
3F8
 10
-505.00000000000034
 20
-103.80720647678285
 30
0.0
 40
5.0
 50
179.99999999996518
 51
267.99999999994816
  0
LINE
  8
0
  6
CONTINUOUS
 62
               3
  5
3F9
 10
-502.00000000000091
 20
-185.94932773194554
 30
0.0
 11
-502.00000000000091
 21
-109.8807052815587
 31
0.0
  0
ARC
  8
0
  6
CONTINUOUS
 62
               3
  5
3FA
 10
-503.0000000000008
 20
-185.94932773194554
 30
0.0
 40
1.0
 50
271.99999999994117
 51
359.99999999993082
  0
ARC
  8
0
  6
CONTINUOUS
 62
               3
  5
3FB
 10
-503.0000000000008
 20
-109.8807052815587
 30
0.0
 40
1.0
 50
0.0
 51
87.999999999996149
  0
LINE
  8
0
  6
CONTINUOUS
 62
               3
  5
3FC
 10
-510.00000000000148
 20
-192.02282653672154
 30
0.0
 11
-510.00000000000125
 21
-230.41501650675178
 31
0.0
  0
ARC
  8
0
  6
CONTINUOUS
 62
               3
  5
3FD
 10
-510.00000000000125
 20
-232.91501650675178
 30
0.0
 40
2.5
 50
269.99999999994731
 51
449.99999999991297
  0
ARC
  8
0
  6
CONTINUOUS
 62
               3
  5
3FE
 10
-498.00000000000068
 20
-86.415016506751925
 30
0.0
 40
3.0000000000000004
 50
269.99999999994731
 51
359.99999999993048
  0
CIRCLE
  8
0
  6
CONTINUOUS
 62
               3
  5
3FF
 10
0.0000000000000142
 20
631.33535761915414
 30
0.0
 40
52.5
  0
LINE
  8
0
  6
CONTINUOUS
 62
               3
  5
400
 10
86.210498200624471
 20
611.33535761915414
 30
0.0
 11
72.284161474004136
 21
611.33535761915414
 31
0.0
  0
LINE
  8
0
  6
CONTINUOUS
 62
               3
  5
401
 10
72.284161474004136
 20
651.33535761915414
 30
0.0
 11
86.210498200624471
 21
651.33535761915414
 31
0.0
  0
ARC
  8
0
  6
CONTINUOUS
 62
               3
  5
402
 10
0.0000000000000142
 20
631.33535761915414
 30
0.0
 40
88.5
 50
346.93897588513232
 51
373.06102411472841
  0
LINE
  8
0
  6
CONTINUOUS
 62
               3
  5
403
 10
-86.210498200625324
 20
651.33535761915414
 30
0.0
 11
-72.284161474005458
 21
651.33535761915414
 31
0.0
  0
ARC
  8
0
  6
CONTINUOUS
 62
               3
  5
404
 10
0.0000000000000142
 20
631.33535761915414
 30
0.0
 40
88.5
 50
166.9389758851672
 51
193.06102411476326
  0
LINE
  8
0
  6
CONTINUOUS
 62
               3
  5
405
 10
-72.284161474005458
 20
611.33535761915414
 30
0.0
 11
-86.210498200625324
 21
611.33535761915414
 31
0.0
  0
LINE
  8
0
  6
CONTINUOUS
 62
               3
  5
406
 10
20.000000000000014
 20
717.54585581977972
 30
0.0
 11
20.000000000000014
 21
703.61951909315894
 31
0.0
  0
ARC
  8
0
  6
CONTINUOUS
 62
               3
  5
407
 10
0.0000000000000142
 20
631.33535761915414
 30
0.0
 40
88.5
 50
76.938975885184604
 51
103.06102411478064
  0
LINE
  8
0
  6
CONTINUOUS
 62
               3
  5
408
 10
-19.999999999999979
 20
703.61951909315894
 30
0.0
 11
-19.999999999999979
 21
717.54585581977972
 31
0.0
  0
LINE
  8
0
  6
CONTINUOUS
 62
               3
  5
409
 10
-19.999999999999979
 20
545.12485941852924
 30
0.0
 11
-19.999999999999979
 21
559.05119614514911
 31
0.0
  0
ARC
  8
0
  6
CONTINUOUS
 62
               3
  5
40A
 10
0.0000000000000142
 20
631.33535761915414
 30
0.0
 40
88.5
 50
256.93897588514983
 51
283.06102411474581
  0
LINE
  8
0
  6
CONTINUOUS
 62
               3
  5
40B
 10
20.000000000000014
 20
559.05119614514911
 30
0.0
 11
20.000000000000014
 21
545.12485941852924
 31
0.0
  0
CIRCLE
  8
0
  6
CONTINUOUS
 62
               3
  5
40C
 10
0.0000000000000142
 20
631.33535761915414
 30
0.0
 40
75.0
  0
CIRCLE
  8
0
  6
CONTINUOUS
 62
               3
  5
40D
 10
-0.0000000000001989
 20
631.33535761915414
 30
0.0
 40
59.0
  0
LINE
  8
0
  6
CONTINUOUS
 62
               3
  5
40E
 10
-76.500000000000199
 20
179.1116421370433
 30
0.0
 11
-76.500000000002075
 21
201.58498349324805
 31
0.0
  0
LINE
  8
0
  6
CONTINUOUS
 62
               3
  5
40F
 10
76.499999999999559
 20
179.11164213704342
 30
0.0
 11
76.499999999999559
 21
201.58498349324805
 31
0.0
  0
LINE
  8
0
  6
CONTINUOUS
 62
               3
  5
410
 10
-72.000000000000313
 20
174.11468800194768
 30
0.0
 11
-72.000000000000313
 21
113.88255162002599
 31
0.0
  0
ARC
  8
0
  6
CONTINUOUS
 62
               3
  5
411
 10
-77.000000000000313
 20
174.11468800194768
 30
0.0
 40
5.0
 50
0.0
 51
87.999999999983118
  0
LINE
  8
0
  6
CONTINUOUS
 62
               3
  5
412
 10
71.999999999999815
 20
174.54438738706381
 30
0.0
 11
71.999999999999815
 21
113.88255162002599
 31
0.0
  0
LINE
  8
0
  6
CONTINUOUS
 62
               3
  5
413
 10
-88.500000000000256
 20
179.51932457259693
 30
0.0
 11
-88.500000000000256
 21
186.51932457259659
 31
0.0
  0
LINE
  8
0
  6
CONTINUOUS
 62
               3
  5
414
 10
-88.500000000000085
 20
179.51932457259693
 30
0.0
 11
-76.825502516487944
 21
179.11164213704308
 31
0.0
  0
ARC
  8
0
  6
CONTINUOUS
 62
               3
  5
415
 10
76.999999999999673
 20
174.1146880019478
 30
0.0
 40
5.0
 50
91.999999999982265
 51
179.99999999996541
  0
LINE
  8
0
  6
CONTINUOUS
 62
               3
  5
416
 10
88.499999999999574
 20
179.51932457259704
 30
0.0
 11
88.499999999999574
 21
186.51932457259682
 31
0.0
  0
LINE
  8
0
  6
CONTINUOUS
 62
               3
  5
417
 10
88.499999999999432
 20
179.51932457259704
 30
0.0
 11
76.825502516487134
 21
179.1116421370433
 31
0.0
  0
LINE
  8
0
  6
CONTINUOUS
 62
               3
  5
418
 10
-69.500000000001364
 20
113.88255162002599
 30
0.0
 11
-11.72700000000043
 21
113.88255162002599
 31
0.0
  0
LINE
  8
0
  6
CONTINUOUS
 62
               3
  5
419
 10
11.726999999998981
 20
113.88255162002599
 30
0.0
 11
69.499999999998636
 21
113.88255162002599
 31
0.0
  0
ARC
  8
0
  6
CONTINUOUS
 62
               3
  5
41A
 10
-69.500000000001364
 20
93.382551620026106
 30
0.0
 40
20.5
 50
89.999999999982592
 51
179.99999999996518
  0
ARC
  8
0
  6
CONTINUOUS
 62
               3
  5
41B
 10
69.499999999998636
 20
93.38255162002622
 30
0.0
 40
20.5
 50
0.0
 51
89.999999999982592
  0
LINE
  8
0
  6
CONTINUOUS
 62
               3
  5
41C
 10
-669.50000000000148
 20
113.88255162002611
 30
0.0
 11
-530.49999999999886
 21
113.88255162002611
 31
0.0
  0
LINE
  8
0
  6
CONTINUOUS
 62
               3
  5
41D
 10
-676.50000000000034
 20
179.1116421370433
 30
0.0
 11
-676.50000000000205
 21
201.58498349324805
 31
0.0
  0
LINE
  8
0
  6
CONTINUOUS
 62
               3
  5
41E
 10
-523.50000000000045
 20
179.11164213704342
 30
0.0
 11
-523.50000000000045
 21
201.58498349324805
 31
0.0
  0
ARC
  8
0
  6
CONTINUOUS
 62
               3
  5
41F
 10
-677.00000000000045
 20
174.1146880019478
 30
0.0
 40
5.0
 50
0.0
 51
87.999999999983118
  0
LINE
  8
0
  6
CONTINUOUS
 62
               3
  5
420
 10
-688.50000000000023
 20
179.51932457259693
 30
0.0
 11
-688.50000000000023
 21
186.5193245725967
 31
0.0
  0
LINE
  8
0
  6
CONTINUOUS
 62
               3
  5
421
 10
-688.50000000000023
 20
179.51932457259693
 30
0.0
 11
-676.82550251648786
 21
179.11164213704319
 31
0.0
  0
ARC
  8
0
  6
CONTINUOUS
 62
               3
  5
422
 10
-523.00000000000045
 20
174.1146880019478
 30
0.0
 40
5.0
 50
91.999999999982577
 51
179.99999999996541
  0
LINE
  8
0
  6
CONTINUOUS
 62
               3
  5
423
 10
-511.50000000000045
 20
179.51932457259704
 30
0.0
 11
-511.50000000000045
 21
186.51932457259682
 31
0.0
  0
LINE
  8
0
  6
CONTINUOUS
 62
               3
  5
424
 10
-511.50000000000068
 20
179.51932457259704
 30
0.0
 11
-523.17449748351294
 21
179.1116421370433
 31
0.0
  0
LINE
  8
0
  6
CONTINUOUS
 62
               3
  5
425
 10
-528.00000000000023
 20
174.54438738706392
 30
0.0
 11
-528.00000000000023
 21
113.72954156940204
 31
0.0
  0
LINE
  8
0
  6
CONTINUOUS
 62
               3
  5
426
 10
-672.00000000000045
 20
174.1146880019478
 30
0.0
 11
-672.00000000000045
 21
113.72954156940193
 31
0.0
  0
ARC
  8
0
  6
CONTINUOUS
 62
               3
  5
427
 10
-669.50000000000148
 20
93.382551620026106
 30
0.0
 40
20.5
 50
89.999999999982649
 51
179.99999999996518
  0
ARC
  8
0
  6
CONTINUOUS
 62
               3
  5
428
 10
-530.49999999999886
 20
93.382551620026106
 30
0.0
 40
20.5
 50
359.99999999993037
 51
449.99999999991292
  0
LINE
  8
0
  6
CONTINUOUS
 62
               3
  5
429
 10
530.49999999999898
 20
113.88255162002579
 30
0.0
 11
669.50000000000159
 21
113.88255162002579
 31
0.0
  0
LINE
  8
0
  6
CONTINUOUS
 62
               3
  5
42A
 10
523.50000000000011
 20
179.11164213704299
 30
0.0
 11
523.49999999999841
 21
201.58498349324771
 31
0.0
  0
LINE
  8
0
  6
CONTINUOUS
 62
               3
  5
42B
 10
676.5
 20
179.11164213704311
 30
0.0
 11
676.5
 21
201.58498349324771
 31
0.0
  0
ARC
  8
0
  6
CONTINUOUS
 62
               3
  5
42C
 10
523.0
 20
174.11468800194748
 30
0.0
 40
5.0
 50
0.0
 51
87.999999999983118
  0
LINE
  8
0
  6
CONTINUOUS
 62
               3
  5
42D
 10
511.50000000000023
 20
179.51932457259662
 30
0.0
 11
511.50000000000023
 21
186.51932457259636
 31
0.0
  0
LINE
  8
0
  6
CONTINUOUS
 62
               3
  5
42E
 10
511.50000000000023
 20
179.51932457259662
 30
0.0
 11
523.1744974835126
 21
179.11164213704288
 31
0.0
  0
ARC
  8
0
  6
CONTINUOUS
 62
               3
  5
42F
 10
677.0
 20
174.11468800194748
 30
0.0
 40
5.0
 50
91.999999999982577
 51
179.99999999996541
  0
LINE
  8
0
  6
CONTINUOUS
 62
               3
  5
430
 10
688.5
 20
179.51932457259673
 30
0.0
 11
688.5
 21
186.51932457259647
 31
0.0
  0
LINE
  8
0
  6
CONTINUOUS
 62
               3
  5
431
 10
688.49999999999977
 20
179.51932457259673
 30
0.0
 11
676.82550251648752
 21
179.11164213704299
 31
0.0
  0
LINE
  8
0
  6
CONTINUOUS
 62
               3
  5
432
 10
672.00000000000023
 20
174.54438738706361
 30
0.0
 11
672.00000000000023
 21
113.72954156940173
 31
0.0
  0
LINE
  8
0
  6
CONTINUOUS
 62
               3
  5
433
 10
528.0
 20
174.11468800194748
 30
0.0
 11
528.0
 21
113.72954156940162
 31
0.0
  0
ARC
  8
0
  6
CONTINUOUS
 62
               3
  5
434
 10
530.49999999999898
 20
93.382551620025794
 30
0.0
 40
20.5
 50
89.999999999982649
 51
179.99999999996518
  0
ARC
  8
0
  6
CONTINUOUS
 62
               3
  5
435
 10
669.50000000000159
 20
93.382551620025794
 30
0.0
 40
20.5
 50
359.99999999993037
 51
449.99999999991292
  0
LINE
  8
0
  6
CONTINUOUS
 62
               3
  5
436
 10
154.99999999999955
 20
576.33535761915437
 30
0.0
 11
154.32844387403532
 21
576.33535761915437
 31
0.0
  0
LINE
  8
0
  6
CONTINUOUS
 62
               3
  5
437
 10
151.99999999999943
 20
574.00691374511939
 30
0.0
 11
154.32844387403532
 21
576.33535761915437
 31
0.0
  0
LINE
  8
0
  6
CONTINUOUS
 62
               3
  5
438
 10
154.99999999999955
 20
686.33535761915414
 30
0.0
 11
154.32844387403532
 21
686.33535761915414
 31
0.0
  0
LINE
  8
0
  6
CONTINUOUS
 62
               3
  5
439
 10
151.99999999999943
 20
688.66380149319002
 30
0.0
 11
154.32844387403532
 21
686.33535761915414
 31
0.0
  0
LINE
  8
0
  6
CONTINUOUS
 62
               3
  5
43A
 10
154.32844387403532
 20
686.33535761915414
 30
0.0
 11
154.32844387403532
 21
576.33535761915437
 31
0.0
  0
LINE
  8
0
  6
CONTINUOUS
 62
               3
  5
43B
 10
151.99999999999943
 20
574.00691374511939
 30
0.0
 11
151.99999999999943
 21
688.66380149319002
 31
0.0
  0
LINE
  8
0
  6
CONTINUOUS
 62
               3
  5
43C
 10
154.99999999999955
 20
574.00691374511894
 30
0.0
 11
154.99999999999955
 21
688.66380149319002
 31
0.0
  0
LINE
  8
0
  6
CONTINUOUS
 62
               3
  5
43D
 10
154.99999999999955
 20
688.66380149319002
 30
0.0
 11
157.49999999999955
 21
688.66380149319002
 31
0.0
  0
ARC
  8
0
  6
CONTINUOUS
 62
               3
  5
43E
 10
157.49999999999955
 20
686.16380149319002
 30
0.0
 40
2.5
 50
0.0
 51
89.999999999982862
  0
LINE
  8
0
  6
CONTINUOUS
 62
               3
  5
43F
 10
159.99999999999955
 20
686.16380149319002
 30
0.0
 11
159.99999999999955
 21
576.50691374511894
 31
0.0
  0
LINE
  8
0
  6
CONTINUOUS
 62
               3
  5
440
 10
154.99999999999955
 20
574.00691374511894
 30
0.0
 11
157.49999999999955
 21
574.00691374511894
 31
0.0
  0
ARC
  8
0
  6
CONTINUOUS
 62
               3
  5
441
 10
157.49999999999955
 20
576.50691374511894
 30
0.0
 40
2.5
 50
269.99999999994793
 51
359.99999999993145
  0
LINE
  8
0
  6
CONTINUOUS
 62
               3
  5
442
 10
151.99999999999943
 20
574.00691374511939
 30
0.0
 11
97.950512085122341
 21
572.11946403649631
 31
0.0
  0
LINE
  8
0
  6
CONTINUOUS
 62
               3
  5
443
 10
151.99999999999943
 20
688.66380149319002
 30
0.0
 11
97.950512085122341
 21
690.5512512018131
 31
0.0
  0
ARC
  8
0
  6
CONTINUOUS
 62
               3
  5
444
 10
94.732670528588358
 20
-94.163943402581566
 30
0.0
 40
4.7489268958295181
 50
89.999999999982663
 51
179.99999999996521
  0
ARC
  8
0
  6
CONTINUOUS
 62
               3
  5
445
 10
102.00000000000011
 20
-86.415016506752067
 30
0.0
 40
3.0000000000000004
 50
269.99999999994782
 51
359.99999999993037
  0
LINE
  8
0
  6
CONTINUOUS
 62
               3
  5
446
 10
154.99999999999977
 20
-115.4150165067517
 30
0.0
 11
154.32844387403554
 21
-115.4150165067517
 31
0.0
  0
LINE
  8
0
  6
CONTINUOUS
 62
               3
  5
447
 10
151.99999999999966
 20
-113.08657263271581
 30
0.0
 11
154.32844387403554
 21
-115.4150165067517
 31
0.0
  0
LINE
  8
0
  6
CONTINUOUS
 62
               3
  5
448
 10
154.99999999999977
 20
-113.08657263271587
 30
0.0
 11
157.49999999999977
 21
-113.08657263271587
 31
0.0
  0
ARC
  8
0
  6
CONTINUOUS
 62
               3
  5
449
 10
157.49999999999977
 20
-115.58657263271587
 30
0.0
 40
2.5
 50
0.0
 51
89.999999999982862
  0
LINE
  8
0
  6
CONTINUOUS
 62
               3
  5
44A
 10
151.99999999999966
 20
-113.08657263271581
 30
0.0
 11
94.825502516487518
 21
-111.08999518528759
 31
0.0
  0
ARC
  8
0
  6
CONTINUOUS
 62
               3
  5
44B
 10
94.999999999999886
 20
-106.09304105019211
 30
0.0
 40
5.0
 50
179.99999999996524
 51
267.99999999994816
  0
LINE
  8
0
  6
CONTINUOUS
 62
               3
  5
44C
 10
89.999999999999886
 20
-94.163943402581566
 30
0.0
 11
89.999999999999886
 21
-106.09304105019211
 31
0.0
  0
ARC
  8
0
  6
CONTINUOUS
 62
               3
  5
44D
 10
110.00000000000006
 20
-106.61685259256834
 30
0.0
 40
5.0
 50
179.99999999996524
 51
267.99999999994816
  0
ARC
  8
0
  6
CONTINUOUS
 62
               3
  5
44E
 10
82.0
 20
-232.91501650675198
 30
0.0
 40
2.5
 50
269.99999999994759
 51
449.99999999991297
  0
LINE
  8
0
  6
CONTINUOUS
 62
               3
  5
44F
 10
154.99999999999977
 20
-225.41501650675153
 30
0.0
 11
154.32844387403554
 21
-225.41501650675153
 31
0.0
  0
LINE
  8
0
  6
CONTINUOUS
 62
               3
  5
450
 10
151.99999999999966
 20
-227.74346038078656
 30
0.0
 11
154.32844387403554
 21
-225.41501650675153
 31
0.0
  0
LINE
  8
0
  6
CONTINUOUS
 62
               3
  5
451
 10
154.99999999999977
 20
-227.74346038078707
 30
0.0
 11
157.49999999999977
 21
-227.74346038078707
 31
0.0
  0
ARC
  8
0
  6
CONTINUOUS
 62
               3
  5
452
 10
157.49999999999977
 20
-225.24346038078707
 30
0.0
 40
2.5
 50
269.99999999994793
 51
359.99999999993014
  0
LINE
  8
0
  6
CONTINUOUS
 62
               3
  5
453
 10
151.99999999999966
 20
-227.74346038078656
 30
0.0
 11
104.47275977548475
 21
-229.40314818124622
 31
0.0
  0
LINE
  8
0
  6
CONTINUOUS
 62
               3
  5
454
 10
101.11172335306458
 20
-230.86456841040902
 30
0.0
 11
91.464466094066722
 21
-240.5118256694071
 31
0.0
  0
ARC
  8
0
  6
CONTINUOUS
 62
               3
  5
455
 10
94.999999999999659
 20
-244.0473595753397
 30
0.0
 40
5.0
 50
134.99999999997439
 51
179.99999999996507
  0
ARC
  8
0
  6
CONTINUOUS
 62
               3
  5
456
 10
104.64725725899734
 20
-234.40010231634173
 30
0.0
 40
5.0
 50
91.999999999982748
 51
134.9999999999747
  0
LINE
  8
0
  6
CONTINUOUS
 62
               3
  5
457
 10
105.00000000000023
 20
-71.415016506751996
 30
0.0
 11
105.00000000000006
 21
-106.61685259256834
 31
0.0
  0
LINE
  8
0
  6
CONTINUOUS
 62
               3
  5
458
 10
154.32844387403554
 20
-115.4150165067517
 30
0.0
 11
154.32844387403554
 21
-225.41501650675153
 31
0.0
  0
LINE
  8
0
  6
CONTINUOUS
 62
               3
  5
459
 10
151.99999999999966
 20
-227.74346038078656
 30
0.0
 11
151.99999999999966
 21
-113.08657263271581
 31
0.0
  0
LINE
  8
0
  6
CONTINUOUS
 62
               3
  5
45A
 10
154.99999999999977
 20
-227.74346038078707
 30
0.0
 11
154.99999999999977
 21
-113.08657263271587
 31
0.0
  0
LINE
  8
0
  6
CONTINUOUS
 62
               3
  5
45B
 10
159.99999999999977
 20
-115.58657263271587
 30
0.0
 11
159.99999999999977
 21
-225.24346038078707
 31
0.0
  0
LINE
  8
0
  6
CONTINUOUS
 62
               3
  5
45C
 10
701.98374363275934
 20
-89.415016506752266
 30
0.0
 11
616.67333200053349
 21
-89.415016506752266
 31
0.0
  0
LINE
  8
0
  6
CONTINUOUS
 62
               3
  5
45D
 10
689.99999999999943
 20
-235.41501650675229
 30
0.0
 11
643.28401844571601
 21
-235.41501650675221
 31
0.0
  0
LINE
  8
0
  6
CONTINUOUS
 62
               3
  5
45E
 10
689.99999999999943
 20
-230.41501650675229
 30
0.0
 11
643.28401844571601
 21
-230.41501650675221
 31
0.0
  0
LINE
  8
0
  6
CONTINUOUS
 62
               3
  5
45F
 10
89.999999999999659
 20
-358.22732913995662
 30
0.0
 11
89.999999999999659
 21
-244.0473595753397
 31
0.0
  0
ARC
  8
0
  6
CONTINUOUS
 62
               3
  5
460
 10
556.71598155428399
 20
-232.91501650675212
 30
0.0
 40
2.5
 50
269.99999999994731
 51
449.99999999991297
  0
ARC
  8
0
  6
CONTINUOUS
 62
               3
  5
461
 10
643.2840184457159
 20
-232.91501650675212
 30
0.0
 40
2.5
 50
89.999999999981569
 51
269.99999999994731
  0
CIRCLE
  8
0
  6
CONTINUOUS
 62
               3
  5
462
 10
599.99999999999989
 20
-170.41501650675212
 30
0.0
 40
57.5
  0
LINE
  8
0
  6
CONTINUOUS
 62
               3
  5
463
 10
626.78735709247928
 20
-142.41501650675224
 30
0.0
 11
573.21264290752049
 21
-142.41501650675224
 31
0.0
  0
CIRCLE
  8
0
  6
CONTINUOUS
 62
               3
  5
464
 10
599.99999999999989
 20
-170.41501650675212
 30
0.0
 40
48.500000000000014
  0
CIRCLE
  8
0
  6
CONTINUOUS
 62
               3
  5
465
 10
599.99999999999989
 20
-170.41501650675212
 30
0.0
 40
38.75
  0
CIRCLE
  8
0
  6
CONTINUOUS
 62
               3
  5
466
 10
599.99999999999989
 20
-170.41501650675212
 30
0.0
 40
47.299999999999997
  0
LINE
  8
0
  6
CONTINUOUS
 62
               3
  5
467
 10
568.18019484660533
 20
-202.23482166014645
 30
0.0
 11
566.55384924987629
 21
-203.86116725687583
 31
0.0
  0
LINE
  8
0
  6
CONTINUOUS
 62
               3
  5
468
 10
631.81980515339444
 20
-202.23482166014645
 30
0.0
 11
633.44615075012359
 21
-203.86116725687583
 31
0.0
  0
ARC
  8
0
  6
CONTINUOUS
 62
               3
  5
469
 10
599.99999999999989
 20
-170.41501650675212
 30
0.0
 40
45.0
 50
224.99999999995646
 51
314.99999999993912
  0
CIRCLE
  8
0
  6
CONTINUOUS
 62
               3
  5
46A
 10
599.99999999999989
 20
-170.41501650675212
 30
0.0
 40
43.0
  0
LINE
  8
0
  6
CONTINUOUS
 62
               3
  5
46B
 10
589.99999999999989
 20
-106.74876417355884
 30
0.0
 11
589.99999999999989
 21
-94.415016506752153
 31
0.0
  0
LINE
  8
0
  6
CONTINUOUS
 62
               3
  5
46C
 10
609.99999999999989
 20
-94.415016506752153
 30
0.0
 11
609.99999999999989
 21
-106.74876417355884
 31
0.0
  0
ARC
  8
0
  6
CONTINUOUS
 62
               3
  5
46D
 10
584.99999999999989
 20
-106.74876417355884
 30
0.0
 40
5.0
 50
283.3423637970331
 51
359.99999999993037
  0
ARC
  8
0
  6
CONTINUOUS
 62
               3
  5
46E
 10
614.99999999999989
 20
-106.74876417355884
 30
0.0
 40
5.0
 50
179.99999999996524
 51
256.65763620286259
  0
ARC
  8
0
  6
CONTINUOUS
 62
               3
  5
46F
 10
584.99999999999989
 20
-94.415016506752153
 30
0.0
 40
5.0
 50
0.0
 51
89.999999999982862
  0
ARC
  8
0
  6
CONTINUOUS
 62
               3
  5
470
 10
614.99999999999989
 20
-94.415016506752153
 30
0.0
 40
5.0
 50
89.999999999982862
 51
179.99999999996518
  0
LINE
  8
0
  6
CONTINUOUS
 62
               3
  5
471
 10
-556.71598155428444
 20
-235.41501650675181
 30
0.0
 11
-510.00000000000057
 21
-235.41501650675181
 31
0.0
  0
LINE
  8
0
  6
CONTINUOUS
 62
               3
  5
472
 10
-556.71598155428444
 20
-230.41501650675181
 30
0.0
 11
-510.00000000000057
 21
-230.41501650675181
 31
0.0
  0
LINE
  8
0
  6
CONTINUOUS
 62
               3
  5
473
 10
-585.00000000000045
 20
-89.41501650675184
 30
0.0
 11
-498.00000000000028
 21
-89.415016506751925
 31
0.0
  0
LINE
  8
0
  6
CONTINUOUS
 62
               3
  5
474
 10
-82.000000000000341
 20
-235.41501650675221
 30
0.0
 11
-0.0000000000003411
 21
-235.41501650675221
 31
0.0
  0
LINE
  8
0
  6
CONTINUOUS
 62
               3
  5
475
 10
-0.0000000000003411
 20
-235.41501650675221
 30
0.0
 11
82.0
 21
-235.41501650675198
 31
0.0
  0
LINE
  8
0
  6
CONTINUOUS
 62
               3
  5
476
 10
-82.000000000000341
 20
-230.41501650675221
 30
0.0
 11
-0.0000000000003411
 21
-230.41501650675221
 31
0.0
  0
LINE
  8
0
  6
CONTINUOUS
 62
               3
  5
477
 10
-0.0000000000003411
 20
-230.41501650675221
 30
0.0
 11
82.0
 21
-230.41501650675221
 31
0.0
  0
ARC
  8
0
  6
CONTINUOUS
 62
               3
  5
478
 10
689.99999999999943
 20
-232.91501650675221
 30
0.0
 40
2.5
 50
269.99999999994731
 51
449.99999999991297
  0
LINE
  8
0
  6
CONTINUOUS
 62
               3
  5
479
 10
-101.98374363275946
 20
-89.415016506752295
 30
0.0
 11
-0.0000000000003411
 21
-89.415016506752181
 31
0.0
  0
LINE
  8
0
  6
CONTINUOUS
 62
               3
  5
47A
 10
-0.0000000000003411
 20
-89.415016506752124
 30
0.0
 11
101.99999999999977
 21
-89.415016506752295
 31
0.0
  0
ARC
  8
0
  6
CONTINUOUS
 62
               3
  5
47B
 10
702.00000000000011
 20
-86.415016506752323
 30
0.0
 40
3.0000000000000004
 50
269.99999999994731
 51
359.99999999993037
  0
ARC
  8
0
  6
CONTINUOUS
 62
               3
  5
47C
 10
694.9999999999992
 20
-94.415016506752295
 30
0.0
 40
5.0
 50
89.999999999982862
 51
179.99999999996518
  0
LINE
  8
0
  6
CONTINUOUS
 62
               3
  5
47D
 10
697.03489949670222
 20
-186.94871855896506
 30
0.0
 11
694.82550251648752
 21
-187.02587240162651
 31
0.0
  0
ARC
  8
0
  6
CONTINUOUS
 62
               3
  5
47E
 10
695.00000000000023
 20
-192.02282653672196
 30
0.0
 40
5.0
 50
91.999999999981284
 51
179.99999999996507
  0
LINE
  8
0
  6
CONTINUOUS
 62
               3
  5
47F
 10
697.03489949670211
 20
-108.88131445454002
 30
0.0
 11
694.82550251648786
 21
-108.80416061187881
 31
0.0
  0
ARC
  8
0
  6
CONTINUOUS
 62
               3
  5
480
 10
695.00000000000034
 20
-103.80720647678325
 30
0.0
 40
5.0
 50
179.99999999996507
 51
267.99999999994884
  0
LINE
  8
0
  6
CONTINUOUS
 62
               3
  5
481
 10
697.99999999999977
 20
-185.949327731946
 30
0.0
 11
697.99999999999977
 21
-109.8807052815591
 31
0.0
  0
ARC
  8
0
  6
CONTINUOUS
 62
               3
  5
482
 10
696.99999999999989
 20
-185.949327731946
 30
0.0
 40
1.0
 50
271.99999999994441
 51
359.99999999993082
  0
ARC
  8
0
  6
CONTINUOUS
 62
               3
  5
483
 10
696.99999999999989
 20
-109.8807052815591
 30
0.0
 40
1.0
 50
0.0
 51
87.999999999996149
  0
LINE
  8
0
  6
CONTINUOUS
 62
               3
  5
484
 10
689.9999999999992
 20
-94.415016506752295
 30
0.0
 11
689.9999999999992
 21
-103.80720647678325
 31
0.0
  0
LINE
  8
0
  6
CONTINUOUS
 62
               3
  5
485
 10
689.9999999999992
 20
-192.02282653672196
 30
0.0
 11
689.99999999999943
 21
-230.41501650675221
 31
0.0
  0
CIRCLE
  8
0
  6
CONTINUOUS
 62
               3
  5
486
 10
-0.0000000000003411
 20
-147.91501650675261
 30
0.0
 40
39.0
  0
LINE
  8
0
  6
CONTINUOUS
 62
               3
  5
487
 10
705.00000000000023
 20
-71.415016506752181
 30
0.0
 11
705.00000000000011
 21
-86.415016506752323
 31
0.0
  0
LINE
  8
0
  6
CONTINUOUS
 62
               3
  5
488
 10
689.99999999999943
 20
-235.41501650675221
 30
0.0
 11
689.99999999999989
 21
-358.22732913995486
 31
0.0
  0
ARC
  8
0
  6
CONTINUOUS
 62
               3
  5
489
 10
510.00000000000068
 20
-232.91501650675218
 30
0.0
 40
2.5
 50
89.999999999982862
 51
269.99999999994731
  0
ARC
  8
0
  6
CONTINUOUS
 62
               3
  5
48A
 10
498.00000000000011
 20
-86.415016506752295
 30
0.0
 40
3.0000000000000004
 50
179.99999999996524
 51
269.99999999994731
  0
ARC
  8
0
  6
CONTINUOUS
 62
               3
  5
48B
 10
505.00000000000102
 20
-94.415016506752266
 30
0.0
 40
5.0
 50
359.99999999993031
 51
449.99999999991297
  0
LINE
  8
0
  6
CONTINUOUS
 62
               3
  5
48C
 10
502.96510050329789
 20
-186.94871855896503
 30
0.0
 11
505.1744974835126
 21
-187.02587240162649
 31
0.0
  0
ARC
  8
0
  6
CONTINUOUS
 62
               3
  5
48D
 10
504.99999999999989
 20
-192.02282653672194
 30
0.0
 40
5.0
 50
0.0
 51
87.999999999983118
  0
LINE
  8
0
  6
CONTINUOUS
 62
               3
  5
48E
 10
502.96510050329812
 20
-108.88131445453999
 30
0.0
 11
505.17449748351237
 21
-108.80416061187879
 31
0.0
  0
ARC
  8
0
  6
CONTINUOUS
 62
               3
  5
48F
 10
504.99999999999989
 20
-103.80720647678322
 30
0.0
 40
5.0
 50
271.99999999994702
 51
359.99999999993048
  0
LINE
  8
0
  6
CONTINUOUS
 62
               3
  5
490
 10
502.00000000000034
 20
-185.94932773194597
 30
0.0
 11
502.00000000000045
 21
-109.88070528155907
 31
0.0
  0
ARC
  8
0
  6
CONTINUOUS
 62
               3
  5
491
 10
503.00000000000023
 20
-185.94932773194597
 30
0.0
 40
1.0
 50
179.99999999996541
 51
267.99999999995339
  0
ARC
  8
0
  6
CONTINUOUS
 62
               3
  5
492
 10
503.00000000000034
 20
-109.88070528155907
 30
0.0
 40
1.0
 50
91.999999999967613
 51
179.99999999996498
  0
LINE
  8
0
  6
CONTINUOUS
 62
               3
  5
493
 10
510.00000000000102
 20
-94.415016506752266
 30
0.0
 11
510.00000000000102
 21
-103.80720647678322
 31
0.0
  0
LINE
  8
0
  6
CONTINUOUS
 62
               3
  5
494
 10
510.00000000000091
 20
-192.02282653672194
 30
0.0
 11
510.00000000000068
 21
-230.41501650675218
 31
0.0
  0
LINE
  8
0
  6
CONTINUOUS
 62
               3
  5
495
 10
498.01625636724089
 20
-89.415016506752238
 30
0.0
 11
583.32666799946674
 21
-89.415016506752281
 31
0.0
  0
LINE
  8
0
  6
CONTINUOUS
 62
               3
  5
496
 10
510.00000000000068
 20
-235.41501650675227
 30
0.0
 11
556.7159815542841
 21
-235.41501650675221
 31
0.0
  0
LINE
  8
0
  6
CONTINUOUS
 62
               3
  5
497
 10
510.00000000000068
 20
-230.41501650675227
 30
0.0
 11
556.7159815542841
 21
-230.41501650675221
 31
0.0
  0
LINE
  8
0
  6
CONTINUOUS
 62
               3
  5
498
 10
495.0
 20
-71.415016506752139
 30
0.0
 11
495.00000000000011
 21
-86.415016506752281
 31
0.0
  0
LINE
  8
0
  6
CONTINUOUS
 62
               3
  5
499
 10
510.00000000000068
 20
-235.41501650675218
 30
0.0
 11
510.00000000000011
 21
-358.22732913995486
 31
0.0
  0
ARC
  8
0
  6
CONTINUOUS
 62
               3
  5
49A
 10
-694.9999999999992
 20
-94.415016506751911
 30
0.0
 40
5.0
 50
359.99999999993031
 51
449.99999999991297
  0
LINE
  8
0
  6
CONTINUOUS
 62
               3
  5
49B
 10
-689.9999999999992
 20
-94.415016506751911
 30
0.0
 11
-689.9999999999992
 21
-103.80720647678287
 31
0.0
  0
LINE
  8
0
  6
CONTINUOUS
 62
               3
  5
49C
 10
-697.03489949670222
 20
-186.94871855896463
 30
0.0
 11
-694.82550251648752
 21
-187.02587240162606
 31
0.0
  0
ARC
  8
0
  6
CONTINUOUS
 62
               3
  5
49D
 10
-695.00000000000034
 20
-192.02282653672154
 30
0.0
 40
5.0
 50
0.0
 51
87.999999999983118
  0
LINE
  8
0
  6
CONTINUOUS
 62
               3
  5
49E
 10
-697.03489949670211
 20
-108.88131445453963
 30
0.0
 11
-694.82550251648786
 21
-108.80416061187836
 31
0.0
  0
ARC
  8
0
  6
CONTINUOUS
 62
               3
  5
49F
 10
-695.00000000000034
 20
-103.80720647678287
 30
0.0
 40
5.0
 50
271.99999999994702
 51
359.99999999993048
  0
LINE
  8
0
  6
CONTINUOUS
 62
               3
  5
4A0
 10
-697.99999999999989
 20
-185.94932773194554
 30
0.0
 11
-697.99999999999977
 21
-109.88070528155872
 31
0.0
  0
ARC
  8
0
  6
CONTINUOUS
 62
               3
  5
4A1
 10
-696.99999999999989
 20
-185.94932773194554
 30
0.0
 40
1.0
 50
179.99999999996541
 51
267.99999999995663
  0
ARC
  8
0
  6
CONTINUOUS
 62
               3
  5
4A2
 10
-696.99999999999989
 20
-109.88070528155872
 30
0.0
 40
1.0
 50
91.999999999970868
 51
179.99999999996498
  0
LINE
  8
0
  6
CONTINUOUS
 62
               3
  5
4A3
 10
-689.9999999999992
 20
-192.02282653672154
 30
0.0
 11
-689.99999999999943
 21
-230.41501650675178
 31
0.0
  0
LINE
  8
0
  6
CONTINUOUS
 62
               3
  5
4A4
 10
-71.000000000000355
 20
-524.98818892048303
 30
0.0
 11
70.999999999999602
 21
-524.98818892048439
 31
0.0
  0
LINE
  8
0
  6
CONTINUOUS
 62
               3
  5
4A5
 10
-73.278712166033117
 20
-504.98818892048354
 30
0.0
 11
73.278712166032648
 21
-504.98818892048354
 31
0.0
  0
LINE
  8
0
  6
CONTINUOUS
 62
               3
  5
4A6
 10
73.76120980456372
 20
-522.83754017713522
 30
0.0
 11
75.479633770804298
 21
-507.75512659409566
 31
0.0
  0
ARC
  8
0
  6
CONTINUOUS
 62
               3
  5
4A7
 10
72.995704131612854
 20
-507.47211855967583
 30
0.0
 40
2.5
 50
353.49999999993105
 51
443.49999999991411
  0
ARC
  8
0
  6
CONTINUOUS
 62
               3
  5
4A8
 10
71.283008034419538
 20
-522.50425928129289
 30
0.0
 40
2.5
 50
263.49999999994765
 51
353.49999999993105
  0
LINE
  8
0
  6
CONTINUOUS
 62
               3
  5
4A9
 10
-73.761209804564331
 20
-522.83754017713522
 30
0.0
 11
-75.479633770804909
 21
-507.75512659409566
 31
0.0
  0
ARC
  8
0
  6
CONTINUOUS
 62
               3
  5
4AA
 10
-72.995704131613394
 20
-507.47211855967583
 30
0.0
 40
2.5
 50
96.499999999981398
 51
186.49999999996413
  0
ARC
  8
0
  6
CONTINUOUS
 62
               3
  5
4AB
 10
-71.283008034420078
 20
-522.50425928129289
 30
0.0
 40
2.5
 50
186.49999999996413
 51
276.49999999994787
  0
LINE
  8
0
  6
CONTINUOUS
 62
               3
  5
4AC
 10
-71.0
 20
-524.98818892048439
 30
0.0
 11
-71.000000000000142
 21
-577.70147495011474
 31
0.0
  0
LINE
  8
0
  6
CONTINUOUS
 62
               3
  5
4AD
 10
70.999999999999602
 20
-524.98818892048439
 30
0.0
 11
70.999999999999602
 21
-577.70147495011474
 31
0.0
  0
LINE
  8
0
  6
CONTINUOUS
 62
               3
  5
4AE
 10
-55.000000000000341
 20
-713.41501650675218
 30
0.0
 11
54.999999999999666
 21
-713.41501650675218
 31
0.0
  0
LINE
  8
0
  6
CONTINUOUS
 62
               3
  5
4AF
 10
56.999999999999694
 20
-711.41501650675195
 30
0.0
 11
56.999999999999694
 21
-613.41501650675218
 31
0.0
  0
LINE
  8
0
  6
CONTINUOUS
 62
               3
  5
4B0
 10
-57.000000000000284
 20
-711.41501650675195
 30
0.0
 11
-57.000000000000284
 21
-613.41501650675218
 31
0.0
  0
LINE
  8
0
  6
CONTINUOUS
 62
               3
  5
4B1
 10
56.999999999999694
 20
-613.41501650675218
 30
0.0
 11
58.053042823173108
 21
-612.36197368357853
 31
0.0
  0
LINE
  8
0
  6
CONTINUOUS
 62
               3
  5
4B2
 10
-57.000000000000284
 20
-613.41501650675218
 30
0.0
 11
-58.05304282317357
 21
-612.36197368357875
 31
0.0
  0
LINE
  8
0
  6
CONTINUOUS
 62
               3
  5
4B3
 10
-55.000000000000341
 20
-713.41501650675218
 30
0.0
 11
-57.000000000000284
 21
-711.41501650675195
 31
0.0
  0
LINE
  8
0
  6
CONTINUOUS
 62
               3
  5
4B4
 10
54.999999999999666
 20
-713.41501650675218
 30
0.0
 11
56.999999999999694
 21
-711.41501650675195
 31
0.0
  0
LINE
  8
0
  6
CONTINUOUS
 62
               3
  5
4B5
 10
58.053042823173072
 20
-612.36197368357875
 30
0.0
 11
58.053042823173072
 21
-608.29871295294652
 31
0.0
  0
ARC
  8
0
  6
CONTINUOUS
 62
               3
  5
4B6
 10
68.053042823173072
 20
-608.29871295294652
 30
0.0
 40
10.0
 50
149.9999999999711
 51
179.99999999996507
  0
LINE
  8
0
  6
CONTINUOUS
 62
               3
  5
4B7
 10
-58.053042823173676
 20
-612.36197368357875
 30
0.0
 11
-58.053042823173676
 21
-608.29871295294652
 31
0.0
  0
ARC
  8
0
  6
CONTINUOUS
 62
               3
  5
4B8
 10
-68.053042823173669
 20
-608.29871295294652
 30
0.0
 40
10.0
 50
359.99999999993014
 51
389.99999999992463
  0
LINE
  8
0
  6
CONTINUOUS
 62
               3
  5
4B9
 10
-671.00000000000045
 20
-524.98818892048303
 30
0.0
 11
-529.00000000000057
 21
-524.98818892048416
 31
0.0
  0
LINE
  8
0
  6
CONTINUOUS
 62
               3
  5
4BA
 10
-673.27871216603319
 20
-504.98818892048354
 30
0.0
 11
-526.72128783396749
 21
-504.98818892048354
 31
0.0
  0
LINE
  8
0
  6
CONTINUOUS
 62
               3
  5
4BB
 10
-526.23879019543642
 20
-522.837540177135
 30
0.0
 11
-524.52036622919582
 21
-507.75512659409566
 31
0.0
  0
ARC
  8
0
  6
CONTINUOUS
 62
               3
  5
4BC
 10
-527.0042958683872
 20
-507.47211855967583
 30
0.0
 40
2.5
 50
353.49999999993111
 51
443.49999999991383
  0
ARC
  8
0
  6
CONTINUOUS
 62
               3
  5
4BD
 10
-528.71699196558063
 20
-522.50425928129289
 30
0.0
 40
2.5
 50
263.49999999994833
 51
353.49999999993111
  0
LINE
  8
0
  6
CONTINUOUS
 62
               3
  5
4BE
 10
-673.76120980456449
 20
-522.837540177135
 30
0.0
 11
-675.47963377080498
 21
-507.75512659409566
 31
0.0
  0
ARC
  8
0
  6
CONTINUOUS
 62
               3
  5
4BF
 10
-672.99570413161348
 20
-507.47211855967583
 30
0.0
 40
2.5
 50
96.499999999980105
 51
186.49999999996422
  0
ARC
  8
0
  6
CONTINUOUS
 62
               3
  5
4C0
 10
-671.28300803442016
 20
-522.50425928129289
 30
0.0
 40
2.5
 50
186.49999999996422
 51
276.49999999994822
  0
LINE
  8
0
  6
CONTINUOUS
 62
               3
  5
4C1
 10
-671.00000000000011
 20
-524.98818892048439
 30
0.0
 11
-671.00000000000023
 21
-577.70147495011474
 31
0.0
  0
LINE
  8
0
  6
CONTINUOUS
 62
               3
  5
4C2
 10
-529.00000000000057
 20
-524.98818892048439
 30
0.0
 11
-529.00000000000057
 21
-577.70147495011474
 31
0.0
  0
LINE
  8
0
  6
CONTINUOUS
 62
               3
  5
4C3
 10
-655.00000000000045
 20
-713.41501650675218
 30
0.0
 11
-545.00000000000045
 21
-713.41501650675218
 31
0.0
  0
LINE
  8
0
  6
CONTINUOUS
 62
               3
  5
4C4
 10
-543.00000000000045
 20
-711.41501650675195
 30
0.0
 11
-543.00000000000045
 21
-613.41501650675218
 31
0.0
  0
LINE
  8
0
  6
CONTINUOUS
 62
               3
  5
4C5
 10
-657.00000000000034
 20
-711.41501650675195
 30
0.0
 11
-657.00000000000034
 21
-613.41501650675218
 31
0.0
  0
LINE
  8
0
  6
CONTINUOUS
 62
               3
  5
4C6
 10
-543.00000000000045
 20
-613.41501650675218
 30
0.0
 11
-541.94695717682703
 21
-612.36197368357853
 31
0.0
  0
LINE
  8
0
  6
CONTINUOUS
 62
               3
  5
4C7
 10
-657.00000000000034
 20
-613.41501650675218
 30
0.0
 11
-658.05304282317366
 21
-612.36197368357875
 31
0.0
  0
LINE
  8
0
  6
CONTINUOUS
 62
               3
  5
4C8
 10
-655.00000000000045
 20
-713.41501650675218
 30
0.0
 11
-657.00000000000034
 21
-711.41501650675195
 31
0.0
  0
LINE
  8
0
  6
CONTINUOUS
 62
               3
  5
4C9
 10
-545.00000000000045
 20
-713.41501650675218
 30
0.0
 11
-543.00000000000045
 21
-711.41501650675195
 31
0.0
  0
LINE
  8
0
  6
CONTINUOUS
 62
               3
  5
4CA
 10
-541.94695717682703
 20
-612.36197368357875
 30
0.0
 11
-541.94695717682703
 21
-608.29871295294652
 31
0.0
  0
ARC
  8
0
  6
CONTINUOUS
 62
               3
  5
4CB
 10
-531.94695717682703
 20
-608.29871295294652
 30
0.0
 40
10.0
 50
149.99999999997118
 51
179.99999999996507
  0
LINE
  8
0
  6
CONTINUOUS
 62
               3
  5
4CC
 10
-658.05304282317377
 20
-612.36197368357875
 30
0.0
 11
-658.05304282317377
 21
-608.29871295294652
 31
0.0
  0
ARC
  8
0
  6
CONTINUOUS
 62
               3
  5
4CD
 10
-668.05304282317377
 20
-608.29871295294652
 30
0.0
 40
10.0
 50
359.99999999993014
 51
389.99999999992457
  0
LINE
  8
0
  6
CONTINUOUS
 62
               3
  5
4CE
 10
528.99999999999989
 20
-524.98818892048325
 30
0.0
 11
670.99999999999989
 21
-524.98818892048462
 31
0.0
  0
LINE
  8
0
  6
CONTINUOUS
 62
               3
  5
4CF
 10
526.72128783396715
 20
-504.98818892048388
 30
0.0
 11
673.27871216603285
 21
-504.98818892048388
 31
0.0
  0
LINE
  8
0
  6
CONTINUOUS
 62
               3
  5
4D0
 10
673.76120980456392
 20
-522.83754017713545
 30
0.0
 11
675.47963377080453
 21
-507.755126594096
 31
0.0
  0
ARC
  8
0
  6
CONTINUOUS
 62
               3
  5
4D1
 10
672.99570413161302
 20
-507.47211855967618
 30
0.0
 40
2.5
 50
353.49999999993111
 51
443.49999999991383
  0
ARC
  8
0
  6
CONTINUOUS
 62
               3
  5
4D2
 10
671.28300803441982
 20
-522.50425928129312
 30
0.0
 40
2.5
 50
263.49999999994833
 51
353.49999999993111
  0
LINE
  8
0
  6
CONTINUOUS
 62
               3
  5
4D3
 10
526.23879019543585
 20
-522.83754017713545
 30
0.0
 11
524.52036622919536
 21
-507.755126594096
 31
0.0
  0
ARC
  8
0
  6
CONTINUOUS
 62
               3
  5
4D4
 10
527.00429586838686
 20
-507.47211855967618
 30
0.0
 40
2.5
 50
96.499999999980105
 51
186.49999999996422
  0
ARC
  8
0
  6
CONTINUOUS
 62
               3
  5
4D5
 10
528.71699196558018
 20
-522.50425928129312
 30
0.0
 40
2.5
 50
186.49999999996422
 51
276.49999999994822
  0
LINE
  8
0
  6
CONTINUOUS
 62
               3
  5
4D6
 10
529.00000000000023
 20
-524.98818892048462
 30
0.0
 11
529.00000000000011
 21
-577.70147495011497
 31
0.0
  0
LINE
  8
0
  6
CONTINUOUS
 62
               3
  5
4D7
 10
670.99999999999989
 20
-524.98818892048462
 30
0.0
 11
670.99999999999989
 21
-577.70147495011497
 31
0.0
  0
LINE
  8
0
  6
CONTINUOUS
 62
               3
  5
4D8
 10
544.99999999999989
 20
-713.41501650675241
 30
0.0
 11
654.99999999999989
 21
-713.41501650675241
 31
0.0
  0
LINE
  8
0
  6
CONTINUOUS
 62
               3
  5
4D9
 10
656.99999999999989
 20
-711.41501650675218
 30
0.0
 11
656.99999999999989
 21
-613.41501650675241
 31
0.0
  0
LINE
  8
0
  6
CONTINUOUS
 62
               3
  5
4DA
 10
542.99999999999989
 20
-711.41501650675218
 30
0.0
 11
542.99999999999989
 21
-613.41501650675241
 31
0.0
  0
LINE
  8
0
  6
CONTINUOUS
 62
               3
  5
4DB
 10
656.99999999999989
 20
-613.41501650675241
 30
0.0
 11
658.05304282317331
 21
-612.36197368357875
 31
0.0
  0
LINE
  8
0
  6
CONTINUOUS
 62
               3
  5
4DC
 10
542.99999999999989
 20
-613.41501650675241
 30
0.0
 11
541.94695717682669
 21
-612.36197368357898
 31
0.0
  0
LINE
  8
0
  6
CONTINUOUS
 62
               3
  5
4DD
 10
544.99999999999989
 20
-713.41501650675241
 30
0.0
 11
542.99999999999989
 21
-711.41501650675218
 31
0.0
  0
LINE
  8
0
  6
CONTINUOUS
 62
               3
  5
4DE
 10
654.99999999999989
 20
-713.41501650675241
 30
0.0
 11
656.99999999999989
 21
-711.41501650675218
 31
0.0
  0
LINE
  8
0
  6
CONTINUOUS
 62
               3
  5
4DF
 10
658.05304282317331
 20
-612.36197368357898
 30
0.0
 11
658.05304282317331
 21
-608.29871295294674
 31
0.0
  0
ARC
  8
0
  6
CONTINUOUS
 62
               3
  5
4E0
 10
668.05304282317331
 20
-608.29871295294674
 30
0.0
 40
10.0
 50
149.99999999997118
 51
179.99999999996507
  0
LINE
  8
0
  6
CONTINUOUS
 62
               3
  5
4E1
 10
541.94695717682657
 20
-612.36197368357898
 30
0.0
 11
541.94695717682657
 21
-608.29871295294674
 31
0.0
  0
ARC
  8
0
  6
CONTINUOUS
 62
               3
  5
4E2
 10
531.94695717682657
 20
-608.29871295294674
 30
0.0
 40
10.0
 50
359.99999999993014
 51
389.99999999992457
  0
CIRCLE
  8
0
  6
CONTINUOUS
 62
               3
  5
4E3
 10
609.28652321630761
 20
-1077.3787764161518
 30
0.0
 40
75.0
  0
CIRCLE
  8
0
  6
CONTINUOUS
 62
               3
  5
4E4
 10
609.28652321630761
 20
-1077.3787764161518
 30
0.0
 40
52.5
  0
LINE
  8
0
  6
CONTINUOUS
 62
               3
  5
4E5
 10
523.07602501568226
 20
-1057.3787764161518
 30
0.0
 11
537.00236174230213
 21
-1057.3787764161518
 31
0.0
  0
LINE
  8
0
  6
CONTINUOUS
 62
               3
  5
4E6
 10
537.00236174230213
 20
-1097.3787764161518
 30
0.0
 11
523.07602501568226
 21
-1097.3787764161518
 31
0.0
  0
ARC
  8
0
  6
CONTINUOUS
 62
               3
  5
4E7
 10
609.28652321630761
 20
-1077.3787764161518
 30
0.0
 40
88.5
 50
166.93897588510336
 51
193.06102411468945
  0
LINE
  8
0
  6
CONTINUOUS
 62
               3
  5
4E8
 10
589.28652321630761
 20
-1163.5892746167767
 30
0.0
 11
589.28652321630761
 21
-1149.6629378901569
 31
0.0
  0
LINE
  8
0
  6
CONTINUOUS
 62
               3
  5
4E9
 10
629.28652321630761
 20
-1149.6629378901569
 30
0.0
 11
629.28652321630761
 21
-1163.5892746167767
 31
0.0
  0
ARC
  8
0
  6
CONTINUOUS
 62
               3
  5
4EA
 10
609.28652321630761
 20
-1077.3787764161518
 30
0.0
 40
88.5
 50
256.93897588505166
 51
283.06102411463769
  0
LINE
  8
0
  6
CONTINUOUS
 62
               3
  5
4EB
 10
695.49702141693228
 20
-1097.3787764161518
 30
0.0
 11
681.57068469031174
 21
-1097.3787764161518
 31
0.0
  0
LINE
  8
0
  6
CONTINUOUS
 62
               3
  5
4EC
 10
681.57068469031174
 20
-1057.3787764161518
 30
0.0
 11
695.49702141693228
 21
-1057.3787764161518
 31
0.0
  0
ARC
  8
0
  6
CONTINUOUS
 62
               3
  5
4ED
 10
609.28652321630761
 20
-1077.3787764161518
 30
0.0
 40
88.5
 50
346.93897588499982
 51
373.06102411458585
  0
LINE
  8
0
  6
CONTINUOUS
 62
               3
  5
4EE
 10
629.28652321630761
 20
-991.16827821552613
 30
0.0
 11
629.28652321630761
 21
-1005.0946149421467
 31
0.0
  0
LINE
  8
0
  6
CONTINUOUS
 62
               3
  5
4EF
 10
589.28652321630761
 20
-1005.0946149421467
 30
0.0
 11
589.28652321630761
 21
-991.16827821552613
 31
0.0
  0
ARC
  8
0
  6
CONTINUOUS
 62
               3
  5
4F0
 10
609.28652321630761
 20
-1077.3787764161518
 30
0.0
 40
88.5
 50
76.938975885155216
 51
103.06102411474124
  0
LINE
  8
0
  6
CONTINUOUS
 62
               3
  5
4F1
 10
561.61839969544644
 20
-1099.3787764161523
 30
0.0
 11
656.95464673716742
 21
-1099.3787764161523
 31
0.0
  0
ARC
  8
0
  6
CONTINUOUS
 62
               3
  5
4F2
 10
621.79013486568874
 20
-1068.6723787885328
 30
0.0
 40
54.763804151667173
 50
141.3859176367566
 51
145.15009542087031
  0
ARC
  8
0
  6
CONTINUOUS
 62
               3
  5
4F3
 10
609.28652321630761
 20
-1077.3787764161518
 30
0.0
 40
51.5
 50
334.71098847326505
 51
410.95932736340404
  0
ARC
  8
0
  6
CONTINUOUS
 62
               3
  5
4F4
 10
609.28652321630761
 20
-1077.3787764161518
 30
0.0
 40
51.5
 50
129.04067263628559
 51
205.28901152642416
  0
ARC
  8
0
  6
CONTINUOUS
 62
               3
  5
4F5
 10
609.28652321630761
 20
-1077.3787764161518
 30
0.0
 40
77.5
 50
104.95524831658301
 51
128.57288309095932
  0
ARC
  8
0
  6
CONTINUOUS
 62
               3
  5
4F6
 10
609.28652321630761
 20
-1077.3787764161518
 30
0.0
 40
77.5
 50
14.9552483166347
 51
75.044751683313535
  0
ARC
  8
0
  6
CONTINUOUS
 62
               3
  5
4F7
 10
609.28652321630761
 20
-1077.3787764161518
 30
0.0
 40
77.5
 50
321.42711690878122
 51
345.04475168315804
  0
LINE
  8
0
  6
CONTINUOUS
 62
               3
  5
4F8
 10
469.2865232163075
 20
-1132.3787764161518
 30
0.0
 11
469.95807934227173
 21
-1132.3787764161518
 31
0.0
  0
LINE
  8
0
  6
CONTINUOUS
 62
               3
  5
4F9
 10
472.45807934227219
 20
-1134.8787764161518
 30
0.0
 11
469.95807934227173
 21
-1132.3787764161518
 31
0.0
  0
LINE
  8
0
  6
CONTINUOUS
 62
               3
  5
4FA
 10
469.2865232163075
 20
-1022.3787764161517
 30
0.0
 11
469.95807934227173
 21
-1022.3787764161517
 31
0.0
  0
LINE
  8
0
  6
CONTINUOUS
 62
               3
  5
4FB
 10
472.45807934227173
 20
-1019.8787764161517
 30
0.0
 11
469.95807934227173
 21
-1022.3787764161517
 31
0.0
  0
LINE
  8
0
  6
CONTINUOUS
 62
               3
  5
4FC
 10
469.95807934227173
 20
-1022.3787764161517
 30
0.0
 11
469.95807934227173
 21
-1132.3787764161518
 31
0.0
  0
LINE
  8
0
  6
CONTINUOUS
 62
               3
  5
4FD
 10
563.79618742992966
 20
-1016.6891793978101
 30
0.0
 11
472.45807934227173
 21
-1019.8787764161517
 31
0.0
  0
LINE
  8
0
  6
CONTINUOUS
 62
               3
  5
4FE
 10
544.45005149975646
 20
-1137.3927914811195
 30
0.0
 11
472.4580793422723
 21
-1134.8787764161518
 31
0.0
  0
LINE
  8
0
  6
CONTINUOUS
 62
               3
  5
4FF
 10
464.2865232163075
 20
-1022.5503325421158
 30
0.0
 11
464.2865232163075
 21
-1132.4787764161517
 31
0.0
  0
LINE
  8
0
  6
CONTINUOUS
 62
               3
  5
500
 10
469.2865232163075
 20
-1134.9787764161517
 30
0.0
 11
469.2865232163075
 21
-1019.7787764161516
 31
0.0
  0
LINE
  8
0
  6
CONTINUOUS
 62
               3
  5
501
 10
469.2865232163075
 20
-1019.7787764161516
 30
0.0
 11
466.7865232163075
 21
-1019.7787764161516
 31
0.0
  0
LINE
  8
0
  6
CONTINUOUS
 62
               3
  5
502
 10
469.2865232163075
 20
-1134.9787764161517
 30
0.0
 11
466.7865232163075
 21
-1134.9787764161517
 31
0.0
  0
ARC
  8
0
  6
CONTINUOUS
 62
               3
  5
503
 10
466.7865232163075
 20
-1132.4787764161517
 30
0.0
 40
2.5
 50
179.99999999989538
 51
269.99999999984436
  0
ARC
  8
0
  6
CONTINUOUS
 62
               3
  5
504
 10
466.7865232163075
 20
-1022.2787764161516
 30
0.0
 40
2.5
 50
89.999999999948997
 51
179.99999999989538
  0
LINE
  8
0
  6
CONTINUOUS
 62
               3
  5
505
 10
576.8481200496899
 20
-1037.3787764161518
 30
0.0
 11
609.28652321630761
 21
-1037.3787764161518
 31
0.0
  0
LINE
  8
0
  6
CONTINUOUS
 62
               3
  5
506
 10
609.28652321630761
 20
-1037.3787764161518
 30
0.0
 11
643.2901994881463
 21
-1037.3787764161518
 31
0.0
  0
LINE
  8
0
  6
CONTINUOUS
 62
               3
  5
507
 10
472.45807934227219
 20
-1134.8787764161518
 30
0.0
 11
472.45807934227173
 21
-1019.8787764161517
 31
0.0
  0
ARC
  8
0
  6
CONTINUOUS
 62
               3
  5
508
 10
563.62168994641706
 20
-1011.6922252627145
 30
0.0
 40
5.0
 50
271.99999999984402
 51
304.806757870252
  0
LINE
  8
0
  6
CONTINUOUS
 62
               3
  5
509
 10
664.28652321630739
 20
-1217.3787764161518
 30
0.0
 11
664.28652321630739
 21
-1216.7072202901875
 31
0.0
  0
LINE
  8
0
  6
CONTINUOUS
 62
               3
  5
50A
 10
666.78652321630739
 20
-1214.207220290187
 30
0.0
 11
664.28652321630739
 21
-1216.7072202901875
 31
0.0
  0
LINE
  8
0
  6
CONTINUOUS
 62
               3
  5
50B
 10
554.28652321630739
 20
-1217.3787764161518
 30
0.0
 11
554.28652321630739
 21
-1216.7072202901875
 31
0.0
  0
LINE
  8
0
  6
CONTINUOUS
 62
               3
  5
50C
 10
551.78652321630739
 20
-1214.2072202901875
 30
0.0
 11
554.28652321630739
 21
-1216.7072202901875
 31
0.0
  0
LINE
  8
0
  6
CONTINUOUS
 62
               3
  5
50D
 10
554.28652321630739
 20
-1216.7072202901875
 30
0.0
 11
664.28652321630739
 21
-1216.7072202901875
 31
0.0
  0
LINE
  8
0
  6
CONTINUOUS
 62
               3
  5
50E
 10
554.4580793422715
 20
-1222.3787764161518
 30
0.0
 11
664.38652321630752
 21
-1222.3787764161518
 31
0.0
  0
LINE
  8
0
  6
CONTINUOUS
 62
               3
  5
50F
 10
666.88652321630752
 20
-1217.3787764161518
 30
0.0
 11
551.68652321630748
 21
-1217.3787764161518
 31
0.0
  0
LINE
  8
0
  6
CONTINUOUS
 62
               3
  5
510
 10
551.68652321630748
 20
-1217.3787764161518
 30
0.0
 11
551.68652321630748
 21
-1219.8787764161518
 31
0.0
  0
LINE
  8
0
  6
CONTINUOUS
 62
               3
  5
511
 10
666.88652321630752
 20
-1217.3787764161518
 30
0.0
 11
666.88652321630752
 21
-1219.8787764161518
 31
0.0
  0
ARC
  8
0
  6
CONTINUOUS
 62
               3
  5
512
 10
664.38652321630752
 20
-1219.8787764161518
 30
0.0
 40
2.5
 50
269.99999999984567
 51
359.99999999979337
  0
ARC
  8
0
  6
CONTINUOUS
 62
               3
  5
513
 10
554.18652321630748
 20
-1219.8787764161518
 30
0.0
 40
2.5
 50
179.99999999989538
 51
269.99999999984567
  0
LINE
  8
0
  6
CONTINUOUS
 62
               3
  5
514
 10
666.78652321630739
 20
-1214.207220290187
 30
0.0
 11
551.78652321630739
 21
-1214.2072202901875
 31
0.0
  0
LINE
  8
0
  6
CONTINUOUS
 62
               3
  5
515
 10
669.97612023464853
 20
-1122.86911220253
 30
0.0
 11
666.78652321630739
 21
-1214.207220290187
 31
0.0
  0
ARC
  8
0
  6
CONTINUOUS
 62
               3
  5
516
 10
674.97307436974415
 20
-1123.0436096860428
 30
0.0
 40
5.0
 50
145.19324212948862
 51
177.99999999989819
  0
LINE
  8
0
  6
CONTINUOUS
 62
               3
  5
517
 10
549.27250815133948
 20
-1142.2152481327028
 30
0.0
 11
551.78652321630739
 21
-1214.2072202901875
 31
0.0
  0
ARC
  8
0
  6
CONTINUOUS
 62
               3
  5
518
 10
544.27555401624409
 20
-1142.3897456162147
 30
0.0
 40
5.0
 50
1.9999999999958187
 51
87.99999999994921
  0
LINE
  8
0
  6
CONTINUOUS
 62
               3
  5
519
 10
534.28652321630761
 20
-1385.8782101647359
 30
0.0
 11
684.28652321630761
 21
-1385.8782101647359
 31
0.0
  0
LINE
  8
0
  6
CONTINUOUS
 62
               3
  5
51A
 10
520.78652321630739
 20
-1395.8782101647359
 30
0.0
 11
520.78652321630739
 21
-1402.8782101647355
 31
0.0
  0
LINE
  8
0
  6
CONTINUOUS
 62
               3
  5
51B
 10
520.78652321630739
 20
-1395.8782101647359
 30
0.0
 11
534.28652321630761
 21
-1385.8782101647359
 31
0.0
  0
ARC
  8
0
  6
CONTINUOUS
 62
               3
  5
51C
 10
532.28652321630761
 20
-1407.4607858596912
 30
0.0
 40
4.9999999999999991
 50
0.0
 51
66.421821521760023
  0
LINE
  8
0
  6
CONTINUOUS
 62
               3
  5
51D
 10
520.78652321630739
 20
-1402.8782101647355
 30
0.0
 11
697.78652321630716
 21
-1402.8782101647355
 31
0.0
  0
ARC
  8
0
  6
CONTINUOUS
 62
               3
  5
51E
 10
554.28652321630761
 20
-1492.8782101647359
 30
0.0
 40
19.999999999999996
 50
148.21166938286279
 51
167.26981986159123
  0
LINE
  8
0
  6
CONTINUOUS
 62
               3
  5
51F
 10
537.28652321630761
 20
-1407.4607858596912
 30
0.0
 11
537.28652321630761
 21
-1482.3425564118832
 31
0.0
  0
LINE
  8
0
  6
CONTINUOUS
 62
               3
  5
520
 10
681.28652321630739
 20
-1477.3425564118827
 30
0.0
 11
681.28652321630739
 21
-1407.4607858596912
 31
0.0
  0
LINE
  8
0
  6
CONTINUOUS
 62
               3
  5
521
 10
537.28652321630761
 20
-1482.3425564118832
 30
0.0
 11
680.78652321630784
 21
-1482.3425564118832
 31
0.0
  0
LINE
  8
0
  6
CONTINUOUS
 62
               3
  5
522
 10
589.28652321630761
 20
-1402.8782101647355
 30
0.0
 11
589.28652321630761
 21
-1385.8782101647359
 31
0.0
  0
LINE
  8
0
  6
CONTINUOUS
 62
               3
  5
523
 10
629.28652321630761
 20
-1385.8782101647359
 30
0.0
 11
629.28652321630761
 21
-1402.8782101647355
 31
0.0
  0
LINE
  8
0
  6
CONTINUOUS
 62
               3
  5
524
 10
589.28652321630761
 20
-1395.8782101647359
 30
0.0
 11
629.28652321630761
 21
-1395.8782101647359
 31
0.0
  0
LINE
  8
0
  6
CONTINUOUS
 62
               3
  5
525
 10
537.00236174230213
 20
-1385.8782101647359
 30
0.0
 11
537.00236174230213
 21
-1402.8782101647355
 31
0.0
  0
LINE
  8
0
  6
CONTINUOUS
 62
               3
  5
526
 10
523.07602501568226
 20
-1395.8782101647359
 30
0.0
 11
523.07602501568226
 21
-1402.8782101647355
 31
0.0
  0
LINE
  8
0
  6
CONTINUOUS
 62
               3
  5
527
 10
520.78652321630739
 20
-1395.8782101647359
 30
0.0
 11
523.07602501568226
 21
-1395.8782101647359
 31
0.0
  0
LINE
  8
0
  6
CONTINUOUS
 62
               3
  5
528
 10
523.07602501568226
 20
-1395.8782101647359
 30
0.0
 11
537.00236174230213
 21
-1385.8782101647359
 31
0.0
  0
LINE
  8
0
  6
CONTINUOUS
 62
               3
  5
529
 10
697.78652321630716
 20
-1395.8782101647359
 30
0.0
 11
697.78652321630716
 21
-1402.8782101647355
 31
0.0
  0
LINE
  8
0
  6
CONTINUOUS
 62
               3
  5
52A
 10
697.78652321630716
 20
-1395.8782101647359
 30
0.0
 11
684.28652321630761
 21
-1385.8782101647359
 31
0.0
  0
ARC
  8
0
  6
CONTINUOUS
 62
               3
  5
52B
 10
686.28652321630739
 20
-1407.4607858596912
 30
0.0
 40
4.9999999999999991
 50
113.57817847813573
 51
179.99999999989538
  0
LINE
  8
0
  6
CONTINUOUS
 62
               3
  5
52C
 10
681.57068469031174
 20
-1385.8782101647359
 30
0.0
 11
681.57068469031174
 21
-1402.8782101647355
 31
0.0
  0
LINE
  8
0
  6
CONTINUOUS
 62
               3
  5
52D
 10
695.49702141693274
 20
-1395.8782101647359
 30
0.0
 11
695.49702141693274
 21
-1402.8782101647355
 31
0.0
  0
LINE
  8
0
  6
CONTINUOUS
 62
               3
  5
52E
 10
697.78652321630716
 20
-1395.8782101647359
 30
0.0
 11
695.49702141693274
 21
-1395.8782101647359
 31
0.0
  0
LINE
  8
0
  6
CONTINUOUS
 62
               3
  5
52F
 10
695.49702141693274
 20
-1395.8782101647359
 30
0.0
 11
681.57068469031174
 21
-1385.8782101647359
 31
0.0
  0
ARC
  8
0
  6
CONTINUOUS
 62
               3
  5
530
 10
544.28652321630761
 20
-1614.3782101647359
 30
0.0
 40
2.4999999999999996
 50
89.99999999994769
 51
269.99999999984567
  0
ARC
  8
0
  6
CONTINUOUS
 62
               3
  5
531
 10
684.28652321630761
 20
-1614.3782101647359
 30
0.0
 40
2.4999999999999996
 50
269.99999999984567
 51
449.99999999974102
  0
LINE
  8
0
  6
CONTINUOUS
 62
               3
  5
532
 10
469.2865232163075
 20
-1606.8782101647359
 30
0.0
 11
469.95807934227184
 21
-1606.8782101647359
 31
0.0
  0
LINE
  8
0
  6
CONTINUOUS
 62
               3
  5
533
 10
472.45807934227196
 20
-1609.3782101647355
 30
0.0
 11
469.95807934227184
 21
-1606.8782101647359
 31
0.0
  0
LINE
  8
0
  6
CONTINUOUS
 62
               3
  5
534
 10
472.45807934227275
 20
-1609.3782101647359
 30
0.0
 11
514.6231895985502
 21
-1610.8506482605901
 31
0.0
  0
LINE
  8
0
  6
CONTINUOUS
 62
               3
  5
535
 10
532.82205712224004
 20
-1627.1498995910222
 30
0.0
 11
517.98422602097025
 21
-1612.3120684897528
 31
0.0
  0
ARC
  8
0
  6
CONTINUOUS
 62
               3
  5
536
 10
529.28652321630761
 20
-1630.6854334969551
 30
0.0
 40
4.9999999999999991
 50
0.0
 51
44.999999999973191
  0
LINE
  8
0
  6
CONTINUOUS
 62
               3
  5
537
 10
469.2865232163075
 20
-1496.8782101647359
 30
0.0
 11
469.95807934227184
 21
-1496.8782101647359
 31
0.0
  0
LINE
  8
0
  6
CONTINUOUS
 62
               3
  5
538
 10
472.45807934227196
 20
-1494.3782101647359
 30
0.0
 11
469.95807934227184
 21
-1496.8782101647359
 31
0.0
  0
LINE
  8
0
  6
CONTINUOUS
 62
               3
  5
539
 10
472.45807934227184
 20
-1494.3782101647359
 30
0.0
 11
530.07555554444616
 21
-1492.3661635595838
 31
0.0
  0
LINE
  8
0
  6
CONTINUOUS
 62
               3
  5
53A
 10
469.95807934227184
 20
-1496.8782101647359
 30
0.0
 11
469.95807934227184
 21
-1606.8782101647359
 31
0.0
  0
LINE
  8
0
  6
CONTINUOUS
 62
               3
  5
53B
 10
469.2865232163075
 20
-1609.4782101647359
 30
0.0
 11
469.2865232163075
 21
-1494.278210164736
 31
0.0
  0
LINE
  8
0
  6
CONTINUOUS
 62
               3
  5
53C
 10
469.2865232163075
 20
-1494.278210164736
 30
0.0
 11
466.7865232163075
 21
-1494.278210164736
 31
0.0
  0
ARC
  8
0
  6
CONTINUOUS
 62
               3
  5
53D
 10
466.7865232163075
 20
-1496.778210164736
 30
0.0
 40
2.5
 50
89.999999999948997
 51
179.99999999989538
  0
LINE
  8
0
  6
CONTINUOUS
 62
               3
  5
53E
 10
464.2865232163075
 20
-1496.778210164736
 30
0.0
 11
464.2865232163075
 21
-1606.9782101647359
 31
0.0
  0
LINE
  8
0
  6
CONTINUOUS
 62
               3
  5
53F
 10
469.2865232163075
 20
-1609.4782101647359
 30
0.0
 11
466.7865232163075
 21
-1609.4782101647359
 31
0.0
  0
ARC
  8
0
  6
CONTINUOUS
 62
               3
  5
540
 10
466.7865232163075
 20
-1606.9782101647359
 30
0.0
 40
2.5
 50
179.99999999989538
 51
269.99999999984436
  0
LINE
  8
0
  6
CONTINUOUS
 62
               3
  5
541
 10
472.45807934227196
 20
-1494.3782101647359
 30
0.0
 11
472.45807934227275
 21
-1609.3782101647359
 31
0.0
  0
ARC
  8
0
  6
CONTINUOUS
 62
               3
  5
542
 10
514.4486921150376
 20
-1615.8476023956857
 30
0.0
 40
5.0
 50
44.999999999975948
 51
87.999999999949253
  0
ARC
  8
0
  6
CONTINUOUS
 62
               3
  5
543
 10
529.90105806093379
 20
-1487.3692094244882
 30
0.0
 40
5.0
 50
271.99999999984408
 51
347.26981986148661
  0
CIRCLE
  8
0
  6
CONTINUOUS
 62
               3
  5
544
 10
609.28652321630761
 20
-1551.8782101647359
 30
0.0
 40
48.5
  0
CIRCLE
  8
0
  6
CONTINUOUS
 62
               3
  5
545
 10
609.28652321630761
 20
-1551.8782101647359
 30
0.0
 40
47.299999999999997
  0
LINE
  8
0
  6
CONTINUOUS
 62
               3
  5
546
 10
577.46671806291306
 20
-1583.6980153181305
 30
0.0
 11
575.84037246618391
 21
-1585.3243609148597
 31
0.0
  0
LINE
  8
0
  6
CONTINUOUS
 62
               3
  5
547
 10
641.10632836970217
 20
-1583.6980153181305
 30
0.0
 11
642.73267396643132
 21
-1585.3243609148597
 31
0.0
  0
ARC
  8
0
  6
CONTINUOUS
 62
               3
  5
548
 10
609.28652321630761
 20
-1551.8782101647359
 30
0.0
 40
45.0
 50
224.99999999987043
 51
314.99999999981884
  0
CIRCLE
  8
0
  6
CONTINUOUS
 62
               3
  5
549
 10
609.28652321630761
 20
-1551.8782101647359
 30
0.0
 40
57.600000000000001
  0
ARC
  8
0
  6
CONTINUOUS
 62
               3
  5
54A
 10
586.78652321630807
 20
-1614.3782101647359
 30
0.0
 40
2.4999999999999996
 50
269.99999999984567
 51
449.99999999974102
  0
ARC
  8
0
  6
CONTINUOUS
 62
               3
  5
54B
 10
631.78652321630807
 20
-1614.3782101647359
 30
0.0
 40
2.4999999999999996
 50
89.99999999994769
 51
269.99999999984567
  0
LINE
  8
0
  6
CONTINUOUS
 62
               3
  5
54C
 10
544.28652321630761
 20
-1616.8782101647359
 30
0.0
 11
586.78652321630807
 21
-1616.8782101647359
 31
0.0
  0
LINE
  8
0
  6
CONTINUOUS
 62
               3
  5
54D
 10
544.28652321630761
 20
-1611.8782101647359
 30
0.0
 11
586.78652321630807
 21
-1611.8782101647359
 31
0.0
  0
LINE
  8
0
  6
CONTINUOUS
 62
               3
  5
54E
 10
631.78652321630807
 20
-1611.8782101647359
 30
0.0
 11
684.28652321630761
 21
-1611.8782101647359
 31
0.0
  0
LINE
  8
0
  6
CONTINUOUS
 62
               3
  5
54F
 10
631.78652321630807
 20
-1616.8782101647359
 30
0.0
 11
684.28652321630761
 21
-1616.8782101647359
 31
0.0
  0
CIRCLE
  8
0
  6
CONTINUOUS
 62
               3
  5
550
 10
609.28652321630761
 20
-1077.3787764161518
 30
0.0
 40
59.0
  0
LINE
  8
0
  6
DASHED2
 62
               3
  5
551
 10
-51.50000000000054
 20
-713.41501650675218
 30
0.0
 11
-51.50000000000054
 21
-633.41501650675218
 31
0.0
  0
LINE
  8
0
  6
DASHED2
 62
               3
  5
552
 10
51.499999999999368
 20
-713.41501650675218
 30
0.0
 11
51.499999999999368
 21
-633.41501650675218
 31
0.0
  0
LINE
  8
0
  6
DASHED2
 62
               3
  5
553
 10
-651.50000000000068
 20
-713.41501650675218
 30
0.0
 11
-651.50000000000068
 21
-633.41501650675218
 31
0.0
  0
LINE
  8
0
  6
DASHED2
 62
               3
  5
554
 10
-548.5000000000008
 20
-713.41501650675218
 30
0.0
 11
-548.5000000000008
 21
-633.41501650675218
 31
0.0
  0
LINE
  8
0
  6
DASHED2
 62
               3
  5
555
 10
548.49999999999966
 20
-713.41501650675241
 30
0.0
 11
548.49999999999966
 21
-633.41501650675241
 31
0.0
  0
LINE
  8
0
  6
DASHED2
 62
               3
  5
556
 10
651.49999999999955
 20
-713.41501650675241
 30
0.0
 11
651.49999999999955
 21
-633.41501650675241
 31
0.0
  0
INSERT
  8
0
  6
CONTINUOUS
  5
557
  2
GROUP_1
 10
0.0
 20
0.0
 30
0.0
  0
INSERT
  8
0
  6
CONTINUOUS
  5
558
  2
GROUP_2
 10
0.0
 20
0.0
 30
0.0
  0
INSERT
  8
0
  6
CONTINUOUS
  5
559
  2
GROUP_3
 10
0.0
 20
0.0
 30
0.0
  0
INSERT
  8
0
  6
CONTINUOUS
  5
55A
  2
GROUP_4
 10
0.0
 20
0.0
 30
0.0
  0
INSERT
  8
0
  6
CONTINUOUS
  5
55B
  2
GROUP_5
 10
0.0
 20
0.0
 30
0.0
  0
INSERT
  8
0
  6
CONTINUOUS
  5
55C
  2
GROUP_6
 10
0.0
 20
0.0
 30
0.0
  0
INSERT
  8
0
  6
CONTINUOUS
  5
55D
  2
GROUP_7
 10
0.0
 20
0.0
 30
0.0
  0
INSERT
  8
0
  6
CONTINUOUS
  5
55E
  2
GROUP_8
 10
0.0
 20
0.0
 30
0.0
  0
INSERT
  8
0
  6
CONTINUOUS
  5
55F
  2
GROUP_9
 10
0.0
 20
0.0
 30
0.0
  0
INSERT
  8
0
  6
CONTINUOUS
  5
560
  2
GROUP_10
 10
0.0
 20
0.0
 30
0.0
  0
INSERT
  8
0
  6
CONTINUOUS
  5
561
  2
GROUP_11
 10
0.0
 20
0.0
 30
0.0
  0
INSERT
  8
0
  6
CONTINUOUS
  5
562
  2
GROUP_12
 10
0.0
 20
0.0
 30
0.0
  0
LINE
  8
LAYER192
  6
CONTINUOUS
 62
               3
  5
563
 10
-26.500000000000249
 20
586.01428084465579
 30
0.0
 11
-26.500000000000036
 21
631.33535761915437
 31
0.0
  0
LINE
  8
LAYER192
  6
CONTINUOUS
 62
               3
  5
564
 10
-26.500000000000036
 20
631.33535761915437
 30
0.0
 11
-46.672333534820005
 21
655.37580858028468
 31
0.0
  0
LINE
  8
LAYER192
  6
CONTINUOUS
 62
               3
  5
565
 10
-26.50000000000032
 20
603.83535761914914
 30
0.0
 11
44.721359549989927
 21
603.83535761914459
 31
0.0
  0
LINE
  8
LAYER192
  6
CONTINUOUS
 62
               3
  5
566
 10
-16.007810593583493
 20
681.33535761915368
 30
0.0
 11
16.007810593585205
 21
681.33535761915323
 31
0.0
  0
LINE
  8
LAYER192
  6
CONTINUOUS
 62
               3
  5
567
 10
-88.500000000000256
 20
186.51932457259659
 30
0.0
 11
-76.500000000000199
 21
201.58498349324782
 31
0.0
  0
LINE
  8
LAYER192
  6
CONTINUOUS
 62
               3
  5
568
 10
88.499999999999574
 20
186.51932457259682
 30
0.0
 11
76.499999999999559
 21
201.58498349324805
 31
0.0
  0
LINE
  8
LAYER192
  6
CONTINUOUS
 62
               3
  5
569
 10
-76.499999999999943
 20
201.58498349324805
 30
0.0
 11
76.499999999999559
 21
201.58498349324805
 31
0.0
  0
LINE
  8
LAYER192
  6
CONTINUOUS
 62
               3
  5
56A
 10
-88.50000000000162
 20
179.51932457259693
 30
0.0
 11
88.499999999999616
 21
179.51932457259704
 31
0.0
  0
LINE
  8
LAYER192
  6
CONTINUOUS
 62
               3
  5
56B
 10
-20.000000000000938
 20
186.51932457259704
 30
0.0
 11
-20.000000000000938
 21
179.51932457259693
 31
0.0
  0
LINE
  8
LAYER192
  6
CONTINUOUS
 62
               3
  5
56C
 10
19.999999999999062
 20
186.51932457259704
 30
0.0
 11
19.999999999999062
 21
179.51932457259693
 31
0.0
  0
LINE
  8
LAYER192
  6
CONTINUOUS
 62
               3
  5
56D
 10
-20.500000000000767
 20
201.58498349324805
 30
0.0
 11
-20.500000000000767
 21
179.51932457259693
 31
0.0
  0
LINE
  8
LAYER192
  6
CONTINUOUS
 62
               3
  5
56E
 10
20.499999999999176
 20
201.58498349324805
 30
0.0
 11
20.499999999999176
 21
179.51932457259693
 31
0.0
  0
LINE
  8
LAYER192
  6
CONTINUOUS
 62
               3
  5
56F
 10
-20.000000000000938
 20
186.51932457259659
 30
0.0
 11
19.999999999999062
 21
186.51932457259704
 31
0.0
  0
LINE
  8
LAYER192
  6
CONTINUOUS
 62
               3
  5
570
 10
-20.000000000000938
 20
186.51932457259659
 30
0.0
 11
-20.500000000000767
 21
201.58498349324805
 31
0.0
  0
LINE
  8
LAYER192
  6
CONTINUOUS
 62
               3
  5
571
 10
19.999999999999062
 20
186.51932457259659
 30
0.0
 11
20.499999999999176
 21
201.58498349324805
 31
0.0
  0
LINE
  8
LAYER192
  6
CONTINUOUS
 62
               3
  5
572
 10
-688.50000000000023
 20
186.5193245725967
 30
0.0
 11
-676.50000000000034
 21
201.58498349324782
 31
0.0
  0
LINE
  8
LAYER192
  6
CONTINUOUS
 62
               3
  5
573
 10
-511.50000000000045
 20
186.51932457259682
 30
0.0
 11
-523.50000000000045
 21
201.58498349324805
 31
0.0
  0
LINE
  8
LAYER192
  6
CONTINUOUS
 62
               3
  5
574
 10
-676.5
 20
201.58498349324805
 30
0.0
 11
-523.50000000000045
 21
201.58498349324805
 31
0.0
  0
LINE
  8
LAYER192
  6
CONTINUOUS
 62
               3
  5
575
 10
-688.50000000000159
 20
179.51932457259704
 30
0.0
 11
-511.50000000000045
 21
179.51932457259704
 31
0.0
  0
LINE
  8
LAYER192
  6
CONTINUOUS
 62
               3
  5
576
 10
-620.00000000000102
 20
186.51932457259716
 30
0.0
 11
-620.00000000000102
 21
179.51932457259693
 31
0.0
  0
LINE
  8
LAYER192
  6
CONTINUOUS
 62
               3
  5
577
 10
-580.00000000000102
 20
186.51932457259716
 30
0.0
 11
-580.00000000000102
 21
179.51932457259693
 31
0.0
  0
LINE
  8
LAYER192
  6
CONTINUOUS
 62
               3
  5
578
 10
-620.5000000000008
 20
201.58498349324805
 30
0.0
 11
-620.5000000000008
 21
179.51932457259693
 31
0.0
  0
LINE
  8
LAYER192
  6
CONTINUOUS
 62
               3
  5
579
 10
-579.50000000000091
 20
201.58498349324805
 30
0.0
 11
-579.50000000000091
 21
179.51932457259693
 31
0.0
  0
LINE
  8
LAYER192
  6
CONTINUOUS
 62
               3
  5
57A
 10
-620.00000000000102
 20
186.5193245725967
 30
0.0
 11
-580.00000000000102
 21
186.51932457259716
 31
0.0
  0
LINE
  8
LAYER192
  6
CONTINUOUS
 62
               3
  5
57B
 10
-620.00000000000102
 20
186.5193245725967
 30
0.0
 11
-620.5000000000008
 21
201.58498349324805
 31
0.0
  0
LINE
  8
LAYER192
  6
CONTINUOUS
 62
               3
  5
57C
 10
-580.00000000000102
 20
186.5193245725967
 30
0.0
 11
-579.50000000000091
 21
201.58498349324805
 31
0.0
  0
LINE
  8
LAYER192
  6
CONTINUOUS
 62
               3
  5
57D
 10
511.50000000000023
 20
186.51932457259636
 30
0.0
 11
523.50000000000011
 21
201.58498349324748
 31
0.0
  0
LINE
  8
LAYER192
  6
CONTINUOUS
 62
               3
  5
57E
 10
688.5
 20
186.51932457259647
 30
0.0
 11
676.5
 21
201.58498349324771
 31
0.0
  0
LINE
  8
LAYER192
  6
CONTINUOUS
 62
               3
  5
57F
 10
523.50000000000045
 20
201.58498349324771
 30
0.0
 11
676.5
 21
201.58498349324771
 31
0.0
  0
LINE
  8
LAYER192
  6
CONTINUOUS
 62
               3
  5
580
 10
511.49999999999886
 20
179.51932457259673
 30
0.0
 11
688.5
 21
179.51932457259673
 31
0.0
  0
LINE
  8
LAYER192
  6
CONTINUOUS
 62
               3
  5
581
 10
579.99999999999943
 20
186.51932457259682
 30
0.0
 11
579.99999999999943
 21
179.51932457259662
 31
0.0
  0
LINE
  8
LAYER192
  6
CONTINUOUS
 62
               3
  5
582
 10
619.99999999999943
 20
186.51932457259682
 30
0.0
 11
619.99999999999943
 21
179.51932457259662
 31
0.0
  0
LINE
  8
LAYER192
  6
CONTINUOUS
 62
               3
  5
583
 10
579.49999999999966
 20
201.58498349324771
 30
0.0
 11
579.49999999999966
 21
179.51932457259662
 31
0.0
  0
LINE
  8
LAYER192
  6
CONTINUOUS
 62
               3
  5
584
 10
620.49999999999955
 20
201.58498349324771
 30
0.0
 11
620.49999999999955
 21
179.51932457259662
 31
0.0
  0
LINE
  8
LAYER192
  6
CONTINUOUS
 62
               3
  5
585
 10
579.99999999999943
 20
186.51932457259636
 30
0.0
 11
619.99999999999943
 21
186.51932457259682
 31
0.0
  0
LINE
  8
LAYER192
  6
CONTINUOUS
 62
               3
  5
586
 10
579.99999999999943
 20
186.51932457259636
 30
0.0
 11
579.49999999999966
 21
201.58498349324771
 31
0.0
  0
LINE
  8
LAYER192
  6
CONTINUOUS
 62
               3
  5
587
 10
619.99999999999943
 20
186.51932457259636
 30
0.0
 11
620.49999999999955
 21
201.58498349324771
 31
0.0
  0
LINE
  8
LAYER192
  6
CONTINUOUS
 62
               3
  5
588
 10
-68.253520777581457
 20
-587.95147495011452
 30
0.0
 11
-59.339745962155824
 21
-603.39058581765971
 31
0.0
  0
ARC
  8
LAYER192
  6
CONTINUOUS
 62
               3
  5
589
 10
-50.500000000000448
 20
-577.70147495011474
 30
0.0
 40
20.500000000000004
 50
179.99999999996513
 51
209.99999999995919
  0
LINE
  8
LAYER192
  6
CONTINUOUS
 62
               3
  5
58A
 10
68.253520777580917
 20
-587.95147495011452
 30
0.0
 11
59.392788785328662
 21
-603.29871295294652
 31
0.0
  0
ARC
  8
LAYER192
  6
CONTINUOUS
 62
               3
  5
58B
 10
50.499999999999922
 20
-577.70147495011474
 30
0.0
 40
20.500000000000004
 50
329.99999999993622
 51
359.99999999993037
  0
LINE
  8
LAYER192
  6
CONTINUOUS
 62
               3
  5
58C
 10
-668.25352077758157
 20
-587.95147495011452
 30
0.0
 11
-659.33974596215592
 21
-603.39058581765971
 31
0.0
  0
ARC
  8
LAYER192
  6
CONTINUOUS
 62
               3
  5
58D
 10
-650.50000000000057
 20
-577.70147495011474
 30
0.0
 40
20.500000000000004
 50
179.99999999996513
 51
209.99999999995924
  0
LINE
  8
LAYER192
  6
CONTINUOUS
 62
               3
  5
58E
 10
-531.74647922241923
 20
-587.95147495011452
 30
0.0
 11
-540.60721121467145
 21
-603.29871295294652
 31
0.0
  0
ARC
  8
LAYER192
  6
CONTINUOUS
 62
               3
  5
58F
 10
-549.50000000000023
 20
-577.70147495011474
 30
0.0
 40
20.500000000000004
 50
329.99999999993622
 51
359.99999999993037
  0
LINE
  8
LAYER192
  6
CONTINUOUS
 62
               3
  5
590
 10
531.74647922241877
 20
-587.95147495011474
 30
0.0
 11
540.66025403784442
 21
-603.39058581765994
 31
0.0
  0
ARC
  8
LAYER192
  6
CONTINUOUS
 62
               3
  5
591
 10
549.49999999999977
 20
-577.70147495011497
 30
0.0
 40
20.500000000000004
 50
179.99999999996513
 51
209.99999999995924
  0
LINE
  8
LAYER192
  6
CONTINUOUS
 62
               3
  5
592
 10
668.25352077758112
 20
-587.95147495011474
 30
0.0
 11
659.39278878532889
 21
-603.29871295294674
 31
0.0
  0
ARC
  8
LAYER192
  6
CONTINUOUS
 62
               3
  5
593
 10
650.50000000000011
 20
-577.70147495011497
 30
0.0
 40
20.500000000000004
 50
329.99999999993622
 51
359.99999999993037
  0
LINE
  8
LAYER192
  6
CONTINUOUS
 62
               4
  5
594
 10
-685.50000000000045
 20
106.19855723800367
 30
0.0
 11
-692.00000000000045
 21
99.698557238003559
 31
0.0
  0
LINE
  8
LAYER192
  6
CONTINUOUS
 62
               4
  5
595
 10
-514.49999999999989
 20
106.19855723800367
 30
0.0
 11
-507.99999999999977
 21
99.698557238003559
 31
0.0
  0
LINE
  8
LAYER192
  6
CONTINUOUS
 62
               4
  5
596
 10
514.5
 20
106.19855723800336
 30
0.0
 11
508.0
 21
99.698557238003247
 31
0.0
  0
LINE
  8
LAYER192
  6
CONTINUOUS
 62
               4
  5
597
 10
685.50000000000057
 20
106.19855723800336
 30
0.0
 11
692.00000000000068
 21
99.698557238003247
 31
0.0
  0
POINT
  8
0
  6
CONTINUOUS
 62
               5
  5
598
 10
-392.13776905046905
 20
-1135.0632119879426
 30
0.0
  0
POINT
  8
0
  6
CONTINUOUS
 62
               5
  5
599
 10
-218.90769754050871
 20
-1136.3540060628318
 30
0.0
  0
POINT
  8
0
  6
CONTINUOUS
 62
               5
  5
59A
 10
-565.36784056042916
 20
-1136.3540060628313
 30
0.0
  0
POINT
  8
0
  6
CONTINUOUS
 62
               5
  5
59B
 10
-395.37452052112462
 20
-954.3652564089474
 30
0.0
  0
POINT
  8
0
  6
CONTINUOUS
 62
               5
  5
59C
 10
493.01659472626784
 20
-1553.1690042396251
 30
0.0
  0
POINT
  8
0
  6
CONTINUOUS
 62
               5
  5
59D
 10
493.01659472626795
 20
-1076.0879823412627
 30
0.0
  0
CIRCLE
  8
0
  6
CONTINUOUS
 62
               7
  5
59E
 10
-392.13776905046905
 20
-1141.5632119879426
 30
0.0
 40
38.0
  0
CIRCLE
  8
0
  6
CONTINUOUS
 62
               7
  5
59F
 10
-392.13776905046905
 20
-1141.5632119879426
 30
0.0
 40
33.5
  0
LINE
  8
0
  6
CONTINUOUS
 62
               7
  5
5A0
 10
-247.63776905046905
 20
-1090.5632119879426
 30
0.0
 11
-247.63776905046905
 21
-1179.5579758672682
 31
0.0
  0
LINE
  8
0
  6
CONTINUOUS
 62
               7
  5
5A1
 10
-247.03776905046902
 20
-1090.5632119879426
 30
0.0
 11
-247.63776905046905
 21
-1090.5632119879426
 31
0.0
  0
LINE
  8
0
  6
CONTINUOUS
 62
               7
  5
5A2
 10
-282.63776905046905
 20
-1178.5632119879426
 30
0.0
 11
-282.63776905046905
 21
-1104.5632119879426
 31
0.0
  0
LINE
  8
0
  6
CONTINUOUS
 62
               7
  5
5A3
 10
-189.63776905046905
 20
-1178.5632119879426
 30
0.0
 11
-189.63776905046905
 21
-1091.5632119879426
 31
0.0
  0
LINE
  8
0
  6
CONTINUOUS
 62
               7
  5
5A4
 10
-247.63776905046905
 20
-1090.5632119879426
 30
0.0
 11
-190.63776905046905
 21
-1090.5632119879426
 31
0.0
  0
LINE
  8
0
  6
CONTINUOUS
 62
               7
  5
5A5
 10
-281.63776905046905
 20
-1179.5632119879426
 30
0.0
 11
-190.63776905046905
 21
-1179.5632119879426
 31
0.0
  0
LINE
  8
0
  6
CONTINUOUS
 62
               7
  5
5A6
 10
-190.63776905046905
 20
-1090.5632119879426
 30
0.0
 11
-189.63776905046905
 21
-1091.5632119879426
 31
0.0
  0
LINE
  8
0
  6
CONTINUOUS
 62
               7
  5
5A7
 10
-189.63776905046905
 20
-1178.5632119879426
 30
0.0
 11
-190.63776905046905
 21
-1179.5632119879426
 31
0.0
  0
LINE
  8
0
  6
CONTINUOUS
 62
               7
  5
5A8
 10
-281.63776905046905
 20
-1103.5632119879426
 30
0.0
 11
-247.63776905046905
 21
-1103.5632119879426
 31
0.0
  0
CIRCLE
  8
0
  6
CONTINUOUS
 62
               7
  5
5A9
 10
-392.13776905046905
 20
-1135.0632119879426
 30
0.0
 40
44.5
  0
LINE
  8
0
  6
CONTINUOUS
 62
               7
  5
5AA
 10
-281.63776905046905
 20
-1103.5632119879426
 30
0.0
 11
-282.63776905046905
 21
-1104.5632119879426
 31
0.0
  0
LINE
  8
0
  6
CONTINUOUS
 62
               7
  5
5AB
 10
-282.63776905046905
 20
-1178.5632119879426
 30
0.0
 11
-281.63776905046905
 21
-1179.5632119879426
 31
0.0
  0
LINE
  8
0
  6
CONTINUOUS
 62
               7
  5
5AC
 10
-536.63776905046893
 20
-1090.5632119879426
 30
0.0
 11
-536.63776905046893
 21
-1179.5579758672682
 31
0.0
  0
LINE
  8
0
  6
CONTINUOUS
 62
               7
  5
5AD
 10
-537.23776905046884
 20
-1090.5632119879426
 30
0.0
 11
-536.63776905046893
 21
-1090.5632119879426
 31
0.0
  0
LINE
  8
0
  6
CONTINUOUS
 62
               7
  5
5AE
 10
-501.63776905046899
 20
-1178.5632119879426
 30
0.0
 11
-501.63776905046899
 21
-1104.5632119879426
 31
0.0
  0
LINE
  8
0
  6
CONTINUOUS
 62
               7
  5
5AF
 10
-594.63776905046893
 20
-1178.5632119879426
 30
0.0
 11
-594.63776905046893
 21
-1091.5632119879426
 31
0.0
  0
LINE
  8
0
  6
CONTINUOUS
 62
               7
  5
5B0
 10
-536.63776905046893
 20
-1090.5632119879426
 30
0.0
 11
-593.63776905046893
 21
-1090.5632119879426
 31
0.0
  0
LINE
  8
0
  6
CONTINUOUS
 62
               7
  5
5B1
 10
-502.63776905046899
 20
-1179.5632119879426
 30
0.0
 11
-593.63776905046893
 21
-1179.5632119879426
 31
0.0
  0
LINE
  8
0
  6
CONTINUOUS
 62
               7
  5
5B2
 10
-593.63776905046893
 20
-1090.5632119879426
 30
0.0
 11
-594.63776905046893
 21
-1091.5632119879426
 31
0.0
  0
LINE
  8
0
  6
CONTINUOUS
 62
               7
  5
5B3
 10
-594.63776905046893
 20
-1178.5632119879426
 30
0.0
 11
-593.63776905046893
 21
-1179.5632119879426
 31
0.0
  0
LINE
  8
0
  6
CONTINUOUS
 62
               7
  5
5B4
 10
-502.63776905046899
 20
-1103.5632119879426
 30
0.0
 11
-536.63776905046893
 21
-1103.5632119879426
 31
0.0
  0
LINE
  8
0
  6
CONTINUOUS
 62
               7
  5
5B5
 10
-502.63776905046899
 20
-1103.5632119879426
 30
0.0
 11
-501.63776905046899
 21
-1104.5632119879426
 31
0.0
  0
LINE
  8
0
  6
CONTINUOUS
 62
               7
  5
5B6
 10
-501.63776905046899
 20
-1178.5632119879426
 30
0.0
 11
-502.63776905046899
 21
-1179.5632119879426
 31
0.0
  0
LINE
  8
0
  6
CONTINUOUS
 62
               7
  5
5B7
 10
-349.58372644623557
 20
-983.09532791890786
 30
0.0
 11
-438.57849032556106
 21
-983.09532791890763
 31
0.0
  0
LINE
  8
0
  6
CONTINUOUS
 62
               7
  5
5B8
 10
-349.58372644623557
 20
-982.49532791890772
 30
0.0
 11
-349.58372644623557
 21
-983.09532791890786
 31
0.0
  0
LINE
  8
0
  6
CONTINUOUS
 62
               7
  5
5B9
 10
-431.08372644623552
 20
-1018.0953279189076
 30
0.0
 11
-357.08372644623557
 21
-1018.0953279189079
 31
0.0
  0
LINE
  8
0
  6
CONTINUOUS
 62
               7
  5
5BA
 10
-437.58372644623552
 20
-925.09532791890763
 30
0.0
 11
-350.58372644623557
 21
-925.09532791890786
 31
0.0
  0
LINE
  8
0
  6
CONTINUOUS
 62
               7
  5
5BB
 10
-349.58372644623557
 20
-983.09532791890786
 30
0.0
 11
-349.58372644623557
 21
-926.09532791890786
 31
0.0
  0
LINE
  8
0
  6
CONTINUOUS
 62
               7
  5
5BC
 10
-432.08372644623552
 20
-1017.0953279189076
 30
0.0
 11
-432.08372644623552
 21
-983.09532791890763
 31
0.0
  0
LINE
  8
0
  6
CONTINUOUS
 62
               7
  5
5BD
 10
-349.58372644623557
 20
-926.09532791890786
 30
0.0
 11
-350.58372644623557
 21
-925.09532791890786
 31
0.0
  0
LINE
  8
0
  6
CONTINUOUS
 62
               7
  5
5BE
 10
-437.58372644623552
 20
-925.09532791890763
 30
0.0
 11
-438.58372644623552
 21
-926.09532791890763
 31
0.0
  0
LINE
  8
0
  6
CONTINUOUS
 62
               7
  5
5BF
 10
-356.08372644623557
 20
-1017.0953279189079
 30
0.0
 11
-356.08372644623557
 21
-983.09532791890763
 31
0.0
  0
LINE
  8
0
  6
CONTINUOUS
 62
               7
  5
5C0
 10
-356.08372644623557
 20
-1017.0953279189079
 30
0.0
 11
-357.08372644623557
 21
-1018.0953279189079
 31
0.0
  0
LINE
  8
0
  6
CONTINUOUS
 62
               7
  5
5C1
 10
-431.08372644623552
 20
-1018.0953279189076
 30
0.0
 11
-432.08372644623552
 21
-1017.0953279189076
 31
0.0
  0
LINE
  8
0
  6
CONTINUOUS
 62
               7
  5
5C2
 10
-438.58372644623552
 20
-983.09532791890763
 30
0.0
 11
-438.58372644623552
 21
-926.09532791890763
 31
0.0
  0
LINE
  8
0
  6
CONTINUOUS
 62
               7
  5
5C3
 10
216.63392368588063
 20
-1178.5632119879426
 30
0.0
 11
216.63392368588063
 21
-1120.5632119879426
 31
0.0
  0
LINE
  8
0
  6
CONTINUOUS
 62
               7
  5
5C4
 10
242.23392368588054
 20
-1090.5632119879426
 30
0.0
 11
242.23392368588054
 21
-1179.5632119879426
 31
0.0
  0
LINE
  8
0
  6
CONTINUOUS
 62
               7
  5
5C5
 10
242.83392368588068
 20
-1090.5632119879426
 30
0.0
 11
242.23392368588054
 21
-1090.5632119879426
 31
0.0
  0
LINE
  8
0
  6
CONTINUOUS
 62
               7
  5
5C6
 10
300.23392368588077
 20
-1178.5632119879426
 30
0.0
 11
300.23392368588077
 21
-1091.5632119879426
 31
0.0
  0
CIRCLE
  8
0
  6
CONTINUOUS
 62
               7
  5
5C7
 10
120.87790746063763
 20
-1149.5632119879426
 30
0.0
 40
30.0
  0
CIRCLE
  8
0
  6
CONTINUOUS
 62
               7
  5
5C8
 10
120.87790746063763
 20
-1149.5632119879426
 30
0.0
 40
25.5
  0
CIRCLE
  8
0
  6
CONTINUOUS
 62
               7
  5
5C9
 10
120.87790746063763
 20
-1135.0632119879426
 30
0.0
 40
44.5
  0
LINE
  8
0
  6
CONTINUOUS
 62
               7
  5
5CA
 10
242.36837543136096
 20
-1090.5632119879426
 30
0.0
 11
299.23392368588077
 21
-1090.5632119879426
 31
0.0
  0
LINE
  8
0
  6
CONTINUOUS
 62
               7
  5
5CB
 10
217.63392368588063
 20
-1179.5632119879426
 30
0.0
 11
299.23392368588077
 21
-1179.5632119879426
 31
0.0
  0
LINE
  8
0
  6
CONTINUOUS
 62
               7
  5
5CC
 10
217.63392368588063
 20
-1119.5632119879426
 30
0.0
 11
242.23392368588054
 21
-1119.5632119879426
 31
0.0
  0
LINE
  8
0
  6
CONTINUOUS
 62
               7
  5
5CD
 10
217.63392368588063
 20
-1119.5632119879426
 30
0.0
 11
216.63392368588063
 21
-1120.5632119879426
 31
0.0
  0
LINE
  8
0
  6
CONTINUOUS
 62
               7
  5
5CE
 10
299.23392368588077
 20
-1090.5632119879426
 30
0.0
 11
300.23392368588077
 21
-1091.5632119879426
 31
0.0
  0
LINE
  8
0
  6
CONTINUOUS
 62
               7
  5
5CF
 10
216.63392368588063
 20
-1178.5632119879426
 30
0.0
 11
217.63392368588063
 21
-1179.5632119879426
 31
0.0
  0
LINE
  8
0
  6
CONTINUOUS
 62
               7
  5
5D0
 10
300.23392368588077
 20
-1178.5632119879426
 30
0.0
 11
299.23392368588077
 21
-1179.5632119879426
 31
0.0
  0
LINE
  8
0
  6
CONTINUOUS
 62
               7
  5
5D1
 10
25.121891235394855
 20
-1178.5632119879426
 30
0.0
 11
25.121891235394855
 21
-1120.5632119879426
 31
0.0
  0
LINE
  8
0
  6
CONTINUOUS
 62
               7
  5
5D2
 10
-0.4781087646051674
 20
-1090.5632119879426
 30
0.0
 11
-0.4781087646051674
 21
-1179.5632119879426
 31
0.0
  0
LINE
  8
0
  6
CONTINUOUS
 62
               7
  5
5D3
 10
-1.0781087646051901
 20
-1090.5632119879426
 30
0.0
 11
-0.4781087646051674
 21
-1090.5632119879426
 31
0.0
  0
LINE
  8
0
  6
CONTINUOUS
 62
               7
  5
5D4
 10
-58.478108764605167
 20
-1178.5632119879426
 30
0.0
 11
-58.478108764605167
 21
-1091.5632119879426
 31
0.0
  0
LINE
  8
0
  6
CONTINUOUS
 62
               7
  5
5D5
 10
-0.6125605100854727
 20
-1090.5632119879426
 30
0.0
 11
-57.478108764605167
 21
-1090.5632119879426
 31
0.0
  0
LINE
  8
0
  6
CONTINUOUS
 62
               7
  5
5D6
 10
24.121891235394855
 20
-1179.5632119879426
 30
0.0
 11
-57.478108764605167
 21
-1179.5632119879426
 31
0.0
  0
LINE
  8
0
  6
CONTINUOUS
 62
               7
  5
5D7
 10
24.121891235394855
 20
-1119.5632119879426
 30
0.0
 11
-0.4781087646051674
 21
-1119.5632119879426
 31
0.0
  0
LINE
  8
0
  6
CONTINUOUS
 62
               7
  5
5D8
 10
24.121891235394855
 20
-1119.5632119879426
 30
0.0
 11
25.121891235394855
 21
-1120.5632119879426
 31
0.0
  0
LINE
  8
0
  6
CONTINUOUS
 62
               7
  5
5D9
 10
-57.478108764605167
 20
-1090.5632119879426
 30
0.0
 11
-58.478108764605167
 21
-1091.5632119879426
 31
0.0
  0
LINE
  8
0
  6
CONTINUOUS
 62
               7
  5
5DA
 10
25.121891235394855
 20
-1178.5632119879426
 30
0.0
 11
24.121891235394855
 21
-1179.5632119879426
 31
0.0
  0
LINE
  8
0
  6
CONTINUOUS
 62
               7
  5
5DB
 10
-58.478108764605167
 20
-1178.5632119879426
 30
0.0
 11
-57.478108764605167
 21
-1179.5632119879426
 31
0.0
  0
LINE
  8
0
  6
CONTINUOUS
 62
               7
  5
5DC
 10
91.877907460637857
 20
-1028.8071957627001
 30
0.0
 11
149.87790746063786
 21
-1028.8071957627001
 31
0.0
  0
LINE
  8
0
  6
CONTINUOUS
 62
               7
  5
5DD
 10
165.37790746063786
 20
-1003.2071957626998
 30
0.0
 11
76.377907460637857
 21
-1003.2071957626998
 31
0.0
  0
LINE
  8
0
  6
CONTINUOUS
 62
               7
  5
5DE
 10
165.37790746063786
 20
-1002.6071957626999
 30
0.0
 11
165.37790746063786
 21
-1003.2071957626998
 31
0.0
  0
LINE
  8
0
  6
CONTINUOUS
 62
               7
  5
5DF
 10
77.377907460637857
 20
-945.20719576269983
 30
0.0
 11
164.37790746063786
 21
-945.20719576269983
 31
0.0
  0
LINE
  8
0
  6
CONTINUOUS
 62
               7
  5
5E0
 10
165.37790746063786
 20
-1003.0727440172196
 30
0.0
 11
165.37790746063786
 21
-946.20719576269983
 31
0.0
  0
LINE
  8
0
  6
CONTINUOUS
 62
               7
  5
5E1
 10
90.877907460637857
 20
-1027.8071957627001
 30
0.0
 11
90.877907460637857
 21
-1003.2071957626998
 31
0.0
  0
LINE
  8
0
  6
CONTINUOUS
 62
               7
  5
5E2
 10
150.87790746063786
 20
-1027.8071957627001
 30
0.0
 11
150.87790746063786
 21
-1003.2071957626998
 31
0.0
  0
LINE
  8
0
  6
CONTINUOUS
 62
               7
  5
5E3
 10
150.87790746063786
 20
-1027.8071957627001
 30
0.0
 11
149.87790746063786
 21
-1028.8071957627001
 31
0.0
  0
LINE
  8
0
  6
CONTINUOUS
 62
               7
  5
5E4
 10
165.37790746063786
 20
-946.20719576269983
 30
0.0
 11
164.37790746063786
 21
-945.20719576269983
 31
0.0
  0
LINE
  8
0
  6
CONTINUOUS
 62
               7
  5
5E5
 10
91.877907460637857
 20
-1028.8071957627001
 30
0.0
 11
90.877907460637857
 21
-1027.8071957627001
 31
0.0
  0
LINE
  8
0
  6
CONTINUOUS
 62
               7
  5
5E6
 10
77.377907460637857
 20
-945.20719576269983
 30
0.0
 11
76.377907460637857
 21
-946.20719576269983
 31
0.0
  0
LINE
  8
0
  6
CONTINUOUS
 62
               7
  5
5E7
 10
76.377907460637857
 20
-1003.0727440172194
 30
0.0
 11
76.377907460637857
 21
-946.20719576269983
 31
0.0
  0
CIRCLE
  8
0
  6
CONTINUOUS
 62
               7
  5
5E8
 10
609.28652321630761
 20
-1566.3782101647359
 30
0.0
 40
25.5
  0
CIRCLE
  8
0
  6
CONTINUOUS
 62
               7
  5
5E9
 10
609.28652321630761
 20
-1551.8782101647359
 30
0.0
 40
44.5
  0
CIRCLE
  8
0
  6
CONTINUOUS
 62
               7
  5
5EA
 10
609.28652321630761
 20
-1566.3782101647359
 30
0.0
 40
30.0
  0
LINE
  8
0
  6
CONTINUOUS
 62
               7
  5
5EB
 10
580.28652321630761
 20
-1247.9787764161517
 30
0.0
 11
638.28652321630761
 21
-1247.9787764161517
 31
0.0
  0
LINE
  8
0
  6
CONTINUOUS
 62
               7
  5
5EC
 10
653.78652321630761
 20
-1222.3787764161518
 30
0.0
 11
564.78652321630761
 21
-1222.3787764161518
 31
0.0
  0
LINE
  8
0
  6
CONTINUOUS
 62
               7
  5
5ED
 10
653.78652321630761
 20
-1221.7787764161519
 30
0.0
 11
653.78652321630761
 21
-1222.3787764161518
 31
0.0
  0
LINE
  8
0
  6
CONTINUOUS
 62
               7
  5
5EE
 10
565.78652321630761
 20
-1164.3787764161514
 30
0.0
 11
652.78652321630761
 21
-1164.3787764161514
 31
0.0
  0
LINE
  8
0
  6
CONTINUOUS
 62
               7
  5
5EF
 10
653.78652321630761
 20
-1222.2443246706714
 30
0.0
 11
653.78652321630761
 21
-1165.3787764161514
 31
0.0
  0
LINE
  8
0
  6
CONTINUOUS
 62
               7
  5
5F0
 10
579.28652321630761
 20
-1246.9787764161517
 30
0.0
 11
579.28652321630761
 21
-1222.3787764161518
 31
0.0
  0
LINE
  8
0
  6
CONTINUOUS
 62
               7
  5
5F1
 10
639.28652321630761
 20
-1246.9787764161517
 30
0.0
 11
639.28652321630761
 21
-1222.3787764161518
 31
0.0
  0
LINE
  8
0
  6
CONTINUOUS
 62
               7
  5
5F2
 10
639.28652321630761
 20
-1246.9787764161517
 30
0.0
 11
638.28652321630761
 21
-1247.9787764161517
 31
0.0
  0
LINE
  8
0
  6
CONTINUOUS
 62
               7
  5
5F3
 10
653.78652321630761
 20
-1165.3787764161514
 30
0.0
 11
652.78652321630761
 21
-1164.3787764161514
 31
0.0
  0
LINE
  8
0
  6
CONTINUOUS
 62
               7
  5
5F4
 10
580.28652321630761
 20
-1247.9787764161517
 30
0.0
 11
579.28652321630761
 21
-1246.9787764161517
 31
0.0
  0
LINE
  8
0
  6
CONTINUOUS
 62
               7
  5
5F5
 10
565.78652321630761
 20
-1164.3787764161514
 30
0.0
 11
564.78652321630761
 21
-1165.3787764161514
 31
0.0
  0
LINE
  8
0
  6
CONTINUOUS
 62
               7
  5
5F6
 10
564.78652321630761
 20
-1222.2443246706714
 30
0.0
 11
564.78652321630761
 21
-1165.3787764161514
 31
0.0
  0
LINE
  8
0
  6
CONTINUOUS
 62
               7
  5
5F7
 10
464.2865232163075
 20
-1507.3782101647359
 30
0.0
 11
464.2865232163075
 21
-1596.3729740440615
 31
0.0
  0
LINE
  8
0
  6
CONTINUOUS
 62
               7
  5
5F8
 10
464.88652321630752
 20
-1507.3782101647359
 30
0.0
 11
464.2865232163075
 21
-1507.3782101647359
 31
0.0
  0
LINE
  8
0
  6
CONTINUOUS
 62
               7
  5
5F9
 10
429.2865232163075
 20
-1595.3782101647359
 30
0.0
 11
429.2865232163075
 21
-1521.3782101647359
 31
0.0
  0
LINE
  8
0
  6
CONTINUOUS
 62
               7
  5
5FA
 10
522.28652321630761
 20
-1595.3782101647359
 30
0.0
 11
522.28652321630761
 21
-1508.3782101647359
 31
0.0
  0
LINE
  8
0
  6
CONTINUOUS
 62
               7
  5
5FB
 10
464.2865232163075
 20
-1507.3782101647359
 30
0.0
 11
521.28652321630761
 21
-1507.3782101647359
 31
0.0
  0
LINE
  8
0
  6
CONTINUOUS
 62
               7
  5
5FC
 10
430.2865232163075
 20
-1596.3782101647359
 30
0.0
 11
521.28652321630761
 21
-1596.3782101647359
 31
0.0
  0
LINE
  8
0
  6
CONTINUOUS
 62
               7
  5
5FD
 10
521.28652321630761
 20
-1507.3782101647359
 30
0.0
 11
522.28652321630761
 21
-1508.3782101647359
 31
0.0
  0
LINE
  8
0
  6
CONTINUOUS
 62
               7
  5
5FE
 10
522.28652321630761
 20
-1595.3782101647359
 30
0.0
 11
521.28652321630761
 21
-1596.3782101647359
 31
0.0
  0
LINE
  8
0
  6
CONTINUOUS
 62
               7
  5
5FF
 10
430.2865232163075
 20
-1520.3782101647359
 30
0.0
 11
464.2865232163075
 21
-1520.3782101647359
 31
0.0
  0
LINE
  8
0
  6
CONTINUOUS
 62
               7
  5
600
 10
430.2865232163075
 20
-1520.3782101647359
 30
0.0
 11
429.2865232163075
 21
-1521.3782101647359
 31
0.0
  0
LINE
  8
0
  6
CONTINUOUS
 62
               7
  5
601
 10
429.2865232163075
 20
-1595.3782101647359
 30
0.0
 11
430.2865232163075
 21
-1596.3782101647359
 31
0.0
  0
LINE
  8
0
  6
CONTINUOUS
 62
               7
  5
602
 10
464.2865232163075
 20
-1121.8787764161514
 30
0.0
 11
464.28652321630773
 21
-1032.8840125368258
 31
0.0
  0
LINE
  8
0
  6
CONTINUOUS
 62
               7
  5
603
 10
464.88652321630764
 20
-1121.8787764161514
 30
0.0
 11
464.2865232163075
 21
-1121.8787764161514
 31
0.0
  0
LINE
  8
0
  6
CONTINUOUS
 62
               7
  5
604
 10
429.28652321630773
 20
-1040.3787764161514
 30
0.0
 11
429.2865232163075
 21
-1114.3787764161514
 31
0.0
  0
LINE
  8
0
  6
CONTINUOUS
 62
               7
  5
605
 10
522.28652321630784
 20
-1033.8787764161518
 30
0.0
 11
522.28652321630761
 21
-1120.8787764161514
 31
0.0
  0
LINE
  8
0
  6
CONTINUOUS
 62
               7
  5
606
 10
464.2865232163075
 20
-1121.8787764161514
 30
0.0
 11
521.28652321630761
 21
-1121.8787764161514
 31
0.0
  0
LINE
  8
0
  6
CONTINUOUS
 62
               7
  5
607
 10
430.28652321630773
 20
-1039.3787764161514
 30
0.0
 11
464.28652321630773
 21
-1039.3787764161514
 31
0.0
  0
LINE
  8
0
  6
CONTINUOUS
 62
               7
  5
608
 10
521.28652321630761
 20
-1121.8787764161514
 30
0.0
 11
522.28652321630761
 21
-1120.8787764161514
 31
0.0
  0
LINE
  8
0
  6
CONTINUOUS
 62
               7
  5
609
 10
522.28652321630784
 20
-1033.8787764161518
 30
0.0
 11
521.28652321630784
 21
-1032.8787764161518
 31
0.0
  0
LINE
  8
0
  6
CONTINUOUS
 62
               7
  5
60A
 10
430.2865232163075
 20
-1115.3787764161514
 30
0.0
 11
464.28652321630773
 21
-1115.3787764161514
 31
0.0
  0
LINE
  8
0
  6
CONTINUOUS
 62
               7
  5
60B
 10
430.2865232163075
 20
-1115.3787764161514
 30
0.0
 11
429.2865232163075
 21
-1114.3787764161514
 31
0.0
  0
LINE
  8
0
  6
CONTINUOUS
 62
               7
  5
60C
 10
429.28652321630773
 20
-1040.3787764161514
 30
0.0
 11
430.28652321630773
 21
-1039.3787764161514
 31
0.0
  0
LINE
  8
0
  6
CONTINUOUS
 62
               7
  5
60D
 10
464.28652321630773
 20
-1032.8787764161514
 30
0.0
 11
521.28652321630784
 21
-1032.8787764161514
 31
0.0
  0
CIRCLE
  8
0
  6
CONTINUOUS
 62
               7
  5
60E
 10
120.87790746063774
 20
-1637.7716163701461
 30
0.0
 40
44.5
  0
CIRCLE
  8
0
  6
CONTINUOUS
 62
               7
  5
60F
 10
120.87790746063769
 20
-1625.2716163701461
 30
0.0
 40
57.0
  0
CIRCLE
  8
0
  6
CONTINUOUS
 62
               7
  5
610
 10
120.87790746063769
 20
-1637.7716163701461
 30
0.0
 40
40.625
  0
LINE
  8
0
  6
CONTINUOUS
 62
               7
  5
611
 10
247.98631184284108
 20
-1681.2716163701461
 30
0.0
 11
247.98631184284119
 21
-1594.2716163701461
 31
0.0
  0
LINE
  8
0
  6
CONTINUOUS
 62
               7
  5
612
 10
288.58631184284121
 20
-1568.2716163701464
 30
0.0
 11
288.5863118428411
 21
-1682.2716163701464
 31
0.0
  0
LINE
  8
0
  6
CONTINUOUS
 62
               7
  5
613
 10
346.5863118428411
 20
-1681.2716163701464
 30
0.0
 11
346.58631184284121
 21
-1569.2716163701464
 31
0.0
  0
LINE
  8
0
  6
CONTINUOUS
 62
               7
  5
614
 10
345.58631184284121
 20
-1568.2716163701464
 30
0.0
 11
288.58631184284121
 21
-1568.2716163701464
 31
0.0
  0
LINE
  8
0
  6
CONTINUOUS
 62
               7
  5
615
 10
345.5863118428411
 20
-1682.2716163701464
 30
0.0
 11
288.5863118428411
 21
-1682.2716163701464
 31
0.0
  0
LINE
  8
0
  6
CONTINUOUS
 62
               7
  5
616
 10
288.5863118428411
 20
-1682.2716163701464
 30
0.0
 11
248.9863118428411
 21
-1682.2716163701461
 31
0.0
  0
LINE
  8
0
  6
CONTINUOUS
 62
               7
  5
617
 10
288.58631184284121
 20
-1593.2716163701464
 30
0.0
 11
248.98631184284116
 21
-1593.2716163701464
 31
0.0
  0
LINE
  8
0
  6
CONTINUOUS
 62
               7
  5
618
 10
345.58631184284121
 20
-1568.2716163701464
 30
0.0
 11
346.58631184284121
 21
-1569.2716163701464
 31
0.0
  0
LINE
  8
0
  6
CONTINUOUS
 62
               7
  5
619
 10
346.5863118428411
 20
-1681.2716163701464
 30
0.0
 11
345.5863118428411
 21
-1682.2716163701464
 31
0.0
  0
LINE
  8
0
  6
CONTINUOUS
 62
               7
  5
61A
 10
248.98631184284116
 20
-1593.2716163701464
 30
0.0
 11
247.98631184284119
 21
-1594.2716163701461
 31
0.0
  0
LINE
  8
0
  6
CONTINUOUS
 62
               7
  5
61B
 10
247.98631184284108
 20
-1681.2716163701461
 30
0.0
 11
248.9863118428411
 21
-1682.2716163701461
 31
0.0
  0
LINE
  8
0
  6
CONTINUOUS
 62
               7
  5
61C
 10
-6.2304969215657593
 20
-1681.2716163701461
 30
0.0
 11
-6.2304969215657593
 21
-1594.2716163701461
 31
0.0
  0
LINE
  8
0
  6
CONTINUOUS
 62
               7
  5
61D
 10
-46.830496921565725
 20
-1568.2716163701461
 30
0.0
 11
-46.830496921565725
 21
-1682.2716163701461
 31
0.0
  0
LINE
  8
0
  6
CONTINUOUS
 62
               7
  5
61E
 10
-104.83049692156578
 20
-1681.2716163701461
 30
0.0
 11
-104.83049692156578
 21
-1569.2716163701461
 31
0.0
  0
LINE
  8
0
  6
CONTINUOUS
 62
               7
  5
61F
 10
-103.83049692156578
 20
-1568.2716163701461
 30
0.0
 11
-46.830496921565725
 21
-1568.2716163701461
 31
0.0
  0
LINE
  8
0
  6
CONTINUOUS
 62
               7
  5
620
 10
-103.83049692156578
 20
-1682.2716163701461
 30
0.0
 11
-46.830496921565725
 21
-1682.2716163701461
 31
0.0
  0
LINE
  8
0
  6
CONTINUOUS
 62
               7
  5
621
 10
-46.830496921565725
 20
-1682.2716163701461
 30
0.0
 11
-7.2304969215657593
 21
-1682.2716163701461
 31
0.0
  0
LINE
  8
0
  6
CONTINUOUS
 62
               7
  5
622
 10
-46.830496921565725
 20
-1593.2716163701461
 30
0.0
 11
-7.2304969215657593
 21
-1593.2716163701461
 31
0.0
  0
LINE
  8
0
  6
CONTINUOUS
 62
               7
  5
623
 10
-103.83049692156578
 20
-1568.2716163701461
 30
0.0
 11
-104.83049692156578
 21
-1569.2716163701461
 31
0.0
  0
LINE
  8
0
  6
CONTINUOUS
 62
               7
  5
624
 10
-104.83049692156578
 20
-1681.2716163701461
 30
0.0
 11
-103.83049692156578
 21
-1682.2716163701461
 31
0.0
  0
LINE
  8
0
  6
CONTINUOUS
 62
               7
  5
625
 10
-7.2304969215657593
 20
-1593.2716163701461
 30
0.0
 11
-6.2304969215657593
 21
-1594.2716163701461
 31
0.0
  0
LINE
  8
0
  6
CONTINUOUS
 62
               7
  5
626
 10
-6.2304969215657593
 20
-1681.2716163701461
 30
0.0
 11
-7.2304969215657593
 21
-1682.2716163701461
 31
0.0
  0
LINE
  8
0
  6
CONTINUOUS
 62
               7
  5
627
 10
77.37790746063763
 20
-1498.1632119879428
 30
0.0
 11
164.37790746063763
 21
-1498.1632119879428
 31
0.0
  0
LINE
  8
0
  6
CONTINUOUS
 62
               7
  5
628
 10
177.87790746063763
 20
-1457.5632119879426
 30
0.0
 11
63.87790746063763
 21
-1457.5632119879426
 31
0.0
  0
LINE
  8
0
  6
CONTINUOUS
 62
               7
  5
629
 10
64.87790746063763
 20
-1399.5632119879426
 30
0.0
 11
176.87790746063763
 21
-1399.5632119879426
 31
0.0
  0
LINE
  8
0
  6
CONTINUOUS
 62
               7
  5
62A
 10
177.87790746063763
 20
-1400.5632119879426
 30
0.0
 11
177.87790746063763
 21
-1457.5632119879429
 31
0.0
  0
LINE
  8
0
  6
CONTINUOUS
 62
               7
  5
62B
 10
63.87790746063763
 20
-1400.5632119879426
 30
0.0
 11
63.87790746063763
 21
-1457.5632119879429
 31
0.0
  0
LINE
  8
0
  6
CONTINUOUS
 62
               7
  5
62C
 10
76.37790746063763
 20
-1457.5632119879429
 30
0.0
 11
76.37790746063763
 21
-1497.1632119879428
 31
0.0
  0
LINE
  8
0
  6
CONTINUOUS
 62
               7
  5
62D
 10
165.37790746063763
 20
-1457.5632119879429
 30
0.0
 11
165.37790746063763
 21
-1497.1632119879428
 31
0.0
  0
LINE
  8
0
  6
CONTINUOUS
 62
               7
  5
62E
 10
177.87790746063763
 20
-1400.5632119879426
 30
0.0
 11
176.87790746063763
 21
-1399.5632119879426
 31
0.0
  0
LINE
  8
0
  6
CONTINUOUS
 62
               7
  5
62F
 10
64.87790746063763
 20
-1399.5632119879426
 30
0.0
 11
63.87790746063763
 21
-1400.5632119879426
 31
0.0
  0
LINE
  8
0
  6
CONTINUOUS
 62
               7
  5
630
 10
165.37790746063763
 20
-1497.1632119879428
 30
0.0
 11
164.37790746063763
 21
-1498.1632119879428
 31
0.0
  0
LINE
  8
0
  6
CONTINUOUS
 62
               7
  5
631
 10
77.37790746063763
 20
-1498.1632119879428
 30
0.0
 11
76.37790746063763
 21
-1497.1632119879428
 31
0.0
  0
CIRCLE
  8
0
  6
DASHED
 62
               7
  5
632
 10
-392.13776905046905
 20
-1135.0632119879426
 30
0.0
 40
40.0
  0
CIRCLE
  8
0
  6
DASHED
 62
               7
  5
633
 10
120.87790746063763
 20
-1135.0632119879426
 30
0.0
 40
40.0
  0
CIRCLE
  8
0
  6
DASHED
 62
               7
  5
634
 10
609.28652321630761
 20
-1551.8782101647359
 30
0.0
 40
40.0
  0
TEXT
  8
0
 62
               3
  5
635
 10
-392.13776905046905
 20
-1219.5632119879426
 30
0.0
 40
40.0
  1
EMB_80×65
 41
0.8
 72
               1
 11
-392.13776905046905
 21
-1219.5632119879426
 31
0.0
 73
               3
  0
TEXT
  8
0
 62
               3
  5
636
 10
120.87790746063763
 20
-1219.5632119879426
 30
0.0
 40
40.0
  1
EMB_80×50
 41
0.8
 72
               1
 11
120.87790746063763
 21
-1219.5632119879426
 31
0.0
 73
               3
  0
TEXT
  8
0
 62
               3
  5
637
 10
605.58911923866731
 20
-897.93240791093228
 30
0.0
 40
40.0
  1
EMB使用例
 41
0.8
 72
               1
 11
605.58911923866731
 21
-897.93240791093228
 31
0.0
 73
               3
  0
TEXT
  8
0
 62
               3
  5
638
 10
-123.74270409089124
 20
-843.57227201059288
 30
0.0
 40
35.0
  1
横枝管を縮径して管を接続するときは、EMBをご使用ください。
 41
0.8
 72
               1
 11
-123.74270409089124
 21
-843.57227201059288
 31
0.0
 73
               3
  0
TEXT
  8
0
 62
               3
  5
639
 10
120.87790746063763
 20
-1709.7716163701459
 30
0.0
 40
40.0
  1
EMB_100×80
 41
0.8
 72
               1
 11
120.87790746063763
 21
-1709.7716163701459
 31
0.0
 73
               3
  0
ENDSEC
  0
EOF
