  0
SECTION
  2
HEADER
  9
$ACADVER
  1
AC1009
  9
$INSBASE
 10
0.0
 20
0.0
 30
0.0
  9
$EXTMIN
 10
-735.82282976386045
 20
-775.04809927625001
 30
0.0
  9
$EXTMAX
 10
735.82282976386045
 20
775.04809927625001
 30
0.0
  9
$LIMMIN
 10
-781.81175662410169
 20
-823.48860548101561
  9
$LIMMAX
 10
781.81175662410169
 20
823.48860548101561
  9
$ORTHOMODE
 70
               0
  9
$REGENMODE
 70
               1
  9
$FILLMODE
 70
               1
  9
$QTEXTMODE
 70
               0
  9
$MIRRTEXT
 70
               1
  9
$DRAGMODE
 70
               2
  9
$LTSCALE
 40
1.0
  9
$OSMODE
 70
               0
  9
$ATTMODE
 70
               1
  9
$TEXTSIZE
 40
0.2
  9
$TRACEWID
 40
0.05
  9
$TEXTSTYLE
  7
STANDARD
  9
$CLAYER
  8
0
  9
$CELTYPE
  6
CONTINUOUS
  9
$CECOLOR
 62
             256
  9
$DIMSCALE
 40
1.0
  9
$DIMASZ
 40
0.18
  9
$DIMEXO
 40
0.0625
  9
$DIMDLI
 40
0.38
  9
$DIMRND
 40
0.0
  9
$DIMDLE
 40
0.0
  9
$DIMEXE
 40
0.18
  9
$DIMTP
 40
0.0
  9
$DIMTM
 40
0.0
  9
$DIMTXT
 40
0.18
  9
$DIMCEN
 40
0.09
  9
$DIMTSZ
 40
0.0
  9
$DIMTOL
 70
               0
  9
$DIMLIM
 70
               0
  9
$DIMTIH
 70
               1
  9
$DIMTOH
 70
               1
  9
$DIMSE1
 70
               0
  9
$DIMSE2
 70
               0
  9
$DIMTAD
 70
               0
  9
$DIMZIN
 70
               0
  9
$DIMBLK
  1

  9
$DIMASO
 70
               1
  9
$DIMSHO
 70
               1
  9
$DIMPOST
  1

  9
$DIMAPOST
  1

  9
$DIMALT
 70
               0
  9
$DIMALTD
 70
               2
  9
$DIMALTF
 40
25.399999999999999
  9
$DIMLFAC
 40
1.0
  9
$DIMTOFL
 70
               0
  9
$DIMTVP
 40
0.0
  9
$DIMTIX
 70
               0
  9
$DIMSOXD
 70
               0
  9
$DIMSAH
 70
               0
  9
$DIMBLK1
  1

  9
$DIMBLK2
  1

  9
$DIMSTYLE
  2
STANDARD
  9
$DIMCLRD
 70
               0
  9
$DIMCLRE
 70
               0
  9
$DIMCLRT
 70
               0
  9
$DIMTFAC
 40
1.0
  9
$DIMGAP
 40
0.09
  9
$LUNITS
 70
               2
  9
$LUPREC
 70
               4
  9
$AXISMODE
 70
               0
  9
$AXISUNIT
 10
0.0
 20
0.0
  9
$SKETCHINC
 40
0.1
  9
$FILLETRAD
 40
0.0
  9
$AUNITS
 70
               0
  9
$AUPREC
 70
               0
  9
$MENU
  1
acad
  9
$ELEVATION
 40
0.0
  9
$PELEVATION
 40
0.0
  9
$THICKNESS
 40
0.0
  9
$LIMCHECK
 70
               0
  9
$BLIPMODE
 70
               1
  9
$CHAMFERA
 40
0.0
  9
$CHAMFERB
 40
0.0
  9
$SKPOLY
 70
               0
  9
$TDCREATE
 40
0.000000000
  9
$TDUPDATE
 40
0.000000000
  9
$TDINDWG
 40
0.0000000000
  9
$TDUSRTIMER
 40
0.0000000000
  9
$USRTIMER
 70
               1
  9
$ANGBASE
 50
0.0
  9
$ANGDIR
 70
               0
  9
$PDMODE
 70
               0
  9
$PDSIZE
 40
1.0
  9
$PLINEWID
 40
0.0
  9
$COORDS
 70
               1
  9
$SPLFRAME
 70
               0
  9
$SPLINETYPE
 70
               6
  9
$SPLINESEGS
 70
               8
  9
$ATTDIA
 70
               0
  9
$ATTREQ
 70
               1
  9
$HANDLING
 70
               1
  9
$HANDSEED
  5
4EA
  9
$SURFTAB1
 70
               6
  9
$SURFTAB2
 70
               6
  9
$SURFTYPE
 70
               6
  9
$SURFU
 70
               6
  9
$SURFV
 70
               6
  9
$UCSNAME
  2

  9
$UCSORG
 10
0.0
 20
0.0
 30
0.0
  9
$UCSXDIR
 10
1.0
 20
0.0
 30
0.0
  9
$UCSYDIR
 10
0.0
 20
1.0
 30
0.0
  9
$PUCSNAME
  2

  9
$PUCSORG
 10
0.0
 20
0.0
 30
0.0
  9
$PUCSXDIR
 10
1.0
 20
0.0
 30
0.0
  9
$PUCSYDIR
 10
0.0
 20
1.0
 30
0.0
  9
$USERI1
 70
               0
  9
$USERI2
 70
               0
  9
$USERI3
 70
               0
  9
$USERI4
 70
               0
  9
$USERI5
 70
               0
  9
$USERR1
 40
0.0
  9
$USERR2
 40
0.0
  9
$USERR3
 40
0.0
  9
$USERR4
 40
0.0
  9
$USERR5
 40
0.0
  9
$WORLDVIEW
 70
               1
  9
$SHADEDGE
 70
               3
  9
$SHADEDIF
 70
              70
  9
$TILEMODE
 70
               1
  9
$MAXACTVP
 70
              16
  9
$PINSBASE
 10
0.0
 20
0.0
 30
0.0
  9
$PLIMCHECK
 70
               0
  9
$PEXTMIN
 10
1.0000000000000000E+20
 20
1.0000000000000000E+20
 30
1.0000000000000000E+20
  9
$PEXTMAX
 10
-1.0000000000000000E+20
 20
-1.0000000000000000E+20
 30
-1.0000000000000000E+20
  9
$PLIMMIN
 10
0.0
 20
0.0
  9
$PLIMMAX
 10
12.0
 20
9.0
  9
$UNITMODE
 70
               0
  9
$VISRETAIN
 70
               0
  9
$PLINEGEN
 70
               1
  9
$PSLTSCALE
 70
               0
  9
$TREEDEPTH
 70
            3020
  9
$DWGCODEPAGE
  3
dos932
  0
ENDSEC
  0
SECTION
  2
TABLES
  0
TABLE
  2
VPORT
 70
               1
  0
VPORT
  2
*ACTIVE
 70
               0
 10
0.0
 20
0.0
 11
1.0
 21
1.0
 12
0.0
 22
0.0
 13
0.0
 23
0.0
 14
1.0
 24
1.0
 15
0.0
 25
0.0
 16
0.0
 26
0.0
 36
1.0
 17
0.0
 27
0.0
 37
0.0
 40
1646.9772109620312
 41
0.9493898900609928
 42
50.0
 43
0.0
 44
0.0
 50
0.0
 51
0.0
 71
               0
 72
             100
 73
               1
 74
               1
 75
               0
 76
               0
 77
               0
 78
               0
  0
ENDTAB
  0
TABLE
  2
LTYPE
 70
              26
  0
LTYPE
  2
CONTINUOUS
 70
               0
  3
Solid line
 72
              65
 73
               0
 40
0.0
  0
LTYPE
  2
HIDDENX2
 70
               0
  3
CADPAC FUSION LINETYPE
 72
              65
 73
               2
 40
47.560000000000002
 49
35.670000000000002
 49
-11.890000000000001
  0
LTYPE
  2
HIDDEN
 70
               0
  3
CADPAC FUSION LINETYPE
 72
              65
 73
               2
 40
35.670000000000002
 49
23.780000000000001
 49
-11.890000000000001
  0
LTYPE
  2
HIDDEN2
 70
               0
  3
CADPAC FUSION LINETYPE
 72
              65
 73
               2
 40
29.725000000000001
 49
17.835000000000001
 49
-11.890000000000001
  0
LTYPE
  2
DASHED
 70
               0
  3
CADPAC FUSION LINETYPE
 72
              65
 73
               2
 40
35.670000000000002
 49
23.780000000000001
 49
-11.890000000000001
  0
LTYPE
  2
DASHED2
 70
               0
  3
CADPAC FUSION LINETYPE
 72
              65
 73
               2
 40
26.752500000000001
 49
17.835000000000001
 49
-8.9175000000000004
  0
LTYPE
  2
DASHEDX2
 70
               0
  3
CADPAC FUSION LINETYPE
 72
              65
 73
               2
 40
53.505000000000003
 49
35.670000000000002
 49
-17.835000000000001
  0
LTYPE
  2
DOTX2
 70
               0
  3
CADPAC FUSION LINETYPE
 72
              65
 73
               2
 40
14.862500000000001
 49
0.0
 49
-14.862500000000001
  0
LTYPE
  2
DOT
 70
               0
  3
CADPAC FUSION LINETYPE
 72
              65
 73
               2
 40
11.890000000000001
 49
0.0
 49
-11.890000000000001
  0
LTYPE
  2
DOTS
 70
               0
  3
CADPAC FUSION LINETYPE
 72
              65
 73
               2
 40
11.890000000000001
 49
0.0
 49
-11.890000000000001
  0
LTYPE
  2
DOT2
 70
               0
  3
CADPAC FUSION LINETYPE
 72
              65
 73
               2
 40
8.9175000000000004
 49
0.0
 49
-8.9175000000000004
  0
LTYPE
  2
CENTERX2
 70
               0
  3
CADPAC FUSION LINETYPE
 72
              65
 73
               4
 40
71.340000000000003
 49
29.725000000000001
 49
-14.862500000000001
 49
11.890000000000001
 49
-14.862500000000001
  0
LTYPE
  2
CENTER
 70
               0
  3
CADPAC FUSION LINETYPE
 72
              65
 73
               4
 40
54.694000000000003
 49
23.780000000000001
 49
-11.890000000000001
 49
7.1340000000000003
 49
-11.890000000000001
  0
LTYPE
  2
CENTER2
 70
               0
  3
CADPAC FUSION LINETYPE
 72
              65
 73
               4
 40
38.048000000000002
 49
17.835000000000001
 49
-8.9175000000000004
 49
2.3780000000000001
 49
-8.9175000000000004
  0
LTYPE
  2
DASHDOTX2
 70
               0
  3
CADPAC FUSION LINETYPE
 72
              65
 73
               4
 40
59.450000000000003
 49
29.725000000000001
 49
-14.862500000000001
 49
0.0
 49
-14.862500000000001
  0
LTYPE
  2
DASHDOT
 70
               0
  3
CADPAC FUSION LINETYPE
 72
              65
 73
               4
 40
47.560000000000002
 49
23.780000000000001
 49
-11.890000000000001
 49
0.0
 49
-11.890000000000001
  0
LTYPE
  2
DASHDOT2
 70
               0
  3
CADPAC FUSION LINETYPE
 72
              65
 73
               4
 40
35.670000000000002
 49
17.835000000000001
 49
-8.9175000000000004
 49
0.0
 49
-8.9175000000000004
  0
LTYPE
  2
DIVIDEX2
 70
               0
  3
CADPAC FUSION LINETYPE
 72
              65
 73
               6
 40
74.3125
 49
29.725000000000001
 49
-14.862500000000001
 49
0.0
 49
-14.862500000000001
 49
0.0
 49
-14.862500000000001
  0
LTYPE
  2
DIVIDE
 70
               0
  3
CADPAC FUSION LINETYPE
 72
              65
 73
               6
 40
59.450000000000003
 49
23.780000000000001
 49
-11.890000000000001
 49
0.0
 49
-11.890000000000001
 49
0.0
 49
-11.890000000000001
  0
LTYPE
  2
DIVIDE2
 70
               0
  3
CADPAC FUSION LINETYPE
 72
              65
 73
               6
 40
44.587500000000006
 49
17.835000000000001
 49
-8.9175000000000004
 49
0.0
 49
-8.9175000000000004
 49
0.0
 49
-8.9175000000000004
  0
LTYPE
  2
BORDERX2
 70
               0
  3
CADPAC FUSION LINETYPE
 72
              65
 73
               6
 40
104.03750000000001
 49
29.725000000000001
 49
-14.862500000000001
 49
29.725000000000001
 49
-14.862500000000001
 49
0.0
 49
-14.862500000000001
  0
LTYPE
  2
BORDER
 70
               0
  3
CADPAC FUSION LINETYPE
 72
              65
 73
               6
 40
83.230000000000004
 49
23.780000000000001
 49
-11.890000000000001
 49
23.780000000000001
 49
-11.890000000000001
 49
0.0
 49
-11.890000000000001
  0
LTYPE
  2
BORDER2
 70
               0
  3
CADPAC FUSION LINETYPE
 72
              65
 73
               6
 40
62.422499999999999
 49
17.835000000000001
 49
-8.9175000000000004
 49
17.835000000000001
 49
-8.9175000000000004
 49
0.0
 49
-8.9175000000000004
  0
LTYPE
  2
PHANTOMX2
 70
               0
  3
CADPAC FUSION LINETYPE
 72
              65
 73
               6
 40
89.175000000000011
 49
29.725000000000001
 49
-11.890000000000001
 49
11.890000000000001
 49
-11.890000000000001
 49
11.890000000000001
 49
-11.890000000000001
  0
LTYPE
  2
PHANTOM
 70
               0
  3
CADPAC FUSION LINETYPE
 72
              65
 73
               6
 40
73.718000000000004
 49
23.780000000000001
 49
-11.890000000000001
 49
7.1340000000000003
 49
-11.890000000000001
 49
7.1340000000000003
 49
-11.890000000000001
  0
LTYPE
  2
PHANTOM2
 70
               0
  3
CADPAC FUSION LINETYPE
 72
              65
 73
               6
 40
63.017000000000003
 49
17.835000000000001
 49
-11.890000000000001
 49
4.7560000000000002
 49
-11.890000000000001
 49
4.7560000000000002
 49
-11.890000000000001
  0
ENDTAB
  0
TABLE
  2
LAYER
 70
             256
  0
LAYER
  2
0
 70
               0
 62
               7
  6
CONTINUOUS
  0
LAYER
  2
LAYER001
 70
               0
 62
               7
  6
CONTINUOUS
  0
LAYER
  2
LAYER002
 70
               0
 62
               7
  6
CONTINUOUS
  0
LAYER
  2
LAYER003
 70
               0
 62
               7
  6
CONTINUOUS
  0
LAYER
  2
LAYER004
 70
               0
 62
               7
  6
CONTINUOUS
  0
LAYER
  2
LAYER005
 70
               0
 62
               7
  6
CONTINUOUS
  0
LAYER
  2
LAYER006
 70
               0
 62
               7
  6
CONTINUOUS
  0
LAYER
  2
LAYER007
 70
               0
 62
               7
  6
CONTINUOUS
  0
LAYER
  2
LAYER008
 70
               0
 62
               7
  6
CONTINUOUS
  0
LAYER
  2
LAYER009
 70
               0
 62
               7
  6
CONTINUOUS
  0
LAYER
  2
LAYER010
 70
               0
 62
               7
  6
CONTINUOUS
  0
LAYER
  2
LAYER011
 70
               0
 62
               7
  6
CONTINUOUS
  0
LAYER
  2
LAYER012
 70
               0
 62
               7
  6
CONTINUOUS
  0
LAYER
  2
LAYER013
 70
               0
 62
               7
  6
CONTINUOUS
  0
LAYER
  2
LAYER014
 70
               0
 62
               7
  6
CONTINUOUS
  0
LAYER
  2
LAYER015
 70
               0
 62
               7
  6
CONTINUOUS
  0
LAYER
  2
LAYER016
 70
               0
 62
               7
  6
CONTINUOUS
  0
LAYER
  2
LAYER017
 70
               0
 62
               7
  6
CONTINUOUS
  0
LAYER
  2
LAYER018
 70
               0
 62
               7
  6
CONTINUOUS
  0
LAYER
  2
LAYER019
 70
               0
 62
               7
  6
CONTINUOUS
  0
LAYER
  2
LAYER020
 70
               0
 62
               7
  6
CONTINUOUS
  0
LAYER
  2
LAYER021
 70
               0
 62
               7
  6
CONTINUOUS
  0
LAYER
  2
LAYER022
 70
               0
 62
               7
  6
CONTINUOUS
  0
LAYER
  2
LAYER023
 70
               0
 62
               7
  6
CONTINUOUS
  0
LAYER
  2
LAYER024
 70
               0
 62
               7
  6
CONTINUOUS
  0
LAYER
  2
LAYER025
 70
               0
 62
               7
  6
CONTINUOUS
  0
LAYER
  2
LAYER026
 70
               0
 62
               7
  6
CONTINUOUS
  0
LAYER
  2
LAYER027
 70
               0
 62
               7
  6
CONTINUOUS
  0
LAYER
  2
LAYER028
 70
               0
 62
               7
  6
CONTINUOUS
  0
LAYER
  2
LAYER029
 70
               0
 62
               7
  6
CONTINUOUS
  0
LAYER
  2
LAYER030
 70
               0
 62
               7
  6
CONTINUOUS
  0
LAYER
  2
LAYER031
 70
               0
 62
               7
  6
CONTINUOUS
  0
LAYER
  2
LAYER032
 70
               0
 62
               7
  6
CONTINUOUS
  0
LAYER
  2
LAYER033
 70
               0
 62
               7
  6
CONTINUOUS
  0
LAYER
  2
LAYER034
 70
               0
 62
               7
  6
CONTINUOUS
  0
LAYER
  2
LAYER035
 70
               0
 62
               7
  6
CONTINUOUS
  0
LAYER
  2
LAYER036
 70
               0
 62
               7
  6
CONTINUOUS
  0
LAYER
  2
LAYER037
 70
               0
 62
               7
  6
CONTINUOUS
  0
LAYER
  2
LAYER038
 70
               0
 62
               7
  6
CONTINUOUS
  0
LAYER
  2
LAYER039
 70
               0
 62
               7
  6
CONTINUOUS
  0
LAYER
  2
LAYER040
 70
               0
 62
               7
  6
CONTINUOUS
  0
LAYER
  2
LAYER041
 70
               0
 62
               7
  6
CONTINUOUS
  0
LAYER
  2
LAYER042
 70
               0
 62
               7
  6
CONTINUOUS
  0
LAYER
  2
LAYER043
 70
               0
 62
               7
  6
CONTINUOUS
  0
LAYER
  2
LAYER044
 70
               0
 62
               7
  6
CONTINUOUS
  0
LAYER
  2
LAYER045
 70
               0
 62
               7
  6
CONTINUOUS
  0
LAYER
  2
LAYER046
 70
               0
 62
               7
  6
CONTINUOUS
  0
LAYER
  2
LAYER047
 70
               0
 62
               7
  6
CONTINUOUS
  0
LAYER
  2
LAYER048
 70
               0
 62
               7
  6
CONTINUOUS
  0
LAYER
  2
LAYER049
 70
               0
 62
               7
  6
CONTINUOUS
  0
LAYER
  2
LAYER050
 70
               0
 62
               7
  6
CONTINUOUS
  0
LAYER
  2
LAYER051
 70
               0
 62
               7
  6
CONTINUOUS
  0
LAYER
  2
LAYER052
 70
               0
 62
               7
  6
CONTINUOUS
  0
LAYER
  2
LAYER053
 70
               0
 62
               7
  6
CONTINUOUS
  0
LAYER
  2
LAYER054
 70
               0
 62
               7
  6
CONTINUOUS
  0
LAYER
  2
LAYER055
 70
               0
 62
               7
  6
CONTINUOUS
  0
LAYER
  2
LAYER056
 70
               0
 62
               7
  6
CONTINUOUS
  0
LAYER
  2
LAYER057
 70
               0
 62
               7
  6
CONTINUOUS
  0
LAYER
  2
LAYER058
 70
               0
 62
               7
  6
CONTINUOUS
  0
LAYER
  2
LAYER059
 70
               0
 62
               7
  6
CONTINUOUS
  0
LAYER
  2
LAYER060
 70
               0
 62
               7
  6
CONTINUOUS
  0
LAYER
  2
LAYER061
 70
               0
 62
               7
  6
CONTINUOUS
  0
LAYER
  2
LAYER062
 70
               0
 62
               7
  6
CONTINUOUS
  0
LAYER
  2
LAYER063
 70
               0
 62
               7
  6
CONTINUOUS
  0
LAYER
  2
LAYER064
 70
               0
 62
               7
  6
CONTINUOUS
  0
LAYER
  2
LAYER065
 70
               0
 62
               7
  6
CONTINUOUS
  0
LAYER
  2
LAYER066
 70
               0
 62
               7
  6
CONTINUOUS
  0
LAYER
  2
LAYER067
 70
               0
 62
               7
  6
CONTINUOUS
  0
LAYER
  2
LAYER068
 70
               0
 62
               7
  6
CONTINUOUS
  0
LAYER
  2
LAYER069
 70
               0
 62
               7
  6
CONTINUOUS
  0
LAYER
  2
LAYER070
 70
               0
 62
               7
  6
CONTINUOUS
  0
LAYER
  2
LAYER071
 70
               0
 62
               7
  6
CONTINUOUS
  0
LAYER
  2
LAYER072
 70
               0
 62
               7
  6
CONTINUOUS
  0
LAYER
  2
LAYER073
 70
               0
 62
               7
  6
CONTINUOUS
  0
LAYER
  2
LAYER074
 70
               0
 62
               7
  6
CONTINUOUS
  0
LAYER
  2
LAYER075
 70
               0
 62
               7
  6
CONTINUOUS
  0
LAYER
  2
LAYER076
 70
               0
 62
               7
  6
CONTINUOUS
  0
LAYER
  2
LAYER077
 70
               0
 62
               7
  6
CONTINUOUS
  0
LAYER
  2
LAYER078
 70
               0
 62
               7
  6
CONTINUOUS
  0
LAYER
  2
LAYER079
 70
               0
 62
               7
  6
CONTINUOUS
  0
LAYER
  2
LAYER080
 70
               0
 62
               7
  6
CONTINUOUS
  0
LAYER
  2
LAYER081
 70
               0
 62
               7
  6
CONTINUOUS
  0
LAYER
  2
LAYER082
 70
               0
 62
               7
  6
CONTINUOUS
  0
LAYER
  2
LAYER083
 70
               0
 62
               7
  6
CONTINUOUS
  0
LAYER
  2
LAYER084
 70
               0
 62
               7
  6
CONTINUOUS
  0
LAYER
  2
LAYER085
 70
               0
 62
               7
  6
CONTINUOUS
  0
LAYER
  2
LAYER086
 70
               0
 62
               7
  6
CONTINUOUS
  0
LAYER
  2
LAYER087
 70
               0
 62
               7
  6
CONTINUOUS
  0
LAYER
  2
LAYER088
 70
               0
 62
               7
  6
CONTINUOUS
  0
LAYER
  2
LAYER089
 70
               0
 62
               7
  6
CONTINUOUS
  0
LAYER
  2
LAYER090
 70
               0
 62
               7
  6
CONTINUOUS
  0
LAYER
  2
LAYER091
 70
               0
 62
               7
  6
CONTINUOUS
  0
LAYER
  2
LAYER092
 70
               0
 62
               7
  6
CONTINUOUS
  0
LAYER
  2
LAYER093
 70
               0
 62
               7
  6
CONTINUOUS
  0
LAYER
  2
LAYER094
 70
               0
 62
               7
  6
CONTINUOUS
  0
LAYER
  2
LAYER095
 70
               0
 62
               7
  6
CONTINUOUS
  0
LAYER
  2
LAYER096
 70
               0
 62
               7
  6
CONTINUOUS
  0
LAYER
  2
LAYER097
 70
               0
 62
               7
  6
CONTINUOUS
  0
LAYER
  2
LAYER098
 70
               0
 62
               7
  6
CONTINUOUS
  0
LAYER
  2
LAYER099
 70
               0
 62
               7
  6
CONTINUOUS
  0
LAYER
  2
LAYER100
 70
               0
 62
               7
  6
CONTINUOUS
  0
LAYER
  2
LAYER101
 70
               0
 62
               7
  6
CONTINUOUS
  0
LAYER
  2
LAYER102
 70
               0
 62
               7
  6
CONTINUOUS
  0
LAYER
  2
LAYER103
 70
               0
 62
               7
  6
CONTINUOUS
  0
LAYER
  2
LAYER104
 70
               0
 62
               7
  6
CONTINUOUS
  0
LAYER
  2
LAYER105
 70
               0
 62
               7
  6
CONTINUOUS
  0
LAYER
  2
LAYER106
 70
               0
 62
               7
  6
CONTINUOUS
  0
LAYER
  2
LAYER107
 70
               0
 62
               7
  6
CONTINUOUS
  0
LAYER
  2
LAYER108
 70
               0
 62
               7
  6
CONTINUOUS
  0
LAYER
  2
LAYER109
 70
               0
 62
               7
  6
CONTINUOUS
  0
LAYER
  2
LAYER110
 70
               0
 62
               7
  6
CONTINUOUS
  0
LAYER
  2
LAYER111
 70
               0
 62
               7
  6
CONTINUOUS
  0
LAYER
  2
LAYER112
 70
               0
 62
               7
  6
CONTINUOUS
  0
LAYER
  2
LAYER113
 70
               0
 62
               7
  6
CONTINUOUS
  0
LAYER
  2
LAYER114
 70
               0
 62
               7
  6
CONTINUOUS
  0
LAYER
  2
LAYER115
 70
               0
 62
               7
  6
CONTINUOUS
  0
LAYER
  2
LAYER116
 70
               0
 62
               7
  6
CONTINUOUS
  0
LAYER
  2
LAYER117
 70
               0
 62
               7
  6
CONTINUOUS
  0
LAYER
  2
LAYER118
 70
               0
 62
               7
  6
CONTINUOUS
  0
LAYER
  2
LAYER119
 70
               0
 62
               7
  6
CONTINUOUS
  0
LAYER
  2
LAYER120
 70
               0
 62
               7
  6
CONTINUOUS
  0
LAYER
  2
LAYER121
 70
               0
 62
               7
  6
CONTINUOUS
  0
LAYER
  2
LAYER122
 70
               0
 62
               7
  6
CONTINUOUS
  0
LAYER
  2
LAYER123
 70
               0
 62
               7
  6
CONTINUOUS
  0
LAYER
  2
LAYER124
 70
               0
 62
               7
  6
CONTINUOUS
  0
LAYER
  2
LAYER125
 70
               0
 62
               7
  6
CONTINUOUS
  0
LAYER
  2
LAYER126
 70
               0
 62
               7
  6
CONTINUOUS
  0
LAYER
  2
LAYER127
 70
               0
 62
               7
  6
CONTINUOUS
  0
LAYER
  2
LAYER128
 70
               0
 62
               7
  6
CONTINUOUS
  0
LAYER
  2
LAYER129
 70
               0
 62
               7
  6
CONTINUOUS
  0
LAYER
  2
LAYER130
 70
               0
 62
               7
  6
CONTINUOUS
  0
LAYER
  2
LAYER131
 70
               0
 62
               7
  6
CONTINUOUS
  0
LAYER
  2
LAYER132
 70
               0
 62
               7
  6
CONTINUOUS
  0
LAYER
  2
LAYER133
 70
               0
 62
               7
  6
CONTINUOUS
  0
LAYER
  2
LAYER134
 70
               0
 62
               7
  6
CONTINUOUS
  0
LAYER
  2
LAYER135
 70
               0
 62
               7
  6
CONTINUOUS
  0
LAYER
  2
LAYER136
 70
               0
 62
               7
  6
CONTINUOUS
  0
LAYER
  2
LAYER137
 70
               0
 62
               7
  6
CONTINUOUS
  0
LAYER
  2
LAYER138
 70
               0
 62
               7
  6
CONTINUOUS
  0
LAYER
  2
LAYER139
 70
               0
 62
               7
  6
CONTINUOUS
  0
LAYER
  2
LAYER140
 70
               0
 62
               7
  6
CONTINUOUS
  0
LAYER
  2
LAYER141
 70
               0
 62
               7
  6
CONTINUOUS
  0
LAYER
  2
LAYER142
 70
               0
 62
               7
  6
CONTINUOUS
  0
LAYER
  2
LAYER143
 70
               0
 62
               7
  6
CONTINUOUS
  0
LAYER
  2
LAYER144
 70
               0
 62
               7
  6
CONTINUOUS
  0
LAYER
  2
LAYER145
 70
               0
 62
               7
  6
CONTINUOUS
  0
LAYER
  2
LAYER146
 70
               0
 62
               7
  6
CONTINUOUS
  0
LAYER
  2
LAYER147
 70
               0
 62
               7
  6
CONTINUOUS
  0
LAYER
  2
LAYER148
 70
               0
 62
               7
  6
CONTINUOUS
  0
LAYER
  2
LAYER149
 70
               0
 62
               7
  6
CONTINUOUS
  0
LAYER
  2
LAYER150
 70
               0
 62
               7
  6
CONTINUOUS
  0
LAYER
  2
LAYER151
 70
               0
 62
               7
  6
CONTINUOUS
  0
LAYER
  2
LAYER152
 70
               0
 62
               7
  6
CONTINUOUS
  0
LAYER
  2
LAYER153
 70
               0
 62
               7
  6
CONTINUOUS
  0
LAYER
  2
LAYER154
 70
               0
 62
               7
  6
CONTINUOUS
  0
LAYER
  2
LAYER155
 70
               0
 62
               7
  6
CONTINUOUS
  0
LAYER
  2
LAYER156
 70
               0
 62
               7
  6
CONTINUOUS
  0
LAYER
  2
LAYER157
 70
               0
 62
               7
  6
CONTINUOUS
  0
LAYER
  2
LAYER158
 70
               0
 62
               7
  6
CONTINUOUS
  0
LAYER
  2
LAYER159
 70
               0
 62
               7
  6
CONTINUOUS
  0
LAYER
  2
LAYER160
 70
               0
 62
               7
  6
CONTINUOUS
  0
LAYER
  2
LAYER161
 70
               0
 62
               7
  6
CONTINUOUS
  0
LAYER
  2
LAYER162
 70
               0
 62
               7
  6
CONTINUOUS
  0
LAYER
  2
LAYER163
 70
               0
 62
               7
  6
CONTINUOUS
  0
LAYER
  2
LAYER164
 70
               0
 62
               7
  6
CONTINUOUS
  0
LAYER
  2
LAYER165
 70
               0
 62
               7
  6
CONTINUOUS
  0
LAYER
  2
LAYER166
 70
               0
 62
               7
  6
CONTINUOUS
  0
LAYER
  2
LAYER167
 70
               0
 62
               7
  6
CONTINUOUS
  0
LAYER
  2
LAYER168
 70
               0
 62
               7
  6
CONTINUOUS
  0
LAYER
  2
LAYER169
 70
               0
 62
               7
  6
CONTINUOUS
  0
LAYER
  2
LAYER170
 70
               0
 62
               7
  6
CONTINUOUS
  0
LAYER
  2
LAYER171
 70
               0
 62
               7
  6
CONTINUOUS
  0
LAYER
  2
LAYER172
 70
               0
 62
               7
  6
CONTINUOUS
  0
LAYER
  2
LAYER173
 70
               0
 62
               7
  6
CONTINUOUS
  0
LAYER
  2
LAYER174
 70
               0
 62
               7
  6
CONTINUOUS
  0
LAYER
  2
LAYER175
 70
               0
 62
               7
  6
CONTINUOUS
  0
LAYER
  2
LAYER176
 70
               0
 62
               7
  6
CONTINUOUS
  0
LAYER
  2
LAYER177
 70
               0
 62
               7
  6
CONTINUOUS
  0
LAYER
  2
LAYER178
 70
               0
 62
               7
  6
CONTINUOUS
  0
LAYER
  2
LAYER179
 70
               0
 62
               7
  6
CONTINUOUS
  0
LAYER
  2
LAYER180
 70
               0
 62
               7
  6
CONTINUOUS
  0
LAYER
  2
LAYER181
 70
               0
 62
               7
  6
CONTINUOUS
  0
LAYER
  2
LAYER182
 70
               0
 62
               7
  6
CONTINUOUS
  0
LAYER
  2
LAYER183
 70
               0
 62
               7
  6
CONTINUOUS
  0
LAYER
  2
LAYER184
 70
               0
 62
               7
  6
CONTINUOUS
  0
LAYER
  2
LAYER185
 70
               0
 62
               7
  6
CONTINUOUS
  0
LAYER
  2
LAYER186
 70
               0
 62
               7
  6
CONTINUOUS
  0
LAYER
  2
LAYER187
 70
               0
 62
               7
  6
CONTINUOUS
  0
LAYER
  2
LAYER188
 70
               0
 62
               7
  6
CONTINUOUS
  0
LAYER
  2
LAYER189
 70
               0
 62
               7
  6
CONTINUOUS
  0
LAYER
  2
LAYER190
 70
               0
 62
               7
  6
CONTINUOUS
  0
LAYER
  2
LAYER191
 70
               0
 62
               7
  6
CONTINUOUS
  0
LAYER
  2
LAYER192
 70
               0
 62
               7
  6
CONTINUOUS
  0
LAYER
  2
LAYER193
 70
               0
 62
               7
  6
CONTINUOUS
  0
LAYER
  2
LAYER194
 70
               0
 62
               7
  6
CONTINUOUS
  0
LAYER
  2
LAYER195
 70
               0
 62
               7
  6
CONTINUOUS
  0
LAYER
  2
LAYER196
 70
               0
 62
               7
  6
CONTINUOUS
  0
LAYER
  2
LAYER197
 70
               0
 62
               7
  6
CONTINUOUS
  0
LAYER
  2
LAYER198
 70
               0
 62
               7
  6
CONTINUOUS
  0
LAYER
  2
LAYER199
 70
               0
 62
               7
  6
CONTINUOUS
  0
LAYER
  2
LAYER200
 70
               0
 62
               7
  6
CONTINUOUS
  0
LAYER
  2
LAYER201
 70
               0
 62
               7
  6
CONTINUOUS
  0
LAYER
  2
LAYER202
 70
               0
 62
               7
  6
CONTINUOUS
  0
LAYER
  2
LAYER203
 70
               0
 62
               7
  6
CONTINUOUS
  0
LAYER
  2
LAYER204
 70
               0
 62
               7
  6
CONTINUOUS
  0
LAYER
  2
LAYER205
 70
               0
 62
               7
  6
CONTINUOUS
  0
LAYER
  2
LAYER206
 70
               0
 62
               7
  6
CONTINUOUS
  0
LAYER
  2
LAYER207
 70
               0
 62
               7
  6
CONTINUOUS
  0
LAYER
  2
LAYER208
 70
               0
 62
               7
  6
CONTINUOUS
  0
LAYER
  2
LAYER209
 70
               0
 62
               7
  6
CONTINUOUS
  0
LAYER
  2
LAYER210
 70
               0
 62
               7
  6
CONTINUOUS
  0
LAYER
  2
LAYER211
 70
               0
 62
               7
  6
CONTINUOUS
  0
LAYER
  2
LAYER212
 70
               0
 62
               7
  6
CONTINUOUS
  0
LAYER
  2
LAYER213
 70
               0
 62
               7
  6
CONTINUOUS
  0
LAYER
  2
LAYER214
 70
               0
 62
               7
  6
CONTINUOUS
  0
LAYER
  2
LAYER215
 70
               0
 62
               7
  6
CONTINUOUS
  0
LAYER
  2
LAYER216
 70
               0
 62
               7
  6
CONTINUOUS
  0
LAYER
  2
LAYER217
 70
               0
 62
               7
  6
CONTINUOUS
  0
LAYER
  2
LAYER218
 70
               0
 62
               7
  6
CONTINUOUS
  0
LAYER
  2
LAYER219
 70
               0
 62
               7
  6
CONTINUOUS
  0
LAYER
  2
LAYER220
 70
               0
 62
               7
  6
CONTINUOUS
  0
LAYER
  2
LAYER221
 70
               0
 62
               7
  6
CONTINUOUS
  0
LAYER
  2
LAYER222
 70
               0
 62
               7
  6
CONTINUOUS
  0
LAYER
  2
LAYER223
 70
               0
 62
               7
  6
CONTINUOUS
  0
LAYER
  2
LAYER224
 70
               0
 62
               7
  6
CONTINUOUS
  0
LAYER
  2
LAYER225
 70
               0
 62
               7
  6
CONTINUOUS
  0
LAYER
  2
LAYER226
 70
               0
 62
               7
  6
CONTINUOUS
  0
LAYER
  2
LAYER227
 70
               0
 62
               7
  6
CONTINUOUS
  0
LAYER
  2
LAYER228
 70
               0
 62
               7
  6
CONTINUOUS
  0
LAYER
  2
LAYER229
 70
               0
 62
               7
  6
CONTINUOUS
  0
LAYER
  2
LAYER230
 70
               0
 62
               7
  6
CONTINUOUS
  0
LAYER
  2
LAYER231
 70
               0
 62
               7
  6
CONTINUOUS
  0
LAYER
  2
LAYER232
 70
               0
 62
               7
  6
CONTINUOUS
  0
LAYER
  2
LAYER233
 70
               0
 62
               7
  6
CONTINUOUS
  0
LAYER
  2
LAYER234
 70
               0
 62
               7
  6
CONTINUOUS
  0
LAYER
  2
LAYER235
 70
               0
 62
               7
  6
CONTINUOUS
  0
LAYER
  2
LAYER236
 70
               0
 62
               7
  6
CONTINUOUS
  0
LAYER
  2
LAYER237
 70
               0
 62
               7
  6
CONTINUOUS
  0
LAYER
  2
LAYER238
 70
               0
 62
               7
  6
CONTINUOUS
  0
LAYER
  2
LAYER239
 70
               0
 62
               7
  6
CONTINUOUS
  0
LAYER
  2
LAYER240
 70
               0
 62
               7
  6
CONTINUOUS
  0
LAYER
  2
LAYER241
 70
               0
 62
               7
  6
CONTINUOUS
  0
LAYER
  2
LAYER242
 70
               0
 62
               7
  6
CONTINUOUS
  0
LAYER
  2
LAYER243
 70
               0
 62
               7
  6
CONTINUOUS
  0
LAYER
  2
LAYER244
 70
               0
 62
               7
  6
CONTINUOUS
  0
LAYER
  2
LAYER245
 70
               0
 62
               7
  6
CONTINUOUS
  0
LAYER
  2
LAYER246
 70
               0
 62
               7
  6
CONTINUOUS
  0
LAYER
  2
LAYER247
 70
               0
 62
               7
  6
CONTINUOUS
  0
LAYER
  2
LAYER248
 70
               0
 62
               7
  6
CONTINUOUS
  0
LAYER
  2
LAYER249
 70
               0
 62
               7
  6
CONTINUOUS
  0
LAYER
  2
LAYER250
 70
               0
 62
               7
  6
CONTINUOUS
  0
LAYER
  2
LAYER251
 70
               0
 62
               7
  6
CONTINUOUS
  0
LAYER
  2
LAYER252
 70
               0
 62
               7
  6
CONTINUOUS
  0
LAYER
  2
LAYER253
 70
               0
 62
               7
  6
CONTINUOUS
  0
LAYER
  2
LAYER254
 70
               0
 62
               7
  6
CONTINUOUS
  0
LAYER
  2
LAYER255
 70
               0
 62
               7
  6
CONTINUOUS
  0
ENDTAB
  0
TABLE
  2
STYLE
 70
               1
  0
STYLE
  2
STANDARD
 70
               0
 40
0.0
 41
1.0
 50
0.0
 71
               0
 42
0.0
  3
txt
  4

  0
ENDTAB
  0
TABLE
  2
VIEW
 70
               0
  0
VIEW
  2
QQQQ
 70
               0
 40
1646.9772109620312
 10
0.0
 20
0.0
 41
1563.6235132482034
 11
0.0
 21
0.0
 31
1.0
 12
100.0
 22
100.0
 32
0.0
 42
50.0
 43
0.0
 44
0.0
 50
0.0
 71
               0
  0
ENDTAB
  0
TABLE
  2
UCS
 70
               0
  0
ENDTAB
  0
TABLE
  2
APPID
 70
               1
  0
APPID
  2
ACAD
 70
               0
  0
ENDTAB
  0
TABLE
  2
DIMSTYLE
 70
               1
  0
DIMSTYLE
  2
STANDARD
 70
               0
  3

  4

  5

  6

  7

 40
1.0
 41
0.18
 42
0.0625
 43
0.38
 44
0.18
 45
0.0
 46
0.0
 47
0.0
 48
0.0
140
0.18
141
0.09
142
0.0
143
25.399999999999999
144
1.0
145
0.0
146
1.0
147
0.09
 71
               0
 72
               0
 73
               1
 74
               1
 75
               0
 76
               0
 77
               0
 78
               0
170
               0
171
               2
172
               0
173
               0
174
               0
175
               0
176
               0
177
               0
178
               0
  0
ENDTAB
  0
ENDSEC
  0
SECTION
  2
BLOCKS
  0
BLOCK
  8
0
  5
142
  2
GROUP_1
 70
               0
 10
0.0
 20
0.0
 30
0.0
  3
GROUP_1
  0
LINE
  8
0
  6
CONTINUOUS
 62
               4
  5
143
 10
-75.2758865209004
 20
-302.30610679215658
 30
0.0
 11
-73.908276667880074
 21
-303.18030577653684
 31
0.0
  0
LINE
  8
0
  6
CONTINUOUS
 62
               4
  5
144
 10
-73.908276667880074
 20
-303.18030577653684
 30
0.0
 11
-72.540666814857332
 21
-304.05939524568078
 31
0.0
  0
LINE
  8
0
  6
CONTINUOUS
 62
               4
  5
145
 10
-72.540666814857332
 20
-304.05939524568078
 30
0.0
 11
-71.173056961832884
 21
-304.94826568426782
 31
0.0
  0
LINE
  8
0
  6
CONTINUOUS
 62
               4
  5
146
 10
-71.173056961832884
 20
-304.94826568426782
 30
0.0
 11
-69.805447108807655
 21
-305.85180757697742
 31
0.0
  0
LINE
  8
0
  6
CONTINUOUS
 62
               4
  5
147
 10
-69.805447108807655
 20
-305.85180757697742
 30
0.0
 11
-68.437837255782568
 21
-306.77491140848895
 31
0.0
  0
LINE
  8
0
  6
CONTINUOUS
 62
               4
  5
148
 10
-68.437837255782568
 20
-306.77491140848895
 30
0.0
 11
-67.070227402758192
 21
-307.72103317878566
 31
0.0
  0
LINE
  8
0
  6
CONTINUOUS
 62
               4
  5
149
 10
-67.070227402758192
 20
-307.72103317878566
 30
0.0
 11
-65.702617549734384
 21
-308.68789094906549
 31
0.0
  0
LINE
  8
0
  6
CONTINUOUS
 62
               4
  5
14A
 10
-65.702617549734384
 20
-308.68789094906549
 30
0.0
 11
-64.335007696711003
 21
-309.67176829583019
 31
0.0
  0
LINE
  8
0
  6
CONTINUOUS
 62
               4
  5
14B
 10
-64.335007696711003
 20
-309.67176829583019
 30
0.0
 11
-62.967397843687834
 21
-310.66894879558163
 31
0.0
  0
LINE
  8
0
  6
CONTINUOUS
 62
               4
  5
14C
 10
-62.967397843687834
 20
-310.66894879558163
 30
0.0
 11
-61.599787990664737
 21
-311.67571602482144
 31
0.0
  0
LINE
  8
0
  6
CONTINUOUS
 62
               4
  5
14D
 10
-61.599787990664737
 20
-311.67571602482144
 30
0.0
 11
-60.232178137641426
 21
-312.68897949885354
 31
0.0
  0
LINE
  8
0
  6
CONTINUOUS
 62
               4
  5
14E
 10
-60.232178137641426
 20
-312.68897949885354
 30
0.0
 11
-58.864568284617832
 21
-313.70815248818928
 31
0.0
  0
LINE
  8
0
  6
CONTINUOUS
 62
               4
  5
14F
 10
-58.864568284617832
 20
-313.70815248818928
 30
0.0
 11
-57.496958431594237
 21
-314.7332742021423
 31
0.0
  0
LINE
  8
0
  6
CONTINUOUS
 62
               4
  5
150
 10
-57.496958431594237
 20
-314.7332742021423
 30
0.0
 11
-56.129348578570642
 21
-315.76438385002598
 31
0.0
  0
LINE
  8
0
  6
CONTINUOUS
 62
               4
  5
151
 10
-56.129348578570642
 20
-315.76438385002598
 30
0.0
 11
-54.761738725546763
 21
-316.8015206411539
 31
0.0
  0
LINE
  8
0
  6
CONTINUOUS
 62
               4
  5
152
 10
-54.761738725546763
 20
-316.8015206411539
 30
0.0
 11
-53.394128872523169
 21
-317.84466251432809
 31
0.0
  0
LINE
  8
0
  6
CONTINUOUS
 62
               4
  5
153
 10
-53.394128872523169
 20
-317.84466251432809
 30
0.0
 11
-52.026519019499645
 21
-318.89354232630416
 31
0.0
  0
LINE
  8
0
  6
CONTINUOUS
 62
               4
  5
154
 10
-52.026519019499645
 20
-318.89354232630416
 30
0.0
 11
-50.658909166476121
 21
-319.9478316633265
 31
0.0
  0
LINE
  8
0
  6
CONTINUOUS
 62
               4
  5
155
 10
-50.658909166476121
 20
-319.9478316633265
 30
0.0
 11
-49.291299313452598
 21
-321.00720211163912
 31
0.0
  0
LINE
  8
0
  6
CONTINUOUS
 62
               4
  5
156
 10
-49.291299313452598
 20
-321.00720211163912
 30
0.0
 11
-47.923689460429074
 21
-322.07132525748636
 31
0.0
  0
LINE
  8
0
  6
CONTINUOUS
 62
               4
  5
157
 10
-47.923689460429074
 20
-322.07132525748636
 30
0.0
 11
-46.556079607405408
 21
-323.13985183035669
 31
0.0
  0
LINE
  8
0
  6
CONTINUOUS
 62
               4
  5
158
 10
-46.556079607405408
 20
-323.13985183035669
 30
0.0
 11
-45.188469754381956
 21
-324.21234913271553
 31
0.0
  0
LINE
  8
0
  6
CONTINUOUS
 62
               4
  5
159
 10
-45.188469754381956
 20
-324.21234913271553
 30
0.0
 11
-43.820859901358432
 21
-325.28836361027243
 31
0.0
  0
LINE
  8
0
  6
CONTINUOUS
 62
               4
  5
15A
 10
-43.820859901358432
 20
-325.28836361027243
 30
0.0
 11
-42.453250048334837
 21
-326.36744170873692
 31
0.0
  0
LINE
  8
0
  6
CONTINUOUS
 62
               4
  5
15B
 10
-42.453250048334837
 20
-326.36744170873692
 30
0.0
 11
-41.085640195311242
 21
-327.44912987381883
 31
0.0
  0
LINE
  8
0
  6
CONTINUOUS
 62
               4
  5
15C
 10
-41.085640195311242
 20
-327.44912987381883
 30
0.0
 11
-39.718030342287719
 21
-328.53311924876226
 31
0.0
  0
LINE
  8
0
  6
CONTINUOUS
 62
               4
  5
15D
 10
-39.718030342287719
 20
-328.53311924876226
 30
0.0
 11
-38.350420489264124
 21
-329.6196797669499
 31
0.0
  0
LINE
  8
0
  6
CONTINUOUS
 62
               4
  5
15E
 10
-38.350420489264124
 20
-329.6196797669499
 30
0.0
 11
-36.982810636240529
 21
-330.70922605929911
 31
0.0
  0
LINE
  8
0
  6
CONTINUOUS
 62
               4
  5
15F
 10
-36.982810636240529
 20
-330.70922605929911
 30
0.0
 11
-35.615200783216864
 21
-331.80217275672709
 31
0.0
  0
LINE
  8
0
  6
CONTINUOUS
 62
               4
  5
160
 10
-35.615200783216864
 20
-331.80217275672709
 30
0.0
 11
-34.247590930193411
 21
-332.8989344901513
 31
0.0
  0
LINE
  8
0
  6
CONTINUOUS
 62
               4
  5
161
 10
-34.247590930193411
 20
-332.8989344901513
 30
0.0
 11
-32.879981077169816
 21
-333.99972795710619
 31
0.0
  0
LINE
  8
0
  6
CONTINUOUS
 62
               4
  5
162
 10
-32.879981077169816
 20
-333.99972795710619
 30
0.0
 11
-31.51237122414615
 21
-335.10397812159567
 31
0.0
  0
LINE
  8
0
  6
CONTINUOUS
 62
               4
  5
163
 10
-31.51237122414615
 20
-335.10397812159567
 30
0.0
 11
-30.144761371122698
 21
-336.21091201424099
 31
0.0
  0
LINE
  8
0
  6
CONTINUOUS
 62
               4
  5
164
 10
-30.144761371122698
 20
-336.21091201424099
 30
0.0
 11
-28.777151518099103
 21
-337.31975666566331
 31
0.0
  0
LINE
  8
0
  6
CONTINUOUS
 62
               4
  5
165
 10
-28.777151518099103
 20
-337.31975666566331
 30
0.0
 11
-27.409541665075508
 21
-338.42973910648374
 31
0.0
  0
LINE
  8
0
  6
CONTINUOUS
 62
               4
  5
166
 10
-27.409541665075508
 20
-338.42973910648374
 30
0.0
 11
-26.041931812052056
 21
-339.54037340331968
 31
0.0
  0
LINE
  8
0
  6
CONTINUOUS
 62
               4
  5
167
 10
-26.041931812052056
 20
-339.54037340331968
 30
0.0
 11
-24.674321959028461
 21
-340.6523217667729
 31
0.0
  0
LINE
  8
0
  6
CONTINUOUS
 62
               4
  5
168
 10
-24.674321959028461
 20
-340.6523217667729
 30
0.0
 11
-23.306712106004795
 21
-341.76653344344146
 31
0.0
  0
LINE
  8
0
  6
CONTINUOUS
 62
               4
  5
169
 10
-23.306712106004795
 20
-341.76653344344146
 30
0.0
 11
-21.939102252981201
 21
-342.88395767992324
 31
0.0
  0
LINE
  8
0
  6
CONTINUOUS
 62
               4
  5
16A
 10
-21.939102252981201
 20
-342.88395767992324
 30
0.0
 11
-20.571492399957677
 21
-344.00554372281624
 31
0.0
  0
LINE
  8
0
  6
CONTINUOUS
 62
               4
  5
16B
 10
-20.571492399957677
 20
-344.00554372281624
 30
0.0
 11
-19.203882546934011
 21
-345.13193860811651
 31
0.0
  0
LINE
  8
0
  6
CONTINUOUS
 62
               4
  5
16C
 10
-19.203882546934011
 20
-345.13193860811651
 30
0.0
 11
-17.836272693910487
 21
-346.26258052941296
 31
0.0
  0
LINE
  8
0
  6
CONTINUOUS
 62
               4
  5
16D
 10
-17.836272693910487
 20
-346.26258052941296
 30
0.0
 11
-16.468662840886964
 21
-347.39660546969247
 31
0.0
  0
LINE
  8
0
  6
CONTINUOUS
 62
               4
  5
16E
 10
-16.468662840886964
 20
-347.39660546969247
 30
0.0
 11
-15.101052987863298
 21
-348.53314941194208
 31
0.0
  0
LINE
  8
0
  6
CONTINUOUS
 62
               4
  5
16F
 10
-15.101052987863298
 20
-348.53314941194208
 30
0.0
 11
-13.733443134839774
 21
-349.67134833914866
 31
0.0
  0
LINE
  8
0
  6
CONTINUOUS
 62
               4
  5
170
 10
-13.733443134839774
 20
-349.67134833914866
 30
0.0
 11
-12.365833281820656
 21
-350.81036967227021
 31
0.0
  0
LINE
  8
0
  6
CONTINUOUS
 62
               4
  5
171
 10
-12.365833281820656
 20
-350.81036967227021
 30
0.0
 11
-10.998223428805943
 21
-351.95035842634962
 31
0.0
  0
LINE
  8
0
  6
CONTINUOUS
 62
               4
  5
172
 10
-10.998223428805943
 20
-351.95035842634962
 30
0.0
 11
-9.6306135757890274
 21
-353.09191697550153
 31
0.0
  0
LINE
  8
0
  6
CONTINUOUS
 62
               4
  5
173
 10
-9.6306135757890274
 20
-353.09191697550153
 30
0.0
 11
-8.26300372276323
 21
-354.23564769384052
 31
0.0
  0
LINE
  8
0
  6
CONTINUOUS
 62
               4
  5
174
 10
-8.26300372276323
 20
-354.23564769384052
 30
0.0
 11
-6.8953938697219428
 21
-355.38215295548116
 31
0.0
  0
LINE
  8
0
  6
CONTINUOUS
 62
               4
  5
175
 10
-6.8953938697219428
 20
-355.38215295548116
 30
0.0
 11
-5.5277840166794476
 21
-356.53145101416277
 31
0.0
  0
LINE
  8
0
  6
CONTINUOUS
 62
               4
  5
176
 10
-5.5277840166794476
 20
-356.53145101416277
 30
0.0
 11
-4.1601741636513765
 21
-357.68292732658381
 31
0.0
  0
LINE
  8
0
  6
CONTINUOUS
 62
               4
  5
177
 10
-4.1601741636513765
 20
-357.68292732658381
 30
0.0
 11
-2.7925643106326845
 21
-358.83623507129721
 31
0.0
  0
LINE
  8
0
  6
CONTINUOUS
 62
               4
  5
178
 10
-2.7925643106326845
 20
-358.83623507129721
 30
0.0
 11
-1.424954457618469
 21
-359.99102742685608
 31
0.0
  0
LINE
  8
0
  6
CONTINUOUS
 62
               4
  5
179
 10
-1.424954457618469
 20
-359.99102742685608
 30
0.0
 11
-0.0573446046041823
 21
-361.14695757181363
 31
0.0
  0
LINE
  8
0
  6
CONTINUOUS
 62
               4
  5
17A
 10
-0.0573446046041823
 20
-361.14695757181363
 30
0.0
 11
1.3102652484143675
 21
-362.30388049113247
 31
0.0
  0
LINE
  8
0
  6
CONTINUOUS
 62
               4
  5
17B
 10
1.3102652484143675
 20
-362.30388049113247
 30
0.0
 11
2.6778751014367543
 21
-363.46245839541399
 31
0.0
  0
LINE
  8
0
  6
CONTINUOUS
 62
               4
  5
17C
 10
2.6778751014367543
 20
-363.46245839541399
 30
0.0
 11
4.045484954461628
 21
-364.6235553016694
 31
0.0
  0
LINE
  8
0
  6
CONTINUOUS
 62
               4
  5
17D
 10
4.045484954461628
 20
-364.6235553016694
 30
0.0
 11
5.4130948074877097
 21
-365.78803522690976
 31
0.0
  0
LINE
  8
0
  6
CONTINUOUS
 62
               4
  5
17E
 10
5.4130948074877097
 20
-365.78803522690976
 30
0.0
 11
6.7807046605137202
 21
-366.95676218814606
 31
0.0
  0
LINE
  8
0
  6
CONTINUOUS
 62
               4
  5
17F
 10
6.7807046605137202
 20
-366.95676218814606
 30
0.0
 11
8.1483145135385939
 21
-368.13029799178815
 31
0.0
  0
LINE
  8
0
  6
CONTINUOUS
 62
               4
  5
180
 10
8.1483145135385939
 20
-368.13029799178815
 30
0.0
 11
9.515924366562686
 21
-369.30799560183988
 31
0.0
  0
LINE
  8
0
  6
CONTINUOUS
 62
               4
  5
181
 10
9.515924366562686
 20
-369.30799560183988
 30
0.0
 11
10.883534219585783
 21
-370.48890577170374
 31
0.0
  0
LINE
  8
0
  6
CONTINUOUS
 62
               4
  5
182
 10
10.883534219585783
 20
-370.48890577170374
 30
0.0
 11
12.251144072608668
 21
-371.67207925478249
 31
0.0
  0
LINE
  8
0
  6
CONTINUOUS
 62
               4
  5
183
 10
12.251144072608668
 20
-371.67207925478249
 30
0.0
 11
13.618753925631552
 21
-372.85656680447858
 31
0.0
  0
LINE
  8
0
  6
CONTINUOUS
 62
               4
  5
184
 10
13.618753925631552
 20
-372.85656680447858
 30
0.0
 11
14.98636377865472
 21
-374.04170621019051
 31
0.0
  0
LINE
  8
0
  6
CONTINUOUS
 62
               4
  5
185
 10
14.98636377865472
 20
-374.04170621019051
 30
0.0
 11
16.353973631678386
 21
-375.22798340530113
 31
0.0
  0
LINE
  8
0
  6
CONTINUOUS
 62
               4
  5
186
 10
16.353973631678386
 20
-375.22798340530113
 30
0.0
 11
17.72158348470191
 21
-376.41617135918892
 31
0.0
  0
LINE
  8
0
  6
CONTINUOUS
 62
               4
  5
187
 10
17.72158348470191
 20
-376.41617135918892
 30
0.0
 11
19.089193337725646
 21
-377.60704304123266
 31
0.0
  0
LINE
  8
0
  6
CONTINUOUS
 62
               4
  5
188
 10
19.089193337725646
 20
-377.60704304123266
 30
0.0
 11
20.456803190749312
 21
-378.80137142081099
 31
0.0
  0
LINE
  8
0
  6
CONTINUOUS
 62
               4
  5
189
 10
20.456803190749312
 20
-378.80137142081099
 30
0.0
 11
21.82441304377312
 21
-379.99973153391994
 31
0.0
  0
LINE
  8
0
  6
CONTINUOUS
 62
               4
  5
18A
 10
21.82441304377312
 20
-379.99973153391994
 30
0.0
 11
23.192022896796644
 21
-381.20190668302484
 31
0.0
  0
LINE
  8
0
  6
CONTINUOUS
 62
               4
  5
18B
 10
23.192022896796644
 20
-381.20190668302484
 30
0.0
 11
24.559632749820167
 21
-382.40748223720863
 31
0.0
  0
LINE
  8
0
  6
CONTINUOUS
 62
               4
  5
18C
 10
24.559632749820167
 20
-382.40748223720863
 30
0.0
 11
25.927242602843691
 21
-383.61604356555387
 31
0.0
  0
LINE
  8
0
  6
CONTINUOUS
 62
               4
  5
18D
 10
25.927242602843691
 20
-383.61604356555387
 30
0.0
 11
27.294852455867286
 21
-384.82717603714349
 31
0.0
  0
LINE
  8
0
  6
CONTINUOUS
 62
               4
  5
18E
 10
27.294852455867286
 20
-384.82717603714349
 30
0.0
 11
28.662462308890738
 21
-386.04060971859479
 31
0.0
  0
LINE
  8
0
  6
CONTINUOUS
 62
               4
  5
18F
 10
28.662462308890738
 20
-386.04060971859479
 30
0.0
 11
30.030072161914333
 21
-387.25665346666341
 31
0.0
  0
LINE
  8
0
  6
CONTINUOUS
 62
               4
  5
190
 10
30.030072161914333
 20
-387.25665346666341
 30
0.0
 11
31.397682014937857
 21
-388.47576083563968
 31
0.0
  0
LINE
  8
0
  6
CONTINUOUS
 62
               4
  5
191
 10
31.397682014937857
 20
-388.47576083563968
 30
0.0
 11
32.76529186796138
 21
-389.69838537981371
 31
0.0
  0
LINE
  8
0
  6
CONTINUOUS
 62
               4
  5
192
 10
32.76529186796138
 20
-389.69838537981371
 30
0.0
 11
34.132901720985046
 21
-390.92498065347593
 31
0.0
  0
LINE
  8
0
  6
CONTINUOUS
 62
               4
  5
193
 10
34.132901720985046
 20
-390.92498065347593
 30
0.0
 11
35.50051157400857
 21
-392.15597935416088
 31
0.0
  0
LINE
  8
0
  6
CONTINUOUS
 62
               4
  5
194
 10
35.50051157400857
 20
-392.15597935416088
 30
0.0
 11
36.868121427032094
 21
-393.39173075238028
 31
0.0
  0
LINE
  8
0
  6
CONTINUOUS
 62
               4
  5
195
 10
36.868121427032094
 20
-393.39173075238028
 30
0.0
 11
38.235731280055759
 21
-394.63256326189065
 31
0.0
  0
LINE
  8
0
  6
CONTINUOUS
 62
               4
  5
196
 10
38.235731280055759
 20
-394.63256326189065
 30
0.0
 11
39.603341133079283
 21
-395.87880529644787
 31
0.0
  0
LINE
  8
0
  6
CONTINUOUS
 62
               4
  5
197
 10
39.603341133079283
 20
-395.87880529644787
 30
0.0
 11
40.970950986102807
 21
-397.13078526980837
 31
0.0
  0
LINE
  8
0
  6
CONTINUOUS
 62
               4
  5
198
 10
40.970950986102807
 20
-397.13078526980837
 30
0.0
 11
42.338560839126473
 21
-398.38877032521629
 31
0.0
  0
LINE
  8
0
  6
CONTINUOUS
 62
               4
  5
199
 10
42.338560839126473
 20
-398.38877032521629
 30
0.0
 11
43.706170692150138
 21
-399.65278252386861
 31
0.0
  0
LINE
  8
0
  6
CONTINUOUS
 62
               4
  5
19A
 10
43.706170692150138
 20
-399.65278252386861
 30
0.0
 11
45.073780545173662
 21
-400.92278265645012
 31
0.0
  0
LINE
  8
0
  6
CONTINUOUS
 62
               4
  5
19B
 10
45.073780545173662
 20
-400.92278265645012
 30
0.0
 11
46.441390398197257
 21
-402.1987315136459
 31
0.0
  0
LINE
  8
0
  6
CONTINUOUS
 62
               4
  5
19C
 10
46.441390398197257
 20
-402.1987315136459
 30
0.0
 11
47.809000251220709
 21
-403.48058988614088
 31
0.0
  0
LINE
  8
0
  6
CONTINUOUS
 62
               4
  5
19D
 10
47.809000251220709
 20
-403.48058988614088
 30
0.0
 11
49.176610104244091
 21
-404.76894450342309
 31
0.0
  0
LINE
  8
0
  6
CONTINUOUS
 62
               4
  5
19E
 10
49.176610104244091
 20
-404.76894450342309
 30
0.0
 11
50.544219957267615
 21
-406.06688585019339
 31
0.0
  0
LINE
  8
0
  6
CONTINUOUS
 62
               4
  5
19F
 10
50.544219957267615
 20
-406.06688585019339
 30
0.0
 11
51.911829810291138
 21
-407.37813034995594
 31
0.0
  0
LINE
  8
0
  6
CONTINUOUS
 62
               4
  5
1A0
 10
51.911829810291138
 20
-407.37813034995594
 30
0.0
 11
53.279439663314662
 21
-408.70639442621456
 31
0.0
  0
LINE
  8
0
  6
CONTINUOUS
 62
               4
  5
1A1
 10
53.279439663314662
 20
-408.70639442621456
 30
0.0
 11
54.647049516338541
 21
-410.05539450247335
 31
0.0
  0
LINE
  8
0
  6
CONTINUOUS
 62
               4
  5
1A2
 10
54.647049516338541
 20
-410.05539450247335
 30
0.0
 11
56.014659369362562
 21
-411.42741251753552
 31
0.0
  0
LINE
  8
0
  6
CONTINUOUS
 62
               4
  5
1A3
 10
56.014659369362562
 20
-411.42741251753552
 30
0.0
 11
57.382269222386867
 21
-412.81899247140097
 31
0.0
  0
LINE
  8
0
  6
CONTINUOUS
 62
               4
  5
1A4
 10
57.382269222386867
 20
-412.81899247140097
 30
0.0
 11
58.749879075411314
 21
-414.22524387936897
 31
0.0
  0
LINE
  8
0
  6
CONTINUOUS
 62
               4
  5
1A5
 10
58.749879075411314
 20
-414.22524387936897
 30
0.0
 11
60.117488928435833
 21
-415.64127625673871
 31
0.0
  0
LINE
  8
0
  6
CONTINUOUS
 62
               4
  5
1A6
 10
60.117488928435833
 20
-415.64127625673871
 30
0.0
 11
61.485098781460493
 21
-417.06219911880913
 31
0.0
  0
ENDBLK
  8
0
  5
1A7
  0
BLOCK
  8
0
  5
1A8
  2
GROUP_2
 70
               0
 10
0.0
 20
0.0
 30
0.0
  3
GROUP_2
  0
LINE
  8
0
  6
CONTINUOUS
 62
               4
  5
1A9
 10
-75.2758865209004
 20
-302.30610679215653
 30
0.0
 11
-73.908276667880074
 21
-306.60570100490816
 31
0.0
  0
LINE
  8
0
  6
CONTINUOUS
 62
               4
  5
1AA
 10
-73.908276667880074
 20
-306.60570100490816
 30
0.0
 11
-72.540666814857332
 21
-310.84763689521839
 31
0.0
  0
LINE
  8
0
  6
CONTINUOUS
 62
               4
  5
1AB
 10
-72.540666814857332
 20
-310.84763689521839
 30
0.0
 11
-71.173056961832884
 21
-314.974256140786
 31
0.0
  0
LINE
  8
0
  6
CONTINUOUS
 62
               4
  5
1AC
 10
-71.173056961832884
 20
-314.974256140786
 30
0.0
 11
-69.805447108807655
 21
-318.92790041930994
 31
0.0
  0
LINE
  8
0
  6
CONTINUOUS
 62
               4
  5
1AD
 10
-69.805447108807655
 20
-318.92790041930994
 30
0.0
 11
-68.437837255782568
 21
-322.65091140848898
 31
0.0
  0
LINE
  8
0
  6
CONTINUOUS
 62
               4
  5
1AE
 10
-68.437837255782568
 20
-322.65091140848898
 30
0.0
 11
-67.070227402758192
 21
-326.10289710835121
 31
0.0
  0
LINE
  8
0
  6
CONTINUOUS
 62
               4
  5
1AF
 10
-67.070227402758192
 20
-326.10289710835121
 30
0.0
 11
-65.702617549734384
 21
-329.31253080824138
 31
0.0
  0
LINE
  8
0
  6
CONTINUOUS
 62
               4
  5
1B0
 10
-65.702617549734384
 20
-329.31253080824138
 30
0.0
 11
-64.335007696711003
 21
-332.32575211983374
 31
0.0
  0
LINE
  8
0
  6
CONTINUOUS
 62
               4
  5
1B1
 10
-64.335007696711003
 20
-332.32575211983374
 30
0.0
 11
-62.967397843687834
 21
-335.1885006548024
 31
0.0
  0
LINE
  8
0
  6
CONTINUOUS
 62
               4
  5
1B2
 10
-62.967397843687834
 20
-335.1885006548024
 30
0.0
 11
-61.599787990664737
 21
-337.94671602482146
 31
0.0
  0
LINE
  8
0
  6
CONTINUOUS
 62
               4
  5
1B3
 10
-61.599787990664737
 20
-337.94671602482146
 30
0.0
 11
-60.232178137641426
 21
-340.63811255222021
 31
0.0
  0
LINE
  8
0
  6
CONTINUOUS
 62
               4
  5
1B4
 10
-60.232178137641426
 20
-340.63811255222021
 30
0.0
 11
-58.864568284617832
 21
-343.26750340194809
 31
0.0
  0
LINE
  8
0
  6
CONTINUOUS
 62
               4
  5
1B5
 10
-58.864568284617832
 20
-343.26750340194809
 30
0.0
 11
-57.496958431594237
 21
-345.83147644960991
 31
0.0
  0
LINE
  8
0
  6
CONTINUOUS
 62
               4
  5
1B6
 10
-57.496958431594237
 20
-345.83147644960991
 30
0.0
 11
-56.129348578570642
 21
-348.32661957081029
 31
0.0
  0
LINE
  8
0
  6
CONTINUOUS
 62
               4
  5
1B7
 10
-56.129348578570642
 20
-348.32661957081029
 30
0.0
 11
-54.761738725546763
 21
-350.74952064115394
 31
0.0
  0
LINE
  8
0
  6
CONTINUOUS
 62
               4
  5
1B8
 10
-54.761738725546763
 20
-350.74952064115394
 30
0.0
 11
-53.394128872523169
 21
-353.09843437129587
 31
0.0
  0
LINE
  8
0
  6
CONTINUOUS
 62
               4
  5
1B9
 10
-53.394128872523169
 20
-353.09843437129587
 30
0.0
 11
-52.026519019499645
 21
-355.37828281209289
 31
0.0
  0
LINE
  8
0
  6
CONTINUOUS
 62
               4
  5
1BA
 10
-52.026519019499645
 20
-355.37828281209289
 30
0.0
 11
-50.658909166476121
 21
-357.59565484945222
 31
0.0
  0
LINE
  8
0
  6
CONTINUOUS
 62
               4
  5
1BB
 10
-50.658909166476121
 20
-357.59565484945222
 30
0.0
 11
-49.291299313452598
 21
-359.75713936928099
 31
0.0
  0
LINE
  8
0
  6
CONTINUOUS
 62
               4
  5
1BC
 10
-49.291299313452598
 20
-359.75713936928099
 30
0.0
 11
-47.923689460429074
 21
-361.86932525748642
 31
0.0
  0
LINE
  8
0
  6
CONTINUOUS
 62
               4
  5
1BD
 10
-47.923689460429074
 20
-361.86932525748642
 30
0.0
 11
-46.556079607405408
 21
-363.93783934911892
 31
0.0
  0
LINE
  8
0
  6
CONTINUOUS
 62
               4
  5
1BE
 10
-46.556079607405408
 20
-363.93783934911892
 30
0.0
 11
-45.188469754381956
 21
-365.96446027580186
 31
0.0
  0
LINE
  8
0
  6
CONTINUOUS
 62
               4
  5
1BF
 10
-45.188469754381956
 20
-365.96446027580186
 30
0.0
 11
-43.820859901358432
 21
-367.95000461830176
 31
0.0
  0
LINE
  8
0
  6
CONTINUOUS
 62
               4
  5
1C0
 10
-43.820859901358432
 20
-367.95000461830176
 30
0.0
 11
-42.453250048334837
 21
-369.89528895738528
 31
0.0
  0
LINE
  8
0
  6
CONTINUOUS
 62
               4
  5
1C1
 10
-42.453250048334837
 20
-369.89528895738528
 30
0.0
 11
-41.085640195311242
 21
-371.80112987381887
 31
0.0
  0
LINE
  8
0
  6
CONTINUOUS
 62
               4
  5
1C2
 10
-41.085640195311242
 20
-371.80112987381887
 30
0.0
 11
-39.718030342287719
 21
-373.66843731674578
 31
0.0
  0
LINE
  8
0
  6
CONTINUOUS
 62
               4
  5
1C3
 10
-39.718030342287719
 20
-373.66843731674578
 30
0.0
 11
-38.350420489264124
 21
-375.49849470881594
 31
0.0
  0
LINE
  8
0
  6
CONTINUOUS
 62
               4
  5
1C4
 10
-38.350420489264124
 20
-375.49849470881594
 30
0.0
 11
-36.982810636240529
 21
-377.29267884105587
 31
0.0
  0
LINE
  8
0
  6
CONTINUOUS
 62
               4
  5
1C5
 10
-36.982810636240529
 20
-377.29267884105587
 30
0.0
 11
-35.615200783216864
 21
-379.05236650449223
 31
0.0
  0
LINE
  8
0
  6
CONTINUOUS
 62
               4
  5
1C6
 10
-35.615200783216864
 20
-379.05236650449223
 30
0.0
 11
-34.247590930193411
 21
-380.7789344901513
 31
0.0
  0
LINE
  8
0
  6
CONTINUOUS
 62
               4
  5
1C7
 10
-34.247590930193411
 20
-380.7789344901513
 30
0.0
 11
-32.879981077169816
 21
-382.47355616640999
 31
0.0
  0
LINE
  8
0
  6
CONTINUOUS
 62
               4
  5
1C8
 10
-32.879981077169816
 20
-382.47355616640999
 30
0.0
 11
-31.51237122414615
 21
-384.13659121104524
 31
0.0
  0
LINE
  8
0
  6
CONTINUOUS
 62
               4
  5
1C9
 10
-31.51237122414615
 20
-384.13659121104524
 30
0.0
 11
-30.144761371122698
 21
-385.76819587918442
 31
0.0
  0
LINE
  8
0
  6
CONTINUOUS
 62
               4
  5
1CA
 10
-30.144761371122698
 20
-385.76819587918442
 30
0.0
 11
-28.777151518099103
 21
-387.36852642595483
 31
0.0
  0
LINE
  8
0
  6
CONTINUOUS
 62
               4
  5
1CB
 10
-28.777151518099103
 20
-387.36852642595483
 30
0.0
 11
-27.409541665075508
 21
-388.93773910648378
 31
0.0
  0
LINE
  8
0
  6
CONTINUOUS
 62
               4
  5
1CC
 10
-27.409541665075508
 20
-388.93773910648378
 30
0.0
 11
-26.041931812052056
 21
-390.47613449812127
 31
0.0
  0
LINE
  8
0
  6
CONTINUOUS
 62
               4
  5
1CD
 10
-26.041931812052056
 20
-390.47613449812127
 30
0.0
 11
-24.674321959028461
 21
-391.98459046710889
 31
0.0
  0
LINE
  8
0
  6
CONTINUOUS
 62
               4
  5
1CE
 10
-24.674321959028461
 20
-391.98459046710889
 30
0.0
 11
-23.306712106004795
 21
-393.46412920191091
 31
0.0
  0
LINE
  8
0
  6
CONTINUOUS
 62
               4
  5
1CF
 10
-23.306712106004795
 20
-393.46412920191091
 30
0.0
 11
-21.939102252981201
 21
-394.915772890992
 31
0.0
  0
LINE
  8
0
  6
CONTINUOUS
 62
               4
  5
1D0
 10
-21.939102252981201
 20
-394.915772890992
 30
0.0
 11
-20.571492399957677
 21
-396.34054372281622
 31
0.0
  0
LINE
  8
0
  6
CONTINUOUS
 62
               4
  5
1D1
 10
-20.571492399957677
 20
-396.34054372281622
 30
0.0
 11
-19.203882546934011
 21
-397.73923401960661
 31
0.0
  0
LINE
  8
0
  6
CONTINUOUS
 62
               4
  5
1D2
 10
-19.203882546934011
 20
-397.73923401960661
 30
0.0
 11
-17.83627269391063
 21
-399.11171663861984
 31
0.0
  0
LINE
  8
0
  6
CONTINUOUS
 62
               4
  5
1D3
 10
-17.83627269391063
 20
-399.11171663861984
 30
0.0
 11
-16.468662840886964
 21
-400.45763457087111
 31
0.0
  0
LINE
  8
0
  6
CONTINUOUS
 62
               4
  5
1D4
 10
-16.468662840886964
 20
-400.45763457087111
 30
0.0
 11
-15.10105298786344
 21
-401.77663080737568
 31
0.0
  0
LINE
  8
0
  6
CONTINUOUS
 62
               4
  5
1D5
 10
-15.10105298786344
 20
-401.77663080737568
 30
0.0
 11
-13.733443134839916
 21
-403.06834833914871
 31
0.0
  0
LINE
  8
0
  6
CONTINUOUS
 62
               4
  5
1D6
 10
-13.733443134839916
 20
-403.06834833914871
 30
0.0
 11
-12.365833281820727
 21
-404.33349098891483
 31
0.0
  0
LINE
  8
0
  6
CONTINUOUS
 62
               4
  5
1D7
 10
-12.365833281820727
 20
-404.33349098891483
 30
0.0
 11
-10.998223428806085
 21
-405.57269746140554
 31
0.0
  0
LINE
  8
0
  6
CONTINUOUS
 62
               4
  5
1D8
 10
-10.998223428806085
 20
-405.57269746140554
 30
0.0
 11
-9.6306135757891695
 21
-406.78551307064646
 31
0.0
  0
LINE
  8
0
  6
CONTINUOUS
 62
               4
  5
1D9
 10
-9.6306135757891695
 20
-406.78551307064646
 30
0.0
 11
-8.2630037227633721
 21
-407.97148313066322
 31
0.0
  0
LINE
  8
0
  6
CONTINUOUS
 62
               4
  5
1DA
 10
-8.2630037227633721
 20
-407.97148313066322
 30
0.0
 11
-6.8953938697220849
 21
-409.13015295548115
 31
0.0
  0
LINE
  8
0
  6
CONTINUOUS
 62
               4
  5
1DB
 10
-6.8953938697220849
 20
-409.13015295548115
 30
0.0
 11
-5.5277840166795897
 21
-410.26315822130408
 31
0.0
  0
LINE
  8
0
  6
CONTINUOUS
 62
               4
  5
1DC
 10
-5.5277840166795897
 20
-410.26315822130408
 30
0.0
 11
-4.1601741636513765
 21
-411.37187916333062
 31
0.0
  0
LINE
  8
0
  6
CONTINUOUS
 62
               4
  5
1DD
 10
-4.1601741636513765
 20
-411.37187916333062
 30
0.0
 11
-2.7925643106328266
 21
-412.45547793407906
 31
0.0
  0
LINE
  8
0
  6
CONTINUOUS
 62
               4
  5
1DE
 10
-2.7925643106328266
 20
-412.45547793407906
 30
0.0
 11
-1.4249544576186111
 21
-413.51311668606729
 31
0.0
  0
LINE
  8
0
  6
CONTINUOUS
 62
               4
  5
1DF
 10
-1.4249544576186111
 20
-413.51311668606729
 30
0.0
 11
-0.0573446046041823
 21
-414.54395757181362
 31
0.0
  0
LINE
  8
0
  6
CONTINUOUS
 62
               4
  5
1E0
 10
-0.0573446046041823
 20
-414.54395757181362
 30
0.0
 11
1.3102652484143675
 21
-415.54736188658092
 31
0.0
  0
LINE
  8
0
  6
CONTINUOUS
 62
               4
  5
1E1
 10
1.3102652484143675
 20
-415.54736188658092
 30
0.0
 11
2.6778751014367543
 21
-416.5234874966111
 31
0.0
  0
LINE
  8
0
  6
CONTINUOUS
 62
               4
  5
1E2
 10
2.6778751014367543
 20
-416.5234874966111
 30
0.0
 11
4.045484954461557
 21
-417.472691410891
 31
0.0
  0
LINE
  8
0
  6
CONTINUOUS
 62
               4
  5
1E3
 10
4.045484954461557
 20
-417.472691410891
 30
0.0
 11
5.4130948074876386
 21
-418.39533063840707
 31
0.0
  0
LINE
  8
0
  6
CONTINUOUS
 62
               4
  5
1E4
 10
5.4130948074876386
 20
-418.39533063840707
 30
0.0
 11
6.7807046605135781
 21
-419.29176218814604
 31
0.0
  0
LINE
  8
0
  6
CONTINUOUS
 62
               4
  5
1E5
 10
6.7807046605135781
 20
-419.29176218814604
 30
0.0
 11
8.1483145135385229
 21
-420.16211320285282
 31
0.0
  0
LINE
  8
0
  6
CONTINUOUS
 62
               4
  5
1E6
 10
8.1483145135385229
 20
-420.16211320285282
 30
0.0
 11
9.515924366562686
 21
-421.00559136030432
 31
0.0
  0
LINE
  8
0
  6
CONTINUOUS
 62
               4
  5
1E7
 10
9.515924366562686
 20
-421.00559136030432
 30
0.0
 11
10.883534219585783
 21
-421.82117447203581
 31
0.0
  0
LINE
  8
0
  6
CONTINUOUS
 62
               4
  5
1E8
 10
10.883534219585783
 20
-421.82117447203581
 30
0.0
 11
12.251144072608668
 21
-422.60784034958209
 31
0.0
  0
LINE
  8
0
  6
CONTINUOUS
 62
               4
  5
1E9
 10
12.251144072608668
 20
-422.60784034958209
 30
0.0
 11
13.618753925631552
 21
-423.36456680447856
 31
0.0
  0
LINE
  8
0
  6
CONTINUOUS
 62
               4
  5
1EA
 10
13.618753925631552
 20
-423.36456680447856
 30
0.0
 11
14.98636377865472
 21
-424.09047597048317
 31
0.0
  0
LINE
  8
0
  6
CONTINUOUS
 62
               4
  5
1EB
 10
14.98636377865472
 20
-424.09047597048317
 30
0.0
 11
16.353973631678244
 21
-424.78526727024581
 31
0.0
  0
LINE
  8
0
  6
CONTINUOUS
 62
               4
  5
1EC
 10
16.353973631678244
 20
-424.78526727024581
 30
0.0
 11
17.721583484701767
 21
-425.4487844486394
 31
0.0
  0
LINE
  8
0
  6
CONTINUOUS
 62
               4
  5
1ED
 10
17.721583484701767
 20
-425.4487844486394
 30
0.0
 11
19.089193337725646
 21
-426.08087125053686
 31
0.0
  0
LINE
  8
0
  6
CONTINUOUS
 62
               4
  5
1EE
 10
19.089193337725646
 20
-426.08087125053686
 30
0.0
 11
20.456803190749312
 21
-426.68137142081093
 31
0.0
  0
LINE
  8
0
  6
CONTINUOUS
 62
               4
  5
1EF
 10
20.456803190749312
 20
-426.68137142081093
 30
0.0
 11
21.824413043772978
 21
-427.2499252816848
 31
0.0
  0
LINE
  8
0
  6
CONTINUOUS
 62
               4
  5
1F0
 10
21.824413043772978
 20
-427.2499252816848
 30
0.0
 11
23.192022896796644
 21
-427.78535946478161
 31
0.0
  0
LINE
  8
0
  6
CONTINUOUS
 62
               4
  5
1F1
 10
23.192022896796644
 20
-427.78535946478161
 30
0.0
 11
24.559632749820167
 21
-428.28629717907467
 31
0.0
  0
LINE
  8
0
  6
CONTINUOUS
 62
               4
  5
1F2
 10
24.559632749820167
 20
-428.28629717907467
 30
0.0
 11
25.927242602843691
 21
-428.75136163353756
 31
0.0
  0
LINE
  8
0
  6
CONTINUOUS
 62
               4
  5
1F3
 10
25.927242602843691
 20
-428.75136163353756
 30
0.0
 11
27.294852455867215
 21
-429.17917603714352
 31
0.0
  0
LINE
  8
0
  6
CONTINUOUS
 62
               4
  5
1F4
 10
27.294852455867215
 20
-429.17917603714352
 30
0.0
 11
28.662462308890738
 21
-429.56845696724258
 31
0.0
  0
LINE
  8
0
  6
CONTINUOUS
 62
               4
  5
1F5
 10
28.662462308890738
 20
-429.56845696724258
 30
0.0
 11
30.030072161914333
 21
-429.91829447469172
 31
0.0
  0
LINE
  8
0
  6
CONTINUOUS
 62
               4
  5
1F6
 10
30.030072161914333
 20
-429.91829447469172
 30
0.0
 11
31.397682014937786
 21
-430.22787197872464
 31
0.0
  0
LINE
  8
0
  6
CONTINUOUS
 62
               4
  5
1F7
 10
31.397682014937786
 20
-430.22787197872464
 30
0.0
 11
32.76529186796138
 21
-430.49637289857475
 31
0.0
  0
LINE
  8
0
  6
CONTINUOUS
 62
               4
  5
1F8
 10
32.76529186796138
 20
-430.49637289857475
 30
0.0
 11
34.132901720985046
 21
-430.72298065347587
 31
0.0
  0
LINE
  8
0
  6
CONTINUOUS
 62
               4
  5
1F9
 10
34.132901720985046
 20
-430.72298065347587
 30
0.0
 11
35.500511574008428
 21
-430.90591661180468
 31
0.0
  0
LINE
  8
0
  6
CONTINUOUS
 62
               4
  5
1FA
 10
35.500511574008428
 20
-430.90591661180468
 30
0.0
 11
36.868121427032094
 21
-431.03955393851027
 31
0.0
  0
LINE
  8
0
  6
CONTINUOUS
 62
               4
  5
1FB
 10
36.868121427032094
 20
-431.03955393851027
 30
0.0
 11
38.235731280055759
 21
-431.11730374768462
 31
0.0
  0
LINE
  8
0
  6
CONTINUOUS
 62
               4
  5
1FC
 10
38.235731280055759
 20
-431.11730374768462
 30
0.0
 11
39.603341133079141
 21
-431.13257715341996
 31
0.0
  0
LINE
  8
0
  6
CONTINUOUS
 62
               4
  5
1FD
 10
39.603341133079141
 20
-431.13257715341996
 30
0.0
 11
40.970950986102807
 21
-431.07878526980835
 31
0.0
  0
LINE
  8
0
  6
CONTINUOUS
 62
               4
  5
1FE
 10
40.970950986102807
 20
-431.07878526980835
 30
0.0
 11
42.338560839126473
 21
-430.95100604599298
 31
0.0
  0
LINE
  8
0
  6
CONTINUOUS
 62
               4
  5
1FF
 10
42.338560839126473
 20
-430.95100604599298
 30
0.0
 11
43.706170692149996
 21
-430.7509847713207
 31
0.0
  0
LINE
  8
0
  6
CONTINUOUS
 62
               4
  5
200
 10
43.706170692149996
 20
-430.7509847713207
 30
0.0
 11
45.073780545173662
 21
-430.48213357018926
 31
0.0
  0
LINE
  8
0
  6
CONTINUOUS
 62
               4
  5
201
 10
45.073780545173662
 20
-430.48213357018926
 30
0.0
 11
46.441390398197186
 21
-430.1478645669967
 31
0.0
  0
LINE
  8
0
  6
CONTINUOUS
 62
               4
  5
202
 10
46.441390398197186
 20
-430.1478645669967
 30
0.0
 11
47.809000251220709
 21
-429.75158988614083
 31
0.0
  0
LINE
  8
0
  6
CONTINUOUS
 62
               4
  5
203
 10
47.809000251220709
 20
-429.75158988614083
 30
0.0
 11
49.176610104244091
 21
-429.28849636267262
 31
0.0
  0
LINE
  8
0
  6
CONTINUOUS
 62
               4
  5
204
 10
49.176610104244091
 20
-429.28849636267262
 30
0.0
 11
50.544219957267615
 21
-428.72086967425531
 31
0.0
  0
LINE
  8
0
  6
CONTINUOUS
 62
               4
  5
205
 10
50.544219957267615
 20
-428.72086967425531
 30
0.0
 11
51.911829810291138
 21
-428.00277020920549
 31
0.0
  0
LINE
  8
0
  6
CONTINUOUS
 62
               4
  5
206
 10
51.911829810291138
 20
-428.00277020920549
 30
0.0
 11
53.279439663314662
 21
-427.08825835583929
 31
0.0
  0
LINE
  8
0
  6
CONTINUOUS
 62
               4
  5
207
 10
53.279439663314662
 20
-427.08825835583929
 30
0.0
 11
54.647049516338541
 21
-425.93139450247332
 31
0.0
  0
LINE
  8
0
  6
CONTINUOUS
 62
               4
  5
208
 10
54.647049516338541
 20
-425.93139450247332
 30
0.0
 11
56.014659369362562
 21
-424.5035053597606
 31
0.0
  0
LINE
  8
0
  6
CONTINUOUS
 62
               4
  5
209
 10
56.014659369362562
 20
-424.5035053597606
 30
0.0
 11
57.382269222386867
 21
-422.84498292770121
 31
0.0
  0
LINE
  8
0
  6
CONTINUOUS
 62
               4
  5
20A
 10
57.382269222386867
 20
-422.84498292770121
 30
0.0
 11
58.749879075411314
 21
-421.01348552863163
 31
0.0
  0
LINE
  8
0
  6
CONTINUOUS
 62
               4
  5
20B
 10
58.749879075411314
 20
-421.01348552863163
 30
0.0
 11
60.117488928435833
 21
-419.06667148488873
 31
0.0
  0
LINE
  8
0
  6
CONTINUOUS
 62
               4
  5
20C
 10
60.117488928435833
 20
-419.06667148488873
 30
0.0
 11
61.485098781460493
 21
-417.06219911880913
 31
0.0
  0
ENDBLK
  8
0
  5
20D
  0
BLOCK
  8
0
  5
20E
  2
GROUP_3
 70
               0
 10
0.0
 20
0.0
 30
0.0
  3
GROUP_3
  0
CIRCLE
  8
0
  6
CONTINUOUS
 62
               4
  5
20F
 10
75.259794234501157
 20
553.55361168863396
 30
0.0
 40
9.5
  0
LINE
  8
0
  6
CONTINUOUS
 62
               4
  5
210
 10
86.2294493491042
 20
553.55361168863396
 30
0.0
 11
80.74462179180243
 21
563.05361168863374
 31
0.0
  0
LINE
  8
0
  6
CONTINUOUS
 62
               4
  5
211
 10
80.74462179180243
 20
563.05361168863374
 30
0.0
 11
69.774966677199458
 21
563.05361168863374
 31
0.0
  0
LINE
  8
0
  6
CONTINUOUS
 62
               4
  5
212
 10
69.774966677199458
 20
563.05361168863374
 30
0.0
 11
64.290139119898114
 21
553.55361168863396
 31
0.0
  0
LINE
  8
0
  6
CONTINUOUS
 62
               4
  5
213
 10
64.290139119898114
 20
553.55361168863396
 30
0.0
 11
69.774966677199458
 21
544.05361168863374
 31
0.0
  0
LINE
  8
0
  6
CONTINUOUS
 62
               4
  5
214
 10
69.774966677199458
 20
544.05361168863374
 30
0.0
 11
80.74462179180243
 21
544.05361168863374
 31
0.0
  0
LINE
  8
0
  6
CONTINUOUS
 62
               4
  5
215
 10
80.74462179180243
 20
544.05361168863374
 30
0.0
 11
86.2294493491042
 21
553.55361168863396
 31
0.0
  0
CIRCLE
  8
0
  6
CONTINUOUS
 62
               4
  5
216
 10
75.259794234501157
 20
553.55361168863396
 30
0.0
 40
5.1250000000000009
  0
CIRCLE
  8
0
  6
CONTINUOUS
 62
               4
  5
217
 10
75.259794234501157
 20
553.55361168863396
 30
0.0
 40
6.0000000000000009
  0
ENDBLK
  8
0
  5
218
  0
BLOCK
  8
0
  5
219
  2
GROUP_4
 70
               0
 10
0.0
 20
0.0
 30
0.0
  3
GROUP_4
  0
CIRCLE
  8
0
  6
CONTINUOUS
 62
               4
  5
21A
 10
75.259794234501229
 20
709.11710354967454
 30
0.0
 40
9.5
  0
LINE
  8
0
  6
CONTINUOUS
 62
               4
  5
21B
 10
86.229449349104272
 20
709.11710354967454
 30
0.0
 11
80.744621791802501
 21
718.61710354967431
 31
0.0
  0
LINE
  8
0
  6
CONTINUOUS
 62
               4
  5
21C
 10
80.744621791802501
 20
718.61710354967431
 30
0.0
 11
69.774966677199458
 21
718.61710354967431
 31
0.0
  0
LINE
  8
0
  6
CONTINUOUS
 62
               4
  5
21D
 10
69.774966677199458
 20
718.61710354967431
 30
0.0
 11
64.290139119898186
 21
709.11710354967454
 31
0.0
  0
LINE
  8
0
  6
CONTINUOUS
 62
               4
  5
21E
 10
64.290139119898186
 20
709.11710354967454
 30
0.0
 11
69.774966677199458
 21
699.61710354967431
 31
0.0
  0
LINE
  8
0
  6
CONTINUOUS
 62
               4
  5
21F
 10
69.774966677199458
 20
699.61710354967431
 30
0.0
 11
80.744621791802501
 21
699.61710354967431
 31
0.0
  0
LINE
  8
0
  6
CONTINUOUS
 62
               4
  5
220
 10
80.744621791802501
 20
699.61710354967431
 30
0.0
 11
86.229449349104272
 21
709.11710354967454
 31
0.0
  0
CIRCLE
  8
0
  6
CONTINUOUS
 62
               4
  5
221
 10
75.259794234501229
 20
709.11710354967454
 30
0.0
 40
5.1250000000000009
  0
CIRCLE
  8
0
  6
CONTINUOUS
 62
               4
  5
222
 10
75.259794234501229
 20
709.11710354967454
 30
0.0
 40
6.0000000000000009
  0
ENDBLK
  8
0
  5
223
  0
BLOCK
  8
0
  5
224
  2
GROUP_5
 70
               0
 10
0.0
 20
0.0
 30
0.0
  3
GROUP_5
  0
CIRCLE
  8
0
  6
CONTINUOUS
 62
               4
  5
225
 10
-80.303697626539346
 20
709.11710354967408
 30
0.0
 40
9.5
  0
LINE
  8
0
  6
CONTINUOUS
 62
               4
  5
226
 10
-69.334042511936303
 20
709.11710354967408
 30
0.0
 11
-74.818870069238073
 21
718.61710354967408
 31
0.0
  0
LINE
  8
0
  6
CONTINUOUS
 62
               4
  5
227
 10
-74.818870069238073
 20
718.61710354967408
 30
0.0
 11
-85.788525183841116
 21
718.61710354967408
 31
0.0
  0
LINE
  8
0
  6
CONTINUOUS
 62
               4
  5
228
 10
-85.788525183841116
 20
718.61710354967408
 30
0.0
 11
-91.273352741142318
 21
709.11710354967408
 31
0.0
  0
LINE
  8
0
  6
CONTINUOUS
 62
               4
  5
229
 10
-91.273352741142318
 20
709.11710354967408
 30
0.0
 11
-85.788525183841116
 21
699.61710354967408
 31
0.0
  0
LINE
  8
0
  6
CONTINUOUS
 62
               4
  5
22A
 10
-85.788525183841116
 20
699.61710354967408
 30
0.0
 11
-74.818870069238073
 21
699.61710354967408
 31
0.0
  0
LINE
  8
0
  6
CONTINUOUS
 62
               4
  5
22B
 10
-74.818870069238073
 20
699.61710354967408
 30
0.0
 11
-69.334042511936303
 21
709.11710354967408
 31
0.0
  0
CIRCLE
  8
0
  6
CONTINUOUS
 62
               4
  5
22C
 10
-80.303697626539346
 20
709.11710354967408
 30
0.0
 40
5.1250000000000009
  0
CIRCLE
  8
0
  6
CONTINUOUS
 62
               4
  5
22D
 10
-80.303697626539346
 20
709.11710354967408
 30
0.0
 40
6.0000000000000009
  0
ENDBLK
  8
0
  5
22E
  0
BLOCK
  8
0
  5
22F
  2
GROUP_6
 70
               0
 10
0.0
 20
0.0
 30
0.0
  3
GROUP_6
  0
CIRCLE
  8
0
  6
CONTINUOUS
 62
               4
  5
230
 10
-80.303697626539204
 20
553.55361168863396
 30
0.0
 40
9.5
  0
LINE
  8
0
  6
CONTINUOUS
 62
               4
  5
231
 10
-69.334042511936161
 20
553.55361168863396
 30
0.0
 11
-74.818870069237931
 21
563.05361168863374
 31
0.0
  0
LINE
  8
0
  6
CONTINUOUS
 62
               4
  5
232
 10
-74.818870069237931
 20
563.05361168863374
 30
0.0
 11
-85.788525183840974
 21
563.05361168863374
 31
0.0
  0
LINE
  8
0
  6
CONTINUOUS
 62
               4
  5
233
 10
-85.788525183840974
 20
563.05361168863374
 30
0.0
 11
-91.273352741142176
 21
553.55361168863396
 31
0.0
  0
LINE
  8
0
  6
CONTINUOUS
 62
               4
  5
234
 10
-91.273352741142176
 20
553.55361168863396
 30
0.0
 11
-85.788525183840974
 21
544.05361168863374
 31
0.0
  0
LINE
  8
0
  6
CONTINUOUS
 62
               4
  5
235
 10
-85.788525183840974
 20
544.05361168863374
 30
0.0
 11
-74.818870069237931
 21
544.05361168863374
 31
0.0
  0
LINE
  8
0
  6
CONTINUOUS
 62
               4
  5
236
 10
-74.818870069237931
 20
544.05361168863374
 30
0.0
 11
-69.334042511936161
 21
553.55361168863396
 31
0.0
  0
CIRCLE
  8
0
  6
CONTINUOUS
 62
               4
  5
237
 10
-80.303697626539204
 20
553.55361168863396
 30
0.0
 40
5.1250000000000009
  0
CIRCLE
  8
0
  6
CONTINUOUS
 62
               4
  5
238
 10
-80.303697626539204
 20
553.55361168863396
 30
0.0
 40
6.0000000000000009
  0
ENDBLK
  8
0
  5
239
  0
BLOCK
  8
0
  5
23A
  2
GROUP_7
 70
               0
 10
0.0
 20
0.0
 30
0.0
  3
GROUP_7
  0
LINE
  8
0
  6
CONTINUOUS
 62
               4
  5
23B
 10
-513.7902057655001
 20
-41.40877367077637
 30
0.0
 11
-513.7902057655001
 21
-32.53460669569607
 31
0.0
  0
LINE
  8
0
  6
CONTINUOUS
 62
               4
  5
23C
 10
-519.27503332280151
 20
-41.40877367077637
 30
0.0
 11
-519.27503332280151
 21
-32.53460669569607
 31
0.0
  0
LINE
  8
0
  6
CONTINUOUS
 62
               4
  5
23D
 10
-513.7902057655001
 20
-41.40877367077637
 30
0.0
 11
-535.69020576549985
 21
-41.40877367077637
 31
0.0
  0
LINE
  8
0
  6
CONTINUOUS
 62
               4
  5
23E
 10
-516.53261954415075
 20
-31.40877367077637
 30
0.0
 11
-532.9477919868491
 21
-31.40877367077637
 31
0.0
  0
LINE
  8
0
  6
CONTINUOUS
 62
               4
  5
23F
 10
-535.69020576549985
 20
-41.40877367077637
 30
0.0
 11
-535.69020576549985
 21
-32.53460669569607
 31
0.0
  0
LINE
  8
0
  6
CONTINUOUS
 62
               4
  5
240
 10
-530.20537820819845
 20
-41.40877367077637
 30
0.0
 11
-530.20537820819845
 21
-32.53460669569607
 31
0.0
  0
ARC
  8
0
  6
CONTINUOUS
 62
               4
  5
241
 10
-516.53261954415075
 20
-35.311809529028736
 30
0.0
 40
3.9030358582523994
 50
45.36111921404013
 51
134.63888078592291
  0
ARC
  8
0
  6
CONTINUOUS
 62
               4
  5
242
 10
-532.9477919868491
 20
-35.311809529028736
 30
0.0
 40
3.9030358582525593
 50
45.361119214041885
 51
134.63888078592535
  0
ARC
  8
0
  6
CONTINUOUS
 62
               4
  5
243
 10
-524.74020576549992
 20
-45.236583452182387
 30
0.0
 40
13.827809781406303
 50
66.719648257516468
 51
113.28035174244877
  0
ENDBLK
  8
0
  5
244
  0
BLOCK
  8
0
  5
245
  2
GROUP_8
 70
               0
 10
0.0
 20
0.0
 30
0.0
  3
GROUP_8
  0
LINE
  8
0
  6
CONTINUOUS
 62
               4
  5
246
 10
-669.35369762654068
 20
-41.40877367077637
 30
0.0
 11
-669.35369762654068
 21
-32.53460669569607
 31
0.0
  0
LINE
  8
0
  6
CONTINUOUS
 62
               4
  5
247
 10
-674.83852518384208
 20
-41.40877367077637
 30
0.0
 11
-674.83852518384208
 21
-32.53460669569607
 31
0.0
  0
LINE
  8
0
  6
CONTINUOUS
 62
               4
  5
248
 10
-669.35369762654068
 20
-41.40877367077637
 30
0.0
 11
-691.25369762654043
 21
-41.40877367077637
 31
0.0
  0
LINE
  8
0
  6
CONTINUOUS
 62
               4
  5
249
 10
-672.09611140519132
 20
-31.40877367077637
 30
0.0
 11
-688.51128384788967
 21
-31.40877367077637
 31
0.0
  0
LINE
  8
0
  6
CONTINUOUS
 62
               4
  5
24A
 10
-691.25369762654043
 20
-41.40877367077637
 30
0.0
 11
-691.25369762654043
 21
-32.53460669569607
 31
0.0
  0
LINE
  8
0
  6
CONTINUOUS
 62
               4
  5
24B
 10
-685.76887006923903
 20
-41.40877367077637
 30
0.0
 11
-685.76887006923903
 21
-32.53460669569607
 31
0.0
  0
ARC
  8
0
  6
CONTINUOUS
 62
               4
  5
24C
 10
-672.09611140519132
 20
-35.311809529028736
 30
0.0
 40
3.9030358582523994
 50
45.36111921403954
 51
134.63888078592291
  0
ARC
  8
0
  6
CONTINUOUS
 62
               4
  5
24D
 10
-688.51128384788967
 20
-35.311809529028736
 30
0.0
 40
3.9030358582525593
 50
45.361119214041885
 51
134.63888078592535
  0
ARC
  8
0
  6
CONTINUOUS
 62
               4
  5
24E
 10
-680.3036976265405
 20
-45.236583452182387
 30
0.0
 40
13.827809781406303
 50
66.719648257516468
 51
113.28035174244877
  0
ENDBLK
  8
0
  5
24F
  0
BLOCK
  8
0
  5
250
  2
GROUP_9
 70
               0
 10
0.0
 20
0.0
 30
0.0
  3
GROUP_9
  0
LINE
  8
0
  6
CONTINUOUS
 62
               4
  5
251
 10
-91.253697626539292
 20
-41.408773670776441
 30
0.0
 11
-91.253697626539292
 21
-32.534606695696141
 31
0.0
  0
LINE
  8
0
  6
CONTINUOUS
 62
               4
  5
252
 10
-85.768870069237948
 20
-41.408773670776441
 30
0.0
 11
-85.768870069237948
 21
-32.534606695696141
 31
0.0
  0
LINE
  8
0
  6
CONTINUOUS
 62
               4
  5
253
 10
-91.253697626539292
 20
-41.408773670776441
 30
0.0
 11
-69.353697626539599
 21
-41.408773670776441
 31
0.0
  0
LINE
  8
0
  6
CONTINUOUS
 62
               4
  5
254
 10
-88.51128384788862
 20
-31.408773670776441
 30
0.0
 11
-72.096111405190271
 21
-31.408773670776441
 31
0.0
  0
LINE
  8
0
  6
CONTINUOUS
 62
               4
  5
255
 10
-69.353697626539599
 20
-41.408773670776441
 30
0.0
 11
-69.353697626539599
 21
-32.534606695696141
 31
0.0
  0
LINE
  8
0
  6
CONTINUOUS
 62
               4
  5
256
 10
-74.838525183840943
 20
-41.408773670776441
 30
0.0
 11
-74.838525183840943
 21
-32.534606695696141
 31
0.0
  0
ARC
  8
0
  6
CONTINUOUS
 62
               4
  5
257
 10
-88.51128384788862
 20
-35.311809529028807
 30
0.0
 40
3.9030358582523994
 50
45.36111921404234
 51
134.63888078592547
  0
ARC
  8
0
  6
CONTINUOUS
 62
               4
  5
258
 10
-72.096111405190271
 20
-35.311809529028807
 30
0.0
 40
3.9030358582525593
 50
45.361119214039817
 51
134.63888078592296
  0
ARC
  8
0
  6
CONTINUOUS
 62
               4
  5
259
 10
-80.303697626539446
 20
-45.236583452182458
 30
0.0
 40
13.827809781406303
 50
66.719648257516582
 51
113.28035174244872
  0
ENDBLK
  8
0
  5
25A
  0
BLOCK
  8
0
  5
25B
  2
GROUP_10
 70
               0
 10
0.0
 20
0.0
 30
0.0
  3
GROUP_10
  0
LINE
  8
0
  6
CONTINUOUS
 62
               4
  5
25C
 10
64.30979423450114
 20
-41.40877367077637
 30
0.0
 11
64.30979423450114
 21
-32.53460669569607
 31
0.0
  0
LINE
  8
0
  6
CONTINUOUS
 62
               4
  5
25D
 10
69.794621791802484
 20
-41.40877367077637
 30
0.0
 11
69.794621791802484
 21
-32.53460669569607
 31
0.0
  0
LINE
  8
0
  6
CONTINUOUS
 62
               4
  5
25E
 10
64.30979423450114
 20
-41.40877367077637
 30
0.0
 11
86.209794234500833
 21
-41.40877367077637
 31
0.0
  0
LINE
  8
0
  6
CONTINUOUS
 62
               4
  5
25F
 10
67.052208013151954
 20
-31.40877367077637
 30
0.0
 11
83.467380455850304
 21
-31.40877367077637
 31
0.0
  0
LINE
  8
0
  6
CONTINUOUS
 62
               4
  5
260
 10
86.209794234500833
 20
-41.40877367077637
 30
0.0
 11
86.209794234500833
 21
-32.53460669569607
 31
0.0
  0
LINE
  8
0
  6
CONTINUOUS
 62
               4
  5
261
 10
80.72496667719949
 20
-41.40877367077637
 30
0.0
 11
80.72496667719949
 21
-32.53460669569607
 31
0.0
  0
ARC
  8
0
  6
CONTINUOUS
 62
               4
  5
262
 10
67.052208013151954
 20
-35.311809529028736
 30
0.0
 40
3.9030358582523994
 50
45.36111921404234
 51
134.63888078592547
  0
ARC
  8
0
  6
CONTINUOUS
 62
               4
  5
263
 10
83.467380455850304
 20
-35.311809529028736
 30
0.0
 40
3.9030358582525593
 50
45.361119214039817
 51
134.63888078592296
  0
ARC
  8
0
  6
CONTINUOUS
 62
               4
  5
264
 10
75.259794234501129
 20
-45.236583452182387
 30
0.0
 40
13.827809781406303
 50
66.719648257516582
 51
113.28035174244872
  0
ENDBLK
  8
0
  5
265
  0
BLOCK
  8
0
  5
266
  2
GROUP_11
 70
               0
 10
0.0
 20
0.0
 30
0.0
  3
GROUP_11
  0
LINE
  8
0
  6
CONTINUOUS
 62
               4
  5
267
 10
508.74630237346173
 20
-41.408773670776725
 30
0.0
 11
508.74630237346173
 21
-32.534606695696425
 31
0.0
  0
LINE
  8
0
  6
CONTINUOUS
 62
               4
  5
268
 10
514.23112993076302
 20
-41.408773670776725
 30
0.0
 11
514.23112993076302
 21
-32.534606695696425
 31
0.0
  0
LINE
  8
0
  6
CONTINUOUS
 62
               4
  5
269
 10
508.74630237346173
 20
-41.408773670776725
 30
0.0
 11
530.64630237346137
 21
-41.408773670776725
 31
0.0
  0
LINE
  8
0
  6
CONTINUOUS
 62
               4
  5
26A
 10
511.48871615211237
 20
-31.408773670776725
 30
0.0
 11
527.90388859481072
 21
-31.408773670776725
 31
0.0
  0
LINE
  8
0
  6
CONTINUOUS
 62
               4
  5
26B
 10
530.64630237346137
 20
-41.408773670776725
 30
0.0
 11
530.64630237346137
 21
-32.534606695696425
 31
0.0
  0
LINE
  8
0
  6
CONTINUOUS
 62
               4
  5
26C
 10
525.16147481616008
 20
-41.408773670776725
 30
0.0
 11
525.16147481616008
 21
-32.534606695696425
 31
0.0
  0
ARC
  8
0
  6
CONTINUOUS
 62
               4
  5
26D
 10
511.48871615211237
 20
-35.311809529029091
 30
0.0
 40
3.9030358582523994
 50
45.361119214041821
 51
134.63888078592527
  0
ARC
  8
0
  6
CONTINUOUS
 62
               4
  5
26E
 10
527.90388859481072
 20
-35.311809529029091
 30
0.0
 40
3.9030358582525593
 50
45.361119214039448
 51
134.63888078592291
  0
ARC
  8
0
  6
CONTINUOUS
 62
               4
  5
26F
 10
519.69630237346155
 20
-45.236583452182742
 30
0.0
 40
13.827809781406303
 50
66.719648257516468
 51
113.28035174244877
  0
ENDBLK
  8
0
  5
270
  0
BLOCK
  8
0
  5
271
  2
GROUP_12
 70
               0
 10
0.0
 20
0.0
 30
0.0
  3
GROUP_12
  0
LINE
  8
0
  6
CONTINUOUS
 62
               4
  5
272
 10
664.30979423450242
 20
-41.408773670776725
 30
0.0
 11
664.30979423450242
 21
-32.534606695696425
 31
0.0
  0
LINE
  8
0
  6
CONTINUOUS
 62
               4
  5
273
 10
669.79462179180382
 20
-41.408773670776725
 30
0.0
 11
669.79462179180382
 21
-32.534606695696425
 31
0.0
  0
LINE
  8
0
  6
CONTINUOUS
 62
               4
  5
274
 10
664.30979423450242
 20
-41.408773670776725
 30
0.0
 11
686.20979423450217
 21
-41.408773670776725
 31
0.0
  0
LINE
  8
0
  6
CONTINUOUS
 62
               4
  5
275
 10
667.05220801315318
 20
-31.408773670776725
 30
0.0
 11
683.46738045585153
 21
-31.408773670776725
 31
0.0
  0
LINE
  8
0
  6
CONTINUOUS
 62
               4
  5
276
 10
686.20979423450217
 20
-41.408773670776725
 30
0.0
 11
686.20979423450217
 21
-32.534606695696425
 31
0.0
  0
LINE
  8
0
  6
CONTINUOUS
 62
               4
  5
277
 10
680.72496667720077
 20
-41.408773670776725
 30
0.0
 11
680.72496667720077
 21
-32.534606695696425
 31
0.0
  0
ARC
  8
0
  6
CONTINUOUS
 62
               4
  5
278
 10
667.05220801315318
 20
-35.311809529029091
 30
0.0
 40
3.9030358582523994
 50
45.361119214041821
 51
134.63888078592527
  0
ARC
  8
0
  6
CONTINUOUS
 62
               4
  5
279
 10
683.46738045585153
 20
-35.311809529029091
 30
0.0
 40
3.9030358582525593
 50
45.361119214039448
 51
134.63888078592291
  0
ARC
  8
0
  6
CONTINUOUS
 62
               4
  5
27A
 10
675.25979423450235
 20
-45.236583452182742
 30
0.0
 40
13.827809781406303
 50
66.719648257516468
 51
113.28035174244877
  0
ENDBLK
  8
0
  5
27B
  0
ENDSEC
  0
SECTION
  2
ENTITIES
  0
LINE
  8
0
  6
DASHDOT
 62
               4
  5
27C
 10
-2.5219516960194142
 20
-745.23855699639421
 30
0.0
 11
-2.5219516960191299
 21
234.83535761915397
 31
0.0
  0
LINE
  8
0
  6
DASHDOT
 62
               4
  5
27D
 10
-164.54034768732237
 20
-157.91501650675181
 30
0.0
 11
-92.52195169601913
 21
-157.91501650675181
 31
0.0
  0
LINE
  8
0
  6
DASHDOT
 62
               4
  5
27E
 10
-602.52195169601953
 20
-741.23855699639421
 30
0.0
 11
-602.5219516960193
 21
234.83535761915397
 31
0.0
  0
LINE
  8
0
  6
DASHDOT
 62
               4
  5
27F
 10
597.47804830398081
 20
-741.23855699639421
 30
0.0
 11
597.47804830398115
 21
234.83535761915351
 31
0.0
  0
LINE
  8
0
  6
DASHDOT
 62
               4
  5
280
 10
-2.521951696019272
 20
517.43215824191384
 30
0.0
 11
-2.5219516960190589
 21
745.23855699639421
 31
0.0
  0
LINE
  8
0
  6
DASHDOT
 62
               4
  5
281
 10
111.38124768122088
 20
631.33535761915391
 30
0.0
 11
-116.42515107325949
 21
631.33535761915414
 31
0.0
  0
LINE
  8
0
  6
DASHDOT
 62
               4
  5
282
 10
-116.42515107325922
 20
631.33535761915414
 30
0.0
 11
-182.52195169601907
 21
631.33535761915414
 31
0.0
  0
LINE
  8
0
  6
DASHDOT
 62
               4
  5
283
 10
107.52195169601907
 20
-147.91501650675221
 30
0.0
 11
67.521951696019073
 21
-147.91501650675224
 31
0.0
  0
LINE
  8
0
  6
DASHDOT
 62
               4
  5
284
 10
-678.02195169601953
 20
-157.91501650675181
 30
0.0
 11
-527.02195169601953
 21
-157.91501650675181
 31
0.0
  0
LINE
  8
0
  6
DASHDOT
 62
               4
  5
285
 10
-2.5219516960191015
 20
517.43215824191384
 30
0.0
 11
-2.5219516960192152
 21
451.33535761915397
 31
0.0
  0
LINE
  8
0
  6
DASHDOT
 62
               4
  5
286
 10
707.52195169601964
 20
-147.91501650675261
 30
0.0
 11
667.52195169601964
 21
-147.91501650675261
 31
0.0
  0
LINE
  8
0
  6
DASHDOT
 62
               4
  5
287
 10
637.47804830398081
 20
-147.91501650675261
 30
0.0
 11
557.47804830398081
 21
-147.91501650675261
 31
0.0
  0
LINE
  8
0
  6
DASHDOT
 62
               4
  5
288
 10
-440.50355570471635
 20
-157.91501650675184
 30
0.0
 11
-512.52195169601964
 21
-157.91501650675181
 31
0.0
  0
LINE
  8
0
  6
DASHDOT
 62
               4
  5
289
 10
-78.021951696019414
 20
-157.91501650675175
 30
0.0
 11
72.978048303980586
 21
-157.91501650675175
 31
0.0
  0
LINE
  8
0
  6
DASHDOT
 62
               4
  5
28A
 10
435.45965231267786
 20
-157.9150165067521
 30
0.0
 11
507.4780483039811
 21
-157.9150165067521
 31
0.0
  0
LINE
  8
0
  6
CONTINUOUS
 62
               4
  5
28B
 10
-512.52195169601964
 20
93.382551620026106
 30
0.0
 11
-512.52195169601964
 21
-38.423922358787564
 31
0.0
  0
LINE
  8
0
  6
CONTINUOUS
 62
               4
  5
28C
 10
-692.52195169601953
 20
93.382551620026106
 30
0.0
 11
-692.52195169601953
 21
-38.423922358787564
 31
0.0
  0
LINE
  8
0
  6
CONTINUOUS
 62
               4
  5
28D
 10
-499.4521527026148
 20
-43.708773670775201
 30
0.0
 11
-507.69644917953212
 21
-43.420876493883128
 31
0.0
  0
LINE
  8
0
  6
CONTINUOUS
 62
               4
  5
28E
 10
-705.59175068942454
 20
-43.70877367077513
 30
0.0
 11
-697.34745421250716
 21
-43.420876493883128
 31
0.0
  0
ARC
  8
0
  6
CONTINUOUS
 62
               4
  5
28F
 10
-507.5219516960197
 20
-38.423922358787564
 30
0.0
 40
5.0
 50
179.99999999996524
 51
267.99999999994816
  0
ARC
  8
0
  6
CONTINUOUS
 62
               4
  5
290
 10
-697.52195169601953
 20
-38.423922358787564
 30
0.0
 40
5.0
 50
271.99999999994702
 51
359.99999999993037
  0
LINE
  8
0
  6
CONTINUOUS
 62
               4
  5
291
 10
-510.52195169601964
 20
99.698557238004355
 30
0.0
 11
-510.52195169601964
 21
-38.493763897771146
 31
0.0
  0
ARC
  8
0
  6
CONTINUOUS
 62
               4
  5
292
 10
-505.52195169601964
 20
-38.493763897771146
 30
0.0
 40
5.0
 50
179.99999999996524
 51
267.99999999994816
  0
LINE
  8
0
  6
CONTINUOUS
 62
               4
  5
293
 10
-694.52195169601964
 20
99.698557238003502
 30
0.0
 11
-694.52195169601964
 21
-38.493763897771146
 31
0.0
  0
ARC
  8
0
  6
CONTINUOUS
 62
               4
  5
294
 10
-699.52195169601964
 20
-38.493763897771146
 30
0.0
 40
5.0
 50
271.99999999994702
 51
359.99999999993037
  0
LINE
  8
0
  6
CONTINUOUS
 62
               4
  5
295
 10
-75.2758865209004
 20
-302.30610679215653
 30
0.0
 11
61.485098781460493
 21
-417.06219911880913
 31
0.0
  0
CIRCLE
  8
0
  6
CONTINUOUS
 62
               4
  5
296
 10
75.259794234501157
 20
553.55361168863396
 30
0.0
 40
13.0
  0
CIRCLE
  8
0
  6
CONTINUOUS
 62
               4
  5
297
 10
75.259794234501229
 20
709.11710354967454
 30
0.0
 40
13.0
  0
CIRCLE
  8
0
  6
CONTINUOUS
 62
               4
  5
298
 10
-80.303697626539346
 20
709.11710354967408
 30
0.0
 40
13.0
  0
CIRCLE
  8
0
  6
CONTINUOUS
 62
               4
  5
299
 10
-80.303697626539204
 20
553.55361168863396
 30
0.0
 40
13.0
  0
LINE
  8
0
  6
CONTINUOUS
 62
               4
  5
29A
 10
-8.5219516960203876
 20
113.88255162002642
 30
0.0
 11
-8.5219516960202455
 21
-43.708773670775628
 31
0.0
  0
LINE
  8
0
  6
CONTINUOUS
 62
               4
  5
29B
 10
3.4780483039797829
 20
113.88255162002585
 30
0.0
 11
3.478048303979925
 21
-43.708773670775628
 31
0.0
  0
LINE
  8
0
  6
CONTINUOUS
 62
               4
  5
29C
 10
-10.521951696020274
 20
103.26052398873051
 30
0.0
 11
-10.521951696020132
 21
-43.708773670775628
 31
0.0
  0
LINE
  8
0
  6
CONTINUOUS
 62
               4
  5
29D
 10
5.4780483039796692
 20
103.26052398873051
 30
0.0
 11
5.4780483039798114
 21
-43.708773670775628
 31
0.0
  0
LINE
  8
0
  6
CONTINUOUS
 62
               4
  5
29E
 10
-537.74020576549981
 20
-41.408773670775233
 30
0.0
 11
-537.74020576549981
 21
-43.70877367077513
 31
0.0
  0
LINE
  8
0
  6
CONTINUOUS
 62
               4
  5
29F
 10
-537.74020576549981
 20
-43.70877367077513
 30
0.0
 11
-511.7402057654997
 21
-43.70877367077513
 31
0.0
  0
LINE
  8
0
  6
CONTINUOUS
 62
               4
  5
2A0
 10
-511.7402057654997
 20
-43.70877367077513
 30
0.0
 11
-511.7402057654997
 21
-41.408773670775233
 31
0.0
  0
LINE
  8
0
  6
CONTINUOUS
 62
               4
  5
2A1
 10
-511.7402057654997
 20
-41.408773670775233
 30
0.0
 11
-537.74020576549981
 21
-41.408773670775233
 31
0.0
  0
LINE
  8
0
  6
CONTINUOUS
 62
               4
  5
2A2
 10
-88.990914987282622
 20
-101.41501650675204
 30
0.0
 11
-88.990914987282622
 21
-89.415016506751869
 31
0.0
  0
LINE
  8
0
  6
CONTINUOUS
 62
               4
  5
2A3
 10
-77.173221951136327
 20
-101.41501650675204
 30
0.0
 11
-77.173221951136327
 21
-89.415016506751869
 31
0.0
  0
LINE
  8
0
  6
CONTINUOUS
 62
               4
  5
2A4
 10
-71.616480265794223
 20
-101.41501650675204
 30
0.0
 11
-71.616480265794223
 21
-89.415016506751869
 31
0.0
  0
LINE
  8
0
  6
CONTINUOUS
 62
               4
  5
2A5
 10
-71.616480265794223
 20
-101.41501650675204
 30
0.0
 11
-88.990914987282622
 21
-101.41501650675204
 31
0.0
  0
LINE
  8
0
  6
CONTINUOUS
 62
               4
  5
2A6
 10
-530.74020576549981
 20
-31.40877367077637
 30
0.0
 11
-530.74020576549981
 21
-22.708773670776182
 31
0.0
  0
LINE
  8
0
  6
CONTINUOUS
 62
               4
  5
2A7
 10
-518.7402057654997
 20
-22.708773670776182
 30
0.0
 11
-518.7402057654997
 21
-31.40877367077637
 31
0.0
  0
LINE
  8
0
  6
CONTINUOUS
 62
               4
  5
2A8
 10
-518.7402057654997
 20
-22.708773670776182
 30
0.0
 11
-530.74020576549981
 21
-22.708773670776182
 31
0.0
  0
LINE
  8
0
  6
CONTINUOUS
 62
               4
  5
2A9
 10
66.572576873757882
 20
-101.41501650675204
 30
0.0
 11
66.572576873757882
 21
-89.415016506751869
 31
0.0
  0
LINE
  8
0
  6
CONTINUOUS
 62
               4
  5
2AA
 10
78.390269909904177
 20
-101.41501650675204
 30
0.0
 11
78.390269909904177
 21
-89.415016506751869
 31
0.0
  0
LINE
  8
0
  6
CONTINUOUS
 62
               4
  5
2AB
 10
83.947011595246281
 20
-101.41501650675204
 30
0.0
 11
83.947011595246281
 21
-89.415016506751869
 31
0.0
  0
LINE
  8
0
  6
CONTINUOUS
 62
               4
  5
2AC
 10
83.947011595246281
 20
-101.41501650675204
 30
0.0
 11
66.572576873757882
 21
-101.41501650675204
 31
0.0
  0
LINE
  8
0
  6
CONTINUOUS
 62
               4
  5
2AD
 10
-693.30369762654038
 20
-41.408773670775233
 30
0.0
 11
-693.30369762654038
 21
-43.70877367077513
 31
0.0
  0
LINE
  8
0
  6
CONTINUOUS
 62
               4
  5
2AE
 10
-693.30369762654038
 20
-43.70877367077513
 30
0.0
 11
-667.30369762654027
 21
-43.70877367077513
 31
0.0
  0
LINE
  8
0
  6
CONTINUOUS
 62
               4
  5
2AF
 10
-667.30369762654027
 20
-43.70877367077513
 30
0.0
 11
-667.30369762654027
 21
-41.408773670775233
 31
0.0
  0
LINE
  8
0
  6
CONTINUOUS
 62
               4
  5
2B0
 10
-667.30369762654027
 20
-41.408773670775233
 30
0.0
 11
-693.30369762654038
 21
-41.408773670775233
 31
0.0
  0
LINE
  8
0
  6
CONTINUOUS
 62
               4
  5
2B1
 10
-686.30369762654038
 20
-31.40877367077637
 30
0.0
 11
-686.30369762654038
 21
-22.708773670776182
 31
0.0
  0
LINE
  8
0
  6
CONTINUOUS
 62
               4
  5
2B2
 10
-674.30369762654027
 20
-22.708773670776182
 30
0.0
 11
-674.30369762654027
 21
-31.40877367077637
 31
0.0
  0
LINE
  8
0
  6
CONTINUOUS
 62
               4
  5
2B3
 10
-674.30369762654027
 20
-22.708773670776182
 30
0.0
 11
-686.30369762654038
 21
-22.708773670776182
 31
0.0
  0
LINE
  8
0
  6
CONTINUOUS
 62
               4
  5
2B4
 10
-67.303697626539616
 20
-41.408773670775304
 30
0.0
 11
-67.303697626539616
 21
-43.708773670775201
 31
0.0
  0
LINE
  8
0
  6
CONTINUOUS
 62
               4
  5
2B5
 10
-67.303697626539616
 20
-43.708773670775201
 30
0.0
 11
-93.303697626539702
 21
-43.708773670775201
 31
0.0
  0
LINE
  8
0
  6
CONTINUOUS
 62
               4
  5
2B6
 10
-93.303697626539702
 20
-43.708773670775201
 30
0.0
 11
-93.303697626539702
 21
-41.408773670775304
 31
0.0
  0
LINE
  8
0
  6
CONTINUOUS
 62
               4
  5
2B7
 10
-93.303697626539702
 20
-41.408773670775304
 30
0.0
 11
-67.303697626539616
 21
-41.408773670775304
 31
0.0
  0
LINE
  8
0
  6
CONTINUOUS
 62
               4
  5
2B8
 10
-688.99091498728262
 20
-101.41501650675204
 30
0.0
 11
-688.99091498728262
 21
-89.415016506751869
 31
0.0
  0
LINE
  8
0
  6
CONTINUOUS
 62
               4
  5
2B9
 10
-677.17322195113638
 20
-101.41501650675204
 30
0.0
 11
-677.17322195113638
 21
-89.415016506751869
 31
0.0
  0
LINE
  8
0
  6
CONTINUOUS
 62
               4
  5
2BA
 10
-671.61648026579428
 20
-101.41501650675204
 30
0.0
 11
-671.61648026579428
 21
-89.415016506751869
 31
0.0
  0
LINE
  8
0
  6
CONTINUOUS
 62
               4
  5
2BB
 10
-671.61648026579428
 20
-101.41501650675204
 30
0.0
 11
-688.99091498728262
 21
-101.41501650675204
 31
0.0
  0
LINE
  8
0
  6
CONTINUOUS
 62
               4
  5
2BC
 10
-74.303697626539645
 20
-31.408773670776441
 30
0.0
 11
-74.303697626539645
 21
-22.708773670776253
 31
0.0
  0
LINE
  8
0
  6
CONTINUOUS
 62
               4
  5
2BD
 10
-86.303697626539673
 20
-22.708773670776253
 30
0.0
 11
-86.303697626539673
 21
-31.408773670776441
 31
0.0
  0
LINE
  8
0
  6
CONTINUOUS
 62
               4
  5
2BE
 10
-86.303697626539673
 20
-22.708773670776253
 30
0.0
 11
-74.303697626539645
 21
-22.708773670776253
 31
0.0
  0
LINE
  8
0
  6
CONTINUOUS
 62
               4
  5
2BF
 10
62.259794234500731
 20
-43.70877367077513
 30
0.0
 11
62.259794234500731
 21
-41.408773670775233
 31
0.0
  0
LINE
  8
0
  6
CONTINUOUS
 62
               4
  5
2C0
 10
81.259794234500788
 20
-31.40877367077637
 30
0.0
 11
81.259794234500788
 21
-22.708773670776182
 31
0.0
  0
LINE
  8
0
  6
CONTINUOUS
 62
               4
  5
2C1
 10
69.259794234500902
 20
-22.708773670776182
 30
0.0
 11
69.259794234500902
 21
-31.40877367077637
 31
0.0
  0
LINE
  8
0
  6
CONTINUOUS
 62
               4
  5
2C2
 10
69.259794234500902
 20
-22.708773670776182
 30
0.0
 11
81.259794234500788
 21
-22.708773670776182
 31
0.0
  0
LINE
  8
0
  6
CONTINUOUS
 62
               4
  5
2C3
 10
88.259794234500959
 20
-41.408773670775233
 30
0.0
 11
88.259794234500959
 21
-43.70877367077513
 31
0.0
  0
LINE
  8
0
  6
CONTINUOUS
 62
               4
  5
2C4
 10
88.259794234500959
 20
-43.70877367077513
 30
0.0
 11
62.259794234500731
 21
-43.70877367077513
 31
0.0
  0
LINE
  8
0
  6
CONTINUOUS
 62
               4
  5
2C5
 10
62.259794234500731
 20
-41.408773670775233
 30
0.0
 11
88.259794234500959
 21
-41.408773670775233
 31
0.0
  0
ARC
  8
0
  6
CONTINUOUS
 62
               4
  5
2C6
 10
-1172.3653107420535
 20
-626.21317647804244
 30
0.0
 40
687.72820158627314
 50
18.108480790465826
 51
28.098008730082476
  0
ARC
  8
0
  6
CONTINUOUS
 62
               4
  5
2C7
 10
-584.01158397859672
 20
-369.59940193325502
 30
0.0
 40
69.74273142123306
 50
332.35940834662927
 51
434.76997683374913
  0
LINE
  8
0
  6
CONTINUOUS
 62
               4
  5
2C8
 10
494.40824931057637
 20
-43.708773670775486
 30
0.0
 11
502.65254578749369
 21
-43.420876493883412
 31
0.0
  0
LINE
  8
0
  6
CONTINUOUS
 62
               4
  5
2C9
 10
700.5478472973864
 20
-43.708773670775486
 30
0.0
 11
692.3035508204689
 21
-43.420876493883554
 31
0.0
  0
ARC
  8
0
  6
CONTINUOUS
 62
               4
  5
2CA
 10
502.47804830398127
 20
-38.423922358787848
 30
0.0
 40
5.0
 50
271.99999999994765
 51
359.99999999993031
  0
ARC
  8
0
  6
CONTINUOUS
 62
               4
  5
2CB
 10
692.47804830398127
 20
-38.423922358787991
 30
0.0
 40
5.0
 50
179.99999999996518
 51
267.99999999994884
  0
ARC
  8
0
  6
CONTINUOUS
 62
               4
  5
2CC
 10
500.47804830398127
 20
-38.49376389777143
 30
0.0
 40
5.0
 50
271.99999999994765
 51
359.99999999993031
  0
ARC
  8
0
  6
CONTINUOUS
 62
               4
  5
2CD
 10
694.47804830398127
 20
-38.493763897771572
 30
0.0
 40
5.0
 50
179.99999999996518
 51
267.99999999994753
  0
LINE
  8
0
  6
CONTINUOUS
 62
               4
  5
2CE
 10
532.69630237346144
 20
-41.408773670775588
 30
0.0
 11
532.69630237346144
 21
-43.708773670775486
 31
0.0
  0
LINE
  8
0
  6
CONTINUOUS
 62
               4
  5
2CF
 10
532.69630237346144
 20
-43.708773670775486
 30
0.0
 11
506.69630237346132
 21
-43.708773670775486
 31
0.0
  0
LINE
  8
0
  6
CONTINUOUS
 62
               4
  5
2D0
 10
506.69630237346132
 20
-43.708773670775486
 30
0.0
 11
506.69630237346132
 21
-41.408773670775588
 31
0.0
  0
LINE
  8
0
  6
CONTINUOUS
 62
               4
  5
2D1
 10
506.69630237346132
 20
-41.408773670775588
 30
0.0
 11
532.69630237346144
 21
-41.408773670775588
 31
0.0
  0
LINE
  8
0
  6
CONTINUOUS
 62
               4
  5
2D2
 10
525.69630237346132
 20
-31.408773670776725
 30
0.0
 11
525.69630237346132
 21
-22.708773670776537
 31
0.0
  0
LINE
  8
0
  6
CONTINUOUS
 62
               4
  5
2D3
 10
513.69630237346132
 20
-22.708773670776537
 30
0.0
 11
513.69630237346132
 21
-31.408773670776725
 31
0.0
  0
LINE
  8
0
  6
CONTINUOUS
 62
               4
  5
2D4
 10
513.69630237346132
 20
-22.708773670776537
 30
0.0
 11
525.69630237346132
 21
-22.708773670776537
 31
0.0
  0
LINE
  8
0
  6
CONTINUOUS
 62
               4
  5
2D5
 10
688.25979423450212
 20
-41.408773670775588
 30
0.0
 11
688.25979423450212
 21
-43.708773670775486
 31
0.0
  0
LINE
  8
0
  6
CONTINUOUS
 62
               4
  5
2D6
 10
688.25979423450212
 20
-43.708773670775486
 30
0.0
 11
662.25979423450201
 21
-43.708773670775486
 31
0.0
  0
LINE
  8
0
  6
CONTINUOUS
 62
               4
  5
2D7
 10
662.25979423450201
 20
-43.708773670775486
 30
0.0
 11
662.25979423450201
 21
-41.408773670775588
 31
0.0
  0
LINE
  8
0
  6
CONTINUOUS
 62
               4
  5
2D8
 10
662.25979423450201
 20
-41.408773670775588
 30
0.0
 11
688.25979423450212
 21
-41.408773670775588
 31
0.0
  0
LINE
  8
0
  6
CONTINUOUS
 62
               4
  5
2D9
 10
681.25979423450212
 20
-31.408773670776725
 30
0.0
 11
681.25979423450212
 21
-22.708773670776537
 31
0.0
  0
LINE
  8
0
  6
CONTINUOUS
 62
               4
  5
2DA
 10
669.25979423450212
 20
-22.708773670776537
 30
0.0
 11
669.25979423450212
 21
-31.408773670776725
 31
0.0
  0
LINE
  8
0
  6
CONTINUOUS
 62
               4
  5
2DB
 10
669.25979423450212
 20
-22.708773670776537
 30
0.0
 11
681.25979423450212
 21
-22.708773670776537
 31
0.0
  0
ARC
  8
0
  6
CONTINUOUS
 62
               4
  5
2DC
 10
574.98980270867378
 20
-401.82199677175726
 30
0.0
 40
62.379470432471358
 50
153.87479529774379
 51
191.49340995895585
  0
ARC
  8
0
  6
CONTINUOUS
 62
               4
  5
2DD
 10
540.112732780643
 20
-417.3697542155258
 30
0.0
 40
10.0
 50
324.29736943372262
 51
398.20421175358553
  0
LINE
  8
0
  6
CONTINUOUS
 62
               4
  5
2DE
 10
547.97084710553156
 20
-411.18509260336117
 30
0.0
 11
507.67899634115952
 21
-359.99102742685648
 31
0.0
  0
ARC
  8
0
  6
CONTINUOUS
 62
               4
  5
2DF
 10
532.77491359559758
 20
-412.09648537116703
 30
0.0
 40
19.036091782253322
 50
186.49999999996379
 51
324.29736943372262
  0
ARC
  8
0
  6
CONTINUOUS
 62
               4
  5
2E0
 10
471.15933948047746
 20
-452.41383163610197
 30
0.0
 40
204.24864340422488
 50
353.49999999993162
 51
373.4368021674054
  0
ARC
  8
0
  6
CONTINUOUS
 62
               4
  5
2E1
 10
508.85034924853846
 20
-450.12941456669427
 30
0.0
 40
167.18634723772169
 50
351.25933879886691
 51
375.67746336847057
  0
ARC
  8
0
  6
CONTINUOUS
 62
               4
  5
2E2
 10
170.83739816833202
 20
-148.05469958471926
 30
0.0
 40
92.090694433536868
 50
155.07010251999947
 51
205.15144555827746
  0
LINE
  8
0
  6
CONTINUOUS
 62
               4
  5
2E3
 10
-14.248951696020498
 20
118.88255162002599
 30
0.0
 11
9.2050483039799076
 21
118.88255162002599
 31
0.0
  0
LINE
  8
0
  6
CONTINUOUS
 62
               4
  5
2E4
 10
9.2050483039799076
 20
113.88255162002599
 30
0.0
 11
9.2050483039799076
 21
118.88255162002599
 31
0.0
  0
LINE
  8
0
  6
CONTINUOUS
 62
               4
  5
2E5
 10
-14.248951696020498
 20
113.88255162002599
 30
0.0
 11
-14.248951696020498
 21
118.88255162002599
 31
0.0
  0
LINE
  8
0
  6
CONTINUOUS
 62
               4
  5
2E6
 10
9.2050483039799076
 20
118.88255162002599
 30
0.0
 11
3.4780483039799321
 21
113.88255162002599
 31
0.0
  0
LINE
  8
0
  6
CONTINUOUS
 62
               4
  5
2E7
 10
-8.5219516960199542
 20
113.88255162002599
 30
0.0
 11
-14.248951696020498
 21
118.88255162002599
 31
0.0
  0
LINE
  8
0
  6
CONTINUOUS
 62
               4
  5
2E8
 10
3.4780483039799321
 20
113.88255162002599
 30
0.0
 11
-8.5219516960199542
 21
113.88255162002599
 31
0.0
  0
ARC
  8
0
  6
CONTINUOUS
 62
               4
  5
2E9
 10
22.478048303979705
 20
103.26052398873048
 30
0.0
 40
17.0
 50
141.33064456987887
 51
179.99999999996521
  0
ARC
  8
0
  6
CONTINUOUS
 62
               4
  5
2EA
 10
-27.5219516960193
 20
103.26052398873048
 30
0.0
 40
17.0
 50
0.0
 51
38.669355430086384
  0
LINE
  8
0
  6
CONTINUOUS
 62
               4
  5
2EB
 10
687.47804830398081
 20
93.382551620025794
 30
0.0
 11
687.47804830398081
 21
-38.423922358787884
 31
0.0
  0
LINE
  8
0
  6
CONTINUOUS
 62
               4
  5
2EC
 10
507.47804830398093
 20
93.382551620025794
 30
0.0
 11
507.47804830398093
 21
-38.423922358787884
 31
0.0
  0
LINE
  8
0
  6
CONTINUOUS
 62
               4
  5
2ED
 10
689.47804830398081
 20
99.698557238004042
 30
0.0
 11
689.47804830398081
 21
-38.493763897771466
 31
0.0
  0
LINE
  8
0
  6
CONTINUOUS
 62
               4
  5
2EE
 10
505.47804830398081
 20
99.69855723800319
 30
0.0
 11
505.47804830398081
 21
-38.493763897771466
 31
0.0
  0
LINE
  8
0
  6
CONTINUOUS
 62
               4
  5
2EF
 10
-533.42742312624227
 20
-101.41501650675204
 30
0.0
 11
-533.42742312624227
 21
-89.415016506751869
 31
0.0
  0
LINE
  8
0
  6
CONTINUOUS
 62
               4
  5
2F0
 10
-521.60973009009604
 20
-101.41501650675204
 30
0.0
 11
-521.60973009009604
 21
-89.415016506751869
 31
0.0
  0
LINE
  8
0
  6
CONTINUOUS
 62
               4
  5
2F1
 10
-516.05298840475393
 20
-101.41501650675204
 30
0.0
 11
-516.05298840475393
 21
-89.415016506751869
 31
0.0
  0
LINE
  8
0
  6
CONTINUOUS
 62
               4
  5
2F2
 10
-516.05298840475393
 20
-101.41501650675204
 30
0.0
 11
-533.42742312624227
 21
-101.41501650675204
 31
0.0
  0
ARC
  8
0
  6
CONTINUOUS
 62
               4
  5
2F3
 10
770.83739816833247
 20
-148.05469958471971
 30
0.0
 40
92.090694433536868
 50
155.07010251999944
 51
205.15144555827743
  0
LINE
  8
0
  6
CONTINUOUS
 62
               4
  5
2F4
 10
511.00908501271783
 20
-101.41501650675247
 30
0.0
 11
511.00908501271783
 21
-89.415016506752295
 31
0.0
  0
LINE
  8
0
  6
CONTINUOUS
 62
               4
  5
2F5
 10
522.82677804886407
 20
-101.41501650675247
 30
0.0
 11
522.82677804886407
 21
-89.415016506752295
 31
0.0
  0
LINE
  8
0
  6
CONTINUOUS
 62
               4
  5
2F6
 10
528.38351973420617
 20
-101.41501650675247
 30
0.0
 11
528.38351973420617
 21
-89.415016506752295
 31
0.0
  0
LINE
  8
0
  6
CONTINUOUS
 62
               4
  5
2F7
 10
528.38351973420617
 20
-101.41501650675247
 30
0.0
 11
511.00908501271783
 21
-101.41501650675247
 31
0.0
  0
LINE
  8
0
  6
CONTINUOUS
 62
               4
  5
2F8
 10
666.57257687375807
 20
-101.41501650675232
 30
0.0
 11
666.57257687375807
 21
-89.415016506752153
 31
0.0
  0
LINE
  8
0
  6
CONTINUOUS
 62
               4
  5
2F9
 10
678.39026990990442
 20
-101.41501650675232
 30
0.0
 11
678.39026990990442
 21
-89.415016506752153
 31
0.0
  0
LINE
  8
0
  6
CONTINUOUS
 62
               4
  5
2FA
 10
683.94701159524652
 20
-101.41501650675232
 30
0.0
 11
683.94701159524652
 21
-89.415016506752153
 31
0.0
  0
LINE
  8
0
  6
CONTINUOUS
 62
               4
  5
2FB
 10
683.94701159524652
 20
-101.41501650675232
 30
0.0
 11
666.57257687375807
 21
-101.41501650675232
 31
0.0
  0
LINE
  8
0
  6
CONTINUOUS
 62
               4
  5
2FC
 10
54.478048303980621
 20
-613.41501650675195
 30
0.0
 11
-59.521951696019357
 21
-613.41501650675195
 31
0.0
  0
LINE
  8
0
  6
CONTINUOUS
 62
               4
  5
2FD
 10
55.531091127153999
 20
-612.3619736835783
 30
0.0
 11
-60.5749945191927
 21
-612.3619736835783
 31
0.0
  0
LINE
  8
0
  6
CONTINUOUS
 62
               4
  5
2FE
 10
-545.52195169601953
 20
-613.41501650675195
 30
0.0
 11
-659.52195169601941
 21
-613.41501650675195
 31
0.0
  0
LINE
  8
0
  6
CONTINUOUS
 62
               4
  5
2FF
 10
-544.4689088728461
 20
-612.3619736835783
 30
0.0
 11
-660.57499451919284
 21
-612.3619736835783
 31
0.0
  0
LINE
  8
0
  6
CONTINUOUS
 62
               4
  5
300
 10
654.47804830398081
 20
-613.41501650675218
 30
0.0
 11
540.47804830398081
 21
-613.41501650675218
 31
0.0
  0
LINE
  8
0
  6
CONTINUOUS
 62
               4
  5
301
 10
655.53109112715424
 20
-612.36197368357875
 30
0.0
 11
539.4250054808075
 21
-612.36197368357875
 31
0.0
  0
LINE
  8
0
  6
DASHED2
 62
               4
  5
302
 10
-59.5219516960194
 20
136.58498349324805
 30
0.0
 11
54.478048303980593
 21
136.58498349324805
 31
0.0
  0
LINE
  8
0
  6
DASHED2
 62
               4
  5
303
 10
-659.52195169601953
 20
136.58498349324805
 30
0.0
 11
-545.52195169601953
 21
136.58498349324805
 31
0.0
  0
LINE
  8
0
  6
DASHED2
 62
               4
  5
304
 10
540.47804830398093
 20
136.58498349324773
 30
0.0
 11
654.47804830398093
 21
136.58498349324773
 31
0.0
  0
LINE
  8
0
  6
CONTINUOUS
 62
               3
  5
305
 10
-154.50569532877802
 20
-87.915016506751812
 30
0.0
 11
-110.41725320591213
 21
-86.375414182128992
 31
0.0
  0
LINE
  8
0
  6
CONTINUOUS
 62
               3
  5
306
 10
-154.52195169601916
 20
-227.91501650675184
 30
0.0
 11
-106.81694769777296
 21
-229.58091195497764
 31
0.0
  0
LINE
  8
0
  6
CONTINUOUS
 62
               3
  5
307
 10
-103.45591127535266
 20
-231.04233218414035
 30
0.0
 11
-93.986417790086222
 21
-240.51182566940702
 31
0.0
  0
ARC
  8
0
  6
CONTINUOUS
 62
               3
  5
308
 10
-106.99144518128543
 20
-234.57786609007312
 30
0.0
 40
5.0
 50
44.999999999991267
 51
87.99999999998262
  0
ARC
  8
0
  6
CONTINUOUS
 62
               3
  5
309
 10
-97.52195169601913
 20
-244.04735957533967
 30
0.0
 40
5.0
 50
0.0
 51
44.999999999990806
  0
LINE
  8
0
  6
CONTINUOUS
 62
               3
  5
30A
 10
94.478048303980614
 20
-69.91501650675184
 30
0.0
 11
64.478048303980614
 21
-69.91501650675184
 31
0.0
  0
LINE
  8
0
  6
CONTINUOUS
 62
               3
  5
30B
 10
102.47804830398087
 20
-71.415016506751897
 30
0.0
 11
102.47804830398087
 21
-86.415016506751968
 31
0.0
  0
LINE
  8
0
  6
CONTINUOUS
 62
               3
  5
30C
 10
-154.50569532877802
 20
-87.915016506751812
 30
0.0
 11
-154.50569532877802
 21
-227.91558419160506
 31
0.0
  0
LINE
  8
0
  6
CONTINUOUS
 62
               3
  5
30D
 10
94.478048303980614
 20
-69.91501650675184
 30
0.0
 11
94.978048303980586
 21
-71.415016506751897
 31
0.0
  0
LINE
  8
0
  6
CONTINUOUS
 62
               3
  5
30E
 10
64.478048303980614
 20
-69.91501650675184
 30
0.0
 11
62.9780483039807
 21
-71.415016506751897
 31
0.0
  0
LINE
  8
0
  6
CONTINUOUS
 62
               3
  5
30F
 10
94.978048303980586
 20
-71.415016506751897
 30
0.0
 11
102.47804830398087
 21
-71.415016506751897
 31
0.0
  0
LINE
  8
0
  6
CONTINUOUS
 62
               3
  5
310
 10
-99.521951696019372
 20
-69.91501650675184
 30
0.0
 11
-69.521951696019372
 21
-69.91501650675184
 31
0.0
  0
LINE
  8
0
  6
CONTINUOUS
 62
               3
  5
311
 10
-107.52195169601956
 20
-71.415016506751897
 30
0.0
 11
-107.52195169601949
 21
-86.415016506751897
 31
0.0
  0
ARC
  8
0
  6
CONTINUOUS
 62
               3
  5
312
 10
-104.52195169601944
 20
-86.415016506751897
 30
0.0
 40
3.0000000000000004
 50
179.99999999996524
 51
269.99999999994782
  0
LINE
  8
0
  6
CONTINUOUS
 62
               3
  5
313
 10
-99.521951696019372
 20
-69.91501650675184
 30
0.0
 11
-100.02195169601934
 21
-71.415016506751897
 31
0.0
  0
LINE
  8
0
  6
CONTINUOUS
 62
               3
  5
314
 10
-69.521951696019372
 20
-69.91501650675184
 30
0.0
 11
-68.021951696019386
 21
-71.415016506751897
 31
0.0
  0
LINE
  8
0
  6
CONTINUOUS
 62
               3
  5
315
 10
-100.02195169601934
 20
-71.415016506751897
 30
0.0
 11
-107.52195169601956
 21
-71.415016506751897
 31
0.0
  0
ARC
  8
0
  6
CONTINUOUS
 62
               3
  5
316
 10
-110.5219516960196
 20
-83.377241701071597
 30
0.0
 40
3.0000000000000004
 50
271.99999999994657
 51
359.99999999993042
  0
LINE
  8
0
  6
CONTINUOUS
 62
               3
  5
317
 10
-92.52195169601913
 20
-244.04735957533967
 30
0.0
 11
-92.52195169601913
 21
-358.22732913995583
 31
0.0
  0
ARC
  8
0
  6
CONTINUOUS
 62
               3
  5
318
 10
-84.521951696019372
 20
-232.91501650675184
 30
0.0
 40
2.5
 50
89.999999999982535
 51
269.99999999994793
  0
LINE
  8
0
  6
CONTINUOUS
 62
               3
  5
319
 10
-68.021951696019386
 20
-71.415016506751897
 30
0.0
 11
62.9780483039807
 21
-71.415016506751897
 31
0.0
  0
LINE
  8
0
  6
CONTINUOUS
 62
               3
  5
31A
 10
85.199336137947682
 20
-378.22732913995583
 30
0.0
 11
70.756760470013575
 21
-504.9881889204832
 31
0.0
  0
LINE
  8
0
  6
CONTINUOUS
 62
               3
  5
31B
 10
-157.52195169601927
 20
-90.243460380787695
 30
0.0
 11
-156.8341392028139
 21
-90.243460380787695
 31
0.0
  0
LINE
  8
0
  6
CONTINUOUS
 62
               3
  5
31C
 10
-154.50569532877802
 20
-87.915016506751812
 30
0.0
 11
-156.8341392028139
 21
-90.243460380787695
 31
0.0
  0
LINE
  8
0
  6
CONTINUOUS
 62
               3
  5
31D
 10
-157.52195169601927
 20
-87.915016506751954
 30
0.0
 11
-160.02195169601927
 21
-87.915016506751954
 31
0.0
  0
ARC
  8
0
  6
CONTINUOUS
 62
               3
  5
31E
 10
-160.02195169601927
 20
-90.415016506751954
 30
0.0
 40
2.5
 50
89.999999999982862
 51
179.99999999996524
  0
LINE
  8
0
  6
CONTINUOUS
 62
               3
  5
31F
 10
-157.52195169601927
 20
-225.58657263271596
 30
0.0
 11
-156.8341392028139
 21
-225.58657263271596
 31
0.0
  0
LINE
  8
0
  6
CONTINUOUS
 62
               3
  5
320
 10
-154.50569532877802
 20
-227.91501650675184
 30
0.0
 11
-156.8341392028139
 21
-225.58657263271596
 31
0.0
  0
LINE
  8
0
  6
CONTINUOUS
 62
               3
  5
321
 10
-157.52195169601927
 20
-227.9150165067517
 30
0.0
 11
-160.02195169601927
 21
-227.9150165067517
 31
0.0
  0
ARC
  8
0
  6
CONTINUOUS
 62
               3
  5
322
 10
-160.02195169601927
 20
-225.4150165067517
 30
0.0
 40
2.5
 50
179.99999999996507
 51
269.99999999994793
  0
LINE
  8
0
  6
CONTINUOUS
 62
               3
  5
323
 10
-162.52195169601927
 20
-90.415016506751954
 30
0.0
 11
-162.52195169601927
 21
-225.4150165067517
 31
0.0
  0
LINE
  8
0
  6
CONTINUOUS
 62
               3
  5
324
 10
-157.52195169601927
 20
-227.9150165067517
 30
0.0
 11
-157.52195169601927
 21
-87.915016506751954
 31
0.0
  0
LINE
  8
0
  6
CONTINUOUS
 62
               3
  5
325
 10
-156.8341392028139
 20
-90.243460380787695
 30
0.0
 11
-156.8341392028139
 21
-225.58657263271596
 31
0.0
  0
LINE
  8
0
  6
CONTINUOUS
 62
               3
  5
326
 10
87.478048303980444
 20
-235.41501650675184
 30
0.0
 11
87.478048303980728
 21
-358.22732913995458
 31
0.0
  0
LINE
  8
0
  6
CONTINUOUS
 62
               3
  5
327
 10
87.9605459425118
 20
-376.07668039660655
 30
0.0
 11
89.678969908752379
 21
-360.99426681356709
 31
0.0
  0
ARC
  8
0
  6
CONTINUOUS
 62
               3
  5
328
 10
87.195040269560934
 20
-360.71125877914727
 30
0.0
 40
2.5
 50
353.49999999993105
 51
443.49999999991411
  0
ARC
  8
0
  6
CONTINUOUS
 62
               3
  5
329
 10
85.482344172367618
 20
-375.74339950076427
 30
0.0
 40
2.5
 50
263.49999999994765
 51
353.49999999993105
  0
LINE
  8
0
  6
CONTINUOUS
 62
               3
  5
32A
 10
-93.004449334550557
 20
-376.07668039660655
 30
0.0
 11
-94.722873300791136
 21
-360.99426681356709
 31
0.0
  0
ARC
  8
0
  6
CONTINUOUS
 62
               3
  5
32B
 10
-92.23894366159962
 20
-360.71125877914727
 30
0.0
 40
2.5
 50
96.499999999981398
 51
186.49999999996413
  0
ARC
  8
0
  6
CONTINUOUS
 62
               3
  5
32C
 10
-90.526247564406304
 20
-375.74339950076427
 30
0.0
 40
2.5
 50
186.49999999996413
 51
276.49999999994787
  0
LINE
  8
0
  6
CONTINUOUS
 62
               3
  5
32D
 10
-90.243239529986369
 20
-378.22732913995583
 30
0.0
 11
-75.800663862052332
 21
-504.9881889204832
 31
0.0
  0
LINE
  8
0
  6
CONTINUOUS
 62
               3
  5
32E
 10
-107.52195169601934
 20
-45.70755532481337
 30
0.0
 11
-107.52195169601934
 21
-61.416234852713686
 31
0.0
  0
LINE
  8
0
  6
CONTINUOUS
 62
               3
  5
32F
 10
102.47804830398059
 20
-45.70755532481337
 30
0.0
 11
102.47804830398059
 21
-61.416234852713686
 31
0.0
  0
ARC
  8
0
  6
CONTINUOUS
 62
               3
  5
330
 10
-105.52195169601939
 20
-61.416234852713686
 30
0.0
 40
2.0
 50
179.99999999996518
 51
267.9999999999485
  0
ARC
  8
0
  6
CONTINUOUS
 62
               3
  5
331
 10
-499.52195169601958
 20
-45.70755532481337
 30
0.0
 40
2.0
 50
0.0
 51
87.999999999984752
  0
ARC
  8
0
  6
CONTINUOUS
 62
               3
  5
332
 10
-705.52195169601964
 20
-45.70755532481337
 30
0.0
 40
2.0
 50
91.999999999980631
 51
179.99999999996518
  0
ARC
  8
0
  6
CONTINUOUS
 62
               3
  5
333
 10
100.4780483039807
 20
-61.416234852713686
 30
0.0
 40
2.0
 50
271.99999999994725
 51
359.99999999993042
  0
LINE
  8
0
  6
CONTINUOUS
 62
               3
  5
334
 10
-105.5917506894241
 20
-63.415016506751925
 30
0.0
 11
100.54784729738549
 21
-63.415016506751925
 31
0.0
  0
LINE
  8
0
  6
CONTINUOUS
 62
               3
  5
335
 10
-499.45215270261463
 20
-43.708773670775201
 30
0.0
 11
-705.59175068942454
 21
-43.70877367077513
 31
0.0
  0
LINE
  8
0
  6
CONTINUOUS
 62
               3
  5
336
 10
-103.02195169601939
 20
-63.415016506751925
 30
0.0
 11
-103.02195169601939
 21
-71.415016506751897
 31
0.0
  0
LINE
  8
0
  6
CONTINUOUS
 62
               3
  5
337
 10
97.9780483039807
 20
-71.415016506751897
 30
0.0
 11
97.9780483039807
 21
-63.415016506751925
 31
0.0
  0
LINE
  8
0
  6
CONTINUOUS
 62
               3
  5
338
 10
-90.243239529986226
 20
-378.22732913995583
 30
0.0
 11
-36.256410727627767
 21
-378.22732913995588
 31
0.0
  0
LINE
  8
0
  6
CONTINUOUS
 62
               3
  5
339
 10
19.970865171448708
 20
-378.22732913995583
 30
0.0
 11
85.199336137947682
 21
-378.22732913995583
 31
0.0
  0
LINE
  8
0
  6
CONTINUOUS
 62
               3
  5
33A
 10
-92.52195169601913
 20
-358.22732913995583
 30
0.0
 11
-50.259237563154656
 21
-358.22732913995588
 31
0.0
  0
LINE
  8
0
  6
CONTINUOUS
 62
               3
  5
33B
 10
-3.6249100547655075
 20
-358.22732913995583
 30
0.0
 11
87.478048303980586
 21
-358.22732913995583
 31
0.0
  0
ARC
  8
0
  6
CONTINUOUS
 62
               3
  5
33C
 10
-80.303697626539204
 20
709.11710354967408
 30
0.0
 40
17.5
 50
97.698209707834295
 51
172.30179029211342
  0
ARC
  8
0
  6
CONTINUOUS
 62
               3
  5
33D
 10
75.259794234501157
 20
709.11710354967408
 30
0.0
 40
17.5
 50
7.6982097078516123
 51
82.30179029213096
  0
LINE
  8
0
  6
CONTINUOUS
 62
               3
  5
33E
 10
101.53172381606878
 20
645.40065578254644
 30
0.0
 11
92.602073486515749
 21
711.46131991023958
 31
0.0
  0
ARC
  8
0
  6
CONTINUOUS
 62
               3
  5
33F
 10
-80.303697626539204
 20
553.55361168863396
 30
0.0
 40
17.5
 50
187.69820970781666
 51
262.3017902920962
  0
LINE
  8
0
  6
CONTINUOUS
 62
               3
  5
340
 10
-82.647913987104587
 20
536.21133243661939
 30
0.0
 11
-16.587249859411358
 21
527.28168210706644
 31
0.0
  0
ARC
  8
0
  6
CONTINUOUS
 62
               3
  5
341
 10
75.259794234501157
 20
553.55361168863396
 30
0.0
 40
17.5
 50
277.69820970779944
 51
352.30179029207886
  0
LINE
  8
0
  6
CONTINUOUS
 62
               3
  5
342
 10
77.604010595066399
 20
536.21133243661939
 30
0.0
 11
11.543346467373169
 21
527.28168210706644
 31
0.0
  0
LINE
  8
0
  6
CONTINUOUS
 62
               3
  5
343
 10
101.53172381606878
 20
617.27005945576161
 30
0.0
 11
92.602073486515749
 21
551.20939532806847
 31
0.0
  0
ARC
  8
0
  6
CONTINUOUS
 62
               3
  5
344
 10
-2.5219516960190589
 20
631.33535761915414
 30
0.0
 40
105.0
 50
262.30179029209626
 51
277.69820970779938
  0
ARC
  8
0
  6
CONTINUOUS
 62
               3
  5
345
 10
-2.5219516960190589
 20
631.33535761915414
 30
0.0
 40
105.0
 50
352.30179029207875
 51
367.69820970778204
  0
LINE
  8
0
  6
CONTINUOUS
 62
               3
  5
346
 10
53.088055549069949
 20
550.97661724926797
 30
0.0
 11
62.885429265208742
 21
541.17924353312924
 31
0.0
  0
ARC
  8
0
  6
CONTINUOUS
 62
               3
  5
347
 10
75.259794234501157
 20
553.55361168863396
 30
0.0
 40
17.499997018320407
 50
225.0000073763552
 51
277.81644584203264
  0
LINE
  8
0
  6
CONTINUOUS
 62
               3
  5
348
 10
-58.131958941108067
 20
550.97661724926797
 30
0.0
 11
-67.92933265724686
 21
541.17924353312924
 31
0.0
  0
ARC
  8
0
  6
CONTINUOUS
 62
               3
  5
349
 10
-80.303697626539346
 20
553.55361168863396
 30
0.0
 40
17.499997018320407
 50
262.18355415786294
 51
314.99999262354038
  0
ARC
  8
0
  6
CONTINUOUS
 62
               3
  5
34A
 10
-80.303697626539346
 20
709.11710354967408
 30
0.0
 40
17.499997018320407
 50
45.000007376390187
 51
97.816445842067509
  0
ARC
  8
0
  6
CONTINUOUS
 62
               3
  5
34B
 10
75.259794234501157
 20
709.11710354967408
 30
0.0
 40
17.499997018320407
 50
82.183554157897746
 51
134.99999262357511
  0
LINE
  8
0
  6
CONTINUOUS
 62
               3
  5
34C
 10
53.088055549070233
 20
711.69409798904007
 30
0.0
 11
57.331627422412396
 21
715.93766986238279
 31
0.0
  0
LINE
  8
0
  6
CONTINUOUS
 62
               3
  5
34D
 10
62.885429265208742
 20
721.49147170517904
 30
0.0
 11
57.331627422412396
 21
715.93766986238279
 31
0.0
  0
LINE
  8
0
  6
CONTINUOUS
 62
               3
  5
34E
 10
-58.131958941110341
 20
711.69409798904098
 30
0.0
 11
-62.37553081444959
 21
715.93766986238347
 31
0.0
  0
LINE
  8
0
  6
CONTINUOUS
 62
               3
  5
34F
 10
-67.92933265724686
 20
721.49147170517904
 30
0.0
 11
-62.37553081444959
 21
715.93766986238347
 31
0.0
  0
LINE
  8
0
  6
CONTINUOUS
 62
               3
  5
350
 10
-98.75148169398814
 20
703.28290534654161
 30
0.0
 11
-97.645976878553867
 21
711.46131991023958
 31
0.0
  0
LINE
  8
0
  6
CONTINUOUS
 62
               3
  5
351
 10
-98.75148169398814
 20
703.28290534654161
 30
0.0
 11
-106.57562720810689
 21
645.40065578254644
 31
0.0
  0
ARC
  8
0
  6
CONTINUOUS
 62
               3
  5
352
 10
-2.5219516960190589
 20
631.33535761915414
 30
0.0
 40
105.0
 50
172.30179029211342
 51
187.69820970781697
  0
LINE
  8
0
  6
CONTINUOUS
 62
               3
  5
353
 10
-98.75155879386854
 20
559.3883802690068
 30
0.0
 11
-97.645976878553867
 21
551.20939532806847
 31
0.0
  0
LINE
  8
0
  6
CONTINUOUS
 62
               3
  5
354
 10
-106.57562720810689
 20
617.27005945576161
 30
0.0
 11
-98.75155879386854
 21
559.3883802690068
 31
0.0
  0
LINE
  8
0
  6
CONTINUOUS
 62
               3
  5
355
 10
-61.910215052402592
 20
729.26256988089358
 30
0.0
 11
-16.587249859411358
 21
735.38903313124183
 31
0.0
  0
LINE
  8
0
  6
CONTINUOUS
 62
               3
  5
356
 10
-82.647913987104587
 20
726.45938280168889
 30
0.0
 11
-61.910215052402592
 21
729.26256988089358
 31
0.0
  0
ARC
  8
0
  6
CONTINUOUS
 62
               3
  5
357
 10
-2.5219516960190589
 20
631.33535761915414
 30
0.0
 40
105.0
 50
82.30179029213096
 51
97.698209707834224
  0
LINE
  8
0
  6
CONTINUOUS
 62
               3
  5
358
 10
11.543346467373169
 20
735.38903313124183
 30
0.0
 11
56.75610592857096
 21
729.27746677395726
 31
0.0
  0
LINE
  8
0
  6
CONTINUOUS
 62
               3
  5
359
 10
77.604010595066399
 20
726.45938280168889
 30
0.0
 11
56.75610592857096
 21
729.27746677395726
 31
0.0
  0
CIRCLE
  8
0
  6
CONTINUOUS
 62
               3
  5
35A
 10
-2.5219516960191299
 20
631.33535761915414
 30
0.0
 40
90.0
  0
ARC
  8
0
  6
CONTINUOUS
 62
               3
  5
35B
 10
-51.060891129242535
 20
543.90554943740244
 30
0.0
 40
10.0
 50
60.96201238594967
 51
134.99999999997425
  0
ARC
  8
0
  6
CONTINUOUS
 62
               3
  5
35C
 10
46.016987737204417
 20
543.90554943740267
 30
0.0
 40
10.0
 50
44.999999999991061
 51
119.03798761401569
  0
ARC
  8
0
  6
CONTINUOUS
 62
               3
  5
35D
 10
-51.060891129243601
 20
718.76516580090492
 30
0.0
 40
10.0
 50
224.9999999999458
 51
299.03798761398139
  0
ARC
  8
0
  6
CONTINUOUS
 62
               3
  5
35E
 10
46.016987737204772
 20
718.76516580090538
 30
0.0
 40
10.0
 50
240.96201238591431
 51
314.99999999993912
  0
LINE
  8
0
  6
CONTINUOUS
 62
               3
  5
35F
 10
-154.50569532877773
 20
701.33535761915391
 30
0.0
 11
-154.50569532877773
 21
561.33478993430072
 31
0.0
  0
LINE
  8
0
  6
CONTINUOUS
 62
               3
  5
360
 10
-157.52195169601899
 20
699.00691374511803
 30
0.0
 11
-156.83413920281362
 21
699.00691374511803
 31
0.0
  0
LINE
  8
0
  6
CONTINUOUS
 62
               3
  5
361
 10
-154.50569532877773
 20
701.33535761915391
 30
0.0
 11
-156.83413920281362
 21
699.00691374511803
 31
0.0
  0
LINE
  8
0
  6
CONTINUOUS
 62
               3
  5
362
 10
-157.52195169601899
 20
701.33535761915391
 30
0.0
 11
-160.02195169601899
 21
701.33535761915391
 31
0.0
  0
ARC
  8
0
  6
CONTINUOUS
 62
               3
  5
363
 10
-160.02195169601899
 20
698.83535761915391
 30
0.0
 40
2.5
 50
89.999999999982862
 51
179.99999999996572
  0
LINE
  8
0
  6
CONTINUOUS
 62
               3
  5
364
 10
-157.52195169601899
 20
563.66380149318979
 30
0.0
 11
-156.83413920281362
 21
563.66380149318979
 31
0.0
  0
LINE
  8
0
  6
CONTINUOUS
 62
               3
  5
365
 10
-154.50569532877773
 20
561.33535761915391
 30
0.0
 11
-156.83413920281362
 21
563.66380149318979
 31
0.0
  0
LINE
  8
0
  6
CONTINUOUS
 62
               3
  5
366
 10
-157.52195169601899
 20
561.33535761915414
 30
0.0
 11
-160.02195169601899
 21
561.33535761915414
 31
0.0
  0
ARC
  8
0
  6
CONTINUOUS
 62
               3
  5
367
 10
-160.02195169601899
 20
563.83535761915414
 30
0.0
 40
2.5
 50
179.99999999996572
 51
269.99999999994793
  0
LINE
  8
0
  6
CONTINUOUS
 62
               3
  5
368
 10
-162.52195169601899
 20
698.83535761915391
 30
0.0
 11
-162.52195169601899
 21
563.83535761915414
 31
0.0
  0
LINE
  8
0
  6
CONTINUOUS
 62
               3
  5
369
 10
-157.52195169601899
 20
561.33535761915414
 30
0.0
 11
-157.52195169601899
 21
701.33535761915391
 31
0.0
  0
LINE
  8
0
  6
CONTINUOUS
 62
               3
  5
36A
 10
-156.83413920281362
 20
699.00691374511803
 30
0.0
 11
-156.83413920281362
 21
563.66380149318979
 31
0.0
  0
LINE
  8
0
  6
CONTINUOUS
 62
               3
  5
36B
 10
-154.50569532877773
 20
701.33535761915391
 30
0.0
 11
-98.751558793868753
 21
703.28233496930079
 31
0.0
  0
LINE
  8
0
  6
CONTINUOUS
 62
               3
  5
36C
 10
-154.52195169601887
 20
561.33535761915391
 30
0.0
 11
-98.751481693987927
 21
559.38780989176576
 31
0.0
  0
LINE
  8
0
  6
CONTINUOUS
 62
               3
  5
36D
 10
-699.52195169601919
 20
-69.91501650675184
 30
0.0
 11
-669.52195169601919
 21
-69.91501650675184
 31
0.0
  0
LINE
  8
0
  6
CONTINUOUS
 62
               3
  5
36E
 10
-707.52195169601941
 20
-71.415016506751826
 30
0.0
 11
-707.52195169601941
 21
-86.415016506751968
 31
0.0
  0
LINE
  8
0
  6
CONTINUOUS
 62
               3
  5
36F
 10
-699.52195169601919
 20
-69.91501650675184
 30
0.0
 11
-700.02195169601919
 21
-71.415016506751826
 31
0.0
  0
LINE
  8
0
  6
CONTINUOUS
 62
               3
  5
370
 10
-669.52195169601919
 20
-69.91501650675184
 30
0.0
 11
-668.02195169601919
 21
-71.415016506751826
 31
0.0
  0
LINE
  8
0
  6
CONTINUOUS
 62
               3
  5
371
 10
-700.02195169601919
 20
-71.415016506751826
 30
0.0
 11
-707.52195169601941
 21
-71.415016506751826
 31
0.0
  0
LINE
  8
0
  6
CONTINUOUS
 62
               3
  5
372
 10
-505.52195169601907
 20
-69.915016506751982
 30
0.0
 11
-535.52195169601907
 21
-69.915016506751982
 31
0.0
  0
LINE
  8
0
  6
CONTINUOUS
 62
               3
  5
373
 10
-505.52195169601907
 20
-69.915016506751982
 30
0.0
 11
-505.0219516960193
 21
-71.415016506751968
 31
0.0
  0
LINE
  8
0
  6
CONTINUOUS
 62
               3
  5
374
 10
-535.52195169601907
 20
-69.915016506751982
 30
0.0
 11
-537.02195169601919
 21
-71.415016506751897
 31
0.0
  0
LINE
  8
0
  6
CONTINUOUS
 62
               3
  5
375
 10
-505.0219516960193
 20
-71.415016506751968
 30
0.0
 11
-497.52195169601896
 21
-71.415016506751968
 31
0.0
  0
LINE
  8
0
  6
CONTINUOUS
 62
               3
  5
376
 10
-537.02195169601919
 20
-71.415016506751897
 30
0.0
 11
-668.02195169601919
 21
-71.415016506751826
 31
0.0
  0
ARC
  8
0
  6
CONTINUOUS
 62
               3
  5
377
 10
-559.2379332503034
 20
-232.9150165067519
 30
0.0
 40
2.5
 50
89.999999999981569
 51
269.99999999994731
  0
LINE
  8
0
  6
CONTINUOUS
 62
               3
  5
378
 10
-645.80597014173532
 20
-235.41501650675184
 30
0.0
 11
-692.52195169601873
 21
-235.41501650675181
 31
0.0
  0
LINE
  8
0
  6
CONTINUOUS
 62
               3
  5
379
 10
-645.80597014173532
 20
-230.41501650675184
 30
0.0
 11
-692.52195169601873
 21
-230.41501650675181
 31
0.0
  0
ARC
  8
0
  6
CONTINUOUS
 62
               3
  5
37A
 10
-645.80597014173532
 20
-232.91501650675184
 30
0.0
 40
2.5
 50
269.99999999994731
 51
449.99999999991297
  0
LINE
  8
0
  6
CONTINUOUS
 62
               3
  5
37B
 10
-690.24323952998634
 20
-378.22732913995583
 30
0.0
 11
-675.80066386205237
 21
-504.9881889204832
 31
0.0
  0
ARC
  8
0
  6
CONTINUOUS
 62
               3
  5
37C
 10
-692.52195169601873
 20
-232.91501650675181
 30
0.0
 40
2.5
 50
89.999999999981569
 51
269.99999999994731
  0
LINE
  8
0
  6
CONTINUOUS
 62
               3
  5
37D
 10
-619.19528369655302
 20
-89.41501650675194
 30
0.0
 11
-704.5219516960193
 21
-89.41501650675194
 31
0.0
  0
LINE
  8
0
  6
CONTINUOUS
 62
               3
  5
37E
 10
-693.00444933455049
 20
-376.07668039660655
 30
0.0
 11
-694.72287330079109
 21
-360.99426681356704
 31
0.0
  0
ARC
  8
0
  6
CONTINUOUS
 62
               3
  5
37F
 10
-692.23894366159959
 20
-360.71125877914727
 30
0.0
 40
2.5
 50
96.499999999980105
 51
186.49999999996422
  0
ARC
  8
0
  6
CONTINUOUS
 62
               3
  5
380
 10
-690.52624756440628
 20
-375.74339950076421
 30
0.0
 40
2.5
 50
186.49999999996422
 51
276.49999999994822
  0
LINE
  8
0
  6
CONTINUOUS
 62
               3
  5
381
 10
-497.5219516960193
 20
-45.707555324813441
 30
0.0
 11
-497.5219516960193
 21
-61.416234852713757
 31
0.0
  0
LINE
  8
0
  6
CONTINUOUS
 62
               3
  5
382
 10
-707.52195169601919
 20
-45.707555324813299
 30
0.0
 11
-707.52195169601919
 21
-61.416234852713615
 31
0.0
  0
ARC
  8
0
  6
CONTINUOUS
 62
               3
  5
383
 10
-499.52195169601919
 20
-61.416234852713757
 30
0.0
 40
2.0
 50
271.99999999994765
 51
359.99999999993037
  0
ARC
  8
0
  6
CONTINUOUS
 62
               3
  5
384
 10
-105.52195169601984
 20
-45.707555324813441
 30
0.0
 40
2.0
 50
91.999999999981043
 51
179.99999999996518
  0
ARC
  8
0
  6
CONTINUOUS
 62
               3
  5
385
 10
100.47804830398024
 20
-45.707555324813299
 30
0.0
 40
2.0
 50
0.0
 51
87.999999999983118
  0
ARC
  8
0
  6
CONTINUOUS
 62
               3
  5
386
 10
-705.52195169601919
 20
-61.416234852713615
 30
0.0
 40
2.0
 50
179.99999999996515
 51
267.99999999994685
  0
LINE
  8
0
  6
CONTINUOUS
 62
               3
  5
387
 10
-499.4521527026144
 20
-63.415016506751996
 30
0.0
 11
-705.59175068942409
 21
-63.415016506751854
 31
0.0
  0
LINE
  8
0
  6
CONTINUOUS
 62
               3
  5
388
 10
-105.59175068942477
 20
-43.708773670775273
 30
0.0
 11
100.54784729738518
 21
-43.708773670775059
 31
0.0
  0
LINE
  8
0
  6
CONTINUOUS
 62
               3
  5
389
 10
-502.02195169601919
 20
-63.415016506751996
 30
0.0
 11
-502.02195169601919
 21
-71.415016506751968
 31
0.0
  0
LINE
  8
0
  6
CONTINUOUS
 62
               3
  5
38A
 10
-703.02195169601919
 20
-71.415016506751826
 30
0.0
 11
-703.02195169601919
 21
-63.415016506751854
 31
0.0
  0
LINE
  8
0
  6
CONTINUOUS
 62
               3
  5
38B
 10
-530.9036214907776
 20
-378.22732913995532
 30
0.0
 11
-690.24323952998634
 21
-378.22732913995583
 31
0.0
  0
ARC
  8
0
  6
CONTINUOUS
 62
               3
  5
38C
 10
-704.5219516960193
 20
-86.415016506751968
 30
0.0
 40
3.0000000000000004
 50
179.99999999996518
 51
269.99999999994731
  0
LINE
  8
0
  6
CONTINUOUS
 62
               3
  5
38D
 10
-692.52195169601873
 20
-235.41501650675181
 30
0.0
 11
-692.52195169601941
 21
-358.22732913995452
 31
0.0
  0
LINE
  8
0
  6
CONTINUOUS
 62
               3
  5
38E
 10
-92.521951696020423
 20
93.382551620026078
 30
0.0
 11
-92.521951696020295
 21
-38.423922358787848
 31
0.0
  0
ARC
  8
0
  6
CONTINUOUS
 62
               3
  5
38F
 10
-97.5219516960166
 20
-38.423922358788062
 30
0.0
 40
5.0
 50
271.99999999994748
 51
359.99999999993048
  0
LINE
  8
0
  6
CONTINUOUS
 62
               3
  5
390
 10
87.478048303979577
 20
93.382551620026248
 30
0.0
 11
87.478048303979705
 21
-38.423922358787777
 31
0.0
  0
ARC
  8
0
  6
CONTINUOUS
 62
               3
  5
391
 10
92.478048303983542
 20
-38.423922358787991
 30
0.0
 40
5.0
 50
179.99999999996524
 51
267.99999999994833
  0
LINE
  8
0
  6
CONTINUOUS
 62
               3
  5
392
 10
-105.5917506894215
 20
-43.708773670775628
 30
0.0
 11
-97.347454212504061
 21
-43.420876493883483
 31
0.0
  0
LINE
  8
0
  6
CONTINUOUS
 62
               3
  5
393
 10
100.54784729738844
 20
-43.708773670775486
 30
0.0
 11
92.303550820470861
 21
-43.420876493883412
 31
0.0
  0
ARC
  8
0
  6
CONTINUOUS
 62
               3
  5
394
 10
-697.5219516960185
 20
-94.41501650675194
 30
0.0
 40
5.0
 50
359.99999999993031
 51
449.99999999991297
  0
LINE
  8
0
  6
CONTINUOUS
 62
               3
  5
395
 10
-692.5219516960185
 20
-94.41501650675194
 30
0.0
 11
-692.5219516960185
 21
-230.41501650675181
 31
0.0
  0
CIRCLE
  8
0
  6
CONTINUOUS
 62
               3
  5
396
 10
-602.52195169601953
 20
-157.91501650675181
 30
0.0
 40
60.999999999999879
  0
CIRCLE
  8
0
  6
CONTINUOUS
 62
               3
  5
397
 10
-602.52195169601953
 20
-157.91501650675181
 30
0.0
 40
59.799999999999862
  0
CIRCLE
  8
0
  6
CONTINUOUS
 62
               3
  5
398
 10
-602.52195169601953
 20
-157.91501650675181
 30
0.0
 40
55.499999999999865
  0
CIRCLE
  8
0
  6
CONTINUOUS
 62
               3
  5
399
 10
-602.52195169601953
 20
-157.91501650675181
 30
0.0
 40
51.249999999999865
  0
ARC
  8
0
  6
CONTINUOUS
 62
               3
  5
39A
 10
-602.52195169601953
 20
-157.91501650675181
 30
0.0
 40
57.499999999999865
 50
224.99999999995649
 51
314.99999999993912
  0
LINE
  8
0
  6
CONTINUOUS
 62
               3
  5
39B
 10
-643.18059161424594
 20
-198.5736564249782
 30
0.0
 11
-644.80693721097509
 21
-200.20000202170726
 31
0.0
  0
LINE
  8
0
  6
CONTINUOUS
 62
               3
  5
39C
 10
-561.86331177779311
 20
-198.5736564249782
 30
0.0
 11
-560.23696618106408
 21
-200.20000202170726
 31
0.0
  0
CIRCLE
  8
0
  6
CONTINUOUS
 62
               3
  5
39D
 10
-602.52195169601953
 20
-157.91501650675181
 30
0.0
 40
70.5
  0
LINE
  8
0
  6
CONTINUOUS
 62
               3
  5
39E
 10
-512.52195169601953
 20
-358.227329139956
 30
0.0
 11
-515.2022492450144
 21
-358.227329139956
 31
0.0
  0
LINE
  8
0
  6
CONTINUOUS
 62
               3
  5
39F
 10
-538.99838321617017
 20
-358.22732913995611
 30
0.0
 11
-692.5219516960193
 21
-358.22732913995583
 31
0.0
  0
LINE
  8
0
  6
CONTINUOUS
 62
               3
  5
3A0
 10
-512.52195169601953
 20
-358.2273291399564
 30
0.0
 11
-514.71716890044831
 21
-377.49450326709058
 31
0.0
  0
LINE
  8
0
  6
CONTINUOUS
 62
               3
  5
3A1
 10
-518.70046881594999
 20
-412.45547793407917
 30
0.0
 11
-529.24323952998645
 21
-504.98818892048331
 31
0.0
  0
ARC
  8
0
  6
CONTINUOUS
 62
               3
  5
3A2
 10
494.47804830398115
 20
-45.707555324813654
 30
0.0
 40
2.0
 50
91.999999999980631
 51
179.99999999996518
  0
ARC
  8
0
  6
CONTINUOUS
 62
               3
  5
3A3
 10
700.47804830398138
 20
-45.707555324813796
 30
0.0
 40
2.0
 50
359.99999999993031
 51
447.99999999991388
  0
LINE
  8
0
  6
CONTINUOUS
 62
               3
  5
3A4
 10
494.40824931057625
 20
-43.708773670775486
 30
0.0
 11
700.5478472973864
 21
-43.708773670775486
 31
0.0
  0
LINE
  8
0
  6
CONTINUOUS
 62
               3
  5
3A5
 10
694.47804830398093
 20
-69.915016506752266
 30
0.0
 11
664.47804830398093
 21
-69.915016506752266
 31
0.0
  0
LINE
  8
0
  6
CONTINUOUS
 62
               3
  5
3A6
 10
694.47804830398093
 20
-69.915016506752266
 30
0.0
 11
694.97804830398081
 21
-71.415016506752181
 31
0.0
  0
LINE
  8
0
  6
CONTINUOUS
 62
               3
  5
3A7
 10
664.47804830398093
 20
-69.915016506752266
 30
0.0
 11
662.97804830398104
 21
-71.415016506752181
 31
0.0
  0
LINE
  8
0
  6
CONTINUOUS
 62
               3
  5
3A8
 10
694.97804830398081
 20
-71.415016506752181
 30
0.0
 11
702.47804830398115
 21
-71.415016506752181
 31
0.0
  0
LINE
  8
0
  6
CONTINUOUS
 62
               3
  5
3A9
 10
500.4780483039807
 20
-69.915016506752266
 30
0.0
 11
530.4780483039807
 21
-69.915016506752266
 31
0.0
  0
LINE
  8
0
  6
CONTINUOUS
 62
               3
  5
3AA
 10
500.4780483039807
 20
-69.915016506752266
 30
0.0
 11
499.97804830398087
 21
-71.415016506752323
 31
0.0
  0
LINE
  8
0
  6
CONTINUOUS
 62
               3
  5
3AB
 10
530.4780483039807
 20
-69.915016506752266
 30
0.0
 11
531.97804830398081
 21
-71.415016506752181
 31
0.0
  0
LINE
  8
0
  6
CONTINUOUS
 62
               3
  5
3AC
 10
499.97804830398087
 20
-71.415016506752323
 30
0.0
 11
492.47804830398059
 21
-71.415016506752323
 31
0.0
  0
LINE
  8
0
  6
CONTINUOUS
 62
               3
  5
3AD
 10
531.97804830398081
 20
-71.415016506752181
 30
0.0
 11
662.97804830398104
 21
-71.415016506752181
 31
0.0
  0
LINE
  8
0
  6
CONTINUOUS
 62
               3
  5
3AE
 10
685.19933613794785
 20
-378.22732913995623
 30
0.0
 11
670.75676047001389
 21
-504.98818892048354
 31
0.0
  0
LINE
  8
0
  6
CONTINUOUS
 62
               3
  5
3AF
 10
492.47804830398087
 20
-45.707555324813796
 30
0.0
 11
492.47804830398087
 21
-61.416234852714041
 31
0.0
  0
LINE
  8
0
  6
CONTINUOUS
 62
               3
  5
3B0
 10
702.47804830398081
 20
-45.707555324813654
 30
0.0
 11
702.47804830398081
 21
-61.416234852714041
 31
0.0
  0
ARC
  8
0
  6
CONTINUOUS
 62
               3
  5
3B1
 10
494.47804830398076
 20
-61.416234852714041
 30
0.0
 40
2.0
 50
179.99999999996518
 51
267.9999999999485
  0
ARC
  8
0
  6
CONTINUOUS
 62
               3
  5
3B2
 10
700.47804830398104
 20
-61.416234852714041
 30
0.0
 40
2.0
 50
271.99999999994765
 51
359.99999999993042
  0
LINE
  8
0
  6
CONTINUOUS
 62
               3
  5
3B3
 10
494.40824931057597
 20
-63.415016506752352
 30
0.0
 11
700.54784729738572
 21
-63.41501650675221
 31
0.0
  0
LINE
  8
0
  6
CONTINUOUS
 62
               3
  5
3B4
 10
496.97804830398076
 20
-63.415016506752352
 30
0.0
 11
496.97804830398076
 21
-71.415016506752323
 31
0.0
  0
LINE
  8
0
  6
CONTINUOUS
 62
               3
  5
3B5
 10
697.97804830398104
 20
-71.415016506752181
 30
0.0
 11
697.97804830398104
 21
-63.41501650675221
 31
0.0
  0
LINE
  8
0
  6
CONTINUOUS
 62
               3
  5
3B6
 10
513.65656542391139
 20
-412.45547793407951
 30
0.0
 11
524.19933613794785
 21
-504.98818892048354
 31
0.0
  0
LINE
  8
0
  6
CONTINUOUS
 62
               3
  5
3B7
 10
687.96054594251211
 20
-376.07668039660695
 30
0.0
 11
689.67896990875261
 21
-360.99426681356749
 31
0.0
  0
ARC
  8
0
  6
CONTINUOUS
 62
               3
  5
3B8
 10
687.19504026956122
 20
-360.71125877914767
 30
0.0
 40
2.5
 50
353.49999999993111
 51
443.49999999991383
  0
ARC
  8
0
  6
CONTINUOUS
 62
               3
  5
3B9
 10
685.4823441723679
 20
-375.74339950076467
 30
0.0
 40
2.5
 50
263.49999999994833
 51
353.49999999993111
  0
LINE
  8
0
  6
CONTINUOUS
 62
               3
  5
3BA
 10
522.03172149758052
 20
-378.22732913995634
 30
0.0
 11
685.19933613794797
 21
-378.22732913995623
 31
0.0
  0
LINE
  8
0
  6
CONTINUOUS
 62
               3
  5
3BB
 10
507.47804830398115
 20
-358.22732913995634
 30
0.0
 11
687.47804830398081
 21
-358.22732913995623
 31
0.0
  0
LINE
  8
0
  6
CONTINUOUS
 62
               3
  5
3BC
 10
507.47804830398115
 20
-358.22732913995691
 30
0.0
 11
507.67899634115952
 21
-359.99102742685648
 31
0.0
  0
ARC
  8
0
  6
CONTINUOUS
 62
               3
  5
3BD
 10
92.478048303979563
 20
-94.41501650675194
 30
0.0
 40
5.0
 50
89.999999999982705
 51
179.99999999996524
  0
LINE
  8
0
  6
CONTINUOUS
 62
               3
  5
3BE
 10
87.478048303979563
 20
-94.41501650675194
 30
0.0
 11
87.478048303979563
 21
-103.80720647678289
 31
0.0
  0
LINE
  8
0
  6
CONTINUOUS
 62
               3
  5
3BF
 10
94.512947800682582
 20
-186.94871855896469
 30
0.0
 11
92.303550820467876
 21
-187.02587240162609
 31
0.0
  0
ARC
  8
0
  6
CONTINUOUS
 62
               3
  5
3C0
 10
92.478048303980586
 20
-192.0228265367216
 30
0.0
 40
5.0
 50
91.999999999981938
 51
179.99999999996507
  0
LINE
  8
0
  6
CONTINUOUS
 62
               3
  5
3C1
 10
94.512947800682468
 20
-108.88131445453966
 30
0.0
 11
92.303550820468217
 21
-108.80416061187839
 31
0.0
  0
ARC
  8
0
  6
CONTINUOUS
 62
               3
  5
3C2
 10
92.4780483039807
 20
-103.80720647678289
 30
0.0
 40
5.0
 50
179.99999999996518
 51
267.99999999994833
  0
LINE
  8
0
  6
CONTINUOUS
 62
               3
  5
3C3
 10
95.478048303980131
 20
-185.94932773194557
 30
0.0
 11
95.478048303980131
 21
-109.88070528155875
 31
0.0
  0
ARC
  8
0
  6
CONTINUOUS
 62
               3
  5
3C4
 10
94.478048303980245
 20
-185.94932773194557
 30
0.0
 40
1.0
 50
271.99999999994117
 51
359.99999999993082
  0
ARC
  8
0
  6
CONTINUOUS
 62
               3
  5
3C5
 10
94.478048303980245
 20
-109.88070528155875
 30
0.0
 40
1.0
 50
0.0
 51
87.999999999996959
  0
LINE
  8
0
  6
CONTINUOUS
 62
               3
  5
3C6
 10
87.478048303979563
 20
-192.0228265367216
 30
0.0
 11
87.47804830397979
 21
-230.41501650675181
 31
0.0
  0
ARC
  8
0
  6
CONTINUOUS
 62
               3
  5
3C7
 10
87.47804830397979
 20
-232.91501650675181
 30
0.0
 40
2.5
 50
269.99999999994793
 51
449.99999999991297
  0
ARC
  8
0
  6
CONTINUOUS
 62
               3
  5
3C8
 10
99.478048303980358
 20
-86.415016506751968
 30
0.0
 40
3.0000000000000004
 50
269.99999999994782
 51
359.99999999993048
  0
CIRCLE
  8
0
  6
CONTINUOUS
 62
               3
  5
3C9
 10
-2.5219516960190589
 20
631.33535761915414
 30
0.0
 40
52.5
  0
LINE
  8
0
  6
CONTINUOUS
 62
               3
  5
3CA
 10
83.688546504605398
 20
611.33535761915414
 30
0.0
 11
69.762209777985063
 21
611.33535761915414
 31
0.0
  0
LINE
  8
0
  6
CONTINUOUS
 62
               3
  5
3CB
 10
69.762209777985063
 20
651.33535761915414
 30
0.0
 11
83.688546504605398
 21
651.33535761915414
 31
0.0
  0
ARC
  8
0
  6
CONTINUOUS
 62
               3
  5
3CC
 10
-2.5219516960190589
 20
631.33535761915414
 30
0.0
 40
88.5
 50
346.93897588513232
 51
373.06102411472841
  0
LINE
  8
0
  6
CONTINUOUS
 62
               3
  5
3CD
 10
-88.732449896644397
 20
651.33535761915414
 30
0.0
 11
-74.806113170024531
 21
651.33535761915414
 31
0.0
  0
ARC
  8
0
  6
CONTINUOUS
 62
               3
  5
3CE
 10
-2.5219516960190589
 20
631.33535761915414
 30
0.0
 40
88.5
 50
166.9389758851672
 51
193.06102411476326
  0
LINE
  8
0
  6
CONTINUOUS
 62
               3
  5
3CF
 10
-74.806113170024531
 20
611.33535761915414
 30
0.0
 11
-88.732449896644397
 21
611.33535761915414
 31
0.0
  0
LINE
  8
0
  6
CONTINUOUS
 62
               3
  5
3D0
 10
17.478048303980941
 20
717.54585581977972
 30
0.0
 11
17.478048303980941
 21
703.61951909315894
 31
0.0
  0
ARC
  8
0
  6
CONTINUOUS
 62
               3
  5
3D1
 10
-2.5219516960190589
 20
631.33535761915414
 30
0.0
 40
88.5
 50
76.938975885184604
 51
103.06102411478064
  0
LINE
  8
0
  6
CONTINUOUS
 62
               3
  5
3D2
 10
-22.521951696019052
 20
703.61951909315894
 30
0.0
 11
-22.521951696019052
 21
717.54585581977972
 31
0.0
  0
LINE
  8
0
  6
CONTINUOUS
 62
               3
  5
3D3
 10
-22.521951696019052
 20
545.12485941852924
 30
0.0
 11
-22.521951696019052
 21
559.05119614514911
 31
0.0
  0
ARC
  8
0
  6
CONTINUOUS
 62
               3
  5
3D4
 10
-2.5219516960190589
 20
631.33535761915414
 30
0.0
 40
88.5
 50
256.93897588514983
 51
283.06102411474581
  0
LINE
  8
0
  6
CONTINUOUS
 62
               3
  5
3D5
 10
17.478048303980941
 20
559.05119614514911
 30
0.0
 11
17.478048303980941
 21
545.12485941852924
 31
0.0
  0
CIRCLE
  8
0
  6
CONTINUOUS
 62
               3
  5
3D6
 10
-2.5219516960190589
 20
631.33535761915414
 30
0.0
 40
75.0
  0
CIRCLE
  8
0
  6
CONTINUOUS
 62
               3
  5
3D7
 10
-2.521951696019272
 20
631.33535761915414
 30
0.0
 40
59.0
  0
LINE
  8
0
  6
CONTINUOUS
 62
               3
  5
3D8
 10
-79.021951696019272
 20
179.1116421370433
 30
0.0
 11
-79.021951696021148
 21
201.58498349324805
 31
0.0
  0
LINE
  8
0
  6
CONTINUOUS
 62
               3
  5
3D9
 10
73.978048303980486
 20
179.11164213704342
 30
0.0
 11
73.978048303980486
 21
201.58498349324805
 31
0.0
  0
LINE
  8
0
  6
CONTINUOUS
 62
               3
  5
3DA
 10
-74.521951696019386
 20
174.11468800194768
 30
0.0
 11
-74.521951696019386
 21
113.88255162002599
 31
0.0
  0
ARC
  8
0
  6
CONTINUOUS
 62
               3
  5
3DB
 10
-79.521951696019386
 20
174.11468800194768
 30
0.0
 40
5.0
 50
0.0
 51
87.999999999983118
  0
LINE
  8
0
  6
CONTINUOUS
 62
               3
  5
3DC
 10
69.478048303980742
 20
174.54438738706381
 30
0.0
 11
69.478048303980742
 21
113.88255162002599
 31
0.0
  0
LINE
  8
0
  6
CONTINUOUS
 62
               3
  5
3DD
 10
-91.021951696019329
 20
179.51932457259693
 30
0.0
 11
-91.021951696019329
 21
186.51932457259659
 31
0.0
  0
LINE
  8
0
  6
CONTINUOUS
 62
               3
  5
3DE
 10
-91.021951696019158
 20
179.51932457259693
 30
0.0
 11
-79.347454212507017
 21
179.11164213704308
 31
0.0
  0
ARC
  8
0
  6
CONTINUOUS
 62
               3
  5
3DF
 10
74.4780483039806
 20
174.1146880019478
 30
0.0
 40
5.0
 50
91.999999999982265
 51
179.99999999996541
  0
LINE
  8
0
  6
CONTINUOUS
 62
               3
  5
3E0
 10
85.978048303980501
 20
179.51932457259704
 30
0.0
 11
85.978048303980501
 21
186.51932457259682
 31
0.0
  0
LINE
  8
0
  6
CONTINUOUS
 62
               3
  5
3E1
 10
85.978048303980358
 20
179.51932457259704
 30
0.0
 11
74.303550820468061
 21
179.1116421370433
 31
0.0
  0
LINE
  8
0
  6
CONTINUOUS
 62
               3
  5
3E2
 10
-72.021951696020437
 20
113.88255162002599
 30
0.0
 11
-14.248951696019503
 21
113.88255162002599
 31
0.0
  0
LINE
  8
0
  6
CONTINUOUS
 62
               3
  5
3E3
 10
9.2050483039799076
 20
113.88255162002599
 30
0.0
 11
66.978048303979563
 21
113.88255162002599
 31
0.0
  0
ARC
  8
0
  6
CONTINUOUS
 62
               3
  5
3E4
 10
-72.021951696020437
 20
93.382551620026106
 30
0.0
 40
20.5
 50
89.999999999982592
 51
179.99999999996518
  0
ARC
  8
0
  6
CONTINUOUS
 62
               3
  5
3E5
 10
66.978048303979563
 20
93.38255162002622
 30
0.0
 40
20.5
 50
0.0
 51
89.999999999982592
  0
LINE
  8
0
  6
CONTINUOUS
 62
               3
  5
3E6
 10
-672.02195169602055
 20
113.88255162002611
 30
0.0
 11
-533.02195169601794
 21
113.88255162002611
 31
0.0
  0
LINE
  8
0
  6
CONTINUOUS
 62
               3
  5
3E7
 10
-679.02195169601941
 20
179.1116421370433
 30
0.0
 11
-679.02195169602112
 21
201.58498349324805
 31
0.0
  0
LINE
  8
0
  6
CONTINUOUS
 62
               3
  5
3E8
 10
-526.02195169601953
 20
179.11164213704342
 30
0.0
 11
-526.02195169601953
 21
201.58498349324805
 31
0.0
  0
ARC
  8
0
  6
CONTINUOUS
 62
               3
  5
3E9
 10
-679.52195169601953
 20
174.1146880019478
 30
0.0
 40
5.0
 50
0.0
 51
87.999999999983118
  0
LINE
  8
0
  6
CONTINUOUS
 62
               3
  5
3EA
 10
-691.0219516960193
 20
179.51932457259693
 30
0.0
 11
-691.0219516960193
 21
186.5193245725967
 31
0.0
  0
LINE
  8
0
  6
CONTINUOUS
 62
               3
  5
3EB
 10
-691.0219516960193
 20
179.51932457259693
 30
0.0
 11
-679.34745421250693
 21
179.11164213704319
 31
0.0
  0
ARC
  8
0
  6
CONTINUOUS
 62
               3
  5
3EC
 10
-525.52195169601953
 20
174.1146880019478
 30
0.0
 40
5.0
 50
91.999999999982577
 51
179.99999999996541
  0
LINE
  8
0
  6
CONTINUOUS
 62
               3
  5
3ED
 10
-514.02195169601953
 20
179.51932457259704
 30
0.0
 11
-514.02195169601953
 21
186.51932457259682
 31
0.0
  0
LINE
  8
0
  6
CONTINUOUS
 62
               3
  5
3EE
 10
-514.02195169601976
 20
179.51932457259704
 30
0.0
 11
-525.69644917953201
 21
179.1116421370433
 31
0.0
  0
LINE
  8
0
  6
CONTINUOUS
 62
               3
  5
3EF
 10
-530.5219516960193
 20
174.54438738706392
 30
0.0
 11
-530.5219516960193
 21
113.72954156940204
 31
0.0
  0
LINE
  8
0
  6
CONTINUOUS
 62
               3
  5
3F0
 10
-674.52195169601953
 20
174.1146880019478
 30
0.0
 11
-674.52195169601953
 21
113.72954156940193
 31
0.0
  0
ARC
  8
0
  6
CONTINUOUS
 62
               3
  5
3F1
 10
-672.02195169602055
 20
93.382551620026106
 30
0.0
 40
20.5
 50
89.999999999982649
 51
179.99999999996518
  0
ARC
  8
0
  6
CONTINUOUS
 62
               3
  5
3F2
 10
-533.02195169601794
 20
93.382551620026106
 30
0.0
 40
20.5
 50
359.99999999993037
 51
449.99999999991292
  0
LINE
  8
0
  6
CONTINUOUS
 62
               3
  5
3F3
 10
527.9780483039799
 20
113.88255162002579
 30
0.0
 11
666.97804830398252
 21
113.88255162002579
 31
0.0
  0
LINE
  8
0
  6
CONTINUOUS
 62
               3
  5
3F4
 10
520.97804830398104
 20
179.11164213704299
 30
0.0
 11
520.97804830397934
 21
201.58498349324771
 31
0.0
  0
LINE
  8
0
  6
CONTINUOUS
 62
               3
  5
3F5
 10
673.97804830398093
 20
179.11164213704311
 30
0.0
 11
673.97804830398093
 21
201.58498349324771
 31
0.0
  0
ARC
  8
0
  6
CONTINUOUS
 62
               3
  5
3F6
 10
520.47804830398093
 20
174.11468800194748
 30
0.0
 40
5.0
 50
0.0
 51
87.999999999983118
  0
LINE
  8
0
  6
CONTINUOUS
 62
               3
  5
3F7
 10
508.97804830398115
 20
179.51932457259662
 30
0.0
 11
508.97804830398115
 21
186.51932457259636
 31
0.0
  0
LINE
  8
0
  6
CONTINUOUS
 62
               3
  5
3F8
 10
508.97804830398115
 20
179.51932457259662
 30
0.0
 11
520.65254578749352
 21
179.11164213704288
 31
0.0
  0
ARC
  8
0
  6
CONTINUOUS
 62
               3
  5
3F9
 10
674.47804830398093
 20
174.11468800194748
 30
0.0
 40
5.0
 50
91.999999999982577
 51
179.99999999996541
  0
LINE
  8
0
  6
CONTINUOUS
 62
               3
  5
3FA
 10
685.97804830398093
 20
179.51932457259673
 30
0.0
 11
685.97804830398093
 21
186.51932457259647
 31
0.0
  0
LINE
  8
0
  6
CONTINUOUS
 62
               3
  5
3FB
 10
685.9780483039807
 20
179.51932457259673
 30
0.0
 11
674.30355082046844
 21
179.11164213704299
 31
0.0
  0
LINE
  8
0
  6
CONTINUOUS
 62
               3
  5
3FC
 10
669.47804830398115
 20
174.54438738706361
 30
0.0
 11
669.47804830398115
 21
113.72954156940173
 31
0.0
  0
LINE
  8
0
  6
CONTINUOUS
 62
               3
  5
3FD
 10
525.47804830398093
 20
174.11468800194748
 30
0.0
 11
525.47804830398093
 21
113.72954156940162
 31
0.0
  0
ARC
  8
0
  6
CONTINUOUS
 62
               3
  5
3FE
 10
527.9780483039799
 20
93.382551620025794
 30
0.0
 40
20.5
 50
89.999999999982649
 51
179.99999999996518
  0
ARC
  8
0
  6
CONTINUOUS
 62
               3
  5
3FF
 10
666.97804830398252
 20
93.382551620025794
 30
0.0
 40
20.5
 50
359.99999999993037
 51
449.99999999991292
  0
ARC
  8
0
  6
CONTINUOUS
 62
               3
  5
400
 10
-520.52195169601919
 20
-232.91501650675195
 30
0.0
 40
2.5
 50
269.99999999994731
 51
449.99999999991297
  0
LINE
  8
0
  6
CONTINUOUS
 62
               3
  5
401
 10
-500.53820806326007
 20
-89.415016506751954
 30
0.0
 11
-585.84861969548592
 21
-89.41501650675194
 31
0.0
  0
LINE
  8
0
  6
CONTINUOUS
 62
               3
  5
402
 10
-520.52195169601919
 20
-235.41501650675195
 30
0.0
 11
-559.2379332503034
 21
-235.4150165067519
 31
0.0
  0
LINE
  8
0
  6
CONTINUOUS
 62
               3
  5
403
 10
-520.52195169601919
 20
-230.41501650675195
 30
0.0
 11
-559.2379332503034
 21
-230.4150165067519
 31
0.0
  0
LINE
  8
0
  6
CONTINUOUS
 62
               3
  5
404
 10
-512.52195169601953
 20
-358.22732913995657
 30
0.0
 11
-512.52195169601953
 21
-244.04735957533967
 31
0.0
  0
LINE
  8
0
  6
CONTINUOUS
 62
               3
  5
405
 10
-84.521951696019372
 20
-235.41501650675184
 30
0.0
 11
-45.805970141735358
 21
-235.41501650675184
 31
0.0
  0
LINE
  8
0
  6
CONTINUOUS
 62
               3
  5
406
 10
40.762066749696601
 20
-235.41501650675184
 30
0.0
 11
87.478048303980444
 21
-235.41501650675184
 31
0.0
  0
LINE
  8
0
  6
CONTINUOUS
 62
               3
  5
407
 10
-84.521951696019372
 20
-230.41501650675184
 30
0.0
 11
-45.805970141735358
 21
-230.41501650675184
 31
0.0
  0
LINE
  8
0
  6
CONTINUOUS
 62
               3
  5
408
 10
40.762066749696601
 20
-230.41501650675184
 30
0.0
 11
87.478048303980444
 21
-230.41501650675184
 31
0.0
  0
LINE
  8
0
  6
CONTINUOUS
 62
               3
  5
409
 10
-104.50569532877837
 20
-89.415016506751869
 30
0.0
 11
-19.195283696552945
 21
-89.415016506751869
 31
0.0
  0
LINE
  8
0
  6
CONTINUOUS
 62
               3
  5
40A
 10
14.151380304514131
 20
-89.415016506751869
 30
0.0
 11
99.478048303980756
 21
-89.415016506751954
 31
0.0
  0
ARC
  8
0
  6
CONTINUOUS
 62
               3
  5
40B
 10
515.47804830398081
 20
-232.91501650675221
 30
0.0
 40
2.5
 50
89.999999999981569
 51
269.99999999994731
  0
LINE
  8
0
  6
CONTINUOUS
 62
               3
  5
40C
 10
515.47804830398081
 20
-235.41501650675221
 30
0.0
 11
597.47804830398081
 21
-235.41501650675221
 31
0.0
  0
LINE
  8
0
  6
CONTINUOUS
 62
               3
  5
40D
 10
597.47804830398081
 20
-235.41501650675221
 30
0.0
 11
687.47804830398036
 21
-235.41501650675221
 31
0.0
  0
LINE
  8
0
  6
CONTINUOUS
 62
               3
  5
40E
 10
515.47804830398081
 20
-230.41501650675221
 30
0.0
 11
597.47804830398081
 21
-230.41501650675221
 31
0.0
  0
LINE
  8
0
  6
CONTINUOUS
 62
               3
  5
40F
 10
597.47804830398081
 20
-230.41501650675221
 30
0.0
 11
687.47804830398036
 21
-230.41501650675221
 31
0.0
  0
ARC
  8
0
  6
CONTINUOUS
 62
               3
  5
410
 10
687.47804830398036
 20
-232.91501650675221
 30
0.0
 40
2.5
 50
269.99999999994731
 51
449.99999999991297
  0
LINE
  8
0
  6
CONTINUOUS
 62
               3
  5
411
 10
495.4943046712217
 20
-89.415016506752295
 30
0.0
 11
597.47804830398081
 21
-89.415016506752181
 31
0.0
  0
LINE
  8
0
  6
CONTINUOUS
 62
               3
  5
412
 10
597.47804830398081
 20
-89.415016506752124
 30
0.0
 11
699.47804830398093
 21
-89.415016506752295
 31
0.0
  0
ARC
  8
0
  6
CONTINUOUS
 62
               3
  5
413
 10
699.47804830398104
 20
-86.415016506752323
 30
0.0
 40
3.0000000000000004
 50
269.99999999994731
 51
359.99999999993037
  0
ARC
  8
0
  6
CONTINUOUS
 62
               3
  5
414
 10
692.47804830398013
 20
-94.415016506752295
 30
0.0
 40
5.0
 50
89.999999999982862
 51
179.99999999996518
  0
LINE
  8
0
  6
CONTINUOUS
 62
               3
  5
415
 10
694.51294780068315
 20
-186.94871855896506
 30
0.0
 11
692.30355082046844
 21
-187.02587240162651
 31
0.0
  0
ARC
  8
0
  6
CONTINUOUS
 62
               3
  5
416
 10
692.47804830398115
 20
-192.02282653672196
 30
0.0
 40
5.0
 50
91.999999999981284
 51
179.99999999996507
  0
LINE
  8
0
  6
CONTINUOUS
 62
               3
  5
417
 10
694.51294780068304
 20
-108.88131445454002
 30
0.0
 11
692.30355082046879
 21
-108.80416061187881
 31
0.0
  0
ARC
  8
0
  6
CONTINUOUS
 62
               3
  5
418
 10
692.47804830398127
 20
-103.80720647678325
 30
0.0
 40
5.0
 50
179.99999999996507
 51
267.99999999994884
  0
LINE
  8
0
  6
CONTINUOUS
 62
               3
  5
419
 10
695.4780483039807
 20
-185.949327731946
 30
0.0
 11
695.4780483039807
 21
-109.8807052815591
 31
0.0
  0
ARC
  8
0
  6
CONTINUOUS
 62
               3
  5
41A
 10
694.47804830398081
 20
-185.949327731946
 30
0.0
 40
1.0
 50
271.99999999994441
 51
359.99999999993082
  0
ARC
  8
0
  6
CONTINUOUS
 62
               3
  5
41B
 10
694.47804830398081
 20
-109.8807052815591
 30
0.0
 40
1.0
 50
0.0
 51
87.999999999996149
  0
LINE
  8
0
  6
CONTINUOUS
 62
               3
  5
41C
 10
687.47804830398013
 20
-94.415016506752295
 30
0.0
 11
687.47804830398013
 21
-103.80720647678325
 31
0.0
  0
LINE
  8
0
  6
CONTINUOUS
 62
               3
  5
41D
 10
687.47804830398013
 20
-192.02282653672196
 30
0.0
 11
687.47804830398036
 21
-230.41501650675221
 31
0.0
  0
CIRCLE
  8
0
  6
CONTINUOUS
 62
               3
  5
41E
 10
597.47804830398081
 20
-147.91501650675261
 30
0.0
 40
39.0
  0
LINE
  8
0
  6
CONTINUOUS
 62
               3
  5
41F
 10
702.47804830398115
 20
-71.415016506752181
 30
0.0
 11
702.47804830398104
 21
-86.415016506752323
 31
0.0
  0
LINE
  8
0
  6
CONTINUOUS
 62
               3
  5
420
 10
507.47804830398104
 20
-358.22732913995691
 30
0.0
 11
507.47804830398115
 21
-244.04735957533998
 31
0.0
  0
LINE
  8
0
  6
CONTINUOUS
 62
               3
  5
421
 10
687.47804830398036
 20
-235.41501650675221
 30
0.0
 11
687.47804830398081
 21
-358.22732913995486
 31
0.0
  0
LINE
  8
0
  6
CONTINUOUS
 62
               3
  5
422
 10
-73.521951696019428
 20
-524.98818892048257
 30
0.0
 11
68.478048303980529
 21
-524.98818892048394
 31
0.0
  0
LINE
  8
0
  6
CONTINUOUS
 62
               3
  5
423
 10
-75.80066386205219
 20
-504.9881889204832
 30
0.0
 11
70.756760470013575
 21
-504.9881889204832
 31
0.0
  0
LINE
  8
0
  6
CONTINUOUS
 62
               3
  5
424
 10
71.239258108544647
 20
-522.83754017713477
 30
0.0
 11
72.957682074785225
 21
-507.75512659409532
 31
0.0
  0
ARC
  8
0
  6
CONTINUOUS
 62
               3
  5
425
 10
70.473752435593781
 20
-507.47211855967549
 30
0.0
 40
2.5
 50
353.49999999993105
 51
443.49999999991411
  0
ARC
  8
0
  6
CONTINUOUS
 62
               3
  5
426
 10
68.761056338400465
 20
-522.50425928129243
 30
0.0
 40
2.5
 50
263.49999999994765
 51
353.49999999993105
  0
LINE
  8
0
  6
CONTINUOUS
 62
               3
  5
427
 10
-76.283161500583404
 20
-522.83754017713477
 30
0.0
 11
-78.001585466823983
 21
-507.75512659409532
 31
0.0
  0
ARC
  8
0
  6
CONTINUOUS
 62
               3
  5
428
 10
-75.517655827632467
 20
-507.47211855967549
 30
0.0
 40
2.5
 50
96.499999999981398
 51
186.49999999996413
  0
ARC
  8
0
  6
CONTINUOUS
 62
               3
  5
429
 10
-73.804959730439151
 20
-522.50425928129243
 30
0.0
 40
2.5
 50
186.49999999996413
 51
276.49999999994787
  0
LINE
  8
0
  6
CONTINUOUS
 62
               3
  5
42A
 10
-73.521951696019073
 20
-524.98818892048394
 30
0.0
 11
-73.521951696019215
 21
-577.7014749501144
 31
0.0
  0
LINE
  8
0
  6
CONTINUOUS
 62
               3
  5
42B
 10
68.478048303980529
 20
-524.98818892048394
 30
0.0
 11
68.478048303980529
 21
-577.7014749501144
 31
0.0
  0
LINE
  8
0
  6
CONTINUOUS
 62
               3
  5
42C
 10
-57.521951696019414
 20
-713.41501650675195
 30
0.0
 11
52.478048303980593
 21
-713.41501650675195
 31
0.0
  0
LINE
  8
0
  6
CONTINUOUS
 62
               3
  5
42D
 10
54.478048303980621
 20
-711.41501650675173
 30
0.0
 11
54.478048303980621
 21
-613.41501650675195
 31
0.0
  0
LINE
  8
0
  6
CONTINUOUS
 62
               3
  5
42E
 10
-59.521951696019357
 20
-711.41501650675173
 30
0.0
 11
-59.521951696019357
 21
-613.41501650675195
 31
0.0
  0
LINE
  8
0
  6
CONTINUOUS
 62
               3
  5
42F
 10
54.478048303980621
 20
-613.41501650675195
 30
0.0
 11
55.531091127154035
 21
-612.3619736835783
 31
0.0
  0
LINE
  8
0
  6
CONTINUOUS
 62
               3
  5
430
 10
-59.521951696019357
 20
-613.41501650675195
 30
0.0
 11
-60.574994519192643
 21
-612.3619736835783
 31
0.0
  0
LINE
  8
0
  6
CONTINUOUS
 62
               3
  5
431
 10
-57.521951696019414
 20
-713.41501650675195
 30
0.0
 11
-59.521951696019357
 21
-711.41501650675173
 31
0.0
  0
LINE
  8
0
  6
CONTINUOUS
 62
               3
  5
432
 10
52.478048303980593
 20
-713.41501650675195
 30
0.0
 11
54.478048303980621
 21
-711.41501650675173
 31
0.0
  0
LINE
  8
0
  6
CONTINUOUS
 62
               3
  5
433
 10
55.531091127153999
 20
-612.3619736835783
 30
0.0
 11
55.531091127153999
 21
-608.29871295294629
 31
0.0
  0
ARC
  8
0
  6
CONTINUOUS
 62
               3
  5
434
 10
65.531091127153999
 20
-608.29871295294629
 30
0.0
 40
10.0
 50
149.9999999999711
 51
179.99999999996507
  0
LINE
  8
0
  6
CONTINUOUS
 62
               3
  5
435
 10
-60.574994519192749
 20
-612.3619736835783
 30
0.0
 11
-60.574994519192749
 21
-608.29871295294629
 31
0.0
  0
ARC
  8
0
  6
CONTINUOUS
 62
               3
  5
436
 10
-70.574994519192742
 20
-608.29871295294629
 30
0.0
 40
10.0
 50
359.99999999993014
 51
389.99999999992463
  0
LINE
  8
0
  6
CONTINUOUS
 62
               3
  5
437
 10
-673.52195169601953
 20
-524.98818892048257
 30
0.0
 11
-531.52195169601964
 21
-524.98818892048394
 31
0.0
  0
LINE
  8
0
  6
CONTINUOUS
 62
               3
  5
438
 10
-675.80066386205226
 20
-504.98818892048314
 30
0.0
 11
-529.24323952998657
 21
-504.98818892048314
 31
0.0
  0
LINE
  8
0
  6
CONTINUOUS
 62
               3
  5
439
 10
-528.7607418914555
 20
-522.83754017713477
 30
0.0
 11
-527.04231792521489
 21
-507.75512659409526
 31
0.0
  0
ARC
  8
0
  6
CONTINUOUS
 62
               3
  5
43A
 10
-529.52624756440628
 20
-507.47211855967544
 30
0.0
 40
2.5
 50
353.49999999993111
 51
443.49999999991383
  0
ARC
  8
0
  6
CONTINUOUS
 62
               3
  5
43B
 10
-531.23894366159971
 20
-522.50425928129243
 30
0.0
 40
2.5
 50
263.49999999994833
 51
353.49999999993111
  0
LINE
  8
0
  6
CONTINUOUS
 62
               3
  5
43C
 10
-676.28316150058356
 20
-522.83754017713477
 30
0.0
 11
-678.00158546682405
 21
-507.75512659409526
 31
0.0
  0
ARC
  8
0
  6
CONTINUOUS
 62
               3
  5
43D
 10
-675.51765582763255
 20
-507.47211855967544
 30
0.0
 40
2.5
 50
96.499999999980105
 51
186.49999999996422
  0
ARC
  8
0
  6
CONTINUOUS
 62
               3
  5
43E
 10
-673.80495973043924
 20
-522.50425928129243
 30
0.0
 40
2.5
 50
186.49999999996422
 51
276.49999999994822
  0
LINE
  8
0
  6
CONTINUOUS
 62
               3
  5
43F
 10
-673.52195169601919
 20
-524.98818892048394
 30
0.0
 11
-673.5219516960193
 21
-577.70147495011429
 31
0.0
  0
LINE
  8
0
  6
CONTINUOUS
 62
               3
  5
440
 10
-531.52195169601964
 20
-524.98818892048394
 30
0.0
 11
-531.52195169601964
 21
-577.70147495011429
 31
0.0
  0
LINE
  8
0
  6
CONTINUOUS
 62
               3
  5
441
 10
-657.52195169601953
 20
-713.41501650675195
 30
0.0
 11
-547.52195169601953
 21
-713.41501650675195
 31
0.0
  0
LINE
  8
0
  6
CONTINUOUS
 62
               3
  5
442
 10
-545.52195169601953
 20
-711.41501650675173
 30
0.0
 11
-545.52195169601953
 21
-613.41501650675195
 31
0.0
  0
LINE
  8
0
  6
CONTINUOUS
 62
               3
  5
443
 10
-659.52195169601941
 20
-711.41501650675173
 30
0.0
 11
-659.52195169601941
 21
-613.41501650675195
 31
0.0
  0
LINE
  8
0
  6
CONTINUOUS
 62
               3
  5
444
 10
-545.52195169601953
 20
-613.41501650675195
 30
0.0
 11
-544.4689088728461
 21
-612.3619736835783
 31
0.0
  0
LINE
  8
0
  6
CONTINUOUS
 62
               3
  5
445
 10
-659.52195169601941
 20
-613.41501650675195
 30
0.0
 11
-660.57499451919273
 21
-612.3619736835783
 31
0.0
  0
LINE
  8
0
  6
CONTINUOUS
 62
               3
  5
446
 10
-657.52195169601953
 20
-713.41501650675195
 30
0.0
 11
-659.52195169601941
 21
-711.41501650675173
 31
0.0
  0
LINE
  8
0
  6
CONTINUOUS
 62
               3
  5
447
 10
-547.52195169601953
 20
-713.41501650675195
 30
0.0
 11
-545.52195169601953
 21
-711.41501650675173
 31
0.0
  0
LINE
  8
0
  6
CONTINUOUS
 62
               3
  5
448
 10
-544.4689088728461
 20
-612.3619736835783
 30
0.0
 11
-544.4689088728461
 21
-608.29871295294629
 31
0.0
  0
ARC
  8
0
  6
CONTINUOUS
 62
               3
  5
449
 10
-534.4689088728461
 20
-608.29871295294629
 30
0.0
 40
10.0
 50
149.99999999997118
 51
179.99999999996507
  0
LINE
  8
0
  6
CONTINUOUS
 62
               3
  5
44A
 10
-660.57499451919284
 20
-612.3619736835783
 30
0.0
 11
-660.57499451919284
 21
-608.29871295294629
 31
0.0
  0
ARC
  8
0
  6
CONTINUOUS
 62
               3
  5
44B
 10
-670.57499451919284
 20
-608.29871295294629
 30
0.0
 40
10.0
 50
359.99999999993014
 51
389.99999999992457
  0
LINE
  8
0
  6
CONTINUOUS
 62
               3
  5
44C
 10
526.47804830398081
 20
-524.98818892048291
 30
0.0
 11
668.47804830398081
 21
-524.98818892048416
 31
0.0
  0
LINE
  8
0
  6
CONTINUOUS
 62
               3
  5
44D
 10
524.19933613794808
 20
-504.98818892048348
 30
0.0
 11
670.75676047001377
 21
-504.98818892048348
 31
0.0
  0
LINE
  8
0
  6
CONTINUOUS
 62
               3
  5
44E
 10
671.23925810854485
 20
-522.837540177135
 30
0.0
 11
672.95768207478545
 21
-507.7551265940956
 31
0.0
  0
ARC
  8
0
  6
CONTINUOUS
 62
               3
  5
44F
 10
670.47375243559395
 20
-507.47211855967578
 30
0.0
 40
2.5
 50
353.49999999993111
 51
443.49999999991383
  0
ARC
  8
0
  6
CONTINUOUS
 62
               3
  5
450
 10
668.76105633840075
 20
-522.50425928129278
 30
0.0
 40
2.5
 50
263.49999999994833
 51
353.49999999993111
  0
LINE
  8
0
  6
CONTINUOUS
 62
               3
  5
451
 10
523.71683849941678
 20
-522.837540177135
 30
0.0
 11
521.99841453317629
 21
-507.7551265940956
 31
0.0
  0
ARC
  8
0
  6
CONTINUOUS
 62
               3
  5
452
 10
524.48234417236779
 20
-507.47211855967578
 30
0.0
 40
2.5
 50
96.499999999980105
 51
186.49999999996422
  0
ARC
  8
0
  6
CONTINUOUS
 62
               3
  5
453
 10
526.1950402695611
 20
-522.50425928129278
 30
0.0
 40
2.5
 50
186.49999999996422
 51
276.49999999994822
  0
LINE
  8
0
  6
CONTINUOUS
 62
               3
  5
454
 10
526.47804830398115
 20
-524.98818892048428
 30
0.0
 11
526.47804830398104
 21
-577.70147495011474
 31
0.0
  0
LINE
  8
0
  6
CONTINUOUS
 62
               3
  5
455
 10
668.47804830398081
 20
-524.98818892048428
 30
0.0
 11
668.47804830398081
 21
-577.70147495011474
 31
0.0
  0
LINE
  8
0
  6
CONTINUOUS
 62
               3
  5
456
 10
542.47804830398081
 20
-713.41501650675218
 30
0.0
 11
652.47804830398081
 21
-713.41501650675218
 31
0.0
  0
LINE
  8
0
  6
CONTINUOUS
 62
               3
  5
457
 10
654.47804830398081
 20
-711.41501650675195
 30
0.0
 11
654.47804830398081
 21
-613.41501650675218
 31
0.0
  0
LINE
  8
0
  6
CONTINUOUS
 62
               3
  5
458
 10
540.47804830398081
 20
-711.41501650675195
 30
0.0
 11
540.47804830398081
 21
-613.41501650675218
 31
0.0
  0
LINE
  8
0
  6
CONTINUOUS
 62
               3
  5
459
 10
654.47804830398081
 20
-613.41501650675218
 30
0.0
 11
655.53109112715424
 21
-612.36197368357853
 31
0.0
  0
LINE
  8
0
  6
CONTINUOUS
 62
               3
  5
45A
 10
540.47804830398081
 20
-613.41501650675218
 30
0.0
 11
539.42500548080761
 21
-612.36197368357875
 31
0.0
  0
LINE
  8
0
  6
CONTINUOUS
 62
               3
  5
45B
 10
542.47804830398081
 20
-713.41501650675218
 30
0.0
 11
540.47804830398081
 21
-711.41501650675195
 31
0.0
  0
LINE
  8
0
  6
CONTINUOUS
 62
               3
  5
45C
 10
652.47804830398081
 20
-713.41501650675218
 30
0.0
 11
654.47804830398081
 21
-711.41501650675195
 31
0.0
  0
LINE
  8
0
  6
CONTINUOUS
 62
               3
  5
45D
 10
655.53109112715424
 20
-612.36197368357875
 30
0.0
 11
655.53109112715424
 21
-608.29871295294652
 31
0.0
  0
ARC
  8
0
  6
CONTINUOUS
 62
               3
  5
45E
 10
665.53109112715424
 20
-608.29871295294652
 30
0.0
 40
10.0
 50
149.99999999997118
 51
179.99999999996507
  0
LINE
  8
0
  6
CONTINUOUS
 62
               3
  5
45F
 10
539.4250054808075
 20
-612.36197368357875
 30
0.0
 11
539.4250054808075
 21
-608.29871295294652
 31
0.0
  0
ARC
  8
0
  6
CONTINUOUS
 62
               3
  5
460
 10
529.4250054808075
 20
-608.29871295294652
 30
0.0
 40
10.0
 50
359.99999999993014
 51
389.99999999992457
  0
LINE
  8
0
  6
CONTINUOUS
 62
               3
  5
461
 10
-450.53820806326064
 20
-87.91501650675184
 30
0.0
 11
-494.62665018612654
 21
-86.375414182129006
 31
0.0
  0
LINE
  8
0
  6
CONTINUOUS
 62
               3
  5
462
 10
-450.52195169601953
 20
-227.9150165067519
 30
0.0
 11
-498.22695569426577
 21
-229.58091195497767
 31
0.0
  0
LINE
  8
0
  6
CONTINUOUS
 62
               3
  5
463
 10
-501.58799211668605
 20
-231.04233218414038
 30
0.0
 11
-511.05748560195252
 21
-240.51182566940705
 31
0.0
  0
ARC
  8
0
  6
CONTINUOUS
 62
               3
  5
464
 10
-498.05245821075329
 20
-234.57786609007314
 30
0.0
 40
5.0
 50
91.999999999982577
 51
134.99999999997368
  0
ARC
  8
0
  6
CONTINUOUS
 62
               3
  5
465
 10
-507.52195169601958
 20
-244.0473595753397
 30
0.0
 40
5.0
 50
134.99999999997439
 51
179.99999999996507
  0
LINE
  8
0
  6
CONTINUOUS
 62
               3
  5
466
 10
-450.53820806326064
 20
-87.91501650675184
 30
0.0
 11
-450.5382080632607
 21
-227.91558419160512
 31
0.0
  0
ARC
  8
0
  6
CONTINUOUS
 62
               3
  5
467
 10
-500.52195169601924
 20
-86.415016506751911
 30
0.0
 40
3.0000000000000004
 50
269.99999999994731
 51
359.99999999993037
  0
ARC
  8
0
  6
CONTINUOUS
 62
               3
  5
468
 10
-494.52195169601907
 20
-83.377241701071611
 30
0.0
 40
3.0000000000000004
 50
179.99999999996518
 51
267.99999999994907
  0
LINE
  8
0
  6
CONTINUOUS
 62
               3
  5
469
 10
-447.52195169601936
 20
-90.243460380787738
 30
0.0
 11
-448.20976418922476
 21
-90.243460380787738
 31
0.0
  0
LINE
  8
0
  6
CONTINUOUS
 62
               3
  5
46A
 10
-450.53820806326064
 20
-87.91501650675184
 30
0.0
 11
-448.20976418922476
 21
-90.243460380787738
 31
0.0
  0
LINE
  8
0
  6
CONTINUOUS
 62
               3
  5
46B
 10
-447.52195169601936
 20
-87.915016506751996
 30
0.0
 11
-445.02195169601936
 21
-87.915016506751996
 31
0.0
  0
ARC
  8
0
  6
CONTINUOUS
 62
               3
  5
46C
 10
-445.02195169601936
 20
-90.415016506751996
 30
0.0
 40
2.5
 50
359.99999999993031
 51
449.99999999991297
  0
LINE
  8
0
  6
CONTINUOUS
 62
               3
  5
46D
 10
-447.52195169601941
 20
-225.58657263271601
 30
0.0
 11
-448.20976418922481
 21
-225.58657263271601
 31
0.0
  0
LINE
  8
0
  6
CONTINUOUS
 62
               3
  5
46E
 10
-450.5382080632607
 20
-227.9150165067519
 30
0.0
 11
-448.20976418922481
 21
-225.58657263271601
 31
0.0
  0
LINE
  8
0
  6
CONTINUOUS
 62
               3
  5
46F
 10
-447.52195169601941
 20
-227.91501650675175
 30
0.0
 11
-445.02195169601941
 21
-227.91501650675175
 31
0.0
  0
ARC
  8
0
  6
CONTINUOUS
 62
               3
  5
470
 10
-445.02195169601941
 20
-225.41501650675175
 30
0.0
 40
2.5
 50
269.99999999994731
 51
359.99999999993014
  0
LINE
  8
0
  6
CONTINUOUS
 62
               3
  5
471
 10
-442.52195169601936
 20
-90.415016506751996
 30
0.0
 11
-442.52195169601941
 21
-225.41501650675175
 31
0.0
  0
LINE
  8
0
  6
CONTINUOUS
 62
               3
  5
472
 10
-447.52195169601941
 20
-227.91501650675175
 30
0.0
 11
-447.52195169601936
 21
-87.915016506751996
 31
0.0
  0
LINE
  8
0
  6
CONTINUOUS
 62
               3
  5
473
 10
-448.20976418922476
 20
-90.243460380787738
 30
0.0
 11
-448.20976418922481
 21
-225.58657263271601
 31
0.0
  0
LINE
  8
0
  6
CONTINUOUS
 62
               3
  5
474
 10
-497.52195169601913
 20
-71.415016506751911
 30
0.0
 11
-497.52195169601919
 21
-86.415016506751911
 31
0.0
  0
CIRCLE
  8
0
  6
CONTINUOUS
 62
               3
  5
475
 10
-2.5219516960194142
 20
-157.91501650675175
 30
0.0
 40
70.5
  0
ARC
  8
0
  6
CONTINUOUS
 62
               3
  5
476
 10
40.762066749696714
 20
-232.91501650675184
 30
0.0
 40
2.5
 50
89.999999999982535
 51
269.99999999994782
  0
ARC
  8
0
  6
CONTINUOUS
 62
               3
  5
477
 10
-45.805970141735202
 20
-232.91501650675178
 30
0.0
 40
2.5
 50
269.99999999994782
 51
449.99999999991297
  0
CIRCLE
  8
0
  6
CONTINUOUS
 62
               3
  5
478
 10
-2.5219516960194142
 20
-157.91501650675175
 30
0.0
 40
60.999999999999879
  0
CIRCLE
  8
0
  6
CONTINUOUS
 62
               3
  5
479
 10
-2.5219516960194142
 20
-157.91501650675175
 30
0.0
 40
59.799999999999862
  0
CIRCLE
  8
0
  6
CONTINUOUS
 62
               3
  5
47A
 10
-2.5219516960194142
 20
-157.91501650675175
 30
0.0
 40
55.499999999999865
  0
CIRCLE
  8
0
  6
CONTINUOUS
 62
               3
  5
47B
 10
-2.5219516960194142
 20
-157.91501650675175
 30
0.0
 40
51.249999999999865
  0
ARC
  8
0
  6
CONTINUOUS
 62
               3
  5
47C
 10
-2.5219516960194142
 20
-157.91501650675175
 30
0.0
 40
57.499999999999865
 50
224.99999999995646
 51
314.99999999993912
  0
LINE
  8
0
  6
CONTINUOUS
 62
               3
  5
47D
 10
-43.180591614245827
 20
-198.57365642497814
 30
0.0
 11
-44.806937210974979
 21
-200.20000202170721
 31
0.0
  0
LINE
  8
0
  6
CONTINUOUS
 62
               3
  5
47E
 10
38.136688222206999
 20
-198.57365642497814
 30
0.0
 11
39.763033818936037
 21
-200.20000202170721
 31
0.0
  0
LINE
  8
0
  6
CONTINUOUS
 62
               3
  5
47F
 10
445.49430467122221
 20
-87.915016506752096
 30
0.0
 11
489.58274679408811
 21
-86.375414182129276
 31
0.0
  0
LINE
  8
0
  6
CONTINUOUS
 62
               3
  5
480
 10
445.47804830398104
 20
-227.91501650675212
 30
0.0
 11
493.18305230222728
 21
-229.58091195497792
 31
0.0
  0
LINE
  8
0
  6
CONTINUOUS
 62
               3
  5
481
 10
496.54408872464757
 20
-231.04233218414063
 30
0.0
 11
506.01358220991403
 21
-240.5118256694073
 31
0.0
  0
ARC
  8
0
  6
CONTINUOUS
 62
               3
  5
482
 10
493.0085548187148
 20
-234.5778660900734
 30
0.0
 40
5.0
 50
44.999999999991154
 51
87.999999999982478
  0
ARC
  8
0
  6
CONTINUOUS
 62
               3
  5
483
 10
502.4780483039811
 20
-244.04735957533995
 30
0.0
 40
5.0
 50
0.0
 51
44.999999999990919
  0
LINE
  8
0
  6
CONTINUOUS
 62
               3
  5
484
 10
445.49430467122221
 20
-87.915016506752096
 30
0.0
 11
445.49430467122221
 21
-227.91558419160535
 31
0.0
  0
ARC
  8
0
  6
CONTINUOUS
 62
               3
  5
485
 10
495.47804830398081
 20
-86.415016506752181
 30
0.0
 40
3.0000000000000004
 50
179.99999999996524
 51
269.99999999994731
  0
ARC
  8
0
  6
CONTINUOUS
 62
               3
  5
486
 10
489.47804830398064
 20
-83.377241701071881
 30
0.0
 40
3.0000000000000004
 50
271.99999999994657
 51
359.99999999993042
  0
LINE
  8
0
  6
CONTINUOUS
 62
               3
  5
487
 10
442.47804830398093
 20
-90.24346038078798
 30
0.0
 11
443.16586079718633
 21
-90.24346038078798
 31
0.0
  0
LINE
  8
0
  6
CONTINUOUS
 62
               3
  5
488
 10
445.49430467122221
 20
-87.915016506752096
 30
0.0
 11
443.16586079718633
 21
-90.24346038078798
 31
0.0
  0
LINE
  8
0
  6
CONTINUOUS
 62
               3
  5
489
 10
442.47804830398093
 20
-87.915016506752238
 30
0.0
 11
439.97804830398093
 21
-87.915016506752238
 31
0.0
  0
ARC
  8
0
  6
CONTINUOUS
 62
               3
  5
48A
 10
439.97804830398093
 20
-90.415016506752238
 30
0.0
 40
2.5
 50
89.999999999982862
 51
179.99999999996524
  0
LINE
  8
0
  6
CONTINUOUS
 62
               3
  5
48B
 10
442.47804830398093
 20
-225.58657263271624
 30
0.0
 11
443.16586079718633
 21
-225.58657263271624
 31
0.0
  0
LINE
  8
0
  6
CONTINUOUS
 62
               3
  5
48C
 10
445.49430467122221
 20
-227.91501650675212
 30
0.0
 11
443.16586079718633
 21
-225.58657263271624
 31
0.0
  0
LINE
  8
0
  6
CONTINUOUS
 62
               3
  5
48D
 10
442.47804830398093
 20
-227.91501650675198
 30
0.0
 11
439.97804830398093
 21
-227.91501650675198
 31
0.0
  0
ARC
  8
0
  6
CONTINUOUS
 62
               3
  5
48E
 10
439.97804830398093
 20
-225.41501650675198
 30
0.0
 40
2.5
 50
179.99999999996507
 51
269.99999999994731
  0
LINE
  8
0
  6
CONTINUOUS
 62
               3
  5
48F
 10
437.47804830398093
 20
-90.415016506752238
 30
0.0
 11
437.47804830398093
 21
-225.41501650675198
 31
0.0
  0
LINE
  8
0
  6
CONTINUOUS
 62
               3
  5
490
 10
442.47804830398093
 20
-227.91501650675198
 30
0.0
 11
442.47804830398093
 21
-87.915016506752238
 31
0.0
  0
LINE
  8
0
  6
CONTINUOUS
 62
               3
  5
491
 10
443.16586079718633
 20
-90.24346038078798
 30
0.0
 11
443.16586079718633
 21
-225.58657263271624
 31
0.0
  0
LINE
  8
0
  6
CONTINUOUS
 62
               3
  5
492
 10
492.4780483039807
 20
-71.415016506752181
 30
0.0
 11
492.47804830398076
 21
-86.415016506752181
 31
0.0
  0
LINE
  8
0
  6
CONTINUOUS
 62
               3
  5
493
 10
-72.521951696019045
 20
479.35161398639553
 30
0.0
 11
67.478615988834036
 21
479.35161398639553
 31
0.0
  0
LINE
  8
0
  6
CONTINUOUS
 62
               3
  5
494
 10
-70.193507821983161
 20
476.33535761915431
 30
0.0
 11
-70.193507821983161
 21
477.02317011235965
 31
0.0
  0
LINE
  8
0
  6
CONTINUOUS
 62
               3
  5
495
 10
-72.521951696019045
 20
479.35161398639553
 30
0.0
 11
-70.193507821983161
 21
477.02317011235965
 31
0.0
  0
LINE
  8
0
  6
CONTINUOUS
 62
               3
  5
496
 10
-72.521951696019045
 20
476.33535761915431
 30
0.0
 11
-72.521951696019045
 21
473.83535761915431
 31
0.0
  0
ARC
  8
0
  6
CONTINUOUS
 62
               3
  5
497
 10
-70.021951696019045
 20
473.83535761915431
 30
0.0
 40
2.5
 50
179.99999999996572
 51
269.99999999994793
  0
LINE
  8
0
  6
CONTINUOUS
 62
               3
  5
498
 10
65.149604429945072
 20
476.33535761915431
 30
0.0
 11
65.149604429945072
 21
477.02317011235965
 31
0.0
  0
LINE
  8
0
  6
CONTINUOUS
 62
               3
  5
499
 10
67.478048303980955
 20
479.35161398639553
 30
0.0
 11
65.149604429945072
 21
477.02317011235965
 31
0.0
  0
LINE
  8
0
  6
CONTINUOUS
 62
               3
  5
49A
 10
67.478048303980614
 20
476.33535761915431
 30
0.0
 11
67.478048303980614
 21
473.83535761915431
 31
0.0
  0
ARC
  8
0
  6
CONTINUOUS
 62
               3
  5
49B
 10
64.978048303980614
 20
473.83535761915431
 30
0.0
 40
2.5
 50
269.99999999994793
 51
359.99999999993145
  0
LINE
  8
0
  6
CONTINUOUS
 62
               3
  5
49C
 10
-70.021951696019045
 20
471.33535761915431
 30
0.0
 11
64.978048303980614
 21
471.33535761915431
 31
0.0
  0
LINE
  8
0
  6
CONTINUOUS
 62
               3
  5
49D
 10
67.478048303980614
 20
476.33535761915431
 30
0.0
 11
-72.521951696019045
 21
476.33535761915431
 31
0.0
  0
LINE
  8
0
  6
CONTINUOUS
 62
               3
  5
49E
 10
-70.193507821983161
 20
477.02317011235965
 30
0.0
 11
65.149604429945072
 21
477.02317011235965
 31
0.0
  0
LINE
  8
0
  6
CONTINUOUS
 62
               3
  5
49F
 10
67.478048303980955
 20
479.33535761915442
 30
0.0
 11
69.425596031368997
 21
535.10582762118543
 31
0.0
  0
LINE
  8
0
  6
CONTINUOUS
 62
               3
  5
4A0
 10
-72.521951696019045
 20
479.35161398639553
 30
0.0
 11
-74.468929046166039
 21
535.10575052130457
 31
0.0
  0
LINE
  8
0
  6
DASHED2
 62
               3
  5
4A1
 10
-54.021951696019613
 20
-713.41501650675195
 30
0.0
 11
-54.021951696019613
 21
-633.41501650675195
 31
0.0
  0
LINE
  8
0
  6
DASHED2
 62
               3
  5
4A2
 10
48.978048303980295
 20
-713.41501650675195
 30
0.0
 11
48.978048303980295
 21
-633.41501650675195
 31
0.0
  0
LINE
  8
0
  6
DASHED2
 62
               3
  5
4A3
 10
-654.02195169601976
 20
-713.41501650675195
 30
0.0
 11
-654.02195169601976
 21
-633.41501650675195
 31
0.0
  0
LINE
  8
0
  6
DASHED2
 62
               3
  5
4A4
 10
-551.02195169601987
 20
-713.41501650675195
 30
0.0
 11
-551.02195169601987
 21
-633.41501650675195
 31
0.0
  0
LINE
  8
0
  6
DASHED2
 62
               3
  5
4A5
 10
545.97804830398059
 20
-713.41501650675218
 30
0.0
 11
545.97804830398059
 21
-633.41501650675218
 31
0.0
  0
LINE
  8
0
  6
DASHED2
 62
               3
  5
4A6
 10
648.97804830398047
 20
-713.41501650675218
 30
0.0
 11
648.97804830398047
 21
-633.41501650675218
 31
0.0
  0
INSERT
  8
0
  6
CONTINUOUS
  5
4A7
  2
GROUP_1
 10
0.0
 20
0.0
 30
0.0
  0
INSERT
  8
0
  6
CONTINUOUS
  5
4A8
  2
GROUP_2
 10
0.0
 20
0.0
 30
0.0
  0
INSERT
  8
0
  6
CONTINUOUS
  5
4A9
  2
GROUP_3
 10
0.0
 20
0.0
 30
0.0
  0
INSERT
  8
0
  6
CONTINUOUS
  5
4AA
  2
GROUP_4
 10
0.0
 20
0.0
 30
0.0
  0
INSERT
  8
0
  6
CONTINUOUS
  5
4AB
  2
GROUP_5
 10
0.0
 20
0.0
 30
0.0
  0
INSERT
  8
0
  6
CONTINUOUS
  5
4AC
  2
GROUP_6
 10
0.0
 20
0.0
 30
0.0
  0
INSERT
  8
0
  6
CONTINUOUS
  5
4AD
  2
GROUP_7
 10
0.0
 20
0.0
 30
0.0
  0
INSERT
  8
0
  6
CONTINUOUS
  5
4AE
  2
GROUP_8
 10
0.0
 20
0.0
 30
0.0
  0
INSERT
  8
0
  6
CONTINUOUS
  5
4AF
  2
GROUP_9
 10
0.0
 20
0.0
 30
0.0
  0
INSERT
  8
0
  6
CONTINUOUS
  5
4B0
  2
GROUP_10
 10
0.0
 20
0.0
 30
0.0
  0
INSERT
  8
0
  6
CONTINUOUS
  5
4B1
  2
GROUP_11
 10
0.0
 20
0.0
 30
0.0
  0
INSERT
  8
0
  6
CONTINUOUS
  5
4B2
  2
GROUP_12
 10
0.0
 20
0.0
 30
0.0
  0
LINE
  8
LAYER192
  6
CONTINUOUS
 62
               3
  5
4B3
 10
-29.021951696019322
 20
586.01428084465579
 30
0.0
 11
-29.021951696019109
 21
631.33535761915437
 31
0.0
  0
LINE
  8
LAYER192
  6
CONTINUOUS
 62
               3
  5
4B4
 10
-29.021951696019109
 20
631.33535761915437
 30
0.0
 11
-49.194285230839078
 21
655.37580858028468
 31
0.0
  0
LINE
  8
LAYER192
  6
CONTINUOUS
 62
               3
  5
4B5
 10
-29.021951696019393
 20
603.83535761914914
 30
0.0
 11
42.199407853970854
 21
603.83535761914459
 31
0.0
  0
LINE
  8
LAYER192
  6
CONTINUOUS
 62
               3
  5
4B6
 10
-18.529762289602566
 20
681.33535761915368
 30
0.0
 11
13.485858897566132
 21
681.33535761915323
 31
0.0
  0
LINE
  8
LAYER192
  6
CONTINUOUS
 62
               3
  5
4B7
 10
-91.021951696019329
 20
186.51932457259659
 30
0.0
 11
-79.021951696019272
 21
201.58498349324782
 31
0.0
  0
LINE
  8
LAYER192
  6
CONTINUOUS
 62
               3
  5
4B8
 10
85.978048303980501
 20
186.51932457259682
 30
0.0
 11
73.978048303980486
 21
201.58498349324805
 31
0.0
  0
LINE
  8
LAYER192
  6
CONTINUOUS
 62
               3
  5
4B9
 10
-79.021951696019016
 20
201.58498349324805
 30
0.0
 11
73.978048303980486
 21
201.58498349324805
 31
0.0
  0
LINE
  8
LAYER192
  6
CONTINUOUS
 62
               3
  5
4BA
 10
-91.021951696020693
 20
179.51932457259693
 30
0.0
 11
85.978048303980543
 21
179.51932457259704
 31
0.0
  0
LINE
  8
LAYER192
  6
CONTINUOUS
 62
               3
  5
4BB
 10
-22.521951696020011
 20
186.51932457259704
 30
0.0
 11
-22.521951696020011
 21
179.51932457259693
 31
0.0
  0
LINE
  8
LAYER192
  6
CONTINUOUS
 62
               3
  5
4BC
 10
17.478048303979989
 20
186.51932457259704
 30
0.0
 11
17.478048303979989
 21
179.51932457259693
 31
0.0
  0
LINE
  8
LAYER192
  6
CONTINUOUS
 62
               3
  5
4BD
 10
-23.02195169601984
 20
201.58498349324805
 30
0.0
 11
-23.02195169601984
 21
179.51932457259693
 31
0.0
  0
LINE
  8
LAYER192
  6
CONTINUOUS
 62
               3
  5
4BE
 10
17.978048303980103
 20
201.58498349324805
 30
0.0
 11
17.978048303980103
 21
179.51932457259693
 31
0.0
  0
LINE
  8
LAYER192
  6
CONTINUOUS
 62
               3
  5
4BF
 10
-22.521951696020011
 20
186.51932457259659
 30
0.0
 11
17.478048303979989
 21
186.51932457259704
 31
0.0
  0
LINE
  8
LAYER192
  6
CONTINUOUS
 62
               3
  5
4C0
 10
-22.521951696020011
 20
186.51932457259659
 30
0.0
 11
-23.02195169601984
 21
201.58498349324805
 31
0.0
  0
LINE
  8
LAYER192
  6
CONTINUOUS
 62
               3
  5
4C1
 10
17.478048303979989
 20
186.51932457259659
 30
0.0
 11
17.978048303980103
 21
201.58498349324805
 31
0.0
  0
LINE
  8
LAYER192
  6
CONTINUOUS
 62
               3
  5
4C2
 10
-691.0219516960193
 20
186.5193245725967
 30
0.0
 11
-679.02195169601941
 21
201.58498349324782
 31
0.0
  0
LINE
  8
LAYER192
  6
CONTINUOUS
 62
               3
  5
4C3
 10
-514.02195169601953
 20
186.51932457259682
 30
0.0
 11
-526.02195169601953
 21
201.58498349324805
 31
0.0
  0
LINE
  8
LAYER192
  6
CONTINUOUS
 62
               3
  5
4C4
 10
-679.02195169601907
 20
201.58498349324805
 30
0.0
 11
-526.02195169601953
 21
201.58498349324805
 31
0.0
  0
LINE
  8
LAYER192
  6
CONTINUOUS
 62
               3
  5
4C5
 10
-691.02195169602066
 20
179.51932457259704
 30
0.0
 11
-514.02195169601953
 21
179.51932457259704
 31
0.0
  0
LINE
  8
LAYER192
  6
CONTINUOUS
 62
               3
  5
4C6
 10
-622.5219516960201
 20
186.51932457259716
 30
0.0
 11
-622.5219516960201
 21
179.51932457259693
 31
0.0
  0
LINE
  8
LAYER192
  6
CONTINUOUS
 62
               3
  5
4C7
 10
-582.5219516960201
 20
186.51932457259716
 30
0.0
 11
-582.5219516960201
 21
179.51932457259693
 31
0.0
  0
LINE
  8
LAYER192
  6
CONTINUOUS
 62
               3
  5
4C8
 10
-623.02195169601987
 20
201.58498349324805
 30
0.0
 11
-623.02195169601987
 21
179.51932457259693
 31
0.0
  0
LINE
  8
LAYER192
  6
CONTINUOUS
 62
               3
  5
4C9
 10
-582.02195169601998
 20
201.58498349324805
 30
0.0
 11
-582.02195169601998
 21
179.51932457259693
 31
0.0
  0
LINE
  8
LAYER192
  6
CONTINUOUS
 62
               3
  5
4CA
 10
-622.5219516960201
 20
186.5193245725967
 30
0.0
 11
-582.5219516960201
 21
186.51932457259716
 31
0.0
  0
LINE
  8
LAYER192
  6
CONTINUOUS
 62
               3
  5
4CB
 10
-622.5219516960201
 20
186.5193245725967
 30
0.0
 11
-623.02195169601987
 21
201.58498349324805
 31
0.0
  0
LINE
  8
LAYER192
  6
CONTINUOUS
 62
               3
  5
4CC
 10
-582.5219516960201
 20
186.5193245725967
 30
0.0
 11
-582.02195169601998
 21
201.58498349324805
 31
0.0
  0
LINE
  8
LAYER192
  6
CONTINUOUS
 62
               3
  5
4CD
 10
508.97804830398115
 20
186.51932457259636
 30
0.0
 11
520.97804830398104
 21
201.58498349324748
 31
0.0
  0
LINE
  8
LAYER192
  6
CONTINUOUS
 62
               3
  5
4CE
 10
685.97804830398093
 20
186.51932457259647
 30
0.0
 11
673.97804830398093
 21
201.58498349324771
 31
0.0
  0
LINE
  8
LAYER192
  6
CONTINUOUS
 62
               3
  5
4CF
 10
520.97804830398138
 20
201.58498349324771
 30
0.0
 11
673.97804830398093
 21
201.58498349324771
 31
0.0
  0
LINE
  8
LAYER192
  6
CONTINUOUS
 62
               3
  5
4D0
 10
508.97804830397979
 20
179.51932457259673
 30
0.0
 11
685.97804830398093
 21
179.51932457259673
 31
0.0
  0
LINE
  8
LAYER192
  6
CONTINUOUS
 62
               3
  5
4D1
 10
577.47804830398036
 20
186.51932457259682
 30
0.0
 11
577.47804830398036
 21
179.51932457259662
 31
0.0
  0
LINE
  8
LAYER192
  6
CONTINUOUS
 62
               3
  5
4D2
 10
617.47804830398036
 20
186.51932457259682
 30
0.0
 11
617.47804830398036
 21
179.51932457259662
 31
0.0
  0
LINE
  8
LAYER192
  6
CONTINUOUS
 62
               3
  5
4D3
 10
576.97804830398059
 20
201.58498349324771
 30
0.0
 11
576.97804830398059
 21
179.51932457259662
 31
0.0
  0
LINE
  8
LAYER192
  6
CONTINUOUS
 62
               3
  5
4D4
 10
617.97804830398047
 20
201.58498349324771
 30
0.0
 11
617.97804830398047
 21
179.51932457259662
 31
0.0
  0
LINE
  8
LAYER192
  6
CONTINUOUS
 62
               3
  5
4D5
 10
577.47804830398036
 20
186.51932457259636
 30
0.0
 11
617.47804830398036
 21
186.51932457259682
 31
0.0
  0
LINE
  8
LAYER192
  6
CONTINUOUS
 62
               3
  5
4D6
 10
577.47804830398036
 20
186.51932457259636
 30
0.0
 11
576.97804830398059
 21
201.58498349324771
 31
0.0
  0
LINE
  8
LAYER192
  6
CONTINUOUS
 62
               3
  5
4D7
 10
617.47804830398036
 20
186.51932457259636
 30
0.0
 11
617.97804830398047
 21
201.58498349324771
 31
0.0
  0
LINE
  8
LAYER192
  6
CONTINUOUS
 62
               3
  5
4D8
 10
-70.77547247360053
 20
-587.95147495011429
 30
0.0
 11
-61.861697658174897
 21
-603.39058581765948
 31
0.0
  0
ARC
  8
LAYER192
  6
CONTINUOUS
 62
               3
  5
4D9
 10
-53.021951696019521
 20
-577.7014749501144
 30
0.0
 40
20.500000000000004
 50
179.99999999996513
 51
209.99999999995936
  0
LINE
  8
LAYER192
  6
CONTINUOUS
 62
               3
  5
4DA
 10
65.731569081561844
 20
-587.95147495011429
 30
0.0
 11
56.870837089309589
 21
-603.29871295294629
 31
0.0
  0
ARC
  8
LAYER192
  6
CONTINUOUS
 62
               3
  5
4DB
 10
47.978048303980849
 20
-577.7014749501144
 30
0.0
 40
20.500000000000004
 50
329.99999999993628
 51
359.99999999993037
  0
LINE
  8
LAYER192
  6
CONTINUOUS
 62
               3
  5
4DC
 10
-670.77547247360064
 20
-587.95147495011429
 30
0.0
 11
-661.86169765817499
 21
-603.39058581765948
 31
0.0
  0
ARC
  8
LAYER192
  6
CONTINUOUS
 62
               3
  5
4DD
 10
-653.02195169601964
 20
-577.70147495011429
 30
0.0
 40
20.500000000000004
 50
179.99999999996513
 51
209.99999999995924
  0
LINE
  8
LAYER192
  6
CONTINUOUS
 62
               3
  5
4DE
 10
-534.2684309184383
 20
-587.95147495011429
 30
0.0
 11
-543.12916291069052
 21
-603.29871295294629
 31
0.0
  0
ARC
  8
LAYER192
  6
CONTINUOUS
 62
               3
  5
4DF
 10
-552.0219516960193
 20
-577.70147495011429
 30
0.0
 40
20.500000000000004
 50
329.99999999993622
 51
359.99999999993037
  0
LINE
  8
LAYER192
  6
CONTINUOUS
 62
               3
  5
4E0
 10
529.2245275263997
 20
-587.95147495011452
 30
0.0
 11
538.13830234182535
 21
-603.39058581765971
 31
0.0
  0
ARC
  8
LAYER192
  6
CONTINUOUS
 62
               3
  5
4E1
 10
546.9780483039807
 20
-577.70147495011474
 30
0.0
 40
20.500000000000004
 50
179.99999999996513
 51
209.99999999995924
  0
LINE
  8
LAYER192
  6
CONTINUOUS
 62
               3
  5
4E2
 10
665.73156908156204
 20
-587.95147495011452
 30
0.0
 11
656.87083708930982
 21
-603.29871295294652
 31
0.0
  0
ARC
  8
LAYER192
  6
CONTINUOUS
 62
               3
  5
4E3
 10
647.97804830398104
 20
-577.70147495011474
 30
0.0
 40
20.500000000000004
 50
329.99999999993622
 51
359.99999999993037
  0
LINE
  8
LAYER192
  6
CONTINUOUS
 62
               4
  5
4E4
 10
-688.02195169601953
 20
106.19855723800367
 30
0.0
 11
-694.52195169601953
 21
99.698557238003559
 31
0.0
  0
LINE
  8
LAYER192
  6
CONTINUOUS
 62
               4
  5
4E5
 10
-517.02195169601896
 20
106.19855723800367
 30
0.0
 11
-510.52195169601885
 21
99.698557238003559
 31
0.0
  0
LINE
  8
LAYER192
  6
CONTINUOUS
 62
               4
  5
4E6
 10
511.97804830398093
 20
106.19855723800336
 30
0.0
 11
505.47804830398093
 21
99.698557238003247
 31
0.0
  0
LINE
  8
LAYER192
  6
CONTINUOUS
 62
               4
  5
4E7
 10
682.9780483039815
 20
106.19855723800336
 30
0.0
 11
689.47804830398161
 21
99.698557238003247
 31
0.0
  0
ENDSEC
  0
EOF
