  0
SECTION
  2
HEADER
  9
$ACADVER
  1
AC1009
  9
$INSBASE
 10
0.0
 20
0.0
 30
0.0
  9
$EXTMIN
 10
-613.60000000000048
 20
-687.40999999999985
 30
0.0
  9
$EXTMAX
 10
613.60000000000048
 20
633.90999999999997
 30
0.0
  9
$LIMMIN
 10
-651.9500000000005
 20
-728.70124999999985
  9
$LIMMAX
 10
651.9500000000005
 20
675.20124999999996
  9
$ORTHOMODE
 70
               0
  9
$REGENMODE
 70
               1
  9
$FILLMODE
 70
               1
  9
$QTEXTMODE
 70
               0
  9
$MIRRTEXT
 70
               1
  9
$DRAGMODE
 70
               2
  9
$LTSCALE
 40
1.0
  9
$OSMODE
 70
               0
  9
$ATTMODE
 70
               1
  9
$TEXTSIZE
 40
0.2
  9
$TRACEWID
 40
0.05
  9
$TEXTSTYLE
  7
STANDARD
  9
$CLAYER
  8
0
  9
$CELTYPE
  6
CONTINUOUS
  9
$CECOLOR
 62
             256
  9
$DIMSCALE
 40
1.0
  9
$DIMASZ
 40
0.18
  9
$DIMEXO
 40
0.0625
  9
$DIMDLI
 40
0.38
  9
$DIMRND
 40
0.0
  9
$DIMDLE
 40
0.0
  9
$DIMEXE
 40
0.18
  9
$DIMTP
 40
0.0
  9
$DIMTM
 40
0.0
  9
$DIMTXT
 40
0.18
  9
$DIMCEN
 40
0.09
  9
$DIMTSZ
 40
0.0
  9
$DIMTOL
 70
               0
  9
$DIMLIM
 70
               0
  9
$DIMTIH
 70
               1
  9
$DIMTOH
 70
               1
  9
$DIMSE1
 70
               0
  9
$DIMSE2
 70
               0
  9
$DIMTAD
 70
               0
  9
$DIMZIN
 70
               0
  9
$DIMBLK
  1

  9
$DIMASO
 70
               1
  9
$DIMSHO
 70
               1
  9
$DIMPOST
  1

  9
$DIMAPOST
  1

  9
$DIMALT
 70
               0
  9
$DIMALTD
 70
               2
  9
$DIMALTF
 40
25.399999999999999
  9
$DIMLFAC
 40
1.0
  9
$DIMTOFL
 70
               0
  9
$DIMTVP
 40
0.0
  9
$DIMTIX
 70
               0
  9
$DIMSOXD
 70
               0
  9
$DIMSAH
 70
               0
  9
$DIMBLK1
  1

  9
$DIMBLK2
  1

  9
$DIMSTYLE
  2
STANDARD
  9
$DIMCLRD
 70
               0
  9
$DIMCLRE
 70
               0
  9
$DIMCLRT
 70
               0
  9
$DIMTFAC
 40
1.0
  9
$DIMGAP
 40
0.09
  9
$LUNITS
 70
               2
  9
$LUPREC
 70
               4
  9
$AXISMODE
 70
               0
  9
$AXISUNIT
 10
0.0
 20
0.0
  9
$SKETCHINC
 40
0.1
  9
$FILLETRAD
 40
0.0
  9
$AUNITS
 70
               0
  9
$AUPREC
 70
               0
  9
$MENU
  1
acad
  9
$ELEVATION
 40
0.0
  9
$PELEVATION
 40
0.0
  9
$THICKNESS
 40
0.0
  9
$LIMCHECK
 70
               0
  9
$BLIPMODE
 70
               1
  9
$CHAMFERA
 40
0.0
  9
$CHAMFERB
 40
0.0
  9
$SKPOLY
 70
               0
  9
$TDCREATE
 40
0.000000000
  9
$TDUPDATE
 40
0.000000000
  9
$TDINDWG
 40
0.0000000000
  9
$TDUSRTIMER
 40
0.0000000000
  9
$USRTIMER
 70
               1
  9
$ANGBASE
 50
0.0
  9
$ANGDIR
 70
               0
  9
$PDMODE
 70
               0
  9
$PDSIZE
 40
1.0
  9
$PLINEWID
 40
0.0
  9
$COORDS
 70
               1
  9
$SPLFRAME
 70
               0
  9
$SPLINETYPE
 70
               6
  9
$SPLINESEGS
 70
               8
  9
$ATTDIA
 70
               0
  9
$ATTREQ
 70
               1
  9
$HANDLING
 70
               1
  9
$HANDSEED
  5
312
  9
$SURFTAB1
 70
               6
  9
$SURFTAB2
 70
               6
  9
$SURFTYPE
 70
               6
  9
$SURFU
 70
               6
  9
$SURFV
 70
               6
  9
$UCSNAME
  2

  9
$UCSORG
 10
0.0
 20
0.0
 30
0.0
  9
$UCSXDIR
 10
1.0
 20
0.0
 30
0.0
  9
$UCSYDIR
 10
0.0
 20
1.0
 30
0.0
  9
$PUCSNAME
  2

  9
$PUCSORG
 10
0.0
 20
0.0
 30
0.0
  9
$PUCSXDIR
 10
1.0
 20
0.0
 30
0.0
  9
$PUCSYDIR
 10
0.0
 20
1.0
 30
0.0
  9
$USERI1
 70
               0
  9
$USERI2
 70
               0
  9
$USERI3
 70
               0
  9
$USERI4
 70
               0
  9
$USERI5
 70
               0
  9
$USERR1
 40
0.0
  9
$USERR2
 40
0.0
  9
$USERR3
 40
0.0
  9
$USERR4
 40
0.0
  9
$USERR5
 40
0.0
  9
$WORLDVIEW
 70
               1
  9
$SHADEDGE
 70
               3
  9
$SHADEDIF
 70
              70
  9
$TILEMODE
 70
               1
  9
$MAXACTVP
 70
              16
  9
$PINSBASE
 10
0.0
 20
0.0
 30
0.0
  9
$PLIMCHECK
 70
               0
  9
$PEXTMIN
 10
1.0000000000000000E+20
 20
1.0000000000000000E+20
 30
1.0000000000000000E+20
  9
$PEXTMAX
 10
-1.0000000000000000E+20
 20
-1.0000000000000000E+20
 30
-1.0000000000000000E+20
  9
$PLIMMIN
 10
0.0
 20
0.0
  9
$PLIMMAX
 10
12.0
 20
9.0
  9
$UNITMODE
 70
               0
  9
$VISRETAIN
 70
               0
  9
$PLINEGEN
 70
               1
  9
$PSLTSCALE
 70
               0
  9
$TREEDEPTH
 70
            3020
  9
$DWGCODEPAGE
  3
dos932
  0
ENDSEC
  0
SECTION
  2
TABLES
  0
TABLE
  2
VPORT
 70
               1
  0
VPORT
  2
*ACTIVE
 70
               0
 10
0.0
 20
0.0
 11
1.0
 21
1.0
 12
0.0
 22
-26.749999999999943
 13
0.0
 23
0.0
 14
1.0
 24
1.0
 15
0.0
 25
0.0
 16
0.0
 26
0.0
 36
1.0
 17
0.0
 27
0.0
 37
0.0
 40
1403.9024999999997
 41
0.9287682014954751
 42
50.0
 43
0.0
 44
0.0
 50
0.0
 51
0.0
 71
               0
 72
             100
 73
               1
 74
               1
 75
               0
 76
               0
 77
               0
 78
               0
  0
ENDTAB
  0
TABLE
  2
LTYPE
 70
              26
  0
LTYPE
  2
CONTINUOUS
 70
               0
  3
Solid line
 72
              65
 73
               0
 40
0.0
  0
LTYPE
  2
HIDDENX2
 70
               0
  3
CADPAC FUSION LINETYPE
 72
              65
 73
               2
 40
80.0
 49
60.0
 49
-20.0
  0
LTYPE
  2
HIDDEN
 70
               0
  3
CADPAC FUSION LINETYPE
 72
              65
 73
               2
 40
60.0
 49
40.0
 49
-20.0
  0
LTYPE
  2
HIDDEN2
 70
               0
  3
CADPAC FUSION LINETYPE
 72
              65
 73
               2
 40
50.0
 49
30.0
 49
-20.0
  0
LTYPE
  2
DASHED
 70
               0
  3
CADPAC FUSION LINETYPE
 72
              65
 73
               2
 40
60.0
 49
40.0
 49
-20.0
  0
LTYPE
  2
DASHED2
 70
               0
  3
CADPAC FUSION LINETYPE
 72
              65
 73
               2
 40
45.0
 49
30.0
 49
-15.0
  0
LTYPE
  2
DASHEDX2
 70
               0
  3
CADPAC FUSION LINETYPE
 72
              65
 73
               2
 40
90.0
 49
60.0
 49
-30.0
  0
LTYPE
  2
DOTX2
 70
               0
  3
CADPAC FUSION LINETYPE
 72
              65
 73
               2
 40
25.0
 49
0.0
 49
-25.0
  0
LTYPE
  2
DOT
 70
               0
  3
CADPAC FUSION LINETYPE
 72
              65
 73
               2
 40
20.0
 49
0.0
 49
-20.0
  0
LTYPE
  2
DOTS
 70
               0
  3
CADPAC FUSION LINETYPE
 72
              65
 73
               2
 40
20.0
 49
0.0
 49
-20.0
  0
LTYPE
  2
DOT2
 70
               0
  3
CADPAC FUSION LINETYPE
 72
              65
 73
               2
 40
15.0
 49
0.0
 49
-15.0
  0
LTYPE
  2
CENTERX2
 70
               0
  3
CADPAC FUSION LINETYPE
 72
              65
 73
               4
 40
120.0
 49
50.0
 49
-25.0
 49
20.0
 49
-25.0
  0
LTYPE
  2
CENTER
 70
               0
  3
CADPAC FUSION LINETYPE
 72
              65
 73
               4
 40
92.0
 49
40.0
 49
-20.0
 49
12.0
 49
-20.0
  0
LTYPE
  2
CENTER2
 70
               0
  3
CADPAC FUSION LINETYPE
 72
              65
 73
               4
 40
64.0
 49
30.0
 49
-15.0
 49
4.0
 49
-15.0
  0
LTYPE
  2
DASHDOTX2
 70
               0
  3
CADPAC FUSION LINETYPE
 72
              65
 73
               4
 40
100.0
 49
50.0
 49
-25.0
 49
0.0
 49
-25.0
  0
LTYPE
  2
DASHDOT
 70
               0
  3
CADPAC FUSION LINETYPE
 72
              65
 73
               4
 40
80.0
 49
40.0
 49
-20.0
 49
0.0
 49
-20.0
  0
LTYPE
  2
DASHDOT2
 70
               0
  3
CADPAC FUSION LINETYPE
 72
              65
 73
               4
 40
60.0
 49
30.0
 49
-15.0
 49
0.0
 49
-15.0
  0
LTYPE
  2
DIVIDEX2
 70
               0
  3
CADPAC FUSION LINETYPE
 72
              65
 73
               6
 40
125.0
 49
50.0
 49
-25.0
 49
0.0
 49
-25.0
 49
0.0
 49
-25.0
  0
LTYPE
  2
DIVIDE
 70
               0
  3
CADPAC FUSION LINETYPE
 72
              65
 73
               6
 40
100.0
 49
40.0
 49
-20.0
 49
0.0
 49
-20.0
 49
0.0
 49
-20.0
  0
LTYPE
  2
DIVIDE2
 70
               0
  3
CADPAC FUSION LINETYPE
 72
              65
 73
               6
 40
75.0
 49
30.0
 49
-15.0
 49
0.0
 49
-15.0
 49
0.0
 49
-15.0
  0
LTYPE
  2
BORDERX2
 70
               0
  3
CADPAC FUSION LINETYPE
 72
              65
 73
               6
 40
175.0
 49
50.0
 49
-25.0
 49
50.0
 49
-25.0
 49
0.0
 49
-25.0
  0
LTYPE
  2
BORDER
 70
               0
  3
CADPAC FUSION LINETYPE
 72
              65
 73
               6
 40
140.0
 49
40.0
 49
-20.0
 49
40.0
 49
-20.0
 49
0.0
 49
-20.0
  0
LTYPE
  2
BORDER2
 70
               0
  3
CADPAC FUSION LINETYPE
 72
              65
 73
               6
 40
105.0
 49
30.0
 49
-15.0
 49
30.0
 49
-15.0
 49
0.0
 49
-15.0
  0
LTYPE
  2
PHANTOMX2
 70
               0
  3
CADPAC FUSION LINETYPE
 72
              65
 73
               6
 40
150.0
 49
50.0
 49
-20.0
 49
20.0
 49
-20.0
 49
20.0
 49
-20.0
  0
LTYPE
  2
PHANTOM
 70
               0
  3
CADPAC FUSION LINETYPE
 72
              65
 73
               6
 40
124.0
 49
40.0
 49
-20.0
 49
12.0
 49
-20.0
 49
12.0
 49
-20.0
  0
LTYPE
  2
PHANTOM2
 70
               0
  3
CADPAC FUSION LINETYPE
 72
              65
 73
               6
 40
106.0
 49
30.0
 49
-20.0
 49
8.0
 49
-20.0
 49
8.0
 49
-20.0
  0
ENDTAB
  0
TABLE
  2
LAYER
 70
             256
  0
LAYER
  2
0
 70
               0
 62
               7
  6
CONTINUOUS
  0
LAYER
  2
LAYER001
 70
               0
 62
               7
  6
CONTINUOUS
  0
LAYER
  2
LAYER002
 70
               0
 62
               7
  6
CONTINUOUS
  0
LAYER
  2
LAYER003
 70
               0
 62
               7
  6
CONTINUOUS
  0
LAYER
  2
LAYER004
 70
               0
 62
               7
  6
CONTINUOUS
  0
LAYER
  2
LAYER005
 70
               0
 62
               7
  6
CONTINUOUS
  0
LAYER
  2
LAYER006
 70
               0
 62
               7
  6
CONTINUOUS
  0
LAYER
  2
LAYER007
 70
               0
 62
               7
  6
CONTINUOUS
  0
LAYER
  2
LAYER008
 70
               0
 62
               7
  6
CONTINUOUS
  0
LAYER
  2
LAYER009
 70
               0
 62
               7
  6
CONTINUOUS
  0
LAYER
  2
LAYER010
 70
               0
 62
               7
  6
CONTINUOUS
  0
LAYER
  2
LAYER011
 70
               0
 62
               7
  6
CONTINUOUS
  0
LAYER
  2
LAYER012
 70
               0
 62
               7
  6
CONTINUOUS
  0
LAYER
  2
LAYER013
 70
               0
 62
               7
  6
CONTINUOUS
  0
LAYER
  2
LAYER014
 70
               0
 62
               7
  6
CONTINUOUS
  0
LAYER
  2
LAYER015
 70
               0
 62
               7
  6
CONTINUOUS
  0
LAYER
  2
LAYER016
 70
               0
 62
               7
  6
CONTINUOUS
  0
LAYER
  2
LAYER017
 70
               0
 62
               7
  6
CONTINUOUS
  0
LAYER
  2
LAYER018
 70
               0
 62
               7
  6
CONTINUOUS
  0
LAYER
  2
LAYER019
 70
               0
 62
               7
  6
CONTINUOUS
  0
LAYER
  2
LAYER020
 70
               0
 62
               7
  6
CONTINUOUS
  0
LAYER
  2
LAYER021
 70
               0
 62
               7
  6
CONTINUOUS
  0
LAYER
  2
LAYER022
 70
               0
 62
               7
  6
CONTINUOUS
  0
LAYER
  2
LAYER023
 70
               0
 62
               7
  6
CONTINUOUS
  0
LAYER
  2
LAYER024
 70
               0
 62
               7
  6
CONTINUOUS
  0
LAYER
  2
LAYER025
 70
               0
 62
               7
  6
CONTINUOUS
  0
LAYER
  2
LAYER026
 70
               0
 62
               7
  6
CONTINUOUS
  0
LAYER
  2
LAYER027
 70
               0
 62
               7
  6
CONTINUOUS
  0
LAYER
  2
LAYER028
 70
               0
 62
               7
  6
CONTINUOUS
  0
LAYER
  2
LAYER029
 70
               0
 62
               7
  6
CONTINUOUS
  0
LAYER
  2
LAYER030
 70
               0
 62
               7
  6
CONTINUOUS
  0
LAYER
  2
LAYER031
 70
               0
 62
               7
  6
CONTINUOUS
  0
LAYER
  2
LAYER032
 70
               0
 62
               7
  6
CONTINUOUS
  0
LAYER
  2
LAYER033
 70
               0
 62
               7
  6
CONTINUOUS
  0
LAYER
  2
LAYER034
 70
               0
 62
               7
  6
CONTINUOUS
  0
LAYER
  2
LAYER035
 70
               0
 62
               7
  6
CONTINUOUS
  0
LAYER
  2
LAYER036
 70
               0
 62
               7
  6
CONTINUOUS
  0
LAYER
  2
LAYER037
 70
               0
 62
               7
  6
CONTINUOUS
  0
LAYER
  2
LAYER038
 70
               0
 62
               7
  6
CONTINUOUS
  0
LAYER
  2
LAYER039
 70
               0
 62
               7
  6
CONTINUOUS
  0
LAYER
  2
LAYER040
 70
               0
 62
               7
  6
CONTINUOUS
  0
LAYER
  2
LAYER041
 70
               0
 62
               7
  6
CONTINUOUS
  0
LAYER
  2
LAYER042
 70
               0
 62
               7
  6
CONTINUOUS
  0
LAYER
  2
LAYER043
 70
               0
 62
               7
  6
CONTINUOUS
  0
LAYER
  2
LAYER044
 70
               0
 62
               7
  6
CONTINUOUS
  0
LAYER
  2
LAYER045
 70
               0
 62
               7
  6
CONTINUOUS
  0
LAYER
  2
LAYER046
 70
               0
 62
               7
  6
CONTINUOUS
  0
LAYER
  2
LAYER047
 70
               0
 62
               7
  6
CONTINUOUS
  0
LAYER
  2
LAYER048
 70
               0
 62
               7
  6
CONTINUOUS
  0
LAYER
  2
LAYER049
 70
               0
 62
               7
  6
CONTINUOUS
  0
LAYER
  2
LAYER050
 70
               0
 62
               7
  6
CONTINUOUS
  0
LAYER
  2
LAYER051
 70
               0
 62
               7
  6
CONTINUOUS
  0
LAYER
  2
LAYER052
 70
               0
 62
               7
  6
CONTINUOUS
  0
LAYER
  2
LAYER053
 70
               0
 62
               7
  6
CONTINUOUS
  0
LAYER
  2
LAYER054
 70
               0
 62
               7
  6
CONTINUOUS
  0
LAYER
  2
LAYER055
 70
               0
 62
               7
  6
CONTINUOUS
  0
LAYER
  2
LAYER056
 70
               0
 62
               7
  6
CONTINUOUS
  0
LAYER
  2
LAYER057
 70
               0
 62
               7
  6
CONTINUOUS
  0
LAYER
  2
LAYER058
 70
               0
 62
               7
  6
CONTINUOUS
  0
LAYER
  2
LAYER059
 70
               0
 62
               7
  6
CONTINUOUS
  0
LAYER
  2
LAYER060
 70
               0
 62
               7
  6
CONTINUOUS
  0
LAYER
  2
LAYER061
 70
               0
 62
               7
  6
CONTINUOUS
  0
LAYER
  2
LAYER062
 70
               0
 62
               7
  6
CONTINUOUS
  0
LAYER
  2
LAYER063
 70
               0
 62
               7
  6
CONTINUOUS
  0
LAYER
  2
LAYER064
 70
               0
 62
               7
  6
CONTINUOUS
  0
LAYER
  2
LAYER065
 70
               0
 62
               7
  6
CONTINUOUS
  0
LAYER
  2
LAYER066
 70
               0
 62
               7
  6
CONTINUOUS
  0
LAYER
  2
LAYER067
 70
               0
 62
               7
  6
CONTINUOUS
  0
LAYER
  2
LAYER068
 70
               0
 62
               7
  6
CONTINUOUS
  0
LAYER
  2
LAYER069
 70
               0
 62
               7
  6
CONTINUOUS
  0
LAYER
  2
LAYER070
 70
               0
 62
               7
  6
CONTINUOUS
  0
LAYER
  2
LAYER071
 70
               0
 62
               7
  6
CONTINUOUS
  0
LAYER
  2
LAYER072
 70
               0
 62
               7
  6
CONTINUOUS
  0
LAYER
  2
LAYER073
 70
               0
 62
               7
  6
CONTINUOUS
  0
LAYER
  2
LAYER074
 70
               0
 62
               7
  6
CONTINUOUS
  0
LAYER
  2
LAYER075
 70
               0
 62
               7
  6
CONTINUOUS
  0
LAYER
  2
LAYER076
 70
               0
 62
               7
  6
CONTINUOUS
  0
LAYER
  2
LAYER077
 70
               0
 62
               7
  6
CONTINUOUS
  0
LAYER
  2
LAYER078
 70
               0
 62
               7
  6
CONTINUOUS
  0
LAYER
  2
LAYER079
 70
               0
 62
               7
  6
CONTINUOUS
  0
LAYER
  2
LAYER080
 70
               0
 62
               7
  6
CONTINUOUS
  0
LAYER
  2
LAYER081
 70
               0
 62
               7
  6
CONTINUOUS
  0
LAYER
  2
LAYER082
 70
               0
 62
               7
  6
CONTINUOUS
  0
LAYER
  2
LAYER083
 70
               0
 62
               7
  6
CONTINUOUS
  0
LAYER
  2
LAYER084
 70
               0
 62
               7
  6
CONTINUOUS
  0
LAYER
  2
LAYER085
 70
               0
 62
               7
  6
CONTINUOUS
  0
LAYER
  2
LAYER086
 70
               0
 62
               7
  6
CONTINUOUS
  0
LAYER
  2
LAYER087
 70
               0
 62
               7
  6
CONTINUOUS
  0
LAYER
  2
LAYER088
 70
               0
 62
               7
  6
CONTINUOUS
  0
LAYER
  2
LAYER089
 70
               0
 62
               7
  6
CONTINUOUS
  0
LAYER
  2
LAYER090
 70
               0
 62
               7
  6
CONTINUOUS
  0
LAYER
  2
LAYER091
 70
               0
 62
               7
  6
CONTINUOUS
  0
LAYER
  2
LAYER092
 70
               0
 62
               7
  6
CONTINUOUS
  0
LAYER
  2
LAYER093
 70
               0
 62
               7
  6
CONTINUOUS
  0
LAYER
  2
LAYER094
 70
               0
 62
               7
  6
CONTINUOUS
  0
LAYER
  2
LAYER095
 70
               0
 62
               7
  6
CONTINUOUS
  0
LAYER
  2
LAYER096
 70
               0
 62
               7
  6
CONTINUOUS
  0
LAYER
  2
LAYER097
 70
               0
 62
               7
  6
CONTINUOUS
  0
LAYER
  2
LAYER098
 70
               0
 62
               7
  6
CONTINUOUS
  0
LAYER
  2
LAYER099
 70
               0
 62
               7
  6
CONTINUOUS
  0
LAYER
  2
LAYER100
 70
               0
 62
               7
  6
CONTINUOUS
  0
LAYER
  2
LAYER101
 70
               0
 62
               7
  6
CONTINUOUS
  0
LAYER
  2
LAYER102
 70
               0
 62
               7
  6
CONTINUOUS
  0
LAYER
  2
LAYER103
 70
               0
 62
               7
  6
CONTINUOUS
  0
LAYER
  2
LAYER104
 70
               0
 62
               7
  6
CONTINUOUS
  0
LAYER
  2
LAYER105
 70
               0
 62
               7
  6
CONTINUOUS
  0
LAYER
  2
LAYER106
 70
               0
 62
               7
  6
CONTINUOUS
  0
LAYER
  2
LAYER107
 70
               0
 62
               7
  6
CONTINUOUS
  0
LAYER
  2
LAYER108
 70
               0
 62
               7
  6
CONTINUOUS
  0
LAYER
  2
LAYER109
 70
               0
 62
               7
  6
CONTINUOUS
  0
LAYER
  2
LAYER110
 70
               0
 62
               7
  6
CONTINUOUS
  0
LAYER
  2
LAYER111
 70
               0
 62
               7
  6
CONTINUOUS
  0
LAYER
  2
LAYER112
 70
               0
 62
               7
  6
CONTINUOUS
  0
LAYER
  2
LAYER113
 70
               0
 62
               7
  6
CONTINUOUS
  0
LAYER
  2
LAYER114
 70
               0
 62
               7
  6
CONTINUOUS
  0
LAYER
  2
LAYER115
 70
               0
 62
               7
  6
CONTINUOUS
  0
LAYER
  2
LAYER116
 70
               0
 62
               7
  6
CONTINUOUS
  0
LAYER
  2
LAYER117
 70
               0
 62
               7
  6
CONTINUOUS
  0
LAYER
  2
LAYER118
 70
               0
 62
               7
  6
CONTINUOUS
  0
LAYER
  2
LAYER119
 70
               0
 62
               7
  6
CONTINUOUS
  0
LAYER
  2
LAYER120
 70
               0
 62
               7
  6
CONTINUOUS
  0
LAYER
  2
LAYER121
 70
               0
 62
               7
  6
CONTINUOUS
  0
LAYER
  2
LAYER122
 70
               0
 62
               7
  6
CONTINUOUS
  0
LAYER
  2
LAYER123
 70
               0
 62
               7
  6
CONTINUOUS
  0
LAYER
  2
LAYER124
 70
               0
 62
               7
  6
CONTINUOUS
  0
LAYER
  2
LAYER125
 70
               0
 62
               7
  6
CONTINUOUS
  0
LAYER
  2
LAYER126
 70
               0
 62
               7
  6
CONTINUOUS
  0
LAYER
  2
LAYER127
 70
               0
 62
               7
  6
CONTINUOUS
  0
LAYER
  2
LAYER128
 70
               0
 62
               7
  6
CONTINUOUS
  0
LAYER
  2
LAYER129
 70
               0
 62
               7
  6
CONTINUOUS
  0
LAYER
  2
LAYER130
 70
               0
 62
               7
  6
CONTINUOUS
  0
LAYER
  2
LAYER131
 70
               0
 62
               7
  6
CONTINUOUS
  0
LAYER
  2
LAYER132
 70
               0
 62
               7
  6
CONTINUOUS
  0
LAYER
  2
LAYER133
 70
               0
 62
               7
  6
CONTINUOUS
  0
LAYER
  2
LAYER134
 70
               0
 62
               7
  6
CONTINUOUS
  0
LAYER
  2
LAYER135
 70
               0
 62
               7
  6
CONTINUOUS
  0
LAYER
  2
LAYER136
 70
               0
 62
               7
  6
CONTINUOUS
  0
LAYER
  2
LAYER137
 70
               0
 62
               7
  6
CONTINUOUS
  0
LAYER
  2
LAYER138
 70
               0
 62
               7
  6
CONTINUOUS
  0
LAYER
  2
LAYER139
 70
               0
 62
               7
  6
CONTINUOUS
  0
LAYER
  2
LAYER140
 70
               0
 62
               7
  6
CONTINUOUS
  0
LAYER
  2
LAYER141
 70
               0
 62
               7
  6
CONTINUOUS
  0
LAYER
  2
LAYER142
 70
               0
 62
               7
  6
CONTINUOUS
  0
LAYER
  2
LAYER143
 70
               0
 62
               7
  6
CONTINUOUS
  0
LAYER
  2
LAYER144
 70
               0
 62
               7
  6
CONTINUOUS
  0
LAYER
  2
LAYER145
 70
               0
 62
               7
  6
CONTINUOUS
  0
LAYER
  2
LAYER146
 70
               0
 62
               7
  6
CONTINUOUS
  0
LAYER
  2
LAYER147
 70
               0
 62
               7
  6
CONTINUOUS
  0
LAYER
  2
LAYER148
 70
               0
 62
               7
  6
CONTINUOUS
  0
LAYER
  2
LAYER149
 70
               0
 62
               7
  6
CONTINUOUS
  0
LAYER
  2
LAYER150
 70
               0
 62
               7
  6
CONTINUOUS
  0
LAYER
  2
LAYER151
 70
               0
 62
               7
  6
CONTINUOUS
  0
LAYER
  2
LAYER152
 70
               0
 62
               7
  6
CONTINUOUS
  0
LAYER
  2
LAYER153
 70
               0
 62
               7
  6
CONTINUOUS
  0
LAYER
  2
LAYER154
 70
               0
 62
               7
  6
CONTINUOUS
  0
LAYER
  2
LAYER155
 70
               0
 62
               7
  6
CONTINUOUS
  0
LAYER
  2
LAYER156
 70
               0
 62
               7
  6
CONTINUOUS
  0
LAYER
  2
LAYER157
 70
               0
 62
               7
  6
CONTINUOUS
  0
LAYER
  2
LAYER158
 70
               0
 62
               7
  6
CONTINUOUS
  0
LAYER
  2
LAYER159
 70
               0
 62
               7
  6
CONTINUOUS
  0
LAYER
  2
LAYER160
 70
               0
 62
               7
  6
CONTINUOUS
  0
LAYER
  2
LAYER161
 70
               0
 62
               7
  6
CONTINUOUS
  0
LAYER
  2
LAYER162
 70
               0
 62
               7
  6
CONTINUOUS
  0
LAYER
  2
LAYER163
 70
               0
 62
               7
  6
CONTINUOUS
  0
LAYER
  2
LAYER164
 70
               0
 62
               7
  6
CONTINUOUS
  0
LAYER
  2
LAYER165
 70
               0
 62
               7
  6
CONTINUOUS
  0
LAYER
  2
LAYER166
 70
               0
 62
               7
  6
CONTINUOUS
  0
LAYER
  2
LAYER167
 70
               0
 62
               7
  6
CONTINUOUS
  0
LAYER
  2
LAYER168
 70
               0
 62
               7
  6
CONTINUOUS
  0
LAYER
  2
LAYER169
 70
               0
 62
               7
  6
CONTINUOUS
  0
LAYER
  2
LAYER170
 70
               0
 62
               7
  6
CONTINUOUS
  0
LAYER
  2
LAYER171
 70
               0
 62
               7
  6
CONTINUOUS
  0
LAYER
  2
LAYER172
 70
               0
 62
               7
  6
CONTINUOUS
  0
LAYER
  2
LAYER173
 70
               0
 62
               7
  6
CONTINUOUS
  0
LAYER
  2
LAYER174
 70
               0
 62
               7
  6
CONTINUOUS
  0
LAYER
  2
LAYER175
 70
               0
 62
               7
  6
CONTINUOUS
  0
LAYER
  2
LAYER176
 70
               0
 62
               7
  6
CONTINUOUS
  0
LAYER
  2
LAYER177
 70
               0
 62
               7
  6
CONTINUOUS
  0
LAYER
  2
LAYER178
 70
               0
 62
               7
  6
CONTINUOUS
  0
LAYER
  2
LAYER179
 70
               0
 62
               7
  6
CONTINUOUS
  0
LAYER
  2
LAYER180
 70
               0
 62
               7
  6
CONTINUOUS
  0
LAYER
  2
LAYER181
 70
               0
 62
               7
  6
CONTINUOUS
  0
LAYER
  2
LAYER182
 70
               0
 62
               7
  6
CONTINUOUS
  0
LAYER
  2
LAYER183
 70
               0
 62
               7
  6
CONTINUOUS
  0
LAYER
  2
LAYER184
 70
               0
 62
               7
  6
CONTINUOUS
  0
LAYER
  2
LAYER185
 70
               0
 62
               7
  6
CONTINUOUS
  0
LAYER
  2
LAYER186
 70
               0
 62
               7
  6
CONTINUOUS
  0
LAYER
  2
LAYER187
 70
               0
 62
               7
  6
CONTINUOUS
  0
LAYER
  2
LAYER188
 70
               0
 62
               7
  6
CONTINUOUS
  0
LAYER
  2
LAYER189
 70
               0
 62
               7
  6
CONTINUOUS
  0
LAYER
  2
LAYER190
 70
               0
 62
               7
  6
CONTINUOUS
  0
LAYER
  2
LAYER191
 70
               0
 62
               7
  6
CONTINUOUS
  0
LAYER
  2
LAYER192
 70
               0
 62
               7
  6
CONTINUOUS
  0
LAYER
  2
LAYER193
 70
               0
 62
               7
  6
CONTINUOUS
  0
LAYER
  2
LAYER194
 70
               0
 62
               7
  6
CONTINUOUS
  0
LAYER
  2
LAYER195
 70
               0
 62
               7
  6
CONTINUOUS
  0
LAYER
  2
LAYER196
 70
               0
 62
               7
  6
CONTINUOUS
  0
LAYER
  2
LAYER197
 70
               0
 62
               7
  6
CONTINUOUS
  0
LAYER
  2
LAYER198
 70
               0
 62
               7
  6
CONTINUOUS
  0
LAYER
  2
LAYER199
 70
               0
 62
               7
  6
CONTINUOUS
  0
LAYER
  2
LAYER200
 70
               0
 62
               7
  6
CONTINUOUS
  0
LAYER
  2
LAYER201
 70
               0
 62
               7
  6
CONTINUOUS
  0
LAYER
  2
LAYER202
 70
               0
 62
               7
  6
CONTINUOUS
  0
LAYER
  2
LAYER203
 70
               0
 62
               7
  6
CONTINUOUS
  0
LAYER
  2
LAYER204
 70
               0
 62
               7
  6
CONTINUOUS
  0
LAYER
  2
LAYER205
 70
               0
 62
               7
  6
CONTINUOUS
  0
LAYER
  2
LAYER206
 70
               0
 62
               7
  6
CONTINUOUS
  0
LAYER
  2
LAYER207
 70
               0
 62
               7
  6
CONTINUOUS
  0
LAYER
  2
LAYER208
 70
               0
 62
               7
  6
CONTINUOUS
  0
LAYER
  2
LAYER209
 70
               0
 62
               7
  6
CONTINUOUS
  0
LAYER
  2
LAYER210
 70
               0
 62
               7
  6
CONTINUOUS
  0
LAYER
  2
LAYER211
 70
               0
 62
               7
  6
CONTINUOUS
  0
LAYER
  2
LAYER212
 70
               0
 62
               7
  6
CONTINUOUS
  0
LAYER
  2
LAYER213
 70
               0
 62
               7
  6
CONTINUOUS
  0
LAYER
  2
LAYER214
 70
               0
 62
               7
  6
CONTINUOUS
  0
LAYER
  2
LAYER215
 70
               0
 62
               7
  6
CONTINUOUS
  0
LAYER
  2
LAYER216
 70
               0
 62
               7
  6
CONTINUOUS
  0
LAYER
  2
LAYER217
 70
               0
 62
               7
  6
CONTINUOUS
  0
LAYER
  2
LAYER218
 70
               0
 62
               7
  6
CONTINUOUS
  0
LAYER
  2
LAYER219
 70
               0
 62
               7
  6
CONTINUOUS
  0
LAYER
  2
LAYER220
 70
               0
 62
               7
  6
CONTINUOUS
  0
LAYER
  2
LAYER221
 70
               0
 62
               7
  6
CONTINUOUS
  0
LAYER
  2
LAYER222
 70
               0
 62
               7
  6
CONTINUOUS
  0
LAYER
  2
LAYER223
 70
               0
 62
               7
  6
CONTINUOUS
  0
LAYER
  2
LAYER224
 70
               0
 62
               7
  6
CONTINUOUS
  0
LAYER
  2
LAYER225
 70
               0
 62
               7
  6
CONTINUOUS
  0
LAYER
  2
LAYER226
 70
               0
 62
               7
  6
CONTINUOUS
  0
LAYER
  2
LAYER227
 70
               0
 62
               7
  6
CONTINUOUS
  0
LAYER
  2
LAYER228
 70
               0
 62
               7
  6
CONTINUOUS
  0
LAYER
  2
LAYER229
 70
               0
 62
               7
  6
CONTINUOUS
  0
LAYER
  2
LAYER230
 70
               0
 62
               7
  6
CONTINUOUS
  0
LAYER
  2
LAYER231
 70
               0
 62
               7
  6
CONTINUOUS
  0
LAYER
  2
LAYER232
 70
               0
 62
               7
  6
CONTINUOUS
  0
LAYER
  2
LAYER233
 70
               0
 62
               7
  6
CONTINUOUS
  0
LAYER
  2
LAYER234
 70
               0
 62
               7
  6
CONTINUOUS
  0
LAYER
  2
LAYER235
 70
               0
 62
               7
  6
CONTINUOUS
  0
LAYER
  2
LAYER236
 70
               0
 62
               7
  6
CONTINUOUS
  0
LAYER
  2
LAYER237
 70
               0
 62
               7
  6
CONTINUOUS
  0
LAYER
  2
LAYER238
 70
               0
 62
               7
  6
CONTINUOUS
  0
LAYER
  2
LAYER239
 70
               0
 62
               7
  6
CONTINUOUS
  0
LAYER
  2
LAYER240
 70
               0
 62
               7
  6
CONTINUOUS
  0
LAYER
  2
LAYER241
 70
               0
 62
               7
  6
CONTINUOUS
  0
LAYER
  2
LAYER242
 70
               0
 62
               7
  6
CONTINUOUS
  0
LAYER
  2
LAYER243
 70
               0
 62
               7
  6
CONTINUOUS
  0
LAYER
  2
LAYER244
 70
               0
 62
               7
  6
CONTINUOUS
  0
LAYER
  2
LAYER245
 70
               0
 62
               7
  6
CONTINUOUS
  0
LAYER
  2
LAYER246
 70
               0
 62
               7
  6
CONTINUOUS
  0
LAYER
  2
LAYER247
 70
               0
 62
               7
  6
CONTINUOUS
  0
LAYER
  2
LAYER248
 70
               0
 62
               7
  6
CONTINUOUS
  0
LAYER
  2
LAYER249
 70
               0
 62
               7
  6
CONTINUOUS
  0
LAYER
  2
LAYER250
 70
               0
 62
               7
  6
CONTINUOUS
  0
LAYER
  2
LAYER251
 70
               0
 62
               7
  6
CONTINUOUS
  0
LAYER
  2
LAYER252
 70
               0
 62
               7
  6
CONTINUOUS
  0
LAYER
  2
LAYER253
 70
               0
 62
               7
  6
CONTINUOUS
  0
LAYER
  2
LAYER254
 70
               0
 62
               7
  6
CONTINUOUS
  0
LAYER
  2
LAYER255
 70
               0
 62
               7
  6
CONTINUOUS
  0
ENDTAB
  0
TABLE
  2
STYLE
 70
               1
  0
STYLE
  2
STANDARD
 70
               0
 40
0.0
 41
1.0
 50
0.0
 71
               0
 42
0.0
  3
txt
  4

  0
ENDTAB
  0
TABLE
  2
VIEW
 70
               0
  0
VIEW
  2
QQQQ
 70
               0
 40
1403.9024999999997
 10
0.0
 20
-26.749999999999943
 41
1303.900000000001
 11
0.0
 21
0.0
 31
1.0
 12
100.0
 22
100.0
 32
0.0
 42
50.0
 43
0.0
 44
0.0
 50
0.0
 71
               0
  0
ENDTAB
  0
TABLE
  2
UCS
 70
               0
  0
ENDTAB
  0
TABLE
  2
APPID
 70
               1
  0
APPID
  2
ACAD
 70
               0
  0
ENDTAB
  0
TABLE
  2
DIMSTYLE
 70
               1
  0
DIMSTYLE
  2
STANDARD
 70
               0
  3

  4

  5

  6

  7

 40
1.0
 41
0.18
 42
0.0625
 43
0.38
 44
0.18
 45
0.0
 46
0.0
 47
0.0
 48
0.0
140
0.18
141
0.09
142
0.0
143
25.399999999999999
144
1.0
145
0.0
146
1.0
147
0.09
 71
               0
 72
               0
 73
               1
 74
               1
 75
               0
 76
               0
 77
               0
 78
               0
170
               0
171
               2
172
               0
173
               0
174
               0
175
               0
176
               0
177
               0
178
               0
  0
ENDTAB
  0
ENDSEC
  0
SECTION
  2
BLOCKS
  0
BLOCK
  8
0
  5
140
  2
GROUP_1
 70
               0
 10
0.0
 20
0.0
 30
0.0
  3
GROUP_1
  0
LINE
  8
0
  6
CONTINUOUS
 62
               4
  5
141
 10
-75.316372202579259
 20
435.65328291202434
 30
0.0
 11
-69.831544645277518
 21
426.15328291202445
 31
0.0
  0
LINE
  8
0
  6
CONTINUOUS
 62
               4
  5
142
 10
-69.831544645277518
 20
426.15328291202445
 30
0.0
 11
-58.861889530674489
 21
426.15328291202445
 31
0.0
  0
LINE
  8
0
  6
CONTINUOUS
 62
               4
  5
143
 10
-58.861889530674489
 20
426.15328291202445
 30
0.0
 11
-53.377061973373202
 21
435.65328291202434
 31
0.0
  0
LINE
  8
0
  6
CONTINUOUS
 62
               4
  5
144
 10
-53.377061973373202
 20
435.65328291202434
 30
0.0
 11
-58.861889530674489
 21
445.15328291202422
 31
0.0
  0
LINE
  8
0
  6
CONTINUOUS
 62
               4
  5
145
 10
-58.861889530674489
 20
445.15328291202422
 30
0.0
 11
-69.831544645277518
 21
445.15328291202422
 31
0.0
  0
LINE
  8
0
  6
CONTINUOUS
 62
               4
  5
146
 10
-69.831544645277518
 20
445.15328291202422
 30
0.0
 11
-75.316372202579259
 21
435.65328291202434
 31
0.0
  0
CIRCLE
  8
0
  6
CONTINUOUS
 62
               4
  5
147
 10
-64.346717087976231
 20
435.65328291202434
 30
0.0
 40
6.0000000000000009
  0
ENDBLK
  8
0
  5
148
  0
BLOCK
  8
0
  5
149
  2
GROUP_2
 70
               0
 10
0.0
 20
0.0
 30
0.0
  3
GROUP_2
  0
LINE
  8
0
  6
CONTINUOUS
 62
               4
  5
14A
 10
-75.316372202579259
 20
564.34671708797566
 30
0.0
 11
-69.831544645277518
 21
554.84671708797578
 31
0.0
  0
LINE
  8
0
  6
CONTINUOUS
 62
               4
  5
14B
 10
-69.831544645277518
 20
554.84671708797578
 30
0.0
 11
-58.861889530674489
 21
554.84671708797578
 31
0.0
  0
LINE
  8
0
  6
CONTINUOUS
 62
               4
  5
14C
 10
-58.861889530674489
 20
554.84671708797578
 30
0.0
 11
-53.377061973373202
 21
564.34671708797566
 31
0.0
  0
LINE
  8
0
  6
CONTINUOUS
 62
               4
  5
14D
 10
-53.377061973373202
 20
564.34671708797566
 30
0.0
 11
-58.861889530674489
 21
573.84671708797589
 31
0.0
  0
LINE
  8
0
  6
CONTINUOUS
 62
               4
  5
14E
 10
-58.861889530674489
 20
573.84671708797589
 30
0.0
 11
-69.831544645277518
 21
573.84671708797589
 31
0.0
  0
LINE
  8
0
  6
CONTINUOUS
 62
               4
  5
14F
 10
-69.831544645277518
 20
573.84671708797589
 30
0.0
 11
-75.316372202579259
 21
564.34671708797566
 31
0.0
  0
CIRCLE
  8
0
  6
CONTINUOUS
 62
               4
  5
150
 10
-64.346717087976231
 20
564.34671708797566
 30
0.0
 40
6.0000000000000009
  0
ENDBLK
  8
0
  5
151
  0
BLOCK
  8
0
  5
152
  2
GROUP_3
 70
               0
 10
0.0
 20
0.0
 30
0.0
  3
GROUP_3
  0
LINE
  8
0
  6
CONTINUOUS
 62
               4
  5
153
 10
75.316372202579373
 20
564.34671708797566
 30
0.0
 11
69.831544645277745
 21
554.84671708797578
 31
0.0
  0
LINE
  8
0
  6
CONTINUOUS
 62
               4
  5
154
 10
69.831544645277745
 20
554.84671708797578
 30
0.0
 11
58.861889530674603
 21
554.84671708797578
 31
0.0
  0
LINE
  8
0
  6
CONTINUOUS
 62
               4
  5
155
 10
58.861889530674603
 20
554.84671708797578
 30
0.0
 11
53.377061973373429
 21
564.34671708797566
 31
0.0
  0
LINE
  8
0
  6
CONTINUOUS
 62
               4
  5
156
 10
53.377061973373429
 20
564.34671708797566
 30
0.0
 11
58.861889530674603
 21
573.84671708797589
 31
0.0
  0
LINE
  8
0
  6
CONTINUOUS
 62
               4
  5
157
 10
58.861889530674603
 20
573.84671708797589
 30
0.0
 11
69.831544645277745
 21
573.84671708797589
 31
0.0
  0
LINE
  8
0
  6
CONTINUOUS
 62
               4
  5
158
 10
69.831544645277745
 20
573.84671708797589
 30
0.0
 11
75.316372202579373
 21
564.34671708797566
 31
0.0
  0
CIRCLE
  8
0
  6
CONTINUOUS
 62
               4
  5
159
 10
64.346717087976344
 20
564.34671708797566
 30
0.0
 40
6.0000000000000009
  0
ENDBLK
  8
0
  5
15A
  0
BLOCK
  8
0
  5
15B
  2
GROUP_4
 70
               0
 10
0.0
 20
0.0
 30
0.0
  3
GROUP_4
  0
LINE
  8
0
  6
CONTINUOUS
 62
               4
  5
15C
 10
75.316372202579373
 20
435.65328291202434
 30
0.0
 11
69.831544645277745
 21
426.15328291202445
 31
0.0
  0
LINE
  8
0
  6
CONTINUOUS
 62
               4
  5
15D
 10
69.831544645277745
 20
426.15328291202445
 30
0.0
 11
58.861889530674603
 21
426.15328291202445
 31
0.0
  0
LINE
  8
0
  6
CONTINUOUS
 62
               4
  5
15E
 10
58.861889530674603
 20
426.15328291202445
 30
0.0
 11
53.377061973373429
 21
435.65328291202434
 31
0.0
  0
LINE
  8
0
  6
CONTINUOUS
 62
               4
  5
15F
 10
53.377061973373429
 20
435.65328291202434
 30
0.0
 11
58.861889530674603
 21
445.15328291202422
 31
0.0
  0
LINE
  8
0
  6
CONTINUOUS
 62
               4
  5
160
 10
58.861889530674603
 20
445.15328291202422
 30
0.0
 11
69.831544645277745
 21
445.15328291202422
 31
0.0
  0
LINE
  8
0
  6
CONTINUOUS
 62
               4
  5
161
 10
69.831544645277745
 20
445.15328291202422
 30
0.0
 11
75.316372202579373
 21
435.65328291202434
 31
0.0
  0
CIRCLE
  8
0
  6
CONTINUOUS
 62
               4
  5
162
 10
64.346717087976344
 20
435.65328291202434
 30
0.0
 40
6.0000000000000009
  0
ENDBLK
  8
0
  5
163
  0
BLOCK
  8
0
  5
164
  2
GROUP_5
 70
               0
 10
0.0
 20
0.0
 30
0.0
  3
GROUP_5
  0
LINE
  8
0
  6
CONTINUOUS
 62
               4
  5
165
 10
-75.299999999999727
 20
20.300000000000011
 30
0.0
 11
-75.299999999999727
 21
30.300000000000011
 31
0.0
  0
LINE
  8
0
  6
CONTINUOUS
 62
               4
  5
166
 10
-69.81517244269844
 20
20.300000000000011
 30
0.0
 11
-69.81517244269844
 21
30.300000000000011
 31
0.0
  0
LINE
  8
0
  6
CONTINUOUS
 62
               4
  5
167
 10
-75.299999999999727
 20
20.300000000000011
 30
0.0
 11
-53.400000000000091
 21
20.300000000000011
 31
0.0
  0
LINE
  8
0
  6
CONTINUOUS
 62
               4
  5
168
 10
-75.299999999999727
 20
30.300000000000011
 30
0.0
 11
-53.400000000000091
 21
30.300000000000011
 31
0.0
  0
LINE
  8
0
  6
CONTINUOUS
 62
               4
  5
169
 10
-53.400000000000091
 20
20.300000000000011
 30
0.0
 11
-53.400000000000091
 21
30.300000000000011
 31
0.0
  0
LINE
  8
0
  6
CONTINUOUS
 62
               4
  5
16A
 10
-58.884827557301378
 20
20.300000000000011
 30
0.0
 11
-58.884827557301378
 21
30.300000000000011
 31
0.0
  0
ENDBLK
  8
0
  5
16B
  0
BLOCK
  8
0
  5
16C
  2
GROUP_6
 70
               0
 10
0.0
 20
0.0
 30
0.0
  3
GROUP_6
  0
LINE
  8
0
  6
CONTINUOUS
 62
               4
  5
16D
 10
75.299999999999727
 20
20.300000000000018
 30
0.0
 11
75.299999999999727
 21
30.300000000000018
 31
0.0
  0
LINE
  8
0
  6
CONTINUOUS
 62
               4
  5
16E
 10
69.81517244269844
 20
20.300000000000018
 30
0.0
 11
69.81517244269844
 21
30.300000000000018
 31
0.0
  0
LINE
  8
0
  6
CONTINUOUS
 62
               4
  5
16F
 10
75.299999999999727
 20
20.300000000000018
 30
0.0
 11
53.400000000000091
 21
20.300000000000011
 31
0.0
  0
LINE
  8
0
  6
CONTINUOUS
 62
               4
  5
170
 10
75.299999999999727
 20
30.300000000000018
 30
0.0
 11
53.400000000000091
 21
30.300000000000011
 31
0.0
  0
LINE
  8
0
  6
CONTINUOUS
 62
               4
  5
171
 10
53.400000000000091
 20
20.300000000000011
 30
0.0
 11
53.400000000000091
 21
30.300000000000011
 31
0.0
  0
LINE
  8
0
  6
CONTINUOUS
 62
               4
  5
172
 10
58.884827557301378
 20
20.300000000000018
 30
0.0
 11
58.884827557301378
 21
30.300000000000018
 31
0.0
  0
ENDBLK
  8
0
  5
173
  0
BLOCK
  8
0
  5
174
  2
GROUP_7
 70
               0
 10
0.0
 20
0.0
 30
0.0
  3
GROUP_7
  0
LINE
  8
0
  6
CONTINUOUS
 62
               4
  5
175
 10
424.70000000000027
 20
20.300000000000082
 30
0.0
 11
424.70000000000027
 21
30.300000000000082
 31
0.0
  0
LINE
  8
0
  6
CONTINUOUS
 62
               4
  5
176
 10
430.18482755730156
 20
20.300000000000082
 30
0.0
 11
430.18482755730156
 21
30.300000000000082
 31
0.0
  0
LINE
  8
0
  6
CONTINUOUS
 62
               4
  5
177
 10
424.70000000000027
 20
20.300000000000082
 30
0.0
 11
446.59999999999991
 21
20.300000000000082
 31
0.0
  0
LINE
  8
0
  6
CONTINUOUS
 62
               4
  5
178
 10
424.70000000000027
 20
30.300000000000082
 30
0.0
 11
446.59999999999991
 21
30.300000000000082
 31
0.0
  0
LINE
  8
0
  6
CONTINUOUS
 62
               4
  5
179
 10
446.59999999999991
 20
20.300000000000082
 30
0.0
 11
446.59999999999991
 21
30.300000000000082
 31
0.0
  0
LINE
  8
0
  6
CONTINUOUS
 62
               4
  5
17A
 10
441.11517244269862
 20
20.300000000000082
 30
0.0
 11
441.11517244269862
 21
30.300000000000082
 31
0.0
  0
ENDBLK
  8
0
  5
17B
  0
BLOCK
  8
0
  5
17C
  2
GROUP_8
 70
               0
 10
0.0
 20
0.0
 30
0.0
  3
GROUP_8
  0
LINE
  8
0
  6
CONTINUOUS
 62
               4
  5
17D
 10
575.29999999999973
 20
20.300000000000082
 30
0.0
 11
575.29999999999973
 21
30.300000000000082
 31
0.0
  0
LINE
  8
0
  6
CONTINUOUS
 62
               4
  5
17E
 10
569.81517244269844
 20
20.300000000000082
 30
0.0
 11
569.81517244269844
 21
30.300000000000082
 31
0.0
  0
LINE
  8
0
  6
CONTINUOUS
 62
               4
  5
17F
 10
575.29999999999973
 20
20.300000000000082
 30
0.0
 11
553.40000000000009
 21
20.300000000000082
 31
0.0
  0
LINE
  8
0
  6
CONTINUOUS
 62
               4
  5
180
 10
575.29999999999973
 20
30.300000000000082
 30
0.0
 11
553.40000000000009
 21
30.300000000000082
 31
0.0
  0
LINE
  8
0
  6
CONTINUOUS
 62
               4
  5
181
 10
553.40000000000009
 20
20.300000000000082
 30
0.0
 11
553.40000000000009
 21
30.300000000000082
 31
0.0
  0
LINE
  8
0
  6
CONTINUOUS
 62
               4
  5
182
 10
558.88482755730138
 20
20.300000000000082
 30
0.0
 11
558.88482755730138
 21
30.300000000000082
 31
0.0
  0
ENDBLK
  8
0
  5
183
  0
BLOCK
  8
0
  5
184
  2
GROUP_9
 70
               0
 10
0.0
 20
0.0
 30
0.0
  3
GROUP_9
  0
LINE
  8
0
  6
CONTINUOUS
 62
               4
  5
185
 10
-575.29999999999973
 20
20.300000000000082
 30
0.0
 11
-575.29999999999973
 21
30.300000000000082
 31
0.0
  0
LINE
  8
0
  6
CONTINUOUS
 62
               4
  5
186
 10
-569.81517244269844
 20
20.300000000000082
 30
0.0
 11
-569.81517244269844
 21
30.300000000000082
 31
0.0
  0
LINE
  8
0
  6
CONTINUOUS
 62
               4
  5
187
 10
-575.29999999999973
 20
20.300000000000082
 30
0.0
 11
-553.40000000000009
 21
20.300000000000082
 31
0.0
  0
LINE
  8
0
  6
CONTINUOUS
 62
               4
  5
188
 10
-575.29999999999973
 20
30.300000000000082
 30
0.0
 11
-553.40000000000009
 21
30.300000000000082
 31
0.0
  0
LINE
  8
0
  6
CONTINUOUS
 62
               4
  5
189
 10
-553.40000000000009
 20
20.300000000000082
 30
0.0
 11
-553.40000000000009
 21
30.300000000000082
 31
0.0
  0
LINE
  8
0
  6
CONTINUOUS
 62
               4
  5
18A
 10
-558.88482755730138
 20
20.300000000000082
 30
0.0
 11
-558.88482755730138
 21
30.300000000000082
 31
0.0
  0
ENDBLK
  8
0
  5
18B
  0
BLOCK
  8
0
  5
18C
  2
GROUP_10
 70
               0
 10
0.0
 20
0.0
 30
0.0
  3
GROUP_10
  0
LINE
  8
0
  6
CONTINUOUS
 62
               4
  5
18D
 10
-424.70000000000027
 20
20.300000000000082
 30
0.0
 11
-424.70000000000027
 21
30.300000000000082
 31
0.0
  0
LINE
  8
0
  6
CONTINUOUS
 62
               4
  5
18E
 10
-430.18482755730156
 20
20.300000000000082
 30
0.0
 11
-430.18482755730156
 21
30.300000000000082
 31
0.0
  0
LINE
  8
0
  6
CONTINUOUS
 62
               4
  5
18F
 10
-424.70000000000027
 20
20.300000000000082
 30
0.0
 11
-446.59999999999991
 21
20.300000000000082
 31
0.0
  0
LINE
  8
0
  6
CONTINUOUS
 62
               4
  5
190
 10
-424.70000000000027
 20
30.300000000000082
 30
0.0
 11
-446.59999999999991
 21
30.300000000000082
 31
0.0
  0
LINE
  8
0
  6
CONTINUOUS
 62
               4
  5
191
 10
-446.59999999999991
 20
20.300000000000082
 30
0.0
 11
-446.59999999999991
 21
30.300000000000082
 31
0.0
  0
LINE
  8
0
  6
CONTINUOUS
 62
               4
  5
192
 10
-441.11517244269862
 20
20.300000000000082
 30
0.0
 11
-441.11517244269862
 21
30.300000000000082
 31
0.0
  0
ENDBLK
  8
0
  5
193
  0
ENDSEC
  0
SECTION
  2
ENTITIES
  0
CIRCLE
  8
0
  6
CONTINUOUS
 62
               3
  5
194
 10
0.0
 20
500.0
 30
0.0
 40
75.0
  0
LINE
  8
0
  6
CONTINUOUS
 62
               3
  5
195
 10
-86.210498200625352
 20
520.0
 30
0.0
 11
-72.284161474005487
 21
520.0
 31
0.0
  0
LINE
  8
0
  6
CONTINUOUS
 62
               3
  5
196
 10
-72.284161474005487
 20
480.0
 30
0.0
 11
-86.210498200625352
 21
480.0
 31
0.0
  0
ARC
  8
0
  6
CONTINUOUS
 62
               3
  5
197
 10
0.0
 20
500.0
 30
0.0
 40
88.5
 50
166.93897588519908
 51
193.06102411480012
  0
LINE
  8
0
  6
CONTINUOUS
 62
               3
  5
198
 10
-20.0
 20
413.7895017993751
 30
0.0
 11
-20.0
 21
427.71583852599497
 31
0.0
  0
LINE
  8
0
  6
CONTINUOUS
 62
               3
  5
199
 10
20.0
 20
427.71583852599497
 30
0.0
 11
20.0
 21
413.7895017993751
 31
0.0
  0
ARC
  8
0
  6
CONTINUOUS
 62
               3
  5
19A
 10
0.0
 20
500.0
 30
0.0
 40
88.5
 50
256.93897588519889
 51
283.06102411479992
  0
LINE
  8
0
  6
CONTINUOUS
 62
               3
  5
19B
 10
86.210498200624443
 20
480.0
 30
0.0
 11
72.284161474004122
 21
480.0
 31
0.0
  0
LINE
  8
0
  6
CONTINUOUS
 62
               3
  5
19C
 10
72.284161474004122
 20
520.0
 30
0.0
 11
86.210498200624443
 21
520.0
 31
0.0
  0
ARC
  8
0
  6
CONTINUOUS
 62
               3
  5
19D
 10
0.0
 20
500.0
 30
0.0
 40
88.5
 50
346.93897588519866
 51
373.06102411479969
  0
LINE
  8
0
  6
CONTINUOUS
 62
               3
  5
19E
 10
20.0
 20
586.21049820062558
 30
0.0
 11
20.0
 21
572.2841614740048
 31
0.0
  0
LINE
  8
0
  6
CONTINUOUS
 62
               3
  5
19F
 10
-20.0
 20
572.2841614740048
 30
0.0
 11
-20.0
 21
586.21049820062558
 31
0.0
  0
ARC
  8
0
  6
CONTINUOUS
 62
               3
  5
1A0
 10
0.0
 20
500.0
 30
0.0
 40
88.5
 50
76.938975885199284
 51
103.06102411480033
  0
LINE
  8
0
  6
CONTINUOUS
 62
               3
  5
1A1
 10
-30.000000000000011
 20
540.0
 30
0.0
 11
30.000000000000288
 21
539.99999999999977
 31
0.0
  0
ARC
  8
0
  6
CONTINUOUS
 62
               3
  5
1A2
 10
-64.346717087975321
 20
564.34671708797566
 30
0.0
 40
17.5
 50
97.816433606470909
 51
172.18356639352851
  0
LINE
  8
0
  6
CONTINUOUS
 62
               3
  5
1A3
 10
-81.684122377824224
 20
566.72671242736726
 30
0.0
 11
-89.163798633507668
 21
512.23997603115652
 31
0.0
  0
ARC
  8
0
  6
CONTINUOUS
 62
               3
  5
1A4
 10
64.346717087976231
 20
564.34671708797566
 30
0.0
 40
17.5
 50
7.8164336064711222
 51
82.183566393528707
  0
ARC
  8
0
  6
CONTINUOUS
 62
               3
  5
1A5
 10
64.346717087976231
 20
435.65328291202434
 30
0.0
 40
17.5
 50
277.81643360647053
 51
352.18356639352811
  0
ARC
  8
0
  6
CONTINUOUS
 62
               3
  5
1A6
 10
-64.346717087975321
 20
435.65328291202434
 30
0.0
 40
17.5
 50
187.81643360647072
 51
262.18356639352828
  0
LINE
  8
0
  6
CONTINUOUS
 62
               3
  5
1A7
 10
-81.684122377824224
 20
433.27328757263274
 30
0.0
 11
-89.163798633507724
 21
487.7600239688436
 31
0.0
  0
LINE
  8
0
  6
CONTINUOUS
 62
               3
  5
1A8
 10
81.684122377824679
 20
433.27328757263274
 30
0.0
 11
89.163798633508122
 21
487.76002396884337
 31
0.0
  0
ARC
  8
0
  6
CONTINUOUS
 62
               3
  5
1A9
 10
0.0
 20
500.0
 30
0.0
 40
90.0
 50
352.18356639352805
 51
367.81643360647035
  0
LINE
  8
0
  6
CONTINUOUS
 62
               3
  5
1AA
 10
81.684122377824679
 20
566.72671242736726
 30
0.0
 11
89.163798633508122
 21
512.2399760311564
 31
0.0
  0
LINE
  8
0
  6
CONTINUOUS
 62
               3
  5
1AB
 10
66.726712427367602
 20
581.68412237782468
 30
0.0
 11
12.239976031156857
 21
589.16379863350755
 31
0.0
  0
ARC
  8
0
  6
CONTINUOUS
 62
               3
  5
1AC
 10
0.0
 20
500.0
 30
0.0
 40
90.0
 50
82.183566393528665
 51
97.816433606470952
  0
LINE
  8
0
  6
CONTINUOUS
 62
               3
  5
1AD
 10
-66.726712427367147
 20
581.68412237782468
 30
0.0
 11
-12.239976031156402
 21
589.16379863350755
 31
0.0
  0
LINE
  8
0
  6
CONTINUOUS
 62
               3
  5
1AE
 10
66.726712427367602
 20
418.31587762217509
 30
0.0
 11
12.239976031156516
 21
410.83620136649245
 31
0.0
  0
LINE
  8
0
  6
CONTINUOUS
 62
               3
  5
1AF
 10
-66.726712427367147
 20
418.31587762217509
 30
0.0
 11
-12.239976031156516
 21
410.83620136649245
 31
0.0
  0
ARC
  8
0
  6
CONTINUOUS
 62
               3
  5
1B0
 10
0.0
 20
500.0
 30
0.0
 40
90.0
 50
262.18356639352828
 51
277.81643360647053
  0
ARC
  8
0
  6
CONTINUOUS
 62
               3
  5
1B1
 10
0.0
 20
500.0
 30
0.0
 40
90.0
 50
172.18356639352845
 51
187.81643360647072
  0
LINE
  8
0
  6
CONTINUOUS
 62
               3
  5
1B2
 10
-22.000000000000568
 20
500.0
 30
0.0
 11
-22.000000000000568
 21
455.10011135871298
 31
0.0
  0
LINE
  8
0
  6
CONTINUOUS
 62
               3
  5
1B3
 10
-22.000000000000568
 20
500.0
 30
0.0
 11
-43.168820844042649
 21
525.2280182918704
 31
0.0
  0
LINE
  8
0
  6
CONTINUOUS
 62
               3
  5
1B4
 10
-22.000000000000568
 20
477.99999999999955
 30
0.0
 11
44.89988864128707
 21
477.99999999999955
 31
0.0
  0
ARC
  8
0
  6
CONTINUOUS
 62
               3
  5
1B5
 10
54.999999999999545
 20
139.00000000000057
 30
0.0
 40
19.999999999999996
 50
0.0
 51
31.788330617051724
  0
LINE
  8
0
  6
CONTINUOUS
 62
               3
  5
1B6
 10
71.999999999999545
 20
224.41742430504513
 30
0.0
 11
71.999999999999545
 21
149.53565375285331
 31
0.0
  0
ARC
  8
0
  6
CONTINUOUS
 62
               3
  5
1B7
 10
-55.0
 20
139.00000000000057
 30
0.0
 40
19.999999999999996
 50
148.21166938294789
 51
179.9999999999996
  0
LINE
  8
0
  6
CONTINUOUS
 62
               3
  5
1B8
 10
-72.000000000000455
 20
149.53565375285331
 30
0.0
 11
-72.000000000000455
 21
224.41742430504513
 31
0.0
  0
ARC
  8
0
  6
CONTINUOUS
 62
               3
  5
1B9
 10
-65.0
 20
-142.49999999999986
 30
0.0
 40
2.4999999999999996
 50
89.999999999999801
 51
269.99999999999937
  0
LINE
  8
0
  6
CONTINUOUS
 62
               3
  5
1BA
 10
-90.0
 20
0.0000000000000711
 30
0.0
 11
-90.0
 21
18.000000000000043
 31
0.0
  0
LINE
  8
0
  6
CONTINUOUS
 62
               3
  5
1BB
 10
90.0
 20
0.0000000000000711
 30
0.0
 11
90.0
 21
18.000000000000043
 31
0.0
  0
LINE
  8
0
  6
CONTINUOUS
 62
               3
  5
1BC
 10
89.999999999999545
 20
18.00000000000118
 30
0.0
 11
-90.000000000000455
 21
18.000000000000043
 31
0.0
  0
LINE
  8
0
  6
CONTINUOUS
 62
               3
  5
1BD
 10
-75.0
 20
30.300000000000011
 30
0.0
 11
-75.0
 21
139.00000000000057
 31
0.0
  0
LINE
  8
0
  6
CONTINUOUS
 62
               3
  5
1BE
 10
74.999999999999545
 20
139.00000000000057
 30
0.0
 11
74.999999999999545
 21
30.300000000000018
 31
0.0
  0
ARC
  8
0
  6
CONTINUOUS
 62
               3
  5
1BF
 10
-80.000000000000455
 20
23.000000000000043
 30
0.0
 40
5.0
 50
327.31636115374278
 51
340.05155641122002
  0
ARC
  8
0
  6
CONTINUOUS
 62
               3
  5
1C0
 10
-80.000000000000455
 20
23.000000000000043
 30
0.0
 40
5.0
 50
269.99999999999937
 51
302.00545482776477
  0
LINE
  8
0
  6
CONTINUOUS
 62
               3
  5
1C1
 10
0.0
 20
-144.99999999999986
 30
0.0
 11
75.0
 21
-144.99999999999986
 31
0.0
  0
LINE
  8
0
  6
CONTINUOUS
 62
               3
  5
1C2
 10
0.0
 20
-139.99999999999986
 30
0.0
 11
75.0
 21
-139.99999999999986
 31
0.0
  0
LINE
  8
0
  6
CONTINUOUS
 62
               3
  5
1C3
 10
-65.0
 20
-139.99999999999986
 30
0.0
 11
0.0
 21
-139.99999999999986
 31
0.0
  0
LINE
  8
0
  6
CONTINUOUS
 62
               3
  5
1C4
 10
-65.0
 20
-144.99999999999986
 30
0.0
 11
0.0
 21
-144.99999999999986
 31
0.0
  0
LINE
  8
0
  6
CONTINUOUS
 62
               3
  5
1C5
 10
90.000000000000455
 20
-25.999999999999872
 30
0.0
 11
-89.999999999999545
 21
-25.999999999999872
 31
0.0
  0
LINE
  8
0
  6
CONTINUOUS
 62
               3
  5
1C6
 10
90.000000000000455
 20
-5.0
 30
0.0
 11
90.000000000000455
 21
-25.999999999999872
 31
0.0
  0
LINE
  8
0
  6
CONTINUOUS
 62
               3
  5
1C7
 10
-90.000000000000455
 20
-5.0
 30
0.0
 11
-90.000000000000455
 21
-25.999999999999872
 31
0.0
  0
LINE
  8
0
  6
CONTINUOUS
 62
               3
  5
1C8
 10
71.999999999999545
 20
149.53565375285331
 30
0.0
 11
11.727000000000203
 21
149.53565375285336
 31
0.0
  0
LINE
  8
0
  6
CONTINUOUS
 62
               3
  5
1C9
 10
-11.726999999999521
 20
149.53565375285331
 30
0.0
 11
-72.000000000000455
 21
149.53565375285331
 31
0.0
  0
LINE
  8
0
  6
CONTINUOUS
 62
               3
  5
1CA
 10
90.000000000000455
 20
0.0
 30
0.0
 11
-89.999999999999545
 21
0.0
 31
0.0
  0
LINE
  8
0
  6
CONTINUOUS
 62
               3
  5
1CB
 10
86.000000000000455
 20
0.0
 30
0.0
 11
86.000000000000455
 21
-5.0
 31
0.0
  0
LINE
  8
0
  6
CONTINUOUS
 62
               3
  5
1CC
 10
-90.000000000000455
 20
-5.0
 30
0.0
 11
90.000000000000455
 21
-5.0
 31
0.0
  0
LINE
  8
0
  6
CONTINUOUS
 62
               3
  5
1CD
 10
-86.000000000000455
 20
0.0
 30
0.0
 11
-86.000000000000455
 21
-5.0
 31
0.0
  0
LINE
  8
0
  6
CONTINUOUS
 62
               3
  5
1CE
 10
75.0
 20
246.00000000000057
 30
0.0
 11
-75.0
 21
246.00000000000057
 31
0.0
  0
LINE
  8
0
  6
CONTINUOUS
 62
               3
  5
1CF
 10
88.500000000000455
 20
236.00000000000057
 30
0.0
 11
88.500000000000455
 21
229.00000000000085
 31
0.0
  0
LINE
  8
0
  6
CONTINUOUS
 62
               3
  5
1D0
 10
88.500000000000455
 20
236.00000000000057
 30
0.0
 11
75.0
 21
246.00000000000057
 31
0.0
  0
ARC
  8
0
  6
CONTINUOUS
 62
               3
  5
1D1
 10
77.0
 20
224.41742430504513
 30
0.0
 40
4.9999999999999991
 50
113.57817847820161
 51
179.9999999999996
  0
LINE
  8
0
  6
CONTINUOUS
 62
               3
  5
1D2
 10
88.500000000000455
 20
229.00000000000085
 30
0.0
 11
-88.499999999999545
 21
229.00000000000085
 31
0.0
  0
LINE
  8
0
  6
CONTINUOUS
 62
               3
  5
1D3
 10
20.0
 20
229.00000000000085
 30
0.0
 11
20.0
 21
246.00000000000057
 31
0.0
  0
LINE
  8
0
  6
CONTINUOUS
 62
               3
  5
1D4
 10
-20.0
 20
246.00000000000057
 30
0.0
 11
-20.0
 21
229.00000000000085
 31
0.0
  0
LINE
  8
0
  6
CONTINUOUS
 62
               3
  5
1D5
 10
20.0
 20
236.00000000000057
 30
0.0
 11
-20.0
 21
236.00000000000057
 31
0.0
  0
LINE
  8
0
  6
CONTINUOUS
 62
               3
  5
1D6
 10
72.284161474005487
 20
246.00000000000057
 30
0.0
 11
72.284161474005487
 21
229.00000000000085
 31
0.0
  0
LINE
  8
0
  6
CONTINUOUS
 62
               3
  5
1D7
 10
-88.499999999999545
 20
236.00000000000057
 30
0.0
 11
-88.499999999999545
 21
229.00000000000085
 31
0.0
  0
LINE
  8
0
  6
CONTINUOUS
 62
               3
  5
1D8
 10
-88.499999999999545
 20
236.00000000000057
 30
0.0
 11
-75.0
 21
246.00000000000057
 31
0.0
  0
ARC
  8
0
  6
CONTINUOUS
 62
               3
  5
1D9
 10
-77.0
 20
224.41742430504513
 30
0.0
 40
4.9999999999999991
 50
0.0
 51
66.421821521798009
  0
LINE
  8
0
  6
CONTINUOUS
 62
               3
  5
1DA
 10
-72.284161474004122
 20
246.00000000000057
 30
0.0
 11
-72.284161474004122
 21
229.00000000000085
 31
0.0
  0
ARC
  8
0
  6
CONTINUOUS
 62
               3
  5
1DB
 10
80.000000000000341
 20
23.00000000000005
 30
0.0
 40
5.0
 50
199.94844358877876
 51
212.683638846256
  0
ARC
  8
0
  6
CONTINUOUS
 62
               3
  5
1DC
 10
80.000000000000341
 20
23.00000000000005
 30
0.0
 40
5.0
 50
237.99454517223401
 51
269.99999999999937
  0
LINE
  8
0
  6
CONTINUOUS
 62
               3
  5
1DD
 10
-74.999999999999545
 20
-258.0
 30
0.0
 11
75.0
 21
-257.99999999999977
 31
0.0
  0
LINE
  8
0
  6
CONTINUOUS
 62
               3
  5
1DE
 10
-72.721287833966699
 20
-277.99999999999989
 30
0.0
 11
72.721287833968063
 21
-277.99999999999989
 31
0.0
  0
LINE
  8
0
  6
CONTINUOUS
 62
               3
  5
1DF
 10
-75.000000000000568
 20
-160.82877945818342
 30
0.0
 11
-74.999999999999545
 21
-258.0
 31
0.0
  0
LINE
  8
0
  6
CONTINUOUS
 62
               3
  5
1E0
 10
75.0
 20
-258.00000000000898
 30
0.0
 11
75.0
 21
-30.999999999999872
 31
0.0
  0
LINE
  8
0
  6
CONTINUOUS
 62
               3
  5
1E1
 10
58.000000000000455
 20
-407.20708506678926
 30
0.0
 11
75.0
 21
-258.00000000000898
 31
0.0
  0
LINE
  8
0
  6
CONTINUOUS
 62
               3
  5
1E2
 10
-57.999999999999545
 20
-407.20708506678926
 30
0.0
 11
-74.999999999999545
 21
-258.0
 31
0.0
  0
LINE
  8
0
  6
CONTINUOUS
 62
               3
  5
1E3
 10
572.0
 20
224.41742430504513
 30
0.0
 11
572.0
 21
154.53565375285331
 31
0.0
  0
LINE
  8
0
  6
CONTINUOUS
 62
               3
  5
1E4
 10
428.0
 20
154.53565375285399
 30
0.0
 11
428.0
 21
224.41742430504513
 31
0.0
  0
LINE
  8
0
  6
CONTINUOUS
 62
               3
  5
1E5
 10
571.50000000000045
 20
149.53565375285331
 30
0.0
 11
428.49999999999955
 21
149.53565375285331
 31
0.0
  0
ARC
  8
0
  6
CONTINUOUS
 62
               3
  5
1E6
 10
425.00000000000045
 20
-142.49999999999994
 30
0.0
 40
2.4999999999999996
 50
89.999999999999801
 51
269.99999999999937
  0
LINE
  8
0
  6
CONTINUOUS
 62
               3
  5
1E7
 10
425.00000000000045
 20
-144.99999999999994
 30
0.0
 11
500.0
 21
-144.99999999999994
 31
0.0
  0
LINE
  8
0
  6
CONTINUOUS
 62
               3
  5
1E8
 10
500.0
 20
-144.99999999999994
 30
0.0
 11
575.0
 21
-144.99999999999994
 31
0.0
  0
LINE
  8
0
  6
CONTINUOUS
 62
               3
  5
1E9
 10
425.00000000000045
 20
-139.99999999999994
 30
0.0
 11
500.0
 21
-139.99999999999994
 31
0.0
  0
LINE
  8
0
  6
CONTINUOUS
 62
               3
  5
1EA
 10
500.0
 20
-139.99999999999994
 30
0.0
 11
575.0
 21
-139.99999999999994
 31
0.0
  0
LINE
  8
0
  6
CONTINUOUS
 62
               3
  5
1EB
 10
410.0
 20
18.000000000001322
 30
0.0
 11
590.0
 21
18.000000000000043
 31
0.0
  0
LINE
  8
0
  6
CONTINUOUS
 62
               3
  5
1EC
 10
590.00000000000045
 20
-4.9999999999999289
 30
0.0
 11
590.00000000000045
 21
-25.999999999999872
 31
0.0
  0
LINE
  8
0
  6
CONTINUOUS
 62
               3
  5
1ED
 10
590.00000000000045
 20
0.0000000000000711
 30
0.0
 11
590.00000000000045
 21
18.000000000000043
 31
0.0
  0
LINE
  8
0
  6
CONTINUOUS
 62
               3
  5
1EE
 10
410.00000000000045
 20
0.0000000000000711
 30
0.0
 11
410.00000000000045
 21
18.000000000000043
 31
0.0
  0
LINE
  8
0
  6
CONTINUOUS
 62
               3
  5
1EF
 10
590.00000000000045
 20
0.0000000000000711
 30
0.0
 11
410.00000000000045
 21
0.0000000000000711
 31
0.0
  0
LINE
  8
0
  6
CONTINUOUS
 62
               3
  5
1F0
 10
586.00000000000045
 20
0.0000000000000711
 30
0.0
 11
586.00000000000045
 21
-4.9999999999999289
 31
0.0
  0
LINE
  8
0
  6
CONTINUOUS
 62
               3
  5
1F1
 10
425.00000000000045
 20
-31.466767657286084
 30
0.0
 11
425.00000000000045
 21
-139.99999999999994
 31
0.0
  0
LINE
  8
0
  6
CONTINUOUS
 62
               3
  5
1F2
 10
409.99999999999955
 20
-4.9999999999999289
 30
0.0
 11
590.00000000000045
 21
-4.9999999999999289
 31
0.0
  0
LINE
  8
0
  6
CONTINUOUS
 62
               3
  5
1F3
 10
409.99999999999955
 20
-4.9999999999999289
 30
0.0
 11
409.99999999999955
 21
-25.999999999999872
 31
0.0
  0
LINE
  8
0
  6
CONTINUOUS
 62
               3
  5
1F4
 10
413.99999999999955
 20
0.0000000000000711
 30
0.0
 11
413.99999999999955
 21
-4.9999999999999289
 31
0.0
  0
LINE
  8
0
  6
CONTINUOUS
 62
               3
  5
1F5
 10
590.00000000000045
 20
-25.999999999999872
 30
0.0
 11
410.00000000000045
 21
-25.999999999999872
 31
0.0
  0
ARC
  8
0
  6
CONTINUOUS
 62
               3
  5
1F6
 10
574.99999999999955
 20
-142.49999999999994
 30
0.0
 40
2.4999999999999996
 50
269.99999999999937
 51
449.99999999999898
  0
LINE
  8
0
  6
CONTINUOUS
 62
               3
  5
1F7
 10
574.99999999999955
 20
-139.99999999999994
 30
0.0
 11
574.99999999999955
 21
-30.999999999999872
 31
0.0
  0
LINE
  8
0
  6
CONTINUOUS
 62
               3
  5
1F8
 10
575.0
 20
246.00000000000057
 30
0.0
 11
425.0
 21
246.00000000000057
 31
0.0
  0
LINE
  8
0
  6
CONTINUOUS
 62
               3
  5
1F9
 10
588.50000000000045
 20
236.00000000000057
 30
0.0
 11
588.50000000000045
 21
229.00000000000085
 31
0.0
  0
LINE
  8
0
  6
CONTINUOUS
 62
               3
  5
1FA
 10
588.50000000000045
 20
236.00000000000057
 30
0.0
 11
575.0
 21
246.00000000000057
 31
0.0
  0
ARC
  8
0
  6
CONTINUOUS
 62
               3
  5
1FB
 10
577.0
 20
224.41742430504513
 30
0.0
 40
4.9999999999999991
 50
113.57817847820161
 51
179.9999999999996
  0
LINE
  8
0
  6
CONTINUOUS
 62
               3
  5
1FC
 10
588.50000000000045
 20
229.00000000000085
 30
0.0
 11
411.50000000000045
 21
229.00000000000085
 31
0.0
  0
LINE
  8
0
  6
CONTINUOUS
 62
               3
  5
1FD
 10
520.0
 20
229.00000000000085
 30
0.0
 11
520.0
 21
246.00000000000057
 31
0.0
  0
LINE
  8
0
  6
CONTINUOUS
 62
               3
  5
1FE
 10
480.0
 20
246.00000000000057
 30
0.0
 11
480.0
 21
229.00000000000085
 31
0.0
  0
LINE
  8
0
  6
CONTINUOUS
 62
               3
  5
1FF
 10
520.0
 20
236.00000000000057
 30
0.0
 11
480.0
 21
236.00000000000057
 31
0.0
  0
LINE
  8
0
  6
CONTINUOUS
 62
               3
  5
200
 10
572.28416147400549
 20
246.00000000000057
 30
0.0
 11
572.28416147400549
 21
229.00000000000085
 31
0.0
  0
LINE
  8
0
  6
CONTINUOUS
 62
               3
  5
201
 10
411.50000000000045
 20
236.00000000000057
 30
0.0
 11
411.50000000000045
 21
229.00000000000085
 31
0.0
  0
LINE
  8
0
  6
CONTINUOUS
 62
               3
  5
202
 10
411.50000000000045
 20
236.00000000000057
 30
0.0
 11
425.0
 21
246.00000000000057
 31
0.0
  0
ARC
  8
0
  6
CONTINUOUS
 62
               3
  5
203
 10
423.0
 20
224.41742430504513
 30
0.0
 40
4.9999999999999991
 50
0.0
 51
66.421821521798009
  0
LINE
  8
0
  6
CONTINUOUS
 62
               3
  5
204
 10
427.71583852599588
 20
246.00000000000057
 30
0.0
 11
427.71583852599588
 21
229.00000000000085
 31
0.0
  0
LINE
  8
0
  6
CONTINUOUS
 62
               3
  5
205
 10
425.00000000000045
 20
-258.0
 30
0.0
 11
575.0
 21
-257.99999999999977
 31
0.0
  0
LINE
  8
0
  6
CONTINUOUS
 62
               3
  5
206
 10
427.2787121660333
 20
-277.99999999999989
 30
0.0
 11
572.72128783396806
 21
-277.99999999999989
 31
0.0
  0
LINE
  8
0
  6
CONTINUOUS
 62
               3
  5
207
 10
425.00000000000045
 20
-144.99999999999994
 30
0.0
 11
425.00000000000045
 21
-258.0
 31
0.0
  0
LINE
  8
0
  6
CONTINUOUS
 62
               3
  5
208
 10
575.0
 20
-258.00000000000898
 30
0.0
 11
574.99999999999955
 21
-144.99999999999994
 31
0.0
  0
LINE
  8
0
  6
CONTINUOUS
 62
               3
  5
209
 10
558.00000000000045
 20
-407.20708506678926
 30
0.0
 11
575.0
 21
-258.00000000000898
 31
0.0
  0
LINE
  8
0
  6
CONTINUOUS
 62
               3
  5
20A
 10
442.00000000000045
 20
-407.20708506678926
 30
0.0
 11
425.00000000000045
 21
-258.0
 31
0.0
  0
LINE
  8
0
  6
CONTINUOUS
 62
               3
  5
20B
 10
-557.99999999999955
 20
-407.20708506678926
 30
0.0
 11
-574.99999999999955
 21
-258.0
 31
0.0
  0
LINE
  8
0
  6
CONTINUOUS
 62
               3
  5
20C
 10
-574.99999999999955
 20
-144.99999999999994
 30
0.0
 11
-574.99999999999955
 21
-258.0
 31
0.0
  0
ARC
  8
0
  6
CONTINUOUS
 62
               3
  5
20D
 10
-574.99999999999955
 20
-142.49999999999994
 30
0.0
 40
2.4999999999999996
 50
89.999999999999801
 51
269.99999999999937
  0
LINE
  8
0
  6
CONTINUOUS
 62
               3
  5
20E
 10
-441.99999999999955
 20
-407.20708506678926
 30
0.0
 11
-425.0
 21
-258.00000000000898
 31
0.0
  0
LINE
  8
0
  6
CONTINUOUS
 62
               3
  5
20F
 10
-574.99999999999955
 20
-144.99999999999994
 30
0.0
 11
-522.49999999999955
 21
-144.99999999999994
 31
0.0
  0
LINE
  8
0
  6
CONTINUOUS
 62
               3
  5
210
 10
-477.49999999999955
 20
-144.99999999999994
 30
0.0
 11
-425.0
 21
-144.99999999999994
 31
0.0
  0
LINE
  8
0
  6
CONTINUOUS
 62
               3
  5
211
 10
-574.99999999999955
 20
-139.99999999999994
 30
0.0
 11
-522.49999999999955
 21
-139.99999999999994
 31
0.0
  0
LINE
  8
0
  6
CONTINUOUS
 62
               3
  5
212
 10
-477.49999999999955
 20
-139.99999999999994
 30
0.0
 11
-425.0
 21
-139.99999999999994
 31
0.0
  0
ARC
  8
0
  6
CONTINUOUS
 62
               3
  5
213
 10
-522.49999999999955
 20
-142.49999999999994
 30
0.0
 40
2.4999999999999996
 50
269.99999999999937
 51
449.99999999999898
  0
ARC
  8
0
  6
CONTINUOUS
 62
               3
  5
214
 10
-477.49999999999955
 20
-142.49999999999994
 30
0.0
 40
2.4999999999999996
 50
89.999999999999801
 51
269.99999999999937
  0
LINE
  8
0
  6
CONTINUOUS
 62
               3
  5
215
 10
-409.99999999999955
 20
-4.9999999999999289
 30
0.0
 11
-409.99999999999955
 21
-25.999999999999872
 31
0.0
  0
LINE
  8
0
  6
CONTINUOUS
 62
               3
  5
216
 10
-574.99999999999955
 20
-31.466767657286141
 30
0.0
 11
-574.99999999999955
 21
-139.99999999999994
 31
0.0
  0
LINE
  8
0
  6
CONTINUOUS
 62
               3
  5
217
 10
-574.99999999999955
 20
-258.0
 30
0.0
 11
-425.0
 21
-257.99999999999977
 31
0.0
  0
LINE
  8
0
  6
CONTINUOUS
 62
               3
  5
218
 10
-572.7212878339667
 20
-277.99999999999989
 30
0.0
 11
-427.27871216603194
 21
-277.99999999999989
 31
0.0
  0
LINE
  8
0
  6
CONTINUOUS
 62
               3
  5
219
 10
-590.00000000000045
 20
-4.9999999999999289
 30
0.0
 11
-590.00000000000045
 21
-25.999999999999872
 31
0.0
  0
LINE
  8
0
  6
CONTINUOUS
 62
               3
  5
21A
 10
-409.99999999999955
 20
-25.999999999999872
 30
0.0
 11
-589.99999999999955
 21
-25.999999999999872
 31
0.0
  0
ARC
  8
0
  6
CONTINUOUS
 62
               3
  5
21B
 10
-425.00000000000045
 20
-142.49999999999994
 30
0.0
 40
2.4999999999999996
 50
269.99999999999937
 51
449.99999999999898
  0
LINE
  8
0
  6
CONTINUOUS
 62
               3
  5
21C
 10
-425.0
 20
-258.00000000000898
 30
0.0
 11
-425.00000000000045
 21
-144.99999999999994
 31
0.0
  0
LINE
  8
0
  6
CONTINUOUS
 62
               3
  5
21D
 10
-425.00000000000045
 20
-139.99999999999994
 30
0.0
 11
-425.00000000000045
 21
-30.999999999999872
 31
0.0
  0
LINE
  8
0
  6
CONTINUOUS
 62
               3
  5
21E
 10
-425.0
 20
246.00000000000057
 30
0.0
 11
-575.0
 21
246.00000000000057
 31
0.0
  0
LINE
  8
0
  6
CONTINUOUS
 62
               3
  5
21F
 10
-411.49999999999955
 20
236.00000000000057
 30
0.0
 11
-411.49999999999955
 21
229.00000000000085
 31
0.0
  0
LINE
  8
0
  6
CONTINUOUS
 62
               3
  5
220
 10
-411.49999999999955
 20
236.00000000000057
 30
0.0
 11
-425.0
 21
246.00000000000057
 31
0.0
  0
ARC
  8
0
  6
CONTINUOUS
 62
               3
  5
221
 10
-423.0
 20
224.41742430504513
 30
0.0
 40
4.9999999999999991
 50
113.57817847820161
 51
179.9999999999996
  0
LINE
  8
0
  6
CONTINUOUS
 62
               3
  5
222
 10
-411.49999999999955
 20
229.00000000000085
 30
0.0
 11
-588.49999999999955
 21
229.00000000000085
 31
0.0
  0
LINE
  8
0
  6
CONTINUOUS
 62
               3
  5
223
 10
-428.0
 20
224.41742430504513
 30
0.0
 11
-428.0
 21
154.53565375285331
 31
0.0
  0
LINE
  8
0
  6
CONTINUOUS
 62
               3
  5
224
 10
-572.0
 20
154.53565375285399
 30
0.0
 11
-572.0
 21
224.41742430504513
 31
0.0
  0
LINE
  8
0
  6
CONTINUOUS
 62
               3
  5
225
 10
-428.49999999999955
 20
149.53565375285331
 30
0.0
 11
-571.50000000000045
 21
149.53565375285331
 31
0.0
  0
LINE
  8
0
  6
CONTINUOUS
 62
               3
  5
226
 10
-480.0
 20
229.00000000000085
 30
0.0
 11
-480.0
 21
246.00000000000057
 31
0.0
  0
LINE
  8
0
  6
CONTINUOUS
 62
               3
  5
227
 10
-520.0
 20
246.00000000000057
 30
0.0
 11
-520.0
 21
229.00000000000085
 31
0.0
  0
LINE
  8
0
  6
CONTINUOUS
 62
               3
  5
228
 10
-480.0
 20
236.00000000000057
 30
0.0
 11
-520.0
 21
236.00000000000057
 31
0.0
  0
LINE
  8
0
  6
CONTINUOUS
 62
               3
  5
229
 10
-427.71583852599451
 20
246.00000000000057
 30
0.0
 11
-427.71583852599451
 21
229.00000000000085
 31
0.0
  0
LINE
  8
0
  6
CONTINUOUS
 62
               3
  5
22A
 10
-588.49999999999955
 20
236.00000000000057
 30
0.0
 11
-588.49999999999955
 21
229.00000000000085
 31
0.0
  0
LINE
  8
0
  6
CONTINUOUS
 62
               3
  5
22B
 10
-588.49999999999955
 20
236.00000000000057
 30
0.0
 11
-575.0
 21
246.00000000000057
 31
0.0
  0
ARC
  8
0
  6
CONTINUOUS
 62
               3
  5
22C
 10
-577.0
 20
224.41742430504513
 30
0.0
 40
4.9999999999999991
 50
0.0
 51
66.421821521798009
  0
LINE
  8
0
  6
CONTINUOUS
 62
               3
  5
22D
 10
-572.28416147400412
 20
246.00000000000057
 30
0.0
 11
-572.28416147400412
 21
229.00000000000085
 31
0.0
  0
LINE
  8
0
  6
CONTINUOUS
 62
               3
  5
22E
 10
-590.0
 20
18.000000000001322
 30
0.0
 11
-410.0
 21
18.000000000000043
 31
0.0
  0
LINE
  8
0
  6
CONTINUOUS
 62
               3
  5
22F
 10
-409.99999999999955
 20
0.0000000000000711
 30
0.0
 11
-409.99999999999955
 21
18.000000000000043
 31
0.0
  0
LINE
  8
0
  6
CONTINUOUS
 62
               3
  5
230
 10
-589.99999999999955
 20
0.0000000000000711
 30
0.0
 11
-589.99999999999955
 21
18.000000000000043
 31
0.0
  0
LINE
  8
0
  6
CONTINUOUS
 62
               3
  5
231
 10
-409.99999999999955
 20
0.0000000000000711
 30
0.0
 11
-589.99999999999955
 21
0.0000000000000711
 31
0.0
  0
LINE
  8
0
  6
CONTINUOUS
 62
               3
  5
232
 10
-413.99999999999955
 20
0.0000000000000711
 30
0.0
 11
-413.99999999999955
 21
-4.9999999999999289
 31
0.0
  0
LINE
  8
0
  6
CONTINUOUS
 62
               3
  5
233
 10
-590.00000000000045
 20
-4.9999999999999289
 30
0.0
 11
-409.99999999999955
 21
-4.9999999999999289
 31
0.0
  0
LINE
  8
0
  6
CONTINUOUS
 62
               3
  5
234
 10
-586.00000000000045
 20
0.0000000000000711
 30
0.0
 11
-586.00000000000045
 21
-4.9999999999999289
 31
0.0
  0
LINE
  8
0
  6
CONTINUOUS
 62
               3
  5
235
 10
-136.99999999999977
 20
449.14999999999998
 30
0.0
 11
-136.99999999999977
 21
550.85000000000002
 31
0.0
  0
LINE
  8
0
  6
CONTINUOUS
 62
               3
  5
236
 10
-136.99999999999977
 20
550.85000000000002
 30
0.0
 11
-139.99999999999989
 21
547.85000000000048
 31
0.0
  0
LINE
  8
0
  6
CONTINUOUS
 62
               3
  5
237
 10
-136.99999999999977
 20
449.14999999999998
 30
0.0
 11
-139.99999999999989
 21
452.14999999999998
 31
0.0
  0
LINE
  8
0
  6
CONTINUOUS
 62
               3
  5
238
 10
-144.99999999999989
 20
548.35000000000014
 30
0.0
 11
-144.99999999999989
 21
451.64999999999998
 31
0.0
  0
LINE
  8
0
  6
CONTINUOUS
 62
               3
  5
239
 10
-139.99999999999989
 20
449.14999999999998
 30
0.0
 11
-139.99999999999989
 21
550.85000000000014
 31
0.0
  0
LINE
  8
0
  6
CONTINUOUS
 62
               3
  5
23A
 10
-139.99999999999989
 20
550.85000000000014
 30
0.0
 11
-142.49999999999989
 21
550.85000000000014
 31
0.0
  0
LINE
  8
0
  6
CONTINUOUS
 62
               3
  5
23B
 10
-139.99999999999989
 20
449.14999999999998
 30
0.0
 11
-142.49999999999989
 21
449.14999999999998
 31
0.0
  0
ARC
  8
0
  6
CONTINUOUS
 62
               3
  5
23C
 10
-142.49999999999989
 20
451.64999999999998
 30
0.0
 40
2.5
 50
179.9999999999996
 51
269.99999999999937
  0
ARC
  8
0
  6
CONTINUOUS
 62
               3
  5
23D
 10
-142.49999999999989
 20
548.35000000000014
 30
0.0
 40
2.5
 50
89.999999999999801
 51
179.9999999999996
  0
LINE
  8
0
  6
CONTINUOUS
 62
               3
  5
23E
 10
-83.610685146837469
 20
447.30760057731857
 30
0.0
 11
-136.99999999999977
 21
449.14999999999998
 31
0.0
  0
LINE
  8
0
  6
CONTINUOUS
 62
               3
  5
23F
 10
-83.607651023862928
 20
552.71450191121903
 30
0.0
 11
-136.99999999999977
 21
550.85000000000002
 31
0.0
  0
LINE
  8
0
  6
CONTINUOUS
 62
               3
  5
240
 10
-139.99999999999994
 20
-39.978443874035847
 30
0.0
 11
-139.32844387403571
 21
-39.978443874035847
 31
0.0
  0
LINE
  8
0
  6
CONTINUOUS
 62
               3
  5
241
 10
-137.00000000000006
 20
-37.650000000000134
 30
0.0
 11
-139.32844387403571
 21
-39.978443874035847
 31
0.0
  0
LINE
  8
0
  6
CONTINUOUS
 62
               3
  5
242
 10
-137.00000000000006
 20
-37.650000000000134
 30
0.0
 11
-79.659852060136473
 21
-35.647637911168758
 31
0.0
  0
LINE
  8
0
  6
CONTINUOUS
 62
               3
  5
243
 10
-139.99999999999994
 20
-137.02155612596502
 30
0.0
 11
-139.32844387403571
 21
-137.02155612596502
 31
0.0
  0
LINE
  8
0
  6
CONTINUOUS
 62
               3
  5
244
 10
-137.00000000000006
 20
-139.35000000000016
 30
0.0
 11
-139.32844387403571
 21
-137.02155612596502
 31
0.0
  0
LINE
  8
0
  6
CONTINUOUS
 62
               3
  5
245
 10
-139.32844387403571
 20
-39.978443874035847
 30
0.0
 11
-139.32844387403571
 21
-137.02155612596502
 31
0.0
  0
LINE
  8
0
  6
CONTINUOUS
 62
               3
  5
246
 10
-137.00000000000006
 20
-139.35000000000016
 30
0.0
 11
-137.00000000000006
 21
-37.650000000000134
 31
0.0
  0
LINE
  8
0
  6
CONTINUOUS
 62
               3
  5
247
 10
-137.00000000000006
 20
-139.35000000000016
 30
0.0
 11
-94.834889743722727
 21
-140.8224380958541
 31
0.0
  0
ARC
  8
0
  6
CONTINUOUS
 62
               3
  5
248
 10
-95.009387227234754
 20
-145.81939223094909
 30
0.0
 40
4.9999999999999991
 50
44.999999999998984
 51
88.000000000000071
  0
LINE
  8
0
  6
CONTINUOUS
 62
               3
  5
249
 10
-144.99999999999994
 20
-40.150000000000134
 30
0.0
 11
-144.99999999999994
 21
-136.85000000000016
 31
0.0
  0
LINE
  8
0
  6
CONTINUOUS
 62
               3
  5
24A
 10
-139.99999999999994
 20
-37.650000000000134
 30
0.0
 11
-142.49999999999994
 21
-37.650000000000134
 31
0.0
  0
ARC
  8
0
  6
CONTINUOUS
 62
               3
  5
24B
 10
-142.49999999999994
 20
-40.150000000000134
 30
0.0
 40
2.5
 50
89.999999999999815
 51
179.9999999999996
  0
ARC
  8
0
  6
CONTINUOUS
 62
               3
  5
24C
 10
-142.49999999999994
 20
-136.85000000000016
 30
0.0
 40
2.5
 50
179.9999999999996
 51
269.99999999999937
  0
LINE
  8
0
  6
CONTINUOUS
 62
               3
  5
24D
 10
-139.99999999999994
 20
-139.35000000000016
 30
0.0
 11
-139.99999999999994
 21
-37.650000000000134
 31
0.0
  0
LINE
  8
0
  6
CONTINUOUS
 62
               3
  5
24E
 10
-139.99999999999994
 20
-139.35000000000016
 30
0.0
 11
-142.49999999999994
 21
-139.35000000000016
 31
0.0
  0
LINE
  8
0
  6
CONTINUOUS
 62
               3
  5
24F
 10
-76.464466094067745
 20
-157.29324555225119
 30
0.0
 11
-91.473853321302215
 21
-142.28385832501689
 31
0.0
  0
ARC
  8
0
  6
CONTINUOUS
 62
               3
  5
250
 10
-79.999999999999716
 20
-160.82877945818413
 30
0.0
 40
4.9999999999999991
 50
0.000000000000007
 51
44.999999999998984
  0
ARC
  8
0
  6
CONTINUOUS
 62
               3
  5
251
 10
-79.828252206279899
 20
-30.825288673326725
 30
0.0
 40
4.8252886733268916
 50
271.99999999999989
 51
352.65529582507338
  0
CIRCLE
  8
0
  6
CONTINUOUS
 62
               3
  5
252
 10
-500.0
 20
-88.499999999999659
 30
0.0
 40
50.75
  0
LINE
  8
0
  6
CONTINUOUS
 62
               3
  5
253
 10
-519.08042190309197
 20
-62.499999999999545
 30
0.0
 11
-480.91957809690757
 21
-62.499999999999545
 31
0.0
  0
CIRCLE
  8
0
  6
CONTINUOUS
 62
               3
  5
254
 10
-500.00000000000045
 20
-88.499999999999659
 30
0.0
 40
40.75
  0
CIRCLE
  8
0
  6
CONTINUOUS
 62
               3
  5
255
 10
-500.0
 20
-88.499999999999659
 30
0.0
 40
32.25
  0
LINE
  8
0
  6
CONTINUOUS
 62
               3
  5
256
 10
-527.04683438038546
 20
-115.54683438038489
 30
0.0
 11
-528.81460133335213
 21
-117.31460133335145
 31
0.0
  0
LINE
  8
0
  6
CONTINUOUS
 62
               3
  5
257
 10
-472.95316561962159
 20
-115.54683438039172
 30
0.0
 11
-471.18539866664946
 21
-117.31460133335213
 31
0.0
  0
ARC
  8
0
  6
CONTINUOUS
 62
               3
  5
258
 10
-500.0
 20
-88.499999999999659
 30
0.0
 40
38.25
 50
224.99999999999045
 51
314.99999999998482
  0
LINE
  8
0
  6
CONTINUOUS
 62
               3
  5
259
 10
-441.99999999999955
 20
-517.99999999999898
 30
0.0
 11
-441.99999999999955
 21
-407.20708506678926
 31
0.0
  0
LINE
  8
0
  6
CONTINUOUS
 62
               3
  5
25A
 10
-557.99999999999955
 20
-407.20708506678926
 30
0.0
 11
-557.99999999999955
 21
-517.99999999999898
 31
0.0
  0
LINE
  8
0
  6
CONTINUOUS
 62
               3
  5
25B
 10
-557.99999999999955
 20
-407.20708506678886
 30
0.0
 11
-441.99999999999955
 21
-407.20708506678926
 31
0.0
  0
LINE
  8
0
  6
CONTINUOUS
 62
               3
  5
25C
 10
-560.27871216603239
 20
-387.20708506678898
 30
0.0
 11
-439.7212878339667
 21
-387.20708506678898
 31
0.0
  0
LINE
  8
0
  6
CONTINUOUS
 62
               3
  5
25D
 10
-557.0
 20
-618.99999999999943
 30
0.0
 11
-443.0
 21
-618.99999999999943
 31
0.0
  0
LINE
  8
0
  6
CONTINUOUS
 62
               3
  5
25E
 10
-443.0
 20
-618.99999999999943
 30
0.0
 11
-443.0
 21
-518.99999999999943
 31
0.0
  0
LINE
  8
0
  6
CONTINUOUS
 62
               3
  5
25F
 10
-557.0
 20
-618.99999999999943
 30
0.0
 11
-557.0
 21
-518.99999999999943
 31
0.0
  0
LINE
  8
0
  6
CONTINUOUS
 62
               3
  5
260
 10
-557.0
 20
-518.99999999999943
 30
0.0
 11
-443.0
 21
-518.99999999999943
 31
0.0
  0
LINE
  8
0
  6
CONTINUOUS
 62
               3
  5
261
 10
-443.0
 20
-518.99999999999943
 30
0.0
 11
-441.99999999999955
 21
-517.99999999999898
 31
0.0
  0
LINE
  8
0
  6
CONTINUOUS
 62
               3
  5
262
 10
-557.0
 20
-518.99999999999943
 30
0.0
 11
-557.99999999999955
 21
-517.99999999999898
 31
0.0
  0
LINE
  8
0
  6
CONTINUOUS
 62
               3
  5
263
 10
58.000000000000455
 20
-517.99999999999898
 30
0.0
 11
58.000000000000455
 21
-407.20708506678926
 31
0.0
  0
LINE
  8
0
  6
CONTINUOUS
 62
               3
  5
264
 10
-57.999999999999545
 20
-407.20708506678926
 30
0.0
 11
-57.999999999999545
 21
-517.99999999999898
 31
0.0
  0
LINE
  8
0
  6
CONTINUOUS
 62
               3
  5
265
 10
-57.999999999999545
 20
-407.20708506678886
 30
0.0
 11
58.000000000000455
 21
-407.20708506678926
 31
0.0
  0
LINE
  8
0
  6
CONTINUOUS
 62
               3
  5
266
 10
-60.278712166032392
 20
-387.20708506678898
 30
0.0
 11
60.278712166033301
 21
-387.20708506678898
 31
0.0
  0
LINE
  8
0
  6
CONTINUOUS
 62
               3
  5
267
 10
-57.0
 20
-618.99999999999943
 30
0.0
 11
57.0
 21
-618.99999999999943
 31
0.0
  0
LINE
  8
0
  6
CONTINUOUS
 62
               3
  5
268
 10
57.0
 20
-618.99999999999943
 30
0.0
 11
57.0
 21
-518.99999999999943
 31
0.0
  0
LINE
  8
0
  6
CONTINUOUS
 62
               3
  5
269
 10
-57.0
 20
-618.99999999999943
 30
0.0
 11
-57.0
 21
-518.99999999999943
 31
0.0
  0
LINE
  8
0
  6
CONTINUOUS
 62
               3
  5
26A
 10
-57.0
 20
-518.99999999999943
 30
0.0
 11
57.0
 21
-518.99999999999943
 31
0.0
  0
LINE
  8
0
  6
CONTINUOUS
 62
               3
  5
26B
 10
57.0
 20
-518.99999999999943
 30
0.0
 11
58.000000000000455
 21
-517.99999999999898
 31
0.0
  0
LINE
  8
0
  6
CONTINUOUS
 62
               3
  5
26C
 10
-57.0
 20
-518.99999999999943
 30
0.0
 11
-57.999999999999545
 21
-517.99999999999898
 31
0.0
  0
LINE
  8
0
  6
CONTINUOUS
 62
               3
  5
26D
 10
558.00000000000045
 20
-517.99999999999898
 30
0.0
 11
558.00000000000045
 21
-407.20708506678926
 31
0.0
  0
LINE
  8
0
  6
CONTINUOUS
 62
               3
  5
26E
 10
442.00000000000045
 20
-407.20708506678926
 30
0.0
 11
442.00000000000045
 21
-517.99999999999898
 31
0.0
  0
LINE
  8
0
  6
CONTINUOUS
 62
               3
  5
26F
 10
442.00000000000045
 20
-407.20708506678886
 30
0.0
 11
558.00000000000045
 21
-407.20708506678926
 31
0.0
  0
LINE
  8
0
  6
CONTINUOUS
 62
               3
  5
270
 10
439.72128783396761
 20
-387.20708506678898
 30
0.0
 11
560.2787121660333
 21
-387.20708506678898
 31
0.0
  0
LINE
  8
0
  6
CONTINUOUS
 62
               3
  5
271
 10
443.0
 20
-618.99999999999943
 30
0.0
 11
557.0
 21
-618.99999999999943
 31
0.0
  0
LINE
  8
0
  6
CONTINUOUS
 62
               3
  5
272
 10
557.0
 20
-618.99999999999943
 30
0.0
 11
557.0
 21
-518.99999999999943
 31
0.0
  0
LINE
  8
0
  6
CONTINUOUS
 62
               3
  5
273
 10
443.0
 20
-618.99999999999943
 30
0.0
 11
443.0
 21
-518.99999999999943
 31
0.0
  0
LINE
  8
0
  6
CONTINUOUS
 62
               3
  5
274
 10
443.0
 20
-518.99999999999943
 30
0.0
 11
557.0
 21
-518.99999999999943
 31
0.0
  0
LINE
  8
0
  6
CONTINUOUS
 62
               3
  5
275
 10
557.0
 20
-518.99999999999943
 30
0.0
 11
558.00000000000045
 21
-517.99999999999898
 31
0.0
  0
LINE
  8
0
  6
CONTINUOUS
 62
               3
  5
276
 10
443.0
 20
-518.99999999999943
 30
0.0
 11
442.00000000000045
 21
-517.99999999999898
 31
0.0
  0
CIRCLE
  8
0
  6
CONTINUOUS
 62
               3
  5
277
 10
0.0
 20
500.0
 30
0.0
 40
59.0
  0
CIRCLE
  8
0
  6
CONTINUOUS
 62
               3
  5
278
 10
0.0
 20
500.0
 30
0.0
 40
50.0
  0
ARC
  8
0
  6
CONTINUOUS
 62
               3
  5
279
 10
-420.00000000000045
 20
-30.999999999999872
 30
0.0
 40
5.0
 50
89.999999999999801
 51
179.9999999999996
  0
ARC
  8
0
  6
CONTINUOUS
 62
               3
  5
27A
 10
80.0
 20
-30.999999999999872
 30
0.0
 40
5.0
 50
89.999999999999801
 51
179.9999999999996
  0
ARC
  8
0
  6
CONTINUOUS
 62
               3
  5
27B
 10
579.99999999999955
 20
-30.999999999999872
 30
0.0
 40
5.0
 50
89.999999999999801
 51
179.9999999999996
  0
LINE
  8
0
  6
DASHDOT
 62
               4
  5
27C
 10
0.0
 20
608.5
 30
0.0
 11
0.0
 21
395.95592704247582
 31
0.0
  0
LINE
  8
0
  6
DASHDOT
 62
               4
  5
27D
 10
-176.39662295670917
 20
500.0
 30
0.0
 11
108.5
 21
500.0
 31
0.0
  0
LINE
  8
0
  6
DASHDOT
 62
               4
  5
27E
 10
0.0
 20
266.00000000000051
 30
0.0
 11
0.0
 21
-661.99999999999989
 31
0.0
  0
LINE
  8
0
  6
DASHDOT
 62
               4
  5
27F
 10
500.0
 20
266.00000000000057
 30
0.0
 11
500.0
 21
-661.99999999999989
 31
0.0
  0
LINE
  8
0
  6
DASHDOT
 62
               4
  5
280
 10
-500.0
 20
266.00000000000057
 30
0.0
 11
-500.0
 21
-661.99999999999989
 31
0.0
  0
LINE
  8
0
  6
DASHDOT
 62
               4
  5
281
 10
-79.968395543085933
 20
-88.500000000000171
 30
0.0
 11
-165.00000000000028
 21
-88.500000000000171
 31
0.0
  0
LINE
  8
0
  6
DASHDOT
 62
               4
  5
282
 10
-559.25535177574693
 20
-88.499999999999659
 30
0.0
 11
-439.12805223429496
 21
-88.499999999999659
 31
0.0
  0
CIRCLE
  8
0
  6
CONTINUOUS
 62
               4
  5
283
 10
-64.346717087976231
 20
435.65328291202434
 30
0.0
 40
13.0
  0
CIRCLE
  8
0
  6
CONTINUOUS
 62
               4
  5
284
 10
-64.346717087976231
 20
564.34671708797566
 30
0.0
 40
13.0
  0
CIRCLE
  8
0
  6
CONTINUOUS
 62
               4
  5
285
 10
64.346717087976344
 20
564.34671708797566
 30
0.0
 40
13.0
  0
CIRCLE
  8
0
  6
CONTINUOUS
 62
               4
  5
286
 10
64.346717087976344
 20
435.65328291202434
 30
0.0
 40
13.0
  0
ARC
  8
0
  6
CONTINUOUS
 62
               4
  5
287
 10
25.783965811966141
 20
139.00000000000057
 30
0.0
 40
17.566965811965957
 50
143.14855134076873
 51
179.9999999999996
  0
LINE
  8
0
  6
CONTINUOUS
 62
               4
  5
288
 10
-11.727000000000203
 20
154.53565375285331
 30
0.0
 11
11.727000000000203
 21
154.53565375285331
 31
0.0
  0
ARC
  8
0
  6
CONTINUOUS
 62
               4
  5
289
 10
-25.783965811965572
 20
139.00000000000057
 30
0.0
 40
17.566965811965957
 50
0.0
 51
36.851448659230869
  0
LINE
  8
0
  6
CONTINUOUS
 62
               4
  5
28A
 10
11.727000000000203
 20
149.53565375285331
 30
0.0
 11
11.727000000000203
 21
154.53565375285331
 31
0.0
  0
LINE
  8
0
  6
CONTINUOUS
 62
               4
  5
28B
 10
-11.727000000000203
 20
149.53565375285331
 30
0.0
 11
-11.727000000000203
 21
154.53565375285331
 31
0.0
  0
LINE
  8
0
  6
CONTINUOUS
 62
               4
  5
28C
 10
11.727000000000203
 20
154.53565375285331
 30
0.0
 11
6.0000000000002274
 21
149.53565375285331
 31
0.0
  0
LINE
  8
0
  6
CONTINUOUS
 62
               4
  5
28D
 10
-5.9999999999996589
 20
149.53565375285331
 30
0.0
 11
-11.727000000000203
 21
154.53565375285331
 31
0.0
  0
LINE
  8
0
  6
CONTINUOUS
 62
               4
  5
28E
 10
6.0000000000002274
 20
149.53565375285331
 30
0.0
 11
-5.9999999999996589
 21
149.53565375285331
 31
0.0
  0
LINE
  8
0
  6
CONTINUOUS
 62
               4
  5
28F
 10
-5.9999999999996589
 20
18.000000000000576
 30
0.0
 11
-5.9999999999996589
 21
149.53565375285331
 31
0.0
  0
LINE
  8
0
  6
CONTINUOUS
 62
               4
  5
290
 10
6.0000000000002274
 20
149.53565375285331
 30
0.0
 11
6.0000000000002274
 21
18.000000000000647
 31
0.0
  0
LINE
  8
0
  6
CONTINUOUS
 62
               4
  5
291
 10
8.2170000000002119
 20
139.00000000000057
 30
0.0
 11
8.2170000000002119
 21
18.000000000000668
 31
0.0
  0
LINE
  8
0
  6
CONTINUOUS
 62
               4
  5
292
 10
-8.2169999999996435
 20
139.00000000000057
 30
0.0
 11
-8.2169999999996435
 21
18.000000000000554
 31
0.0
  0
LINE
  8
0
  6
CONTINUOUS
 62
               4
  5
293
 10
-51.349999999999909
 20
20.300000000000011
 30
0.0
 11
-51.349999999999909
 21
18.000000000000114
 31
0.0
  0
LINE
  8
0
  6
CONTINUOUS
 62
               4
  5
294
 10
-51.349999999999909
 20
18.000000000000114
 30
0.0
 11
-77.349999999999909
 21
18.000000000000114
 31
0.0
  0
LINE
  8
0
  6
CONTINUOUS
 62
               4
  5
295
 10
-77.349999999999909
 20
18.000000000000114
 30
0.0
 11
-77.349999999999909
 21
20.300000000000011
 31
0.0
  0
LINE
  8
0
  6
CONTINUOUS
 62
               4
  5
296
 10
-77.349999999999909
 20
20.300000000000011
 30
0.0
 11
-51.349999999999909
 21
20.300000000000011
 31
0.0
  0
LINE
  8
0
  6
CONTINUOUS
 62
               4
  5
297
 10
-58.350000000000136
 20
30.300000000000011
 30
0.0
 11
-58.350000000000136
 21
39.000000000000199
 31
0.0
  0
LINE
  8
0
  6
CONTINUOUS
 62
               4
  5
298
 10
-70.350000000000136
 20
39.000000000000199
 30
0.0
 11
-70.350000000000136
 21
30.300000000000011
 31
0.0
  0
LINE
  8
0
  6
CONTINUOUS
 62
               4
  5
299
 10
-70.350000000000136
 20
39.000000000000199
 30
0.0
 11
-58.350000000000136
 21
39.000000000000199
 31
0.0
  0
LINE
  8
0
  6
CONTINUOUS
 62
               4
  5
29A
 10
51.349999999999909
 20
20.300000000000011
 30
0.0
 11
51.349999999999909
 21
18.000000000000114
 31
0.0
  0
LINE
  8
0
  6
CONTINUOUS
 62
               4
  5
29B
 10
51.349999999999909
 20
18.000000000000114
 30
0.0
 11
77.349999999999909
 21
18.000000000000121
 31
0.0
  0
LINE
  8
0
  6
CONTINUOUS
 62
               4
  5
29C
 10
77.349999999999909
 20
18.000000000000121
 30
0.0
 11
77.349999999999909
 21
20.300000000000018
 31
0.0
  0
LINE
  8
0
  6
CONTINUOUS
 62
               4
  5
29D
 10
77.349999999999909
 20
20.300000000000018
 30
0.0
 11
51.349999999999909
 21
20.300000000000011
 31
0.0
  0
LINE
  8
0
  6
CONTINUOUS
 62
               4
  5
29E
 10
58.350000000000136
 20
30.300000000000018
 30
0.0
 11
58.350000000000136
 21
39.000000000000199
 31
0.0
  0
LINE
  8
0
  6
CONTINUOUS
 62
               4
  5
29F
 10
70.350000000000136
 20
39.000000000000199
 30
0.0
 11
70.350000000000136
 21
30.300000000000018
 31
0.0
  0
LINE
  8
0
  6
CONTINUOUS
 62
               4
  5
2A0
 10
70.350000000000136
 20
39.000000000000199
 30
0.0
 11
58.350000000000136
 21
39.000000000000199
 31
0.0
  0
LINE
  8
0
  6
CONTINUOUS
 62
               4
  5
2A1
 10
423.0
 20
149.53565375285331
 30
0.0
 11
428.0
 21
154.53565375285331
 31
0.0
  0
ARC
  8
0
  6
CONTINUOUS
 62
               4
  5
2A2
 10
445.5
 20
139.00000000000057
 30
0.0
 40
19.999999999999996
 50
148.21166938294789
 51
179.9999999999996
  0
LINE
  8
0
  6
CONTINUOUS
 62
               4
  5
2A3
 10
428.49999999999955
 20
149.53565375285331
 30
0.0
 11
428.49999999999955
 21
154.53565375285399
 31
0.0
  0
LINE
  8
0
  6
CONTINUOUS
 62
               4
  5
2A4
 10
428.0
 20
154.53565375285331
 30
0.0
 11
428.49999999999955
 21
154.53565375285331
 31
0.0
  0
ARC
  8
0
  6
CONTINUOUS
 62
               4
  5
2A5
 10
418.0
 20
23.000000000000043
 30
0.0
 40
5.0
 50
269.99999999999937
 51
359.9999999999992
  0
LINE
  8
0
  6
CONTINUOUS
 62
               4
  5
2A6
 10
425.5
 20
139.00000000000057
 30
0.0
 11
425.5
 21
30.300000000000082
 31
0.0
  0
LINE
  8
0
  6
CONTINUOUS
 62
               4
  5
2A7
 10
423.0
 20
149.53565375285331
 30
0.0
 11
423.0
 21
23.000000000000043
 31
0.0
  0
LINE
  8
0
  6
CONTINUOUS
 62
               4
  5
2A8
 10
448.65000000000009
 20
20.300000000000082
 30
0.0
 11
448.65000000000009
 21
18.000000000000185
 31
0.0
  0
LINE
  8
0
  6
CONTINUOUS
 62
               4
  5
2A9
 10
448.65000000000009
 20
18.000000000000185
 30
0.0
 11
422.65000000000009
 21
18.000000000000185
 31
0.0
  0
LINE
  8
0
  6
CONTINUOUS
 62
               4
  5
2AA
 10
422.65000000000009
 20
18.000000000000185
 30
0.0
 11
422.65000000000009
 21
20.300000000000082
 31
0.0
  0
LINE
  8
0
  6
CONTINUOUS
 62
               4
  5
2AB
 10
422.65000000000009
 20
20.300000000000082
 30
0.0
 11
448.65000000000009
 21
20.300000000000082
 31
0.0
  0
LINE
  8
0
  6
CONTINUOUS
 62
               4
  5
2AC
 10
441.64999999999986
 20
30.300000000000082
 30
0.0
 11
441.64999999999986
 21
39.00000000000027
 31
0.0
  0
LINE
  8
0
  6
CONTINUOUS
 62
               4
  5
2AD
 10
429.64999999999986
 20
39.00000000000027
 30
0.0
 11
429.64999999999986
 21
30.300000000000082
 31
0.0
  0
LINE
  8
0
  6
CONTINUOUS
 62
               4
  5
2AE
 10
429.64999999999986
 20
39.00000000000027
 30
0.0
 11
441.64999999999986
 21
39.00000000000027
 31
0.0
  0
LINE
  8
0
  6
CONTINUOUS
 62
               4
  5
2AF
 10
577.0
 20
149.53565375285331
 30
0.0
 11
572.0
 21
154.53565375285331
 31
0.0
  0
ARC
  8
0
  6
CONTINUOUS
 62
               4
  5
2B0
 10
554.5
 20
139.00000000000057
 30
0.0
 40
19.999999999999996
 50
0.0
 51
31.788330617051724
  0
LINE
  8
0
  6
CONTINUOUS
 62
               4
  5
2B1
 10
571.50000000000045
 20
149.53565375285331
 30
0.0
 11
571.50000000000045
 21
154.53565375285399
 31
0.0
  0
LINE
  8
0
  6
CONTINUOUS
 62
               4
  5
2B2
 10
572.0
 20
154.53565375285331
 30
0.0
 11
571.50000000000045
 21
154.53565375285331
 31
0.0
  0
ARC
  8
0
  6
CONTINUOUS
 62
               4
  5
2B3
 10
582.0
 20
23.000000000000043
 30
0.0
 40
5.0
 50
179.9999999999996
 51
269.99999999999937
  0
LINE
  8
0
  6
CONTINUOUS
 62
               4
  5
2B4
 10
574.5
 20
139.00000000000057
 30
0.0
 11
574.5
 21
29.782332308330339
 31
0.0
  0
LINE
  8
0
  6
CONTINUOUS
 62
               4
  5
2B5
 10
577.0
 20
149.53565375285331
 30
0.0
 11
577.0
 21
23.000000000000043
 31
0.0
  0
LINE
  8
0
  6
CONTINUOUS
 62
               4
  5
2B6
 10
551.34999999999991
 20
20.300000000000082
 30
0.0
 11
551.34999999999991
 21
18.000000000000185
 31
0.0
  0
LINE
  8
0
  6
CONTINUOUS
 62
               4
  5
2B7
 10
551.34999999999991
 20
18.000000000000185
 30
0.0
 11
577.34999999999991
 21
18.000000000000185
 31
0.0
  0
LINE
  8
0
  6
CONTINUOUS
 62
               4
  5
2B8
 10
577.34999999999991
 20
18.000000000000185
 30
0.0
 11
577.34999999999991
 21
20.300000000000082
 31
0.0
  0
LINE
  8
0
  6
CONTINUOUS
 62
               4
  5
2B9
 10
577.34999999999991
 20
20.300000000000082
 30
0.0
 11
551.34999999999991
 21
20.300000000000082
 31
0.0
  0
LINE
  8
0
  6
CONTINUOUS
 62
               4
  5
2BA
 10
558.35000000000014
 20
30.300000000000082
 30
0.0
 11
558.35000000000014
 21
39.00000000000027
 31
0.0
  0
LINE
  8
0
  6
CONTINUOUS
 62
               4
  5
2BB
 10
570.35000000000014
 20
39.00000000000027
 30
0.0
 11
570.35000000000014
 21
30.300000000000082
 31
0.0
  0
LINE
  8
0
  6
CONTINUOUS
 62
               4
  5
2BC
 10
570.35000000000014
 20
39.00000000000027
 30
0.0
 11
558.35000000000014
 21
39.00000000000027
 31
0.0
  0
LINE
  8
0
  6
CONTINUOUS
 62
               4
  5
2BD
 10
-577.0
 20
149.53565375285331
 30
0.0
 11
-572.0
 21
154.53565375285331
 31
0.0
  0
ARC
  8
0
  6
CONTINUOUS
 62
               4
  5
2BE
 10
-554.5
 20
139.00000000000057
 30
0.0
 40
19.999999999999996
 50
148.21166938294789
 51
179.9999999999996
  0
LINE
  8
0
  6
CONTINUOUS
 62
               4
  5
2BF
 10
-571.50000000000045
 20
149.53565375285331
 30
0.0
 11
-571.50000000000045
 21
154.53565375285399
 31
0.0
  0
LINE
  8
0
  6
CONTINUOUS
 62
               4
  5
2C0
 10
-572.0
 20
154.53565375285331
 30
0.0
 11
-571.50000000000045
 21
154.53565375285331
 31
0.0
  0
ARC
  8
0
  6
CONTINUOUS
 62
               4
  5
2C1
 10
-582.0
 20
23.000000000000043
 30
0.0
 40
5.0
 50
269.99999999999937
 51
359.9999999999992
  0
LINE
  8
0
  6
CONTINUOUS
 62
               4
  5
2C2
 10
-574.5
 20
139.00000000000057
 30
0.0
 11
-574.5
 21
30.300000000000082
 31
0.0
  0
LINE
  8
0
  6
CONTINUOUS
 62
               4
  5
2C3
 10
-577.0
 20
149.53565375285331
 30
0.0
 11
-577.0
 21
23.000000000000043
 31
0.0
  0
LINE
  8
0
  6
CONTINUOUS
 62
               4
  5
2C4
 10
-551.34999999999991
 20
20.300000000000082
 30
0.0
 11
-551.34999999999991
 21
18.000000000000185
 31
0.0
  0
LINE
  8
0
  6
CONTINUOUS
 62
               4
  5
2C5
 10
-551.34999999999991
 20
18.000000000000185
 30
0.0
 11
-577.34999999999991
 21
18.000000000000185
 31
0.0
  0
LINE
  8
0
  6
CONTINUOUS
 62
               4
  5
2C6
 10
-577.34999999999991
 20
18.000000000000185
 30
0.0
 11
-577.34999999999991
 21
20.300000000000082
 31
0.0
  0
LINE
  8
0
  6
CONTINUOUS
 62
               4
  5
2C7
 10
-577.34999999999991
 20
20.300000000000082
 30
0.0
 11
-551.34999999999991
 21
20.300000000000082
 31
0.0
  0
LINE
  8
0
  6
CONTINUOUS
 62
               4
  5
2C8
 10
-558.35000000000014
 20
30.300000000000082
 30
0.0
 11
-558.35000000000014
 21
39.00000000000027
 31
0.0
  0
LINE
  8
0
  6
CONTINUOUS
 62
               4
  5
2C9
 10
-570.35000000000014
 20
39.00000000000027
 30
0.0
 11
-570.35000000000014
 21
30.300000000000082
 31
0.0
  0
LINE
  8
0
  6
CONTINUOUS
 62
               4
  5
2CA
 10
-570.35000000000014
 20
39.00000000000027
 30
0.0
 11
-558.35000000000014
 21
39.00000000000027
 31
0.0
  0
LINE
  8
0
  6
CONTINUOUS
 62
               4
  5
2CB
 10
-423.0
 20
149.53565375285331
 30
0.0
 11
-428.0
 21
154.53565375285331
 31
0.0
  0
ARC
  8
0
  6
CONTINUOUS
 62
               4
  5
2CC
 10
-445.5
 20
139.00000000000057
 30
0.0
 40
19.999999999999996
 50
0.0
 51
31.788330617051724
  0
LINE
  8
0
  6
CONTINUOUS
 62
               4
  5
2CD
 10
-428.49999999999955
 20
149.53565375285331
 30
0.0
 11
-428.49999999999955
 21
154.53565375285399
 31
0.0
  0
LINE
  8
0
  6
CONTINUOUS
 62
               4
  5
2CE
 10
-428.0
 20
154.53565375285331
 30
0.0
 11
-428.49999999999955
 21
154.53565375285331
 31
0.0
  0
ARC
  8
0
  6
CONTINUOUS
 62
               4
  5
2CF
 10
-418.0
 20
23.000000000000043
 30
0.0
 40
5.0
 50
179.9999999999996
 51
269.99999999999937
  0
LINE
  8
0
  6
CONTINUOUS
 62
               4
  5
2D0
 10
-425.5
 20
139.00000000000057
 30
0.0
 11
-425.5
 21
29.782332308330339
 31
0.0
  0
LINE
  8
0
  6
CONTINUOUS
 62
               4
  5
2D1
 10
-423.0
 20
149.53565375285331
 30
0.0
 11
-423.0
 21
23.000000000000043
 31
0.0
  0
LINE
  8
0
  6
CONTINUOUS
 62
               4
  5
2D2
 10
-448.65000000000009
 20
20.300000000000082
 30
0.0
 11
-448.65000000000009
 21
18.000000000000185
 31
0.0
  0
LINE
  8
0
  6
CONTINUOUS
 62
               4
  5
2D3
 10
-448.65000000000009
 20
18.000000000000185
 30
0.0
 11
-422.65000000000009
 21
18.000000000000185
 31
0.0
  0
LINE
  8
0
  6
CONTINUOUS
 62
               4
  5
2D4
 10
-422.65000000000009
 20
18.000000000000185
 30
0.0
 11
-422.65000000000009
 21
20.300000000000082
 31
0.0
  0
LINE
  8
0
  6
CONTINUOUS
 62
               4
  5
2D5
 10
-422.65000000000009
 20
20.300000000000082
 30
0.0
 11
-448.65000000000009
 21
20.300000000000082
 31
0.0
  0
LINE
  8
0
  6
CONTINUOUS
 62
               4
  5
2D6
 10
-441.64999999999986
 20
30.300000000000082
 30
0.0
 11
-441.64999999999986
 21
39.00000000000027
 31
0.0
  0
LINE
  8
0
  6
CONTINUOUS
 62
               4
  5
2D7
 10
-429.64999999999986
 20
39.00000000000027
 30
0.0
 11
-429.64999999999986
 21
30.300000000000082
 31
0.0
  0
LINE
  8
0
  6
CONTINUOUS
 62
               4
  5
2D8
 10
-429.64999999999986
 20
39.00000000000027
 30
0.0
 11
-441.64999999999986
 21
39.00000000000027
 31
0.0
  0
LINE
  8
0
  6
CONTINUOUS
 62
               4
  5
2D9
 10
-578.22647400135997
 20
-29.599999999999838
 30
0.0
 11
-572.3499999999982
 21
-32.999999999999929
 31
0.0
  0
LINE
  8
0
  6
CONTINUOUS
 62
               4
  5
2DA
 10
-555.84999999999809
 20
-32.999999999999929
 30
0.0
 11
-555.84999999999809
 21
-25.999999999999869
 31
0.0
  0
LINE
  8
0
  6
CONTINUOUS
 62
               4
  5
2DB
 10
-555.84999999999809
 20
-32.999999999999929
 30
0.0
 11
-572.3499999999982
 21
-32.999999999999929
 31
0.0
  0
LINE
  8
0
  6
CONTINUOUS
 62
               4
  5
2DC
 10
-581.17706146647583
 20
-29.599999999999838
 30
0.0
 11
-578.22647400135997
 21
-29.599999999999838
 31
0.0
  0
LINE
  8
0
  6
CONTINUOUS
 62
               4
  5
2DD
 10
-581.17706146647583
 20
-25.999999999999872
 30
0.0
 11
-581.17706146647583
 21
-29.599999999999838
 31
0.0
  0
LINE
  8
0
  6
CONTINUOUS
 62
               4
  5
2DE
 10
-555.84999999999809
 20
-25.999999999999869
 30
0.0
 11
-581.17706146647583
 21
-25.999999999999872
 31
0.0
  0
LINE
  8
0
  6
CONTINUOUS
 62
               4
  5
2DF
 10
-452.47706146647545
 20
-25.999999999999861
 30
0.0
 11
-452.47706146647545
 21
-29.599999999999827
 31
0.0
  0
LINE
  8
0
  6
CONTINUOUS
 62
               4
  5
2E0
 10
-452.47706146647545
 20
-29.599999999999827
 30
0.0
 11
-437.5056587211883
 21
-29.599999999999824
 31
0.0
  0
LINE
  8
0
  6
CONTINUOUS
 62
               4
  5
2E1
 10
-449.52647400135959
 20
-29.599999999999827
 30
0.0
 11
-443.64999999999782
 21
-32.999999999999915
 31
0.0
  0
LINE
  8
0
  6
CONTINUOUS
 62
               4
  5
2E2
 10
-440.45624618630416
 20
-25.999999999999861
 30
0.0
 11
-440.45624618630416
 21
-29.599999999999827
 31
0.0
  0
LINE
  8
0
  6
CONTINUOUS
 62
               4
  5
2E3
 10
-429.99314575050551
 20
-32.999999999999915
 30
0.0
 11
-437.5056587211883
 21
-29.599999999999824
 31
0.0
  0
LINE
  8
0
  6
CONTINUOUS
 62
               4
  5
2E4
 10
-427.14999999999782
 20
-32.999999999999915
 30
0.0
 11
-443.64999999999782
 21
-32.999999999999915
 31
0.0
  0
LINE
  8
0
  6
CONTINUOUS
 62
               4
  5
2E5
 10
-427.14999999999782
 20
-32.999999999999915
 30
0.0
 11
-427.14999999999782
 21
-25.999999999999858
 31
0.0
  0
LINE
  8
0
  6
CONTINUOUS
 62
               4
  5
2E6
 10
-427.14999999999782
 20
-25.999999999999858
 30
0.0
 11
-452.47706146647545
 21
-25.999999999999861
 31
0.0
  0
LINE
  8
0
  6
CONTINUOUS
 62
               4
  5
2E7
 10
-78.226474001359065
 20
-29.599999999999838
 30
0.0
 11
-72.349999999997294
 21
-32.999999999999929
 31
0.0
  0
LINE
  8
0
  6
CONTINUOUS
 62
               4
  5
2E8
 10
-55.849999999997181
 20
-32.999999999999929
 30
0.0
 11
-55.849999999997181
 21
-25.999999999999869
 31
0.0
  0
LINE
  8
0
  6
CONTINUOUS
 62
               4
  5
2E9
 10
-55.849999999997181
 20
-32.999999999999929
 30
0.0
 11
-72.349999999997294
 21
-32.999999999999929
 31
0.0
  0
LINE
  8
0
  6
CONTINUOUS
 62
               4
  5
2EA
 10
-81.177061466474925
 20
-29.599999999999838
 30
0.0
 11
-78.226474001359065
 21
-29.599999999999838
 31
0.0
  0
LINE
  8
0
  6
CONTINUOUS
 62
               4
  5
2EB
 10
-81.177061466474925
 20
-25.999999999999872
 30
0.0
 11
-81.177061466474925
 21
-29.599999999999838
 31
0.0
  0
LINE
  8
0
  6
CONTINUOUS
 62
               4
  5
2EC
 10
-55.849999999997181
 20
-25.999999999999869
 30
0.0
 11
-81.177061466474925
 21
-25.999999999999872
 31
0.0
  0
LINE
  8
0
  6
CONTINUOUS
 62
               4
  5
2ED
 10
47.522938533525462
 20
-25.999999999999861
 30
0.0
 11
47.522938533525462
 21
-29.599999999999827
 31
0.0
  0
LINE
  8
0
  6
CONTINUOUS
 62
               4
  5
2EE
 10
47.522938533525462
 20
-29.599999999999827
 30
0.0
 11
62.494341278812612
 21
-29.599999999999824
 31
0.0
  0
LINE
  8
0
  6
CONTINUOUS
 62
               4
  5
2EF
 10
50.473525998641321
 20
-29.599999999999827
 30
0.0
 11
56.350000000003092
 21
-32.999999999999915
 31
0.0
  0
LINE
  8
0
  6
CONTINUOUS
 62
               4
  5
2F0
 10
59.543753813696753
 20
-25.999999999999861
 30
0.0
 11
59.543753813696753
 21
-29.599999999999827
 31
0.0
  0
LINE
  8
0
  6
CONTINUOUS
 62
               4
  5
2F1
 10
70.006854249495404
 20
-32.999999999999915
 30
0.0
 11
62.494341278812612
 21
-29.599999999999824
 31
0.0
  0
LINE
  8
0
  6
CONTINUOUS
 62
               4
  5
2F2
 10
72.850000000003092
 20
-32.999999999999915
 30
0.0
 11
56.350000000003092
 21
-32.999999999999915
 31
0.0
  0
LINE
  8
0
  6
CONTINUOUS
 62
               4
  5
2F3
 10
72.850000000003092
 20
-32.999999999999915
 30
0.0
 11
72.850000000003092
 21
-25.999999999999858
 31
0.0
  0
LINE
  8
0
  6
CONTINUOUS
 62
               4
  5
2F4
 10
72.850000000003092
 20
-25.999999999999858
 30
0.0
 11
47.522938533525462
 21
-25.999999999999861
 31
0.0
  0
LINE
  8
0
  6
CONTINUOUS
 62
               4
  5
2F5
 10
421.77352599864003
 20
-29.599999999999838
 30
0.0
 11
427.6500000000018
 21
-32.999999999999929
 31
0.0
  0
LINE
  8
0
  6
CONTINUOUS
 62
               4
  5
2F6
 10
444.15000000000191
 20
-32.999999999999929
 30
0.0
 11
444.15000000000191
 21
-25.999999999999869
 31
0.0
  0
LINE
  8
0
  6
CONTINUOUS
 62
               4
  5
2F7
 10
444.15000000000191
 20
-32.999999999999929
 30
0.0
 11
427.6500000000018
 21
-32.999999999999929
 31
0.0
  0
LINE
  8
0
  6
CONTINUOUS
 62
               4
  5
2F8
 10
418.82293853352417
 20
-29.599999999999838
 30
0.0
 11
421.77352599864003
 21
-29.599999999999838
 31
0.0
  0
LINE
  8
0
  6
CONTINUOUS
 62
               4
  5
2F9
 10
418.82293853352417
 20
-25.999999999999872
 30
0.0
 11
418.82293853352417
 21
-29.599999999999838
 31
0.0
  0
LINE
  8
0
  6
CONTINUOUS
 62
               4
  5
2FA
 10
444.15000000000191
 20
-25.999999999999869
 30
0.0
 11
418.82293853352417
 21
-25.999999999999872
 31
0.0
  0
LINE
  8
0
  6
CONTINUOUS
 62
               4
  5
2FB
 10
547.52293853352455
 20
-25.999999999999861
 30
0.0
 11
547.52293853352455
 21
-29.599999999999827
 31
0.0
  0
LINE
  8
0
  6
CONTINUOUS
 62
               4
  5
2FC
 10
547.52293853352455
 20
-29.599999999999827
 30
0.0
 11
562.4943412788117
 21
-29.599999999999824
 31
0.0
  0
LINE
  8
0
  6
CONTINUOUS
 62
               4
  5
2FD
 10
550.47352599864041
 20
-29.599999999999827
 30
0.0
 11
556.35000000000218
 21
-32.999999999999915
 31
0.0
  0
LINE
  8
0
  6
CONTINUOUS
 62
               4
  5
2FE
 10
559.54375381369584
 20
-25.999999999999861
 30
0.0
 11
559.54375381369584
 21
-29.599999999999827
 31
0.0
  0
LINE
  8
0
  6
CONTINUOUS
 62
               4
  5
2FF
 10
570.00685424949449
 20
-32.999999999999915
 30
0.0
 11
562.4943412788117
 21
-29.599999999999824
 31
0.0
  0
LINE
  8
0
  6
CONTINUOUS
 62
               4
  5
300
 10
572.85000000000218
 20
-32.999999999999915
 30
0.0
 11
556.35000000000218
 21
-32.999999999999915
 31
0.0
  0
LINE
  8
0
  6
CONTINUOUS
 62
               4
  5
301
 10
572.85000000000218
 20
-32.999999999999915
 30
0.0
 11
572.85000000000218
 21
-25.999999999999858
 31
0.0
  0
LINE
  8
0
  6
CONTINUOUS
 62
               4
  5
302
 10
572.85000000000218
 20
-25.999999999999858
 30
0.0
 11
547.52293853352455
 21
-25.999999999999861
 31
0.0
  0
LINE
  8
0
  6
DASHED2
 62
               4
  5
303
 10
-57.0
 20
181.00000000000057
 30
0.0
 11
57.0
 21
181.00000000000057
 31
0.0
  0
LINE
  8
0
  6
DASHED2
 62
               4
  5
304
 10
443.0
 20
181.00000000000057
 30
0.0
 11
557.0
 21
181.00000000000057
 31
0.0
  0
LINE
  8
0
  6
DASHED2
 62
               4
  5
305
 10
-557.0
 20
181.00000000000057
 30
0.0
 11
-443.0
 21
181.00000000000057
 31
0.0
  0
INSERT
  8
0
  6
CONTINUOUS
  5
306
  2
GROUP_1
 10
0.0
 20
0.0
 30
0.0
  0
INSERT
  8
0
  6
CONTINUOUS
  5
307
  2
GROUP_2
 10
0.0
 20
0.0
 30
0.0
  0
INSERT
  8
0
  6
CONTINUOUS
  5
308
  2
GROUP_3
 10
0.0
 20
0.0
 30
0.0
  0
INSERT
  8
0
  6
CONTINUOUS
  5
309
  2
GROUP_4
 10
0.0
 20
0.0
 30
0.0
  0
INSERT
  8
0
  6
CONTINUOUS
  5
30A
  2
GROUP_5
 10
0.0
 20
0.0
 30
0.0
  0
INSERT
  8
0
  6
CONTINUOUS
  5
30B
  2
GROUP_6
 10
0.0
 20
0.0
 30
0.0
  0
INSERT
  8
0
  6
CONTINUOUS
  5
30C
  2
GROUP_7
 10
0.0
 20
0.0
 30
0.0
  0
INSERT
  8
0
  6
CONTINUOUS
  5
30D
  2
GROUP_8
 10
0.0
 20
0.0
 30
0.0
  0
INSERT
  8
0
  6
CONTINUOUS
  5
30E
  2
GROUP_9
 10
0.0
 20
0.0
 30
0.0
  0
INSERT
  8
0
  6
CONTINUOUS
  5
30F
  2
GROUP_10
 10
0.0
 20
0.0
 30
0.0
  0
ENDSEC
  0
EOF
