  0
SECTION
  2
HEADER
  9
$ACADVER
  1
AC1009
  9
$INSBASE
 10
0.0
 20
0.0
 30
0.0
  9
$EXTMIN
 10
-701.96549389364679
 20
-1105.8417275894114
 30
0.0
  9
$EXTMAX
 10
658.13249025131415
 20
1124.719506080399
 30
0.0
  9
$LIMMIN
 10
-744.46855589817687
 20
-1175.546766141593
  9
$LIMMAX
 10
700.63555225584423
 20
1194.4245446325806
  9
$ORTHOMODE
 70
               0
  9
$REGENMODE
 70
               1
  9
$FILLMODE
 70
               1
  9
$QTEXTMODE
 70
               0
  9
$MIRRTEXT
 70
               1
  9
$DRAGMODE
 70
               2
  9
$LTSCALE
 40
1.0
  9
$OSMODE
 70
               0
  9
$ATTMODE
 70
               1
  9
$TEXTSIZE
 40
0.2
  9
$TRACEWID
 40
0.05
  9
$TEXTSTYLE
  7
STANDARD
  9
$CLAYER
  8
0
  9
$CELTYPE
  6
CONTINUOUS
  9
$CECOLOR
 62
             256
  9
$DIMSCALE
 40
1.0
  9
$DIMASZ
 40
0.18
  9
$DIMEXO
 40
0.0625
  9
$DIMDLI
 40
0.38
  9
$DIMRND
 40
0.0
  9
$DIMDLE
 40
0.0
  9
$DIMEXE
 40
0.18
  9
$DIMTP
 40
0.0
  9
$DIMTM
 40
0.0
  9
$DIMTXT
 40
0.18
  9
$DIMCEN
 40
0.09
  9
$DIMTSZ
 40
0.0
  9
$DIMTOL
 70
               0
  9
$DIMLIM
 70
               0
  9
$DIMTIH
 70
               1
  9
$DIMTOH
 70
               1
  9
$DIMSE1
 70
               0
  9
$DIMSE2
 70
               0
  9
$DIMTAD
 70
               0
  9
$DIMZIN
 70
               0
  9
$DIMBLK
  1

  9
$DIMASO
 70
               1
  9
$DIMSHO
 70
               1
  9
$DIMPOST
  1

  9
$DIMAPOST
  1

  9
$DIMALT
 70
               0
  9
$DIMALTD
 70
               2
  9
$DIMALTF
 40
25.399999999999999
  9
$DIMLFAC
 40
1.0
  9
$DIMTOFL
 70
               0
  9
$DIMTVP
 40
0.0
  9
$DIMTIX
 70
               0
  9
$DIMSOXD
 70
               0
  9
$DIMSAH
 70
               0
  9
$DIMBLK1
  1

  9
$DIMBLK2
  1

  9
$DIMSTYLE
  2
STANDARD
  9
$DIMCLRD
 70
               0
  9
$DIMCLRE
 70
               0
  9
$DIMCLRT
 70
               0
  9
$DIMTFAC
 40
1.0
  9
$DIMGAP
 40
0.09
  9
$LUNITS
 70
               2
  9
$LUPREC
 70
               4
  9
$AXISMODE
 70
               0
  9
$AXISUNIT
 10
0.0
 20
0.0
  9
$SKETCHINC
 40
0.1
  9
$FILLETRAD
 40
0.0
  9
$AUNITS
 70
               0
  9
$AUPREC
 70
               0
  9
$MENU
  1
acad
  9
$ELEVATION
 40
0.0
  9
$PELEVATION
 40
0.0
  9
$THICKNESS
 40
0.0
  9
$LIMCHECK
 70
               0
  9
$BLIPMODE
 70
               1
  9
$CHAMFERA
 40
0.0
  9
$CHAMFERB
 40
0.0
  9
$SKPOLY
 70
               0
  9
$TDCREATE
 40
0.000000000
  9
$TDUPDATE
 40
0.000000000
  9
$TDINDWG
 40
0.0000000000
  9
$TDUSRTIMER
 40
0.0000000000
  9
$USRTIMER
 70
               1
  9
$ANGBASE
 50
0.0
  9
$ANGDIR
 70
               0
  9
$PDMODE
 70
               0
  9
$PDSIZE
 40
1.0
  9
$PLINEWID
 40
0.0
  9
$COORDS
 70
               1
  9
$SPLFRAME
 70
               0
  9
$SPLINETYPE
 70
               6
  9
$SPLINESEGS
 70
               8
  9
$ATTDIA
 70
               0
  9
$ATTREQ
 70
               1
  9
$HANDLING
 70
               1
  9
$HANDSEED
  5
423
  9
$SURFTAB1
 70
               6
  9
$SURFTAB2
 70
               6
  9
$SURFTYPE
 70
               6
  9
$SURFU
 70
               6
  9
$SURFV
 70
               6
  9
$UCSNAME
  2

  9
$UCSORG
 10
0.0
 20
0.0
 30
0.0
  9
$UCSXDIR
 10
1.0
 20
0.0
 30
0.0
  9
$UCSYDIR
 10
0.0
 20
1.0
 30
0.0
  9
$PUCSNAME
  2

  9
$PUCSORG
 10
0.0
 20
0.0
 30
0.0
  9
$PUCSXDIR
 10
1.0
 20
0.0
 30
0.0
  9
$PUCSYDIR
 10
0.0
 20
1.0
 30
0.0
  9
$USERI1
 70
               0
  9
$USERI2
 70
               0
  9
$USERI3
 70
               0
  9
$USERI4
 70
               0
  9
$USERI5
 70
               0
  9
$USERR1
 40
0.0
  9
$USERR2
 40
0.0
  9
$USERR3
 40
0.0
  9
$USERR4
 40
0.0
  9
$USERR5
 40
0.0
  9
$WORLDVIEW
 70
               1
  9
$SHADEDGE
 70
               3
  9
$SHADEDIF
 70
              70
  9
$TILEMODE
 70
               1
  9
$MAXACTVP
 70
              16
  9
$PINSBASE
 10
0.0
 20
0.0
 30
0.0
  9
$PLIMCHECK
 70
               0
  9
$PEXTMIN
 10
1.0000000000000000E+20
 20
1.0000000000000000E+20
 30
1.0000000000000000E+20
  9
$PEXTMAX
 10
-1.0000000000000000E+20
 20
-1.0000000000000000E+20
 30
-1.0000000000000000E+20
  9
$PLIMMIN
 10
0.0
 20
0.0
  9
$PLIMMAX
 10
12.0
 20
9.0
  9
$UNITMODE
 70
               0
  9
$VISRETAIN
 70
               0
  9
$PLINEGEN
 70
               1
  9
$PSLTSCALE
 70
               0
  9
$TREEDEPTH
 70
            3020
  9
$DWGCODEPAGE
  3
dos932
  0
ENDSEC
  0
SECTION
  2
TABLES
  0
TABLE
  2
VPORT
 70
               1
  0
VPORT
  2
*ACTIVE
 70
               0
 10
0.0
 20
0.0
 11
1.0
 21
1.0
 12
-21.916501821166321
 22
9.4388892454937832
 13
0.0
 23
0.0
 14
1.0
 24
1.0
 15
0.0
 25
0.0
 16
0.0
 26
0.0
 36
1.0
 17
0.0
 27
0.0
 37
0.0
 40
2369.9713107741736
 41
0.6097559500338272
 42
50.0
 43
0.0
 44
0.0
 50
0.0
 51
0.0
 71
               0
 72
             100
 73
               1
 74
               1
 75
               0
 76
               0
 77
               0
 78
               0
  0
ENDTAB
  0
TABLE
  2
LTYPE
 70
              26
  0
LTYPE
  2
CONTINUOUS
 70
               0
  3
Solid line
 72
              65
 73
               0
 40
0.0
  0
LTYPE
  2
HIDDENX2
 70
               0
  3
CADPAC FUSION LINETYPE
 72
              65
 73
               2
 40
47.560000000000002
 49
35.670000000000002
 49
-11.890000000000001
  0
LTYPE
  2
HIDDEN
 70
               0
  3
CADPAC FUSION LINETYPE
 72
              65
 73
               2
 40
35.670000000000002
 49
23.780000000000001
 49
-11.890000000000001
  0
LTYPE
  2
HIDDEN2
 70
               0
  3
CADPAC FUSION LINETYPE
 72
              65
 73
               2
 40
29.725000000000001
 49
17.835000000000001
 49
-11.890000000000001
  0
LTYPE
  2
DASHED
 70
               0
  3
CADPAC FUSION LINETYPE
 72
              65
 73
               2
 40
35.670000000000002
 49
23.780000000000001
 49
-11.890000000000001
  0
LTYPE
  2
DASHED2
 70
               0
  3
CADPAC FUSION LINETYPE
 72
              65
 73
               2
 40
26.752500000000001
 49
17.835000000000001
 49
-8.9175000000000004
  0
LTYPE
  2
DASHEDX2
 70
               0
  3
CADPAC FUSION LINETYPE
 72
              65
 73
               2
 40
53.505000000000003
 49
35.670000000000002
 49
-17.835000000000001
  0
LTYPE
  2
DOTX2
 70
               0
  3
CADPAC FUSION LINETYPE
 72
              65
 73
               2
 40
14.862500000000001
 49
0.0
 49
-14.862500000000001
  0
LTYPE
  2
DOT
 70
               0
  3
CADPAC FUSION LINETYPE
 72
              65
 73
               2
 40
11.890000000000001
 49
0.0
 49
-11.890000000000001
  0
LTYPE
  2
DOTS
 70
               0
  3
CADPAC FUSION LINETYPE
 72
              65
 73
               2
 40
11.890000000000001
 49
0.0
 49
-11.890000000000001
  0
LTYPE
  2
DOT2
 70
               0
  3
CADPAC FUSION LINETYPE
 72
              65
 73
               2
 40
8.9175000000000004
 49
0.0
 49
-8.9175000000000004
  0
LTYPE
  2
CENTERX2
 70
               0
  3
CADPAC FUSION LINETYPE
 72
              65
 73
               4
 40
71.340000000000003
 49
29.725000000000001
 49
-14.862500000000001
 49
11.890000000000001
 49
-14.862500000000001
  0
LTYPE
  2
CENTER
 70
               0
  3
CADPAC FUSION LINETYPE
 72
              65
 73
               4
 40
54.694000000000003
 49
23.780000000000001
 49
-11.890000000000001
 49
7.1340000000000003
 49
-11.890000000000001
  0
LTYPE
  2
CENTER2
 70
               0
  3
CADPAC FUSION LINETYPE
 72
              65
 73
               4
 40
38.048000000000002
 49
17.835000000000001
 49
-8.9175000000000004
 49
2.3780000000000001
 49
-8.9175000000000004
  0
LTYPE
  2
DASHDOTX2
 70
               0
  3
CADPAC FUSION LINETYPE
 72
              65
 73
               4
 40
59.450000000000003
 49
29.725000000000001
 49
-14.862500000000001
 49
0.0
 49
-14.862500000000001
  0
LTYPE
  2
DASHDOT
 70
               0
  3
CADPAC FUSION LINETYPE
 72
              65
 73
               4
 40
47.560000000000002
 49
23.780000000000001
 49
-11.890000000000001
 49
0.0
 49
-11.890000000000001
  0
LTYPE
  2
DASHDOT2
 70
               0
  3
CADPAC FUSION LINETYPE
 72
              65
 73
               4
 40
35.670000000000002
 49
17.835000000000001
 49
-8.9175000000000004
 49
0.0
 49
-8.9175000000000004
  0
LTYPE
  2
DIVIDEX2
 70
               0
  3
CADPAC FUSION LINETYPE
 72
              65
 73
               6
 40
74.3125
 49
29.725000000000001
 49
-14.862500000000001
 49
0.0
 49
-14.862500000000001
 49
0.0
 49
-14.862500000000001
  0
LTYPE
  2
DIVIDE
 70
               0
  3
CADPAC FUSION LINETYPE
 72
              65
 73
               6
 40
59.450000000000003
 49
23.780000000000001
 49
-11.890000000000001
 49
0.0
 49
-11.890000000000001
 49
0.0
 49
-11.890000000000001
  0
LTYPE
  2
DIVIDE2
 70
               0
  3
CADPAC FUSION LINETYPE
 72
              65
 73
               6
 40
44.587500000000006
 49
17.835000000000001
 49
-8.9175000000000004
 49
0.0
 49
-8.9175000000000004
 49
0.0
 49
-8.9175000000000004
  0
LTYPE
  2
BORDERX2
 70
               0
  3
CADPAC FUSION LINETYPE
 72
              65
 73
               6
 40
104.03750000000001
 49
29.725000000000001
 49
-14.862500000000001
 49
29.725000000000001
 49
-14.862500000000001
 49
0.0
 49
-14.862500000000001
  0
LTYPE
  2
BORDER
 70
               0
  3
CADPAC FUSION LINETYPE
 72
              65
 73
               6
 40
83.230000000000004
 49
23.780000000000001
 49
-11.890000000000001
 49
23.780000000000001
 49
-11.890000000000001
 49
0.0
 49
-11.890000000000001
  0
LTYPE
  2
BORDER2
 70
               0
  3
CADPAC FUSION LINETYPE
 72
              65
 73
               6
 40
62.422499999999999
 49
17.835000000000001
 49
-8.9175000000000004
 49
17.835000000000001
 49
-8.9175000000000004
 49
0.0
 49
-8.9175000000000004
  0
LTYPE
  2
PHANTOMX2
 70
               0
  3
CADPAC FUSION LINETYPE
 72
              65
 73
               6
 40
89.175000000000011
 49
29.725000000000001
 49
-11.890000000000001
 49
11.890000000000001
 49
-11.890000000000001
 49
11.890000000000001
 49
-11.890000000000001
  0
LTYPE
  2
PHANTOM
 70
               0
  3
CADPAC FUSION LINETYPE
 72
              65
 73
               6
 40
73.718000000000004
 49
23.780000000000001
 49
-11.890000000000001
 49
7.1340000000000003
 49
-11.890000000000001
 49
7.1340000000000003
 49
-11.890000000000001
  0
LTYPE
  2
PHANTOM2
 70
               0
  3
CADPAC FUSION LINETYPE
 72
              65
 73
               6
 40
63.017000000000003
 49
17.835000000000001
 49
-11.890000000000001
 49
4.7560000000000002
 49
-11.890000000000001
 49
4.7560000000000002
 49
-11.890000000000001
  0
ENDTAB
  0
TABLE
  2
LAYER
 70
             256
  0
LAYER
  2
0
 70
               0
 62
               7
  6
CONTINUOUS
  0
LAYER
  2
LAYER001
 70
               0
 62
               7
  6
CONTINUOUS
  0
LAYER
  2
LAYER002
 70
               0
 62
               7
  6
CONTINUOUS
  0
LAYER
  2
LAYER003
 70
               0
 62
               7
  6
CONTINUOUS
  0
LAYER
  2
LAYER004
 70
               0
 62
               7
  6
CONTINUOUS
  0
LAYER
  2
LAYER005
 70
               0
 62
               7
  6
CONTINUOUS
  0
LAYER
  2
LAYER006
 70
               0
 62
               7
  6
CONTINUOUS
  0
LAYER
  2
LAYER007
 70
               0
 62
               7
  6
CONTINUOUS
  0
LAYER
  2
LAYER008
 70
               0
 62
               7
  6
CONTINUOUS
  0
LAYER
  2
LAYER009
 70
               0
 62
               7
  6
CONTINUOUS
  0
LAYER
  2
LAYER010
 70
               0
 62
               7
  6
CONTINUOUS
  0
LAYER
  2
LAYER011
 70
               0
 62
               7
  6
CONTINUOUS
  0
LAYER
  2
LAYER012
 70
               0
 62
               7
  6
CONTINUOUS
  0
LAYER
  2
LAYER013
 70
               0
 62
               7
  6
CONTINUOUS
  0
LAYER
  2
LAYER014
 70
               0
 62
               7
  6
CONTINUOUS
  0
LAYER
  2
LAYER015
 70
               0
 62
               7
  6
CONTINUOUS
  0
LAYER
  2
LAYER016
 70
               0
 62
               7
  6
CONTINUOUS
  0
LAYER
  2
LAYER017
 70
               0
 62
               7
  6
CONTINUOUS
  0
LAYER
  2
LAYER018
 70
               0
 62
               7
  6
CONTINUOUS
  0
LAYER
  2
LAYER019
 70
               0
 62
               7
  6
CONTINUOUS
  0
LAYER
  2
LAYER020
 70
               0
 62
               7
  6
CONTINUOUS
  0
LAYER
  2
LAYER021
 70
               0
 62
               7
  6
CONTINUOUS
  0
LAYER
  2
LAYER022
 70
               0
 62
               7
  6
CONTINUOUS
  0
LAYER
  2
LAYER023
 70
               0
 62
               7
  6
CONTINUOUS
  0
LAYER
  2
LAYER024
 70
               0
 62
               7
  6
CONTINUOUS
  0
LAYER
  2
LAYER025
 70
               0
 62
               7
  6
CONTINUOUS
  0
LAYER
  2
LAYER026
 70
               0
 62
               7
  6
CONTINUOUS
  0
LAYER
  2
LAYER027
 70
               0
 62
               7
  6
CONTINUOUS
  0
LAYER
  2
LAYER028
 70
               0
 62
               7
  6
CONTINUOUS
  0
LAYER
  2
LAYER029
 70
               0
 62
               7
  6
CONTINUOUS
  0
LAYER
  2
LAYER030
 70
               0
 62
               7
  6
CONTINUOUS
  0
LAYER
  2
LAYER031
 70
               0
 62
               7
  6
CONTINUOUS
  0
LAYER
  2
LAYER032
 70
               0
 62
               7
  6
CONTINUOUS
  0
LAYER
  2
LAYER033
 70
               0
 62
               7
  6
CONTINUOUS
  0
LAYER
  2
LAYER034
 70
               0
 62
               7
  6
CONTINUOUS
  0
LAYER
  2
LAYER035
 70
               0
 62
               7
  6
CONTINUOUS
  0
LAYER
  2
LAYER036
 70
               0
 62
               7
  6
CONTINUOUS
  0
LAYER
  2
LAYER037
 70
               0
 62
               7
  6
CONTINUOUS
  0
LAYER
  2
LAYER038
 70
               0
 62
               7
  6
CONTINUOUS
  0
LAYER
  2
LAYER039
 70
               0
 62
               7
  6
CONTINUOUS
  0
LAYER
  2
LAYER040
 70
               0
 62
               7
  6
CONTINUOUS
  0
LAYER
  2
LAYER041
 70
               0
 62
               7
  6
CONTINUOUS
  0
LAYER
  2
LAYER042
 70
               0
 62
               7
  6
CONTINUOUS
  0
LAYER
  2
LAYER043
 70
               0
 62
               7
  6
CONTINUOUS
  0
LAYER
  2
LAYER044
 70
               0
 62
               7
  6
CONTINUOUS
  0
LAYER
  2
LAYER045
 70
               0
 62
               7
  6
CONTINUOUS
  0
LAYER
  2
LAYER046
 70
               0
 62
               7
  6
CONTINUOUS
  0
LAYER
  2
LAYER047
 70
               0
 62
               7
  6
CONTINUOUS
  0
LAYER
  2
LAYER048
 70
               0
 62
               7
  6
CONTINUOUS
  0
LAYER
  2
LAYER049
 70
               0
 62
               7
  6
CONTINUOUS
  0
LAYER
  2
LAYER050
 70
               0
 62
               7
  6
CONTINUOUS
  0
LAYER
  2
LAYER051
 70
               0
 62
               7
  6
CONTINUOUS
  0
LAYER
  2
LAYER052
 70
               0
 62
               7
  6
CONTINUOUS
  0
LAYER
  2
LAYER053
 70
               0
 62
               7
  6
CONTINUOUS
  0
LAYER
  2
LAYER054
 70
               0
 62
               7
  6
CONTINUOUS
  0
LAYER
  2
LAYER055
 70
               0
 62
               7
  6
CONTINUOUS
  0
LAYER
  2
LAYER056
 70
               0
 62
               7
  6
CONTINUOUS
  0
LAYER
  2
LAYER057
 70
               0
 62
               7
  6
CONTINUOUS
  0
LAYER
  2
LAYER058
 70
               0
 62
               7
  6
CONTINUOUS
  0
LAYER
  2
LAYER059
 70
               0
 62
               7
  6
CONTINUOUS
  0
LAYER
  2
LAYER060
 70
               0
 62
               7
  6
CONTINUOUS
  0
LAYER
  2
LAYER061
 70
               0
 62
               7
  6
CONTINUOUS
  0
LAYER
  2
LAYER062
 70
               0
 62
               7
  6
CONTINUOUS
  0
LAYER
  2
LAYER063
 70
               0
 62
               7
  6
CONTINUOUS
  0
LAYER
  2
LAYER064
 70
               0
 62
               7
  6
CONTINUOUS
  0
LAYER
  2
LAYER065
 70
               0
 62
               7
  6
CONTINUOUS
  0
LAYER
  2
LAYER066
 70
               0
 62
               7
  6
CONTINUOUS
  0
LAYER
  2
LAYER067
 70
               0
 62
               7
  6
CONTINUOUS
  0
LAYER
  2
LAYER068
 70
               0
 62
               7
  6
CONTINUOUS
  0
LAYER
  2
LAYER069
 70
               0
 62
               7
  6
CONTINUOUS
  0
LAYER
  2
LAYER070
 70
               0
 62
               7
  6
CONTINUOUS
  0
LAYER
  2
LAYER071
 70
               0
 62
               7
  6
CONTINUOUS
  0
LAYER
  2
LAYER072
 70
               0
 62
               7
  6
CONTINUOUS
  0
LAYER
  2
LAYER073
 70
               0
 62
               7
  6
CONTINUOUS
  0
LAYER
  2
LAYER074
 70
               0
 62
               7
  6
CONTINUOUS
  0
LAYER
  2
LAYER075
 70
               0
 62
               7
  6
CONTINUOUS
  0
LAYER
  2
LAYER076
 70
               0
 62
               7
  6
CONTINUOUS
  0
LAYER
  2
LAYER077
 70
               0
 62
               7
  6
CONTINUOUS
  0
LAYER
  2
LAYER078
 70
               0
 62
               7
  6
CONTINUOUS
  0
LAYER
  2
LAYER079
 70
               0
 62
               7
  6
CONTINUOUS
  0
LAYER
  2
LAYER080
 70
               0
 62
               7
  6
CONTINUOUS
  0
LAYER
  2
LAYER081
 70
               0
 62
               7
  6
CONTINUOUS
  0
LAYER
  2
LAYER082
 70
               0
 62
               7
  6
CONTINUOUS
  0
LAYER
  2
LAYER083
 70
               0
 62
               7
  6
CONTINUOUS
  0
LAYER
  2
LAYER084
 70
               0
 62
               7
  6
CONTINUOUS
  0
LAYER
  2
LAYER085
 70
               0
 62
               7
  6
CONTINUOUS
  0
LAYER
  2
LAYER086
 70
               0
 62
               7
  6
CONTINUOUS
  0
LAYER
  2
LAYER087
 70
               0
 62
               7
  6
CONTINUOUS
  0
LAYER
  2
LAYER088
 70
               0
 62
               7
  6
CONTINUOUS
  0
LAYER
  2
LAYER089
 70
               0
 62
               7
  6
CONTINUOUS
  0
LAYER
  2
LAYER090
 70
               0
 62
               7
  6
CONTINUOUS
  0
LAYER
  2
LAYER091
 70
               0
 62
               7
  6
CONTINUOUS
  0
LAYER
  2
LAYER092
 70
               0
 62
               7
  6
CONTINUOUS
  0
LAYER
  2
LAYER093
 70
               0
 62
               7
  6
CONTINUOUS
  0
LAYER
  2
LAYER094
 70
               0
 62
               7
  6
CONTINUOUS
  0
LAYER
  2
LAYER095
 70
               0
 62
               7
  6
CONTINUOUS
  0
LAYER
  2
LAYER096
 70
               0
 62
               7
  6
CONTINUOUS
  0
LAYER
  2
LAYER097
 70
               0
 62
               7
  6
CONTINUOUS
  0
LAYER
  2
LAYER098
 70
               0
 62
               7
  6
CONTINUOUS
  0
LAYER
  2
LAYER099
 70
               0
 62
               7
  6
CONTINUOUS
  0
LAYER
  2
LAYER100
 70
               0
 62
               7
  6
CONTINUOUS
  0
LAYER
  2
LAYER101
 70
               0
 62
               7
  6
CONTINUOUS
  0
LAYER
  2
LAYER102
 70
               0
 62
               7
  6
CONTINUOUS
  0
LAYER
  2
LAYER103
 70
               0
 62
               7
  6
CONTINUOUS
  0
LAYER
  2
LAYER104
 70
               0
 62
               7
  6
CONTINUOUS
  0
LAYER
  2
LAYER105
 70
               0
 62
               7
  6
CONTINUOUS
  0
LAYER
  2
LAYER106
 70
               0
 62
               7
  6
CONTINUOUS
  0
LAYER
  2
LAYER107
 70
               0
 62
               7
  6
CONTINUOUS
  0
LAYER
  2
LAYER108
 70
               0
 62
               7
  6
CONTINUOUS
  0
LAYER
  2
LAYER109
 70
               0
 62
               7
  6
CONTINUOUS
  0
LAYER
  2
LAYER110
 70
               0
 62
               7
  6
CONTINUOUS
  0
LAYER
  2
LAYER111
 70
               0
 62
               7
  6
CONTINUOUS
  0
LAYER
  2
LAYER112
 70
               0
 62
               7
  6
CONTINUOUS
  0
LAYER
  2
LAYER113
 70
               0
 62
               7
  6
CONTINUOUS
  0
LAYER
  2
LAYER114
 70
               0
 62
               7
  6
CONTINUOUS
  0
LAYER
  2
LAYER115
 70
               0
 62
               7
  6
CONTINUOUS
  0
LAYER
  2
LAYER116
 70
               0
 62
               7
  6
CONTINUOUS
  0
LAYER
  2
LAYER117
 70
               0
 62
               7
  6
CONTINUOUS
  0
LAYER
  2
LAYER118
 70
               0
 62
               7
  6
CONTINUOUS
  0
LAYER
  2
LAYER119
 70
               0
 62
               7
  6
CONTINUOUS
  0
LAYER
  2
LAYER120
 70
               0
 62
               7
  6
CONTINUOUS
  0
LAYER
  2
LAYER121
 70
               0
 62
               7
  6
CONTINUOUS
  0
LAYER
  2
LAYER122
 70
               0
 62
               7
  6
CONTINUOUS
  0
LAYER
  2
LAYER123
 70
               0
 62
               7
  6
CONTINUOUS
  0
LAYER
  2
LAYER124
 70
               0
 62
               7
  6
CONTINUOUS
  0
LAYER
  2
LAYER125
 70
               0
 62
               7
  6
CONTINUOUS
  0
LAYER
  2
LAYER126
 70
               0
 62
               7
  6
CONTINUOUS
  0
LAYER
  2
LAYER127
 70
               0
 62
               7
  6
CONTINUOUS
  0
LAYER
  2
LAYER128
 70
               0
 62
               7
  6
CONTINUOUS
  0
LAYER
  2
LAYER129
 70
               0
 62
               7
  6
CONTINUOUS
  0
LAYER
  2
LAYER130
 70
               0
 62
               7
  6
CONTINUOUS
  0
LAYER
  2
LAYER131
 70
               0
 62
               7
  6
CONTINUOUS
  0
LAYER
  2
LAYER132
 70
               0
 62
               7
  6
CONTINUOUS
  0
LAYER
  2
LAYER133
 70
               0
 62
               7
  6
CONTINUOUS
  0
LAYER
  2
LAYER134
 70
               0
 62
               7
  6
CONTINUOUS
  0
LAYER
  2
LAYER135
 70
               0
 62
               7
  6
CONTINUOUS
  0
LAYER
  2
LAYER136
 70
               0
 62
               7
  6
CONTINUOUS
  0
LAYER
  2
LAYER137
 70
               0
 62
               7
  6
CONTINUOUS
  0
LAYER
  2
LAYER138
 70
               0
 62
               7
  6
CONTINUOUS
  0
LAYER
  2
LAYER139
 70
               0
 62
               7
  6
CONTINUOUS
  0
LAYER
  2
LAYER140
 70
               0
 62
               7
  6
CONTINUOUS
  0
LAYER
  2
LAYER141
 70
               0
 62
               7
  6
CONTINUOUS
  0
LAYER
  2
LAYER142
 70
               0
 62
               7
  6
CONTINUOUS
  0
LAYER
  2
LAYER143
 70
               0
 62
               7
  6
CONTINUOUS
  0
LAYER
  2
LAYER144
 70
               0
 62
               7
  6
CONTINUOUS
  0
LAYER
  2
LAYER145
 70
               0
 62
               7
  6
CONTINUOUS
  0
LAYER
  2
LAYER146
 70
               0
 62
               7
  6
CONTINUOUS
  0
LAYER
  2
LAYER147
 70
               0
 62
               7
  6
CONTINUOUS
  0
LAYER
  2
LAYER148
 70
               0
 62
               7
  6
CONTINUOUS
  0
LAYER
  2
LAYER149
 70
               0
 62
               7
  6
CONTINUOUS
  0
LAYER
  2
LAYER150
 70
               0
 62
               7
  6
CONTINUOUS
  0
LAYER
  2
LAYER151
 70
               0
 62
               7
  6
CONTINUOUS
  0
LAYER
  2
LAYER152
 70
               0
 62
               7
  6
CONTINUOUS
  0
LAYER
  2
LAYER153
 70
               0
 62
               7
  6
CONTINUOUS
  0
LAYER
  2
LAYER154
 70
               0
 62
               7
  6
CONTINUOUS
  0
LAYER
  2
LAYER155
 70
               0
 62
               7
  6
CONTINUOUS
  0
LAYER
  2
LAYER156
 70
               0
 62
               7
  6
CONTINUOUS
  0
LAYER
  2
LAYER157
 70
               0
 62
               7
  6
CONTINUOUS
  0
LAYER
  2
LAYER158
 70
               0
 62
               7
  6
CONTINUOUS
  0
LAYER
  2
LAYER159
 70
               0
 62
               7
  6
CONTINUOUS
  0
LAYER
  2
LAYER160
 70
               0
 62
               7
  6
CONTINUOUS
  0
LAYER
  2
LAYER161
 70
               0
 62
               7
  6
CONTINUOUS
  0
LAYER
  2
LAYER162
 70
               0
 62
               7
  6
CONTINUOUS
  0
LAYER
  2
LAYER163
 70
               0
 62
               7
  6
CONTINUOUS
  0
LAYER
  2
LAYER164
 70
               0
 62
               7
  6
CONTINUOUS
  0
LAYER
  2
LAYER165
 70
               0
 62
               7
  6
CONTINUOUS
  0
LAYER
  2
LAYER166
 70
               0
 62
               7
  6
CONTINUOUS
  0
LAYER
  2
LAYER167
 70
               0
 62
               7
  6
CONTINUOUS
  0
LAYER
  2
LAYER168
 70
               0
 62
               7
  6
CONTINUOUS
  0
LAYER
  2
LAYER169
 70
               0
 62
               7
  6
CONTINUOUS
  0
LAYER
  2
LAYER170
 70
               0
 62
               7
  6
CONTINUOUS
  0
LAYER
  2
LAYER171
 70
               0
 62
               7
  6
CONTINUOUS
  0
LAYER
  2
LAYER172
 70
               0
 62
               7
  6
CONTINUOUS
  0
LAYER
  2
LAYER173
 70
               0
 62
               7
  6
CONTINUOUS
  0
LAYER
  2
LAYER174
 70
               0
 62
               7
  6
CONTINUOUS
  0
LAYER
  2
LAYER175
 70
               0
 62
               7
  6
CONTINUOUS
  0
LAYER
  2
LAYER176
 70
               0
 62
               7
  6
CONTINUOUS
  0
LAYER
  2
LAYER177
 70
               0
 62
               7
  6
CONTINUOUS
  0
LAYER
  2
LAYER178
 70
               0
 62
               7
  6
CONTINUOUS
  0
LAYER
  2
LAYER179
 70
               0
 62
               7
  6
CONTINUOUS
  0
LAYER
  2
LAYER180
 70
               0
 62
               7
  6
CONTINUOUS
  0
LAYER
  2
LAYER181
 70
               0
 62
               7
  6
CONTINUOUS
  0
LAYER
  2
LAYER182
 70
               0
 62
               7
  6
CONTINUOUS
  0
LAYER
  2
LAYER183
 70
               0
 62
               7
  6
CONTINUOUS
  0
LAYER
  2
LAYER184
 70
               0
 62
               7
  6
CONTINUOUS
  0
LAYER
  2
LAYER185
 70
               0
 62
               7
  6
CONTINUOUS
  0
LAYER
  2
LAYER186
 70
               0
 62
               7
  6
CONTINUOUS
  0
LAYER
  2
LAYER187
 70
               0
 62
               7
  6
CONTINUOUS
  0
LAYER
  2
LAYER188
 70
               0
 62
               7
  6
CONTINUOUS
  0
LAYER
  2
LAYER189
 70
               0
 62
               7
  6
CONTINUOUS
  0
LAYER
  2
LAYER190
 70
               0
 62
               7
  6
CONTINUOUS
  0
LAYER
  2
LAYER191
 70
               0
 62
               7
  6
CONTINUOUS
  0
LAYER
  2
LAYER192
 70
               0
 62
               7
  6
CONTINUOUS
  0
LAYER
  2
LAYER193
 70
               0
 62
               7
  6
CONTINUOUS
  0
LAYER
  2
LAYER194
 70
               0
 62
               7
  6
CONTINUOUS
  0
LAYER
  2
LAYER195
 70
               0
 62
               7
  6
CONTINUOUS
  0
LAYER
  2
LAYER196
 70
               0
 62
               7
  6
CONTINUOUS
  0
LAYER
  2
LAYER197
 70
               0
 62
               7
  6
CONTINUOUS
  0
LAYER
  2
LAYER198
 70
               0
 62
               7
  6
CONTINUOUS
  0
LAYER
  2
LAYER199
 70
               0
 62
               7
  6
CONTINUOUS
  0
LAYER
  2
LAYER200
 70
               0
 62
               7
  6
CONTINUOUS
  0
LAYER
  2
LAYER201
 70
               0
 62
               7
  6
CONTINUOUS
  0
LAYER
  2
LAYER202
 70
               0
 62
               7
  6
CONTINUOUS
  0
LAYER
  2
LAYER203
 70
               0
 62
               7
  6
CONTINUOUS
  0
LAYER
  2
LAYER204
 70
               0
 62
               7
  6
CONTINUOUS
  0
LAYER
  2
LAYER205
 70
               0
 62
               7
  6
CONTINUOUS
  0
LAYER
  2
LAYER206
 70
               0
 62
               7
  6
CONTINUOUS
  0
LAYER
  2
LAYER207
 70
               0
 62
               7
  6
CONTINUOUS
  0
LAYER
  2
LAYER208
 70
               0
 62
               7
  6
CONTINUOUS
  0
LAYER
  2
LAYER209
 70
               0
 62
               7
  6
CONTINUOUS
  0
LAYER
  2
LAYER210
 70
               0
 62
               7
  6
CONTINUOUS
  0
LAYER
  2
LAYER211
 70
               0
 62
               7
  6
CONTINUOUS
  0
LAYER
  2
LAYER212
 70
               0
 62
               7
  6
CONTINUOUS
  0
LAYER
  2
LAYER213
 70
               0
 62
               7
  6
CONTINUOUS
  0
LAYER
  2
LAYER214
 70
               0
 62
               7
  6
CONTINUOUS
  0
LAYER
  2
LAYER215
 70
               0
 62
               7
  6
CONTINUOUS
  0
LAYER
  2
LAYER216
 70
               0
 62
               7
  6
CONTINUOUS
  0
LAYER
  2
LAYER217
 70
               0
 62
               7
  6
CONTINUOUS
  0
LAYER
  2
LAYER218
 70
               0
 62
               7
  6
CONTINUOUS
  0
LAYER
  2
LAYER219
 70
               0
 62
               7
  6
CONTINUOUS
  0
LAYER
  2
LAYER220
 70
               0
 62
               7
  6
CONTINUOUS
  0
LAYER
  2
LAYER221
 70
               0
 62
               7
  6
CONTINUOUS
  0
LAYER
  2
LAYER222
 70
               0
 62
               7
  6
CONTINUOUS
  0
LAYER
  2
LAYER223
 70
               0
 62
               7
  6
CONTINUOUS
  0
LAYER
  2
LAYER224
 70
               0
 62
               7
  6
CONTINUOUS
  0
LAYER
  2
LAYER225
 70
               0
 62
               7
  6
CONTINUOUS
  0
LAYER
  2
LAYER226
 70
               0
 62
               7
  6
CONTINUOUS
  0
LAYER
  2
LAYER227
 70
               0
 62
               7
  6
CONTINUOUS
  0
LAYER
  2
LAYER228
 70
               0
 62
               7
  6
CONTINUOUS
  0
LAYER
  2
LAYER229
 70
               0
 62
               7
  6
CONTINUOUS
  0
LAYER
  2
LAYER230
 70
               0
 62
               7
  6
CONTINUOUS
  0
LAYER
  2
LAYER231
 70
               0
 62
               7
  6
CONTINUOUS
  0
LAYER
  2
LAYER232
 70
               0
 62
               7
  6
CONTINUOUS
  0
LAYER
  2
LAYER233
 70
               0
 62
               7
  6
CONTINUOUS
  0
LAYER
  2
LAYER234
 70
               0
 62
               7
  6
CONTINUOUS
  0
LAYER
  2
LAYER235
 70
               0
 62
               7
  6
CONTINUOUS
  0
LAYER
  2
LAYER236
 70
               0
 62
               7
  6
CONTINUOUS
  0
LAYER
  2
LAYER237
 70
               0
 62
               7
  6
CONTINUOUS
  0
LAYER
  2
LAYER238
 70
               0
 62
               7
  6
CONTINUOUS
  0
LAYER
  2
LAYER239
 70
               0
 62
               7
  6
CONTINUOUS
  0
LAYER
  2
LAYER240
 70
               0
 62
               7
  6
CONTINUOUS
  0
LAYER
  2
LAYER241
 70
               0
 62
               7
  6
CONTINUOUS
  0
LAYER
  2
LAYER242
 70
               0
 62
               7
  6
CONTINUOUS
  0
LAYER
  2
LAYER243
 70
               0
 62
               7
  6
CONTINUOUS
  0
LAYER
  2
LAYER244
 70
               0
 62
               7
  6
CONTINUOUS
  0
LAYER
  2
LAYER245
 70
               0
 62
               7
  6
CONTINUOUS
  0
LAYER
  2
LAYER246
 70
               0
 62
               7
  6
CONTINUOUS
  0
LAYER
  2
LAYER247
 70
               0
 62
               7
  6
CONTINUOUS
  0
LAYER
  2
LAYER248
 70
               0
 62
               7
  6
CONTINUOUS
  0
LAYER
  2
LAYER249
 70
               0
 62
               7
  6
CONTINUOUS
  0
LAYER
  2
LAYER250
 70
               0
 62
               7
  6
CONTINUOUS
  0
LAYER
  2
LAYER251
 70
               0
 62
               7
  6
CONTINUOUS
  0
LAYER
  2
LAYER252
 70
               0
 62
               7
  6
CONTINUOUS
  0
LAYER
  2
LAYER253
 70
               0
 62
               7
  6
CONTINUOUS
  0
LAYER
  2
LAYER254
 70
               0
 62
               7
  6
CONTINUOUS
  0
LAYER
  2
LAYER255
 70
               0
 62
               7
  6
CONTINUOUS
  0
ENDTAB
  0
TABLE
  2
STYLE
 70
               1
  0
STYLE
  2
STANDARD
 70
               0
 40
0.0
 41
0.8
 50
0.0
 71
               0
 42
40.0
  3
MS PGothic.ttf
  4

  0
ENDTAB
  0
TABLE
  2
VIEW
 70
               0
  0
VIEW
  2
QQQQ
 70
               0
 40
2369.9713107741736
 10
-21.916501821166321
 20
9.4388892454937832
 41
1445.1041081540211
 11
0.0
 21
0.0
 31
1.0
 12
100.0
 22
100.0
 32
0.0
 42
50.0
 43
0.0
 44
0.0
 50
0.0
 71
               0
  0
ENDTAB
  0
TABLE
  2
UCS
 70
               0
  0
ENDTAB
  0
TABLE
  2
APPID
 70
               1
  0
APPID
  2
ACAD
 70
               0
  0
ENDTAB
  0
TABLE
  2
DIMSTYLE
 70
               1
  0
DIMSTYLE
  2
STANDARD
 70
               0
  3

  4

  5

  6

  7

 40
1.0
 41
0.18
 42
0.0625
 43
0.38
 44
0.18
 45
0.0
 46
0.0
 47
0.0
 48
0.0
140
0.18
141
0.09
142
0.0
143
25.399999999999999
144
1.0
145
0.0
146
1.0
147
0.09
 71
               0
 72
               0
 73
               1
 74
               1
 75
               0
 76
               0
 77
               0
 78
               0
170
               0
171
               2
172
               0
173
               0
174
               0
175
               0
176
               0
177
               0
178
               0
  0
ENDTAB
  0
ENDSEC
  0
SECTION
  2
BLOCKS
  0
BLOCK
  8
0
  5
140
  2
GROUP_1
 70
               0
 10
0.0
 20
0.0
 30
0.0
  3
GROUP_1
  0
LINE
  8
0
  6
CONTINUOUS
 62
               4
  5
141
 10
-161.12613563189944
 20
908.97738065261933
 30
0.0
 11
-155.6413080745977
 21
899.47738065261933
 31
0.0
  0
LINE
  8
0
  6
CONTINUOUS
 62
               4
  5
142
 10
-155.6413080745977
 20
899.47738065261933
 30
0.0
 11
-144.67165295999467
 21
899.47738065261933
 31
0.0
  0
LINE
  8
0
  6
CONTINUOUS
 62
               4
  5
143
 10
-144.67165295999467
 20
899.47738065261933
 30
0.0
 11
-139.18682540269339
 21
908.97738065261933
 31
0.0
  0
LINE
  8
0
  6
CONTINUOUS
 62
               4
  5
144
 10
-139.18682540269339
 20
908.97738065261933
 30
0.0
 11
-144.67165295999467
 21
918.4773806526191
 31
0.0
  0
LINE
  8
0
  6
CONTINUOUS
 62
               4
  5
145
 10
-144.67165295999467
 20
918.4773806526191
 30
0.0
 11
-155.6413080745977
 21
918.4773806526191
 31
0.0
  0
LINE
  8
0
  6
CONTINUOUS
 62
               4
  5
146
 10
-155.6413080745977
 20
918.4773806526191
 30
0.0
 11
-161.12613563189944
 21
908.97738065261933
 31
0.0
  0
CIRCLE
  8
0
  6
CONTINUOUS
 62
               4
  5
147
 10
-150.15648051729642
 20
908.97738065261933
 30
0.0
 40
6.0000000000000009
  0
ENDBLK
  8
0
  5
148
  0
BLOCK
  8
0
  5
149
  2
GROUP_2
 70
               0
 10
0.0
 20
0.0
 30
0.0
  3
GROUP_2
  0
LINE
  8
0
  6
CONTINUOUS
 62
               4
  5
14A
 10
-161.12613563189944
 20
1037.6708148285707
 30
0.0
 11
-155.6413080745977
 21
1028.1708148285707
 31
0.0
  0
LINE
  8
0
  6
CONTINUOUS
 62
               4
  5
14B
 10
-155.6413080745977
 20
1028.1708148285707
 30
0.0
 11
-144.67165295999467
 21
1028.1708148285707
 31
0.0
  0
LINE
  8
0
  6
CONTINUOUS
 62
               4
  5
14C
 10
-144.67165295999467
 20
1028.1708148285707
 30
0.0
 11
-139.18682540269339
 21
1037.6708148285707
 31
0.0
  0
LINE
  8
0
  6
CONTINUOUS
 62
               4
  5
14D
 10
-139.18682540269339
 20
1037.6708148285707
 30
0.0
 11
-144.67165295999467
 21
1047.1708148285707
 31
0.0
  0
LINE
  8
0
  6
CONTINUOUS
 62
               4
  5
14E
 10
-144.67165295999467
 20
1047.1708148285707
 30
0.0
 11
-155.6413080745977
 21
1047.1708148285707
 31
0.0
  0
LINE
  8
0
  6
CONTINUOUS
 62
               4
  5
14F
 10
-155.6413080745977
 20
1047.1708148285707
 30
0.0
 11
-161.12613563189944
 21
1037.6708148285707
 31
0.0
  0
CIRCLE
  8
0
  6
CONTINUOUS
 62
               4
  5
150
 10
-150.15648051729642
 20
1037.6708148285707
 30
0.0
 40
6.0000000000000009
  0
ENDBLK
  8
0
  5
151
  0
BLOCK
  8
0
  5
152
  2
GROUP_3
 70
               0
 10
0.0
 20
0.0
 30
0.0
  3
GROUP_3
  0
LINE
  8
0
  6
CONTINUOUS
 62
               4
  5
153
 10
-10.493391226740812
 20
1037.6708148285707
 30
0.0
 11
-15.97821878404244
 21
1028.1708148285707
 31
0.0
  0
LINE
  8
0
  6
CONTINUOUS
 62
               4
  5
154
 10
-15.97821878404244
 20
1028.1708148285707
 30
0.0
 11
-26.947873898645582
 21
1028.1708148285707
 31
0.0
  0
LINE
  8
0
  6
CONTINUOUS
 62
               4
  5
155
 10
-26.947873898645582
 20
1028.1708148285707
 30
0.0
 11
-32.432701455946756
 21
1037.6708148285707
 31
0.0
  0
LINE
  8
0
  6
CONTINUOUS
 62
               4
  5
156
 10
-32.432701455946756
 20
1037.6708148285707
 30
0.0
 11
-26.947873898645582
 21
1047.1708148285707
 31
0.0
  0
LINE
  8
0
  6
CONTINUOUS
 62
               4
  5
157
 10
-26.947873898645582
 20
1047.1708148285707
 30
0.0
 11
-15.97821878404244
 21
1047.1708148285707
 31
0.0
  0
LINE
  8
0
  6
CONTINUOUS
 62
               4
  5
158
 10
-15.97821878404244
 20
1047.1708148285707
 30
0.0
 11
-10.493391226740812
 21
1037.6708148285707
 31
0.0
  0
CIRCLE
  8
0
  6
CONTINUOUS
 62
               4
  5
159
 10
-21.463046341343841
 20
1037.6708148285707
 30
0.0
 40
6.0000000000000009
  0
ENDBLK
  8
0
  5
15A
  0
BLOCK
  8
0
  5
15B
  2
GROUP_4
 70
               0
 10
0.0
 20
0.0
 30
0.0
  3
GROUP_4
  0
LINE
  8
0
  6
CONTINUOUS
 62
               4
  5
15C
 10
-10.493391226740812
 20
908.97738065261933
 30
0.0
 11
-15.97821878404244
 21
899.47738065261933
 31
0.0
  0
LINE
  8
0
  6
CONTINUOUS
 62
               4
  5
15D
 10
-15.97821878404244
 20
899.47738065261933
 30
0.0
 11
-26.947873898645582
 21
899.47738065261933
 31
0.0
  0
LINE
  8
0
  6
CONTINUOUS
 62
               4
  5
15E
 10
-26.947873898645582
 20
899.47738065261933
 30
0.0
 11
-32.432701455946756
 21
908.97738065261933
 31
0.0
  0
LINE
  8
0
  6
CONTINUOUS
 62
               4
  5
15F
 10
-32.432701455946756
 20
908.97738065261933
 30
0.0
 11
-26.947873898645582
 21
918.4773806526191
 31
0.0
  0
LINE
  8
0
  6
CONTINUOUS
 62
               4
  5
160
 10
-26.947873898645582
 20
918.4773806526191
 30
0.0
 11
-15.97821878404244
 21
918.4773806526191
 31
0.0
  0
LINE
  8
0
  6
CONTINUOUS
 62
               4
  5
161
 10
-15.97821878404244
 20
918.4773806526191
 30
0.0
 11
-10.493391226740812
 21
908.97738065261933
 31
0.0
  0
CIRCLE
  8
0
  6
CONTINUOUS
 62
               4
  5
162
 10
-21.463046341343841
 20
908.97738065261933
 30
0.0
 40
6.0000000000000009
  0
ENDBLK
  8
0
  5
163
  0
BLOCK
  8
0
  5
164
  2
GROUP_5
 70
               0
 10
0.0
 20
0.0
 30
0.0
  3
GROUP_5
  0
LINE
  8
0
  6
CONTINUOUS
 62
               4
  5
165
 10
-161.10976342931991
 20
493.62409774059495
 30
0.0
 11
-161.10976342931991
 21
503.62409774059495
 31
0.0
  0
LINE
  8
0
  6
CONTINUOUS
 62
               4
  5
166
 10
-155.62493587201863
 20
493.62409774059495
 30
0.0
 11
-155.62493587201863
 21
503.62409774059495
 31
0.0
  0
LINE
  8
0
  6
CONTINUOUS
 62
               4
  5
167
 10
-161.10976342931991
 20
493.62409774059495
 30
0.0
 11
-139.20976342932028
 21
493.62409774059495
 31
0.0
  0
LINE
  8
0
  6
CONTINUOUS
 62
               4
  5
168
 10
-161.10976342931991
 20
503.62409774059495
 30
0.0
 11
-139.20976342932028
 21
503.62409774059495
 31
0.0
  0
LINE
  8
0
  6
CONTINUOUS
 62
               4
  5
169
 10
-139.20976342932028
 20
493.62409774059495
 30
0.0
 11
-139.20976342932028
 21
503.62409774059495
 31
0.0
  0
LINE
  8
0
  6
CONTINUOUS
 62
               4
  5
16A
 10
-144.69459098662156
 20
493.62409774059495
 30
0.0
 11
-144.69459098662156
 21
503.62409774059495
 31
0.0
  0
ENDBLK
  8
0
  5
16B
  0
BLOCK
  8
0
  5
16C
  2
GROUP_6
 70
               0
 10
0.0
 20
0.0
 30
0.0
  3
GROUP_6
  0
LINE
  8
0
  6
CONTINUOUS
 62
               4
  5
16D
 10
-10.509763429320458
 20
493.62409774059495
 30
0.0
 11
-10.509763429320458
 21
503.62409774059495
 31
0.0
  0
LINE
  8
0
  6
CONTINUOUS
 62
               4
  5
16E
 10
-15.994590986621745
 20
493.62409774059495
 30
0.0
 11
-15.994590986621745
 21
503.62409774059495
 31
0.0
  0
LINE
  8
0
  6
CONTINUOUS
 62
               4
  5
16F
 10
-10.509763429320458
 20
493.62409774059495
 30
0.0
 11
-32.409763429320094
 21
493.62409774059495
 31
0.0
  0
LINE
  8
0
  6
CONTINUOUS
 62
               4
  5
170
 10
-10.509763429320458
 20
503.62409774059495
 30
0.0
 11
-32.409763429320094
 21
503.62409774059495
 31
0.0
  0
LINE
  8
0
  6
CONTINUOUS
 62
               4
  5
171
 10
-32.409763429320094
 20
493.62409774059495
 30
0.0
 11
-32.409763429320094
 21
503.62409774059495
 31
0.0
  0
LINE
  8
0
  6
CONTINUOUS
 62
               4
  5
172
 10
-26.924935872018807
 20
493.62409774059495
 30
0.0
 11
-26.924935872018807
 21
503.62409774059495
 31
0.0
  0
ENDBLK
  8
0
  5
173
  0
BLOCK
  8
0
  5
174
  2
GROUP_7
 70
               0
 10
0.0
 20
0.0
 30
0.0
  3
GROUP_7
  0
LINE
  8
0
  6
CONTINUOUS
 62
               4
  5
175
 10
338.89023657068009
 20
493.624097740595
 30
0.0
 11
338.89023657068009
 21
503.624097740595
 31
0.0
  0
LINE
  8
0
  6
CONTINUOUS
 62
               4
  5
176
 10
344.37506412798137
 20
493.624097740595
 30
0.0
 11
344.37506412798137
 21
503.624097740595
 31
0.0
  0
LINE
  8
0
  6
CONTINUOUS
 62
               4
  5
177
 10
338.89023657068009
 20
493.624097740595
 30
0.0
 11
360.79023657067972
 21
493.624097740595
 31
0.0
  0
LINE
  8
0
  6
CONTINUOUS
 62
               4
  5
178
 10
338.89023657068009
 20
503.624097740595
 30
0.0
 11
360.79023657067972
 21
503.624097740595
 31
0.0
  0
LINE
  8
0
  6
CONTINUOUS
 62
               4
  5
179
 10
360.79023657067972
 20
493.624097740595
 30
0.0
 11
360.79023657067972
 21
503.624097740595
 31
0.0
  0
LINE
  8
0
  6
CONTINUOUS
 62
               4
  5
17A
 10
355.30540901337844
 20
493.624097740595
 30
0.0
 11
355.30540901337844
 21
503.624097740595
 31
0.0
  0
ENDBLK
  8
0
  5
17B
  0
BLOCK
  8
0
  5
17C
  2
GROUP_8
 70
               0
 10
0.0
 20
0.0
 30
0.0
  3
GROUP_8
  0
LINE
  8
0
  6
CONTINUOUS
 62
               4
  5
17D
 10
489.49023657067954
 20
493.624097740595
 30
0.0
 11
489.49023657067954
 21
503.624097740595
 31
0.0
  0
LINE
  8
0
  6
CONTINUOUS
 62
               4
  5
17E
 10
484.00540901337826
 20
493.624097740595
 30
0.0
 11
484.00540901337826
 21
503.624097740595
 31
0.0
  0
LINE
  8
0
  6
CONTINUOUS
 62
               4
  5
17F
 10
489.49023657067954
 20
493.624097740595
 30
0.0
 11
467.59023657067991
 21
493.624097740595
 31
0.0
  0
LINE
  8
0
  6
CONTINUOUS
 62
               4
  5
180
 10
489.49023657067954
 20
503.624097740595
 30
0.0
 11
467.59023657067991
 21
503.624097740595
 31
0.0
  0
LINE
  8
0
  6
CONTINUOUS
 62
               4
  5
181
 10
467.59023657067991
 20
493.624097740595
 30
0.0
 11
467.59023657067991
 21
503.624097740595
 31
0.0
  0
LINE
  8
0
  6
CONTINUOUS
 62
               4
  5
182
 10
473.07506412798119
 20
493.624097740595
 30
0.0
 11
473.07506412798119
 21
503.624097740595
 31
0.0
  0
ENDBLK
  8
0
  5
183
  0
BLOCK
  8
0
  5
184
  2
GROUP_9
 70
               0
 10
0.0
 20
0.0
 30
0.0
  3
GROUP_9
  0
LINE
  8
0
  6
CONTINUOUS
 62
               4
  5
185
 10
-661.10976342931986
 20
493.624097740595
 30
0.0
 11
-661.10976342931986
 21
503.624097740595
 31
0.0
  0
LINE
  8
0
  6
CONTINUOUS
 62
               4
  5
186
 10
-655.62493587201857
 20
493.624097740595
 30
0.0
 11
-655.62493587201857
 21
503.624097740595
 31
0.0
  0
LINE
  8
0
  6
CONTINUOUS
 62
               4
  5
187
 10
-661.10976342931986
 20
493.624097740595
 30
0.0
 11
-639.20976342932022
 21
493.624097740595
 31
0.0
  0
LINE
  8
0
  6
CONTINUOUS
 62
               4
  5
188
 10
-661.10976342931986
 20
503.624097740595
 30
0.0
 11
-639.20976342932022
 21
503.624097740595
 31
0.0
  0
LINE
  8
0
  6
CONTINUOUS
 62
               4
  5
189
 10
-639.20976342932022
 20
493.624097740595
 30
0.0
 11
-639.20976342932022
 21
503.624097740595
 31
0.0
  0
LINE
  8
0
  6
CONTINUOUS
 62
               4
  5
18A
 10
-644.69459098662151
 20
493.624097740595
 30
0.0
 11
-644.69459098662151
 21
503.624097740595
 31
0.0
  0
ENDBLK
  8
0
  5
18B
  0
BLOCK
  8
0
  5
18C
  2
GROUP_10
 70
               0
 10
0.0
 20
0.0
 30
0.0
  3
GROUP_10
  0
LINE
  8
0
  6
CONTINUOUS
 62
               4
  5
18D
 10
-510.50976342932046
 20
493.624097740595
 30
0.0
 11
-510.50976342932046
 21
503.624097740595
 31
0.0
  0
LINE
  8
0
  6
CONTINUOUS
 62
               4
  5
18E
 10
-515.99459098662169
 20
493.624097740595
 30
0.0
 11
-515.99459098662169
 21
503.624097740595
 31
0.0
  0
LINE
  8
0
  6
CONTINUOUS
 62
               4
  5
18F
 10
-510.50976342932046
 20
493.624097740595
 30
0.0
 11
-532.40976342932004
 21
493.624097740595
 31
0.0
  0
LINE
  8
0
  6
CONTINUOUS
 62
               4
  5
190
 10
-510.50976342932046
 20
503.624097740595
 30
0.0
 11
-532.40976342932004
 21
503.624097740595
 31
0.0
  0
LINE
  8
0
  6
CONTINUOUS
 62
               4
  5
191
 10
-532.40976342932004
 20
493.624097740595
 30
0.0
 11
-532.40976342932004
 21
503.624097740595
 31
0.0
  0
LINE
  8
0
  6
CONTINUOUS
 62
               4
  5
192
 10
-526.92493587201875
 20
493.624097740595
 30
0.0
 11
-526.92493587201875
 21
503.624097740595
 31
0.0
  0
ENDBLK
  8
0
  5
193
  0
ENDSEC
  0
SECTION
  2
ENTITIES
  0
CIRCLE
  8
0
  6
CONTINUOUS
 62
               3
  5
194
 10
-85.809763429320185
 20
973.32409774059499
 30
0.0
 40
75.0
  0
LINE
  8
0
  6
CONTINUOUS
 62
               3
  5
195
 10
-172.02026162994554
 20
993.32409774059499
 30
0.0
 11
-158.09392490332567
 21
993.32409774059499
 31
0.0
  0
LINE
  8
0
  6
CONTINUOUS
 62
               3
  5
196
 10
-158.09392490332567
 20
953.32409774059488
 30
0.0
 11
-172.02026162994554
 21
953.32409774059488
 31
0.0
  0
ARC
  8
0
  6
CONTINUOUS
 62
               3
  5
197
 10
-85.809763429320185
 20
973.32409774059499
 30
0.0
 40
88.5
 50
166.93897588513531
 51
193.06102411472631
  0
LINE
  8
0
  6
CONTINUOUS
 62
               3
  5
198
 10
-105.80976342932018
 20
887.11359953996998
 30
0.0
 11
-105.80976342932018
 21
901.03993626658985
 31
0.0
  0
LINE
  8
0
  6
CONTINUOUS
 62
               3
  5
199
 10
-65.809763429320185
 20
901.03993626658985
 30
0.0
 11
-65.809763429320185
 21
887.11359953996998
 31
0.0
  0
ARC
  8
0
  6
CONTINUOUS
 62
               3
  5
19A
 10
-85.809763429320185
 20
973.32409774059499
 30
0.0
 40
88.5
 50
256.93897588510077
 51
283.06102411469175
  0
LINE
  8
0
  6
CONTINUOUS
 62
               3
  5
19B
 10
0.4007347713042577
 20
953.32409774059488
 30
0.0
 11
-13.525601955316063
 21
953.32409774059488
 31
0.0
  0
LINE
  8
0
  6
CONTINUOUS
 62
               3
  5
19C
 10
-13.525601955316063
 20
993.32409774059499
 30
0.0
 11
0.4007347713042577
 21
993.32409774059499
 31
0.0
  0
ARC
  8
0
  6
CONTINUOUS
 62
               3
  5
19D
 10
-85.809763429320185
 20
973.32409774059499
 30
0.0
 40
88.5
 50
346.9389758850661
 51
373.06102411465707
  0
LINE
  8
0
  6
CONTINUOUS
 62
               3
  5
19E
 10
-65.809763429320185
 20
1059.5345959412207
 30
0.0
 11
-65.809763429320185
 21
1045.6082592145999
 31
0.0
  0
LINE
  8
0
  6
CONTINUOUS
 62
               3
  5
19F
 10
-105.80976342932018
 20
1045.6082592145999
 30
0.0
 11
-105.80976342932018
 21
1059.5345959412207
 31
0.0
  0
ARC
  8
0
  6
CONTINUOUS
 62
               3
  5
1A0
 10
-85.809763429320185
 20
973.32409774059499
 30
0.0
 40
88.5
 50
76.938975885169896
 51
103.06102411476093
  0
ARC
  8
0
  6
CONTINUOUS
 62
               3
  5
1A1
 10
-150.15648051729551
 20
1037.6708148285707
 30
0.0
 40
17.5
 50
97.816433606433534
 51
172.18356639346288
  0
LINE
  8
0
  6
CONTINUOUS
 62
               3
  5
1A2
 10
-167.49388580714441
 20
1040.050810167962
 30
0.0
 11
-174.97356206282785
 21
985.5640737717514
 31
0.0
  0
ARC
  8
0
  6
CONTINUOUS
 62
               3
  5
1A3
 10
-21.463046341343954
 20
1037.6708148285707
 30
0.0
 40
17.5
 50
7.8164336064679656
 51
82.18356639349733
  0
ARC
  8
0
  6
CONTINUOUS
 62
               3
  5
1A4
 10
-21.463046341343954
 20
908.97738065261933
 30
0.0
 40
17.5
 50
277.81643360636428
 51
352.18356639339351
  0
ARC
  8
0
  6
CONTINUOUS
 62
               3
  5
1A5
 10
-150.15648051729551
 20
908.97738065261933
 30
0.0
 40
17.5
 50
187.81643360639899
 51
262.18356639342812
  0
LINE
  8
0
  6
CONTINUOUS
 62
               3
  5
1A6
 10
-167.49388580714441
 20
906.59738531322773
 30
0.0
 11
-174.97356206282791
 21
961.08412170943859
 31
0.0
  0
LINE
  8
0
  6
CONTINUOUS
 62
               3
  5
1A7
 10
-4.1256410514955064
 20
906.59738531322773
 30
0.0
 11
3.3540352041879373
 21
961.08412170943836
 31
0.0
  0
ARC
  8
0
  6
CONTINUOUS
 62
               3
  5
1A8
 10
-85.809763429320185
 20
973.32409774059499
 30
0.0
 40
90.0
 50
352.18356639339345
 51
367.81643360632972
  0
LINE
  8
0
  6
CONTINUOUS
 62
               3
  5
1A9
 10
-4.1256410514955064
 20
1040.050810167962
 30
0.0
 11
3.3540352041879373
 21
985.5640737717514
 31
0.0
  0
LINE
  8
0
  6
CONTINUOUS
 62
               3
  5
1AA
 10
-19.083051001952583
 20
1055.0082201184196
 30
0.0
 11
-73.569787398163328
 21
1062.4878963741025
 31
0.0
  0
ARC
  8
0
  6
CONTINUOUS
 62
               3
  5
1AB
 10
-85.809763429320185
 20
973.32409774059499
 30
0.0
 40
90.0
 50
82.183566393497259
 51
97.816433606433577
  0
LINE
  8
0
  6
CONTINUOUS
 62
               3
  5
1AC
 10
-152.53647585668733
 20
1055.0082201184196
 30
0.0
 11
-98.049739460476587
 21
1062.4878963741025
 31
0.0
  0
LINE
  8
0
  6
CONTINUOUS
 62
               3
  5
1AD
 10
-19.083051001952583
 20
891.63997536276997
 30
0.0
 11
-73.569787398163669
 21
884.16029910708744
 31
0.0
  0
LINE
  8
0
  6
CONTINUOUS
 62
               3
  5
1AE
 10
-152.53647585668733
 20
891.63997536276997
 30
0.0
 11
-98.049739460476701
 21
884.16029910708744
 31
0.0
  0
ARC
  8
0
  6
CONTINUOUS
 62
               3
  5
1AF
 10
-85.809763429320185
 20
973.32409774059499
 30
0.0
 40
90.0
 50
262.18356639342812
 51
277.81643360636434
  0
ARC
  8
0
  6
CONTINUOUS
 62
               3
  5
1B0
 10
-85.809763429320185
 20
973.32409774059499
 30
0.0
 40
90.0
 50
172.18356639346268
 51
187.81643360639887
  0
ARC
  8
0
  6
CONTINUOUS
 62
               3
  5
1B1
 10
-30.80976342932064
 20
612.32409774059556
 30
0.0
 40
19.999999999999996
 50
0.0
 51
31.788330617039573
  0
LINE
  8
0
  6
CONTINUOUS
 62
               3
  5
1B2
 10
-13.80976342932064
 20
697.74152204564007
 30
0.0
 11
-13.80976342932064
 21
622.85975149344824
 31
0.0
  0
ARC
  8
0
  6
CONTINUOUS
 62
               3
  5
1B3
 10
-140.80976342932018
 20
612.32409774059556
 30
0.0
 40
19.999999999999996
 50
148.21166938289124
 51
179.99999999993088
  0
LINE
  8
0
  6
CONTINUOUS
 62
               3
  5
1B4
 10
-157.80976342932064
 20
622.85975149344824
 30
0.0
 11
-157.80976342932064
 21
697.74152204564007
 31
0.0
  0
ARC
  8
0
  6
CONTINUOUS
 62
               3
  5
1B5
 10
-150.80976342932018
 20
330.82409774059511
 30
0.0
 40
2.4999999999999996
 50
89.999999999965283
 51
269.99999999989649
  0
LINE
  8
0
  6
CONTINUOUS
 62
               3
  5
1B6
 10
-175.80976342932018
 20
473.32409774059499
 30
0.0
 11
-175.80976342932018
 21
491.32409774059499
 31
0.0
  0
LINE
  8
0
  6
CONTINUOUS
 62
               3
  5
1B7
 10
4.190236570679815
 20
473.32409774059499
 30
0.0
 11
4.190236570679815
 21
491.32409774059499
 31
0.0
  0
LINE
  8
0
  6
CONTINUOUS
 62
               3
  5
1B8
 10
4.1902365706793603
 20
491.32409774059613
 30
0.0
 11
-175.80976342932064
 21
491.32409774059499
 31
0.0
  0
LINE
  8
0
  6
CONTINUOUS
 62
               3
  5
1B9
 10
-160.80976342932018
 20
503.62409774059495
 30
0.0
 11
-160.80976342932018
 21
612.32409774059556
 31
0.0
  0
LINE
  8
0
  6
CONTINUOUS
 62
               3
  5
1BA
 10
-10.80976342932064
 20
612.32409774059556
 30
0.0
 11
-10.80976342932064
 21
503.62409774059495
 31
0.0
  0
ARC
  8
0
  6
CONTINUOUS
 62
               3
  5
1BB
 10
-165.80976342932064
 20
496.32409774059499
 30
0.0
 40
5.0
 50
327.31636115361772
 51
340.05155641109002
  0
ARC
  8
0
  6
CONTINUOUS
 62
               3
  5
1BC
 10
-165.80976342932064
 20
496.32409774059499
 30
0.0
 40
5.0
 50
269.99999999989615
 51
302.0054548276492
  0
LINE
  8
0
  6
CONTINUOUS
 62
               3
  5
1BD
 10
4.1902365706802698
 20
447.32409774059505
 30
0.0
 11
-175.80976342931973
 21
447.32409774059505
 31
0.0
  0
LINE
  8
0
  6
CONTINUOUS
 62
               3
  5
1BE
 10
4.1902365706802698
 20
468.32409774059494
 30
0.0
 11
4.1902365706802698
 21
447.32409774059505
 31
0.0
  0
LINE
  8
0
  6
CONTINUOUS
 62
               3
  5
1BF
 10
-175.80976342932064
 20
468.32409774059494
 30
0.0
 11
-175.80976342932064
 21
447.32409774059505
 31
0.0
  0
LINE
  8
0
  6
CONTINUOUS
 62
               3
  5
1C0
 10
-13.80976342932064
 20
622.85975149344824
 30
0.0
 11
-74.082763429319982
 21
622.85975149344836
 31
0.0
  0
LINE
  8
0
  6
CONTINUOUS
 62
               3
  5
1C1
 10
-97.536763429319706
 20
622.85975149344824
 30
0.0
 11
-157.80976342932064
 21
622.85975149344824
 31
0.0
  0
LINE
  8
0
  6
CONTINUOUS
 62
               3
  5
1C2
 10
4.1902365706802698
 20
473.32409774059494
 30
0.0
 11
-175.80976342931973
 21
473.32409774059494
 31
0.0
  0
LINE
  8
0
  6
CONTINUOUS
 62
               3
  5
1C3
 10
0.1902365706802698
 20
473.32409774059494
 30
0.0
 11
0.1902365706802698
 21
468.32409774059494
 31
0.0
  0
LINE
  8
0
  6
CONTINUOUS
 62
               3
  5
1C4
 10
-175.80976342932064
 20
468.32409774059494
 30
0.0
 11
4.1902365706802698
 21
468.32409774059494
 31
0.0
  0
LINE
  8
0
  6
CONTINUOUS
 62
               3
  5
1C5
 10
-171.80976342932064
 20
473.32409774059494
 30
0.0
 11
-171.80976342932064
 21
468.32409774059494
 31
0.0
  0
LINE
  8
0
  6
CONTINUOUS
 62
               3
  5
1C6
 10
-10.809763429320185
 20
719.32409774059556
 30
0.0
 11
-160.80976342932018
 21
719.32409774059556
 31
0.0
  0
LINE
  8
0
  6
CONTINUOUS
 62
               3
  5
1C7
 10
2.6902365706802698
 20
709.32409774059556
 30
0.0
 11
2.6902365706802698
 21
702.32409774059579
 31
0.0
  0
LINE
  8
0
  6
CONTINUOUS
 62
               3
  5
1C8
 10
2.6902365706802698
 20
709.32409774059556
 30
0.0
 11
-10.809763429320185
 21
719.32409774059556
 31
0.0
  0
ARC
  8
0
  6
CONTINUOUS
 62
               3
  5
1C9
 10
-8.809763429320185
 20
697.74152204564007
 30
0.0
 40
4.9999999999999991
 50
113.57817847815829
 51
179.99999999993057
  0
LINE
  8
0
  6
CONTINUOUS
 62
               3
  5
1CA
 10
2.6902365706802698
 20
702.32409774059579
 30
0.0
 11
-174.30976342931973
 21
702.32409774059579
 31
0.0
  0
LINE
  8
0
  6
CONTINUOUS
 62
               3
  5
1CB
 10
-65.809763429320185
 20
702.32409774059579
 30
0.0
 11
-65.809763429320185
 21
719.32409774059556
 31
0.0
  0
LINE
  8
0
  6
CONTINUOUS
 62
               3
  5
1CC
 10
-105.80976342932018
 20
719.32409774059556
 30
0.0
 11
-105.80976342932018
 21
702.32409774059579
 31
0.0
  0
LINE
  8
0
  6
CONTINUOUS
 62
               3
  5
1CD
 10
-65.809763429320185
 20
709.32409774059556
 30
0.0
 11
-105.80976342932018
 21
709.32409774059556
 31
0.0
  0
LINE
  8
0
  6
CONTINUOUS
 62
               3
  5
1CE
 10
-13.525601955314698
 20
719.32409774059556
 30
0.0
 11
-13.525601955314698
 21
702.32409774059579
 31
0.0
  0
LINE
  8
0
  6
CONTINUOUS
 62
               3
  5
1CF
 10
-174.30976342931973
 20
709.32409774059556
 30
0.0
 11
-174.30976342931973
 21
702.32409774059579
 31
0.0
  0
LINE
  8
0
  6
CONTINUOUS
 62
               3
  5
1D0
 10
-174.30976342931973
 20
709.32409774059556
 30
0.0
 11
-160.80976342932018
 21
719.32409774059556
 31
0.0
  0
ARC
  8
0
  6
CONTINUOUS
 62
               3
  5
1D1
 10
-162.80976342932018
 20
697.74152204564007
 30
0.0
 40
4.9999999999999991
 50
0.0
 51
66.42182152177277
  0
LINE
  8
0
  6
CONTINUOUS
 62
               3
  5
1D2
 10
-158.09392490332431
 20
719.32409774059556
 30
0.0
 11
-158.09392490332431
 21
702.32409774059579
 31
0.0
  0
ARC
  8
0
  6
CONTINUOUS
 62
               3
  5
1D3
 10
-5.8097634293198439
 20
496.32409774059499
 30
0.0
 40
5.0
 50
199.94844358870233
 51
212.68363884617477
  0
ARC
  8
0
  6
CONTINUOUS
 62
               3
  5
1D4
 10
-5.8097634293198439
 20
496.32409774059499
 30
0.0
 40
5.0
 50
237.99454517214315
 51
269.99999999989615
  0
LINE
  8
0
  6
CONTINUOUS
 62
               3
  5
1D5
 10
-160.80976342931973
 20
215.32409774059494
 30
0.0
 11
-10.809763429320185
 21
215.32409774059516
 31
0.0
  0
LINE
  8
0
  6
CONTINUOUS
 62
               3
  5
1D6
 10
-158.53105126328688
 20
195.32409774059505
 30
0.0
 11
-13.088475595352122
 21
195.32409774059505
 31
0.0
  0
LINE
  8
0
  6
CONTINUOUS
 62
               3
  5
1D7
 10
-160.8097634293199
 20
312.49531828241084
 30
0.0
 11
-160.80976342931973
 21
215.32409774059494
 31
0.0
  0
LINE
  8
0
  6
CONTINUOUS
 62
               3
  5
1D8
 10
-27.80976342931973
 20
66.117012673805675
 30
0.0
 11
-10.809763429320185
 21
215.32409774058596
 31
0.0
  0
LINE
  8
0
  6
CONTINUOUS
 62
               3
  5
1D9
 10
-143.80976342931973
 20
66.117012673805675
 30
0.0
 11
-160.80976342931973
 21
215.32409774059494
 31
0.0
  0
LINE
  8
0
  6
CONTINUOUS
 62
               3
  5
1DA
 10
486.19023657067982
 20
697.74152204564007
 30
0.0
 11
486.19023657067982
 21
627.85975149344824
 31
0.0
  0
LINE
  8
0
  6
CONTINUOUS
 62
               3
  5
1DB
 10
342.19023657067982
 20
627.85975149344893
 30
0.0
 11
342.19023657067982
 21
697.74152204564007
 31
0.0
  0
LINE
  8
0
  6
CONTINUOUS
 62
               3
  5
1DC
 10
485.69023657068027
 20
622.85975149344824
 30
0.0
 11
342.69023657067936
 21
622.85975149344824
 31
0.0
  0
LINE
  8
0
  6
CONTINUOUS
 62
               3
  5
1DD
 10
324.19023657067982
 20
491.32409774059624
 30
0.0
 11
504.19023657067982
 21
491.32409774059499
 31
0.0
  0
LINE
  8
0
  6
CONTINUOUS
 62
               3
  5
1DE
 10
504.19023657068027
 20
468.32409774059499
 30
0.0
 11
504.19023657068027
 21
447.32409774059505
 31
0.0
  0
LINE
  8
0
  6
CONTINUOUS
 62
               3
  5
1DF
 10
504.19023657068027
 20
473.32409774059499
 30
0.0
 11
504.19023657068027
 21
491.32409774059499
 31
0.0
  0
LINE
  8
0
  6
CONTINUOUS
 62
               3
  5
1E0
 10
324.19023657068027
 20
473.32409774059499
 30
0.0
 11
324.19023657068027
 21
491.32409774059499
 31
0.0
  0
LINE
  8
0
  6
CONTINUOUS
 62
               3
  5
1E1
 10
504.19023657068027
 20
473.32409774059499
 30
0.0
 11
324.19023657068027
 21
473.32409774059499
 31
0.0
  0
LINE
  8
0
  6
CONTINUOUS
 62
               3
  5
1E2
 10
500.19023657068027
 20
473.32409774059499
 30
0.0
 11
500.19023657068027
 21
468.32409774059499
 31
0.0
  0
LINE
  8
0
  6
CONTINUOUS
 62
               3
  5
1E3
 10
324.19023657067936
 20
468.32409774059499
 30
0.0
 11
504.19023657068027
 21
468.32409774059499
 31
0.0
  0
LINE
  8
0
  6
CONTINUOUS
 62
               3
  5
1E4
 10
324.19023657067936
 20
468.32409774059499
 30
0.0
 11
324.19023657067936
 21
447.32409774059505
 31
0.0
  0
LINE
  8
0
  6
CONTINUOUS
 62
               3
  5
1E5
 10
328.19023657067936
 20
473.32409774059499
 30
0.0
 11
328.19023657067936
 21
468.32409774059499
 31
0.0
  0
LINE
  8
0
  6
CONTINUOUS
 62
               3
  5
1E6
 10
504.19023657068027
 20
447.32409774059505
 30
0.0
 11
324.19023657068027
 21
447.32409774059505
 31
0.0
  0
ARC
  8
0
  6
CONTINUOUS
 62
               3
  5
1E7
 10
489.19023657067936
 20
330.82409774059499
 30
0.0
 40
2.4999999999999996
 50
269.99999999989518
 51
449.99999999982703
  0
LINE
  8
0
  6
CONTINUOUS
 62
               3
  5
1E8
 10
489.19023657067936
 20
333.32409774059499
 30
0.0
 11
489.19023657067936
 21
442.32409774059505
 31
0.0
  0
LINE
  8
0
  6
CONTINUOUS
 62
               3
  5
1E9
 10
489.19023657067982
 20
719.32409774059556
 30
0.0
 11
339.19023657067982
 21
719.32409774059556
 31
0.0
  0
LINE
  8
0
  6
CONTINUOUS
 62
               3
  5
1EA
 10
502.69023657068027
 20
709.32409774059556
 30
0.0
 11
502.69023657068027
 21
702.32409774059579
 31
0.0
  0
LINE
  8
0
  6
CONTINUOUS
 62
               3
  5
1EB
 10
502.69023657068027
 20
709.32409774059556
 30
0.0
 11
489.19023657067982
 21
719.32409774059556
 31
0.0
  0
ARC
  8
0
  6
CONTINUOUS
 62
               3
  5
1EC
 10
491.19023657067982
 20
697.74152204564007
 30
0.0
 40
4.9999999999999991
 50
113.57817847815888
 51
179.99999999993057
  0
LINE
  8
0
  6
CONTINUOUS
 62
               3
  5
1ED
 10
502.69023657068027
 20
702.32409774059579
 30
0.0
 11
325.69023657068027
 21
702.32409774059579
 31
0.0
  0
LINE
  8
0
  6
CONTINUOUS
 62
               3
  5
1EE
 10
434.19023657067982
 20
702.32409774059579
 30
0.0
 11
434.19023657067982
 21
719.32409774059556
 31
0.0
  0
LINE
  8
0
  6
CONTINUOUS
 62
               3
  5
1EF
 10
394.19023657067982
 20
719.32409774059556
 30
0.0
 11
394.19023657067982
 21
702.32409774059579
 31
0.0
  0
LINE
  8
0
  6
CONTINUOUS
 62
               3
  5
1F0
 10
434.19023657067982
 20
709.32409774059556
 30
0.0
 11
394.19023657067982
 21
709.32409774059556
 31
0.0
  0
LINE
  8
0
  6
CONTINUOUS
 62
               3
  5
1F1
 10
486.4743980446853
 20
719.32409774059556
 30
0.0
 11
486.4743980446853
 21
702.32409774059579
 31
0.0
  0
LINE
  8
0
  6
CONTINUOUS
 62
               3
  5
1F2
 10
325.69023657068027
 20
709.32409774059556
 30
0.0
 11
325.69023657068027
 21
702.32409774059579
 31
0.0
  0
LINE
  8
0
  6
CONTINUOUS
 62
               3
  5
1F3
 10
325.69023657068027
 20
709.32409774059556
 30
0.0
 11
339.19023657067982
 21
719.32409774059556
 31
0.0
  0
ARC
  8
0
  6
CONTINUOUS
 62
               3
  5
1F4
 10
337.19023657067982
 20
697.74152204564007
 30
0.0
 40
4.9999999999999991
 50
0.0
 51
66.421821521772472
  0
LINE
  8
0
  6
CONTINUOUS
 62
               3
  5
1F5
 10
341.90607509667569
 20
719.32409774059556
 30
0.0
 11
341.90607509667569
 21
702.32409774059579
 31
0.0
  0
LINE
  8
0
  6
CONTINUOUS
 62
               3
  5
1F6
 10
339.19023657068027
 20
215.32409774059494
 30
0.0
 11
489.19023657067982
 21
215.32409774059516
 31
0.0
  0
LINE
  8
0
  6
CONTINUOUS
 62
               3
  5
1F7
 10
341.46894873671312
 20
195.32409774059505
 30
0.0
 11
486.91152440464788
 21
195.32409774059505
 31
0.0
  0
LINE
  8
0
  6
CONTINUOUS
 62
               3
  5
1F8
 10
339.19023657068027
 20
328.32409774059505
 30
0.0
 11
339.19023657068027
 21
215.32409774059494
 31
0.0
  0
LINE
  8
0
  6
CONTINUOUS
 62
               3
  5
1F9
 10
489.19023657067982
 20
215.32409774058596
 30
0.0
 11
489.19023657067936
 21
328.32409774059499
 31
0.0
  0
LINE
  8
0
  6
CONTINUOUS
 62
               3
  5
1FA
 10
472.19023657068027
 20
66.117012673805675
 30
0.0
 11
489.19023657067982
 21
215.32409774058596
 31
0.0
  0
LINE
  8
0
  6
CONTINUOUS
 62
               3
  5
1FB
 10
356.19023657068027
 20
66.117012673805675
 30
0.0
 11
339.19023657068027
 21
215.32409774059494
 31
0.0
  0
LINE
  8
0
  6
CONTINUOUS
 62
               3
  5
1FC
 10
-643.80976342931967
 20
66.117012673805675
 30
0.0
 11
-660.80976342931967
 21
215.32409774059494
 31
0.0
  0
LINE
  8
0
  6
CONTINUOUS
 62
               3
  5
1FD
 10
-660.80976342931967
 20
328.32409774059499
 30
0.0
 11
-660.80976342931967
 21
215.32409774059494
 31
0.0
  0
ARC
  8
0
  6
CONTINUOUS
 62
               3
  5
1FE
 10
-660.80976342931967
 20
330.82409774059499
 30
0.0
 40
2.4999999999999996
 50
89.999999999963322
 51
269.99999999989518
  0
LINE
  8
0
  6
CONTINUOUS
 62
               3
  5
1FF
 10
-527.80976342931967
 20
66.117012673805675
 30
0.0
 11
-510.80976342932018
 21
215.32409774058596
 31
0.0
  0
LINE
  8
0
  6
CONTINUOUS
 62
               3
  5
200
 10
-660.80976342931967
 20
328.32409774059499
 30
0.0
 11
-608.30976342931967
 21
328.32409774059499
 31
0.0
  0
LINE
  8
0
  6
CONTINUOUS
 62
               3
  5
201
 10
-563.30976342931967
 20
328.32409774059499
 30
0.0
 11
-510.80976342932018
 21
328.32409774059499
 31
0.0
  0
LINE
  8
0
  6
CONTINUOUS
 62
               3
  5
202
 10
-660.80976342931967
 20
333.32409774059499
 30
0.0
 11
-608.30976342931967
 21
333.32409774059499
 31
0.0
  0
LINE
  8
0
  6
CONTINUOUS
 62
               3
  5
203
 10
-563.30976342931967
 20
333.32409774059499
 30
0.0
 11
-510.80976342932018
 21
333.32409774059499
 31
0.0
  0
ARC
  8
0
  6
CONTINUOUS
 62
               3
  5
204
 10
-608.30976342931967
 20
330.82409774059499
 30
0.0
 40
2.4999999999999996
 50
269.99999999989518
 51
449.99999999982703
  0
ARC
  8
0
  6
CONTINUOUS
 62
               3
  5
205
 10
-563.30976342931967
 20
330.82409774059499
 30
0.0
 40
2.4999999999999996
 50
89.999999999965937
 51
269.99999999989518
  0
LINE
  8
0
  6
CONTINUOUS
 62
               3
  5
206
 10
-495.80976342931973
 20
468.32409774059499
 30
0.0
 11
-495.80976342931973
 21
447.32409774059505
 31
0.0
  0
LINE
  8
0
  6
CONTINUOUS
 62
               3
  5
207
 10
-660.80976342931967
 20
441.8573300833088
 30
0.0
 11
-660.80976342931967
 21
333.32409774059499
 31
0.0
  0
LINE
  8
0
  6
CONTINUOUS
 62
               3
  5
208
 10
-660.80976342931967
 20
215.32409774059494
 30
0.0
 11
-510.80976342932018
 21
215.32409774059516
 31
0.0
  0
LINE
  8
0
  6
CONTINUOUS
 62
               3
  5
209
 10
-658.53105126328683
 20
195.32409774059505
 30
0.0
 11
-513.08847559535207
 21
195.32409774059505
 31
0.0
  0
LINE
  8
0
  6
CONTINUOUS
 62
               3
  5
20A
 10
-675.80976342932058
 20
468.32409774059499
 30
0.0
 11
-675.80976342932058
 21
447.32409774059505
 31
0.0
  0
LINE
  8
0
  6
CONTINUOUS
 62
               3
  5
20B
 10
-510.80976342932018
 20
719.32409774059556
 30
0.0
 11
-660.80976342932013
 21
719.32409774059556
 31
0.0
  0
LINE
  8
0
  6
CONTINUOUS
 62
               3
  5
20C
 10
-497.30976342931973
 20
709.32409774059556
 30
0.0
 11
-497.30976342931973
 21
702.32409774059579
 31
0.0
  0
LINE
  8
0
  6
CONTINUOUS
 62
               3
  5
20D
 10
-497.30976342931973
 20
709.32409774059556
 30
0.0
 11
-510.80976342932018
 21
719.32409774059556
 31
0.0
  0
ARC
  8
0
  6
CONTINUOUS
 62
               3
  5
20E
 10
-508.80976342932018
 20
697.74152204564007
 30
0.0
 40
4.9999999999999991
 50
113.57817847815815
 51
179.99999999993057
  0
LINE
  8
0
  6
CONTINUOUS
 62
               3
  5
20F
 10
-497.30976342931973
 20
702.32409774059579
 30
0.0
 11
-674.30976342931967
 21
702.32409774059579
 31
0.0
  0
LINE
  8
0
  6
CONTINUOUS
 62
               3
  5
210
 10
-513.80976342932013
 20
697.74152204564007
 30
0.0
 11
-513.80976342932013
 21
627.85975149344824
 31
0.0
  0
LINE
  8
0
  6
CONTINUOUS
 62
               3
  5
211
 10
-657.80976342932013
 20
627.85975149344893
 30
0.0
 11
-657.80976342932013
 21
697.74152204564007
 31
0.0
  0
LINE
  8
0
  6
CONTINUOUS
 62
               3
  5
212
 10
-514.30976342931967
 20
622.85975149344824
 30
0.0
 11
-657.30976342932058
 21
622.85975149344824
 31
0.0
  0
LINE
  8
0
  6
CONTINUOUS
 62
               3
  5
213
 10
-565.80976342932013
 20
702.32409774059579
 30
0.0
 11
-565.80976342932013
 21
719.32409774059556
 31
0.0
  0
LINE
  8
0
  6
CONTINUOUS
 62
               3
  5
214
 10
-605.80976342932013
 20
719.32409774059556
 30
0.0
 11
-605.80976342932013
 21
702.32409774059579
 31
0.0
  0
LINE
  8
0
  6
CONTINUOUS
 62
               3
  5
215
 10
-565.80976342932013
 20
709.32409774059556
 30
0.0
 11
-605.80976342932013
 21
709.32409774059556
 31
0.0
  0
LINE
  8
0
  6
CONTINUOUS
 62
               3
  5
216
 10
-513.52560195531464
 20
719.32409774059556
 30
0.0
 11
-513.52560195531464
 21
702.32409774059579
 31
0.0
  0
LINE
  8
0
  6
CONTINUOUS
 62
               3
  5
217
 10
-674.30976342931967
 20
709.32409774059556
 30
0.0
 11
-674.30976342931967
 21
702.32409774059579
 31
0.0
  0
LINE
  8
0
  6
CONTINUOUS
 62
               3
  5
218
 10
-674.30976342931967
 20
709.32409774059556
 30
0.0
 11
-660.80976342932013
 21
719.32409774059556
 31
0.0
  0
ARC
  8
0
  6
CONTINUOUS
 62
               3
  5
219
 10
-662.80976342932013
 20
697.74152204564007
 30
0.0
 40
4.9999999999999991
 50
0.0
 51
66.421821521772472
  0
LINE
  8
0
  6
CONTINUOUS
 62
               3
  5
21A
 10
-658.09392490332425
 20
719.32409774059556
 30
0.0
 11
-658.09392490332425
 21
702.32409774059579
 31
0.0
  0
LINE
  8
0
  6
CONTINUOUS
 62
               3
  5
21B
 10
-675.80976342932013
 20
491.32409774059624
 30
0.0
 11
-495.80976342932018
 21
491.32409774059499
 31
0.0
  0
LINE
  8
0
  6
CONTINUOUS
 62
               3
  5
21C
 10
-495.80976342931973
 20
473.32409774059499
 30
0.0
 11
-495.80976342931973
 21
491.32409774059499
 31
0.0
  0
LINE
  8
0
  6
CONTINUOUS
 62
               3
  5
21D
 10
-675.80976342931967
 20
473.32409774059499
 30
0.0
 11
-675.80976342931967
 21
491.32409774059499
 31
0.0
  0
LINE
  8
0
  6
CONTINUOUS
 62
               3
  5
21E
 10
-495.80976342931973
 20
473.32409774059499
 30
0.0
 11
-675.80976342931967
 21
473.32409774059499
 31
0.0
  0
LINE
  8
0
  6
CONTINUOUS
 62
               3
  5
21F
 10
-499.80976342931973
 20
473.32409774059499
 30
0.0
 11
-499.80976342931973
 21
468.32409774059499
 31
0.0
  0
LINE
  8
0
  6
CONTINUOUS
 62
               3
  5
220
 10
-675.80976342932058
 20
468.32409774059499
 30
0.0
 11
-495.80976342931973
 21
468.32409774059499
 31
0.0
  0
LINE
  8
0
  6
CONTINUOUS
 62
               3
  5
221
 10
-671.80976342932058
 20
473.32409774059499
 30
0.0
 11
-671.80976342932058
 21
468.32409774059499
 31
0.0
  0
LINE
  8
0
  6
CONTINUOUS
 62
               3
  5
222
 10
-495.80976342931973
 20
447.32409774059505
 30
0.0
 11
-675.80976342931967
 21
447.32409774059505
 31
0.0
  0
LINE
  8
0
  6
CONTINUOUS
 62
               3
  5
223
 10
-150.80976342932018
 20
328.32409774059511
 30
0.0
 11
-20.809763429320185
 21
328.32409774059511
 31
0.0
  0
LINE
  8
0
  6
CONTINUOUS
 62
               3
  5
224
 10
-150.80976342932018
 20
333.32409774059511
 30
0.0
 11
-20.809763429320185
 21
333.32409774059505
 31
0.0
  0
LINE
  8
0
  6
CONTINUOUS
 62
               3
  5
225
 10
-222.80976342931996
 20
922.47409774059497
 30
0.0
 11
-222.80976342931996
 21
1024.1740977405948
 31
0.0
  0
LINE
  8
0
  6
CONTINUOUS
 62
               3
  5
226
 10
-222.80976342931996
 20
1024.1740977405948
 30
0.0
 11
-225.80976342932007
 21
1021.1740977405954
 31
0.0
  0
LINE
  8
0
  6
CONTINUOUS
 62
               3
  5
227
 10
-222.80976342931996
 20
922.47409774059497
 30
0.0
 11
-225.80976342932007
 21
925.47409774059497
 31
0.0
  0
LINE
  8
0
  6
CONTINUOUS
 62
               3
  5
228
 10
-230.80976342932007
 20
1021.6740977405951
 30
0.0
 11
-230.80976342932007
 21
924.97409774059497
 31
0.0
  0
LINE
  8
0
  6
CONTINUOUS
 62
               3
  5
229
 10
-225.80976342932007
 20
922.47409774059497
 30
0.0
 11
-225.80976342932007
 21
1024.1740977405952
 31
0.0
  0
LINE
  8
0
  6
CONTINUOUS
 62
               3
  5
22A
 10
-225.80976342932007
 20
1024.1740977405952
 30
0.0
 11
-228.30976342932007
 21
1024.1740977405952
 31
0.0
  0
LINE
  8
0
  6
CONTINUOUS
 62
               3
  5
22B
 10
-225.80976342932007
 20
922.47409774059497
 30
0.0
 11
-228.30976342932007
 21
922.47409774059497
 31
0.0
  0
ARC
  8
0
  6
CONTINUOUS
 62
               3
  5
22C
 10
-228.30976342932007
 20
924.97409774059497
 30
0.0
 40
2.5
 50
179.99999999993187
 51
269.99999999989649
  0
ARC
  8
0
  6
CONTINUOUS
 62
               3
  5
22D
 10
-228.30976342932007
 20
1021.6740977405951
 30
0.0
 40
2.5
 50
89.999999999965937
 51
179.99999999993187
  0
LINE
  8
0
  6
CONTINUOUS
 62
               3
  5
22E
 10
-169.41741445318311
 20
1026.0385996518139
 30
0.0
 11
-222.80976342931996
 21
1024.1740977405948
 31
0.0
  0
LINE
  8
0
  6
CONTINUOUS
 62
               3
  5
22F
 10
-169.42044857615764
 20
920.63169831791356
 30
0.0
 11
-222.80976342931996
 21
922.47409774059497
 31
0.0
  0
CIRCLE
  8
0
  6
CONTINUOUS
 62
               3
  5
230
 10
-585.80976342932013
 20
384.82409774059528
 30
0.0
 40
50.75
  0
LINE
  8
0
  6
CONTINUOUS
 62
               3
  5
231
 10
-604.8901853324121
 20
410.82409774059539
 30
0.0
 11
-566.7293415262277
 21
410.82409774059539
 31
0.0
  0
CIRCLE
  8
0
  6
CONTINUOUS
 62
               3
  5
232
 10
-585.80976342932058
 20
384.82409774059528
 30
0.0
 40
40.75
  0
CIRCLE
  8
0
  6
CONTINUOUS
 62
               3
  5
233
 10
-585.80976342932013
 20
384.82409774059528
 30
0.0
 40
32.25
  0
LINE
  8
0
  6
CONTINUOUS
 62
               3
  5
234
 10
-612.85659780970559
 20
357.77726336021004
 30
0.0
 11
-614.62436476267226
 21
356.00949640724349
 31
0.0
  0
LINE
  8
0
  6
CONTINUOUS
 62
               3
  5
235
 10
-558.76292904894171
 20
357.77726336020322
 30
0.0
 11
-556.99516209596959
 21
356.00949640724281
 31
0.0
  0
ARC
  8
0
  6
CONTINUOUS
 62
               3
  5
236
 10
-585.80976342932013
 20
384.82409774059528
 30
0.0
 40
38.25
 50
224.9999999999045
 51
314.99999999986443
  0
LINE
  8
0
  6
CONTINUOUS
 62
               3
  5
237
 10
-225.80976342932013
 20
433.34565386655908
 30
0.0
 11
-225.1382073033559
 21
433.34565386655908
 31
0.0
  0
LINE
  8
0
  6
CONTINUOUS
 62
               3
  5
238
 10
-222.80976342932024
 20
435.67409774059479
 30
0.0
 11
-225.1382073033559
 21
433.34565386655908
 31
0.0
  0
LINE
  8
0
  6
CONTINUOUS
 62
               3
  5
239
 10
-222.80976342932024
 20
435.67409774059479
 30
0.0
 11
-165.46961548945666
 21
437.67645982942616
 31
0.0
  0
LINE
  8
0
  6
CONTINUOUS
 62
               3
  5
23A
 10
-225.80976342932013
 20
336.30254161462994
 30
0.0
 11
-225.1382073033559
 21
336.30254161462994
 31
0.0
  0
LINE
  8
0
  6
CONTINUOUS
 62
               3
  5
23B
 10
-222.80976342932024
 20
333.97409774059474
 30
0.0
 11
-225.1382073033559
 21
336.30254161462994
 31
0.0
  0
LINE
  8
0
  6
CONTINUOUS
 62
               3
  5
23C
 10
-225.1382073033559
 20
433.34565386655908
 30
0.0
 11
-225.1382073033559
 21
336.30254161462994
 31
0.0
  0
LINE
  8
0
  6
CONTINUOUS
 62
               3
  5
23D
 10
-222.80976342932024
 20
333.97409774059474
 30
0.0
 11
-222.80976342932024
 21
435.67409774059479
 31
0.0
  0
LINE
  8
0
  6
CONTINUOUS
 62
               3
  5
23E
 10
-222.80976342932024
 20
333.97409774059474
 30
0.0
 11
-180.64465317304291
 21
332.50165964474081
 31
0.0
  0
ARC
  8
0
  6
CONTINUOUS
 62
               3
  5
23F
 10
-180.81915065655494
 20
327.50470550964587
 30
0.0
 40
4.9999999999999991
 50
44.999999999981704
 51
87.999999999966505
  0
LINE
  8
0
  6
CONTINUOUS
 62
               3
  5
240
 10
-230.80976342932013
 20
433.17409774059479
 30
0.0
 11
-230.80976342932013
 21
336.47409774059474
 31
0.0
  0
LINE
  8
0
  6
CONTINUOUS
 62
               3
  5
241
 10
-225.80976342932013
 20
435.67409774059479
 30
0.0
 11
-228.30976342932013
 21
435.67409774059479
 31
0.0
  0
ARC
  8
0
  6
CONTINUOUS
 62
               3
  5
242
 10
-228.30976342932013
 20
433.17409774059479
 30
0.0
 40
2.5
 50
89.999999999965937
 51
179.99999999993085
  0
ARC
  8
0
  6
CONTINUOUS
 62
               3
  5
243
 10
-228.30976342932013
 20
336.47409774059474
 30
0.0
 40
2.5
 50
179.99999999993057
 51
269.99999999989649
  0
LINE
  8
0
  6
CONTINUOUS
 62
               3
  5
244
 10
-225.80976342932013
 20
333.97409774059474
 30
0.0
 11
-225.80976342932013
 21
435.67409774059479
 31
0.0
  0
LINE
  8
0
  6
CONTINUOUS
 62
               3
  5
245
 10
-225.80976342932013
 20
333.97409774059474
 30
0.0
 11
-228.30976342932013
 21
333.97409774059474
 31
0.0
  0
LINE
  8
0
  6
CONTINUOUS
 62
               3
  5
246
 10
-162.27422952338793
 20
316.03085218834372
 30
0.0
 11
-177.2836167506224
 21
331.04023941557807
 31
0.0
  0
ARC
  8
0
  6
CONTINUOUS
 62
               3
  5
247
 10
-165.8097634293199
 20
312.49531828241084
 30
0.0
 40
4.9999999999999991
 50
0.0
 51
44.999999999981824
  0
ARC
  8
0
  6
CONTINUOUS
 62
               3
  5
248
 10
-165.63801563560008
 20
442.49880906726821
 30
0.0
 40
4.8252886733268916
 50
271.99999999989586
 51
352.65529582493855
  0
ARC
  8
0
  6
CONTINUOUS
 62
               3
  5
249
 10
-510.80976342932064
 20
330.82409774059499
 30
0.0
 40
2.4999999999999996
 50
269.99999999989518
 51
449.99999999982703
  0
LINE
  8
0
  6
CONTINUOUS
 62
               3
  5
24A
 10
-510.80976342932018
 20
215.32409774058596
 30
0.0
 11
-510.80976342932064
 21
328.32409774059499
 31
0.0
  0
LINE
  8
0
  6
CONTINUOUS
 62
               3
  5
24B
 10
-510.80976342932064
 20
333.32409774059499
 30
0.0
 11
-510.80976342932064
 21
442.32409774059505
 31
0.0
  0
LINE
  8
0
  6
CONTINUOUS
 62
               3
  5
24C
 10
-9.3452973352523827
 20
316.03085218834428
 30
0.0
 11
5.664089891982087
 21
331.04023941557875
 31
0.0
  0
ARC
  8
0
  6
CONTINUOUS
 62
               3
  5
24D
 10
9.1996237979148532
 20
327.50470550964656
 30
0.0
 40
4.9999999999999991
 50
91.999999999964345
 51
134.99999999994904
  0
ARC
  8
0
  6
CONTINUOUS
 62
               3
  5
24E
 10
-5.8097634293196165
 20
312.49531828241152
 30
0.0
 40
4.9999999999999991
 50
134.99999999994904
 51
179.99999999993057
  0
LINE
  8
0
  6
CONTINUOUS
 62
               3
  5
24F
 10
51.190236570679701
 20
420.42409774059513
 30
0.0
 11
-5.9842609128324398
 21
422.42067518802361
 31
0.0
  0
ARC
  8
0
  6
CONTINUOUS
 62
               3
  5
250
 10
-5.809763429320185
 20
427.41762932311889
 30
0.0
 40
4.9999999999999991
 50
179.99999999993085
 51
267.99999999989603
  0
LINE
  8
0
  6
CONTINUOUS
 62
               3
  5
251
 10
51.190236570679701
 20
420.42409774059513
 30
0.0
 11
54.190236570679815
 21
417.42409774059558
 31
0.0
  0
LINE
  8
0
  6
CONTINUOUS
 62
               3
  5
252
 10
54.190236570679815
 20
420.42409774059524
 30
0.0
 11
56.690236570679815
 21
420.42409774059524
 31
0.0
  0
ARC
  8
0
  6
CONTINUOUS
 62
               3
  5
253
 10
56.690236570679815
 20
417.92409774059524
 30
0.0
 40
2.5
 50
0.0
 51
89.999999999965937
  0
LINE
  8
0
  6
CONTINUOUS
 62
               3
  5
254
 10
51.190236570679701
 20
334.22409774059508
 30
0.0
 11
51.190236570679701
 21
420.42409774059513
 31
0.0
  0
LINE
  8
0
  6
CONTINUOUS
 62
               3
  5
255
 10
51.190236570679701
 20
334.22409774059508
 30
0.0
 11
9.0164067551842777
 21
332.75135515102397
 31
0.0
  0
LINE
  8
0
  6
CONTINUOUS
 62
               3
  5
256
 10
51.190236570679701
 20
334.22409774059508
 30
0.0
 11
54.190236570679815
 21
337.2240977405952
 31
0.0
  0
LINE
  8
0
  6
CONTINUOUS
 62
               3
  5
257
 10
59.190236570679815
 20
417.92409774059524
 30
0.0
 11
59.190236570679815
 21
336.72409774059508
 31
0.0
  0
LINE
  8
0
  6
CONTINUOUS
 62
               3
  5
258
 10
54.190236570679815
 20
334.22409774059508
 30
0.0
 11
54.190236570679815
 21
420.42409774059524
 31
0.0
  0
LINE
  8
0
  6
CONTINUOUS
 62
               3
  5
259
 10
54.190236570679815
 20
334.22409774059508
 30
0.0
 11
56.690236570679815
 21
334.22409774059508
 31
0.0
  0
ARC
  8
0
  6
CONTINUOUS
 62
               3
  5
25A
 10
56.690236570679815
 20
336.72409774059508
 30
0.0
 40
2.5
 50
269.99999999989649
 51
359.99999999986142
  0
LINE
  8
0
  6
CONTINUOUS
 62
               3
  5
25B
 10
-10.809763429320412
 20
435.32409774059516
 30
0.0
 11
-10.809763429320185
 21
427.41762932311889
 31
0.0
  0
ARC
  8
0
  6
CONTINUOUS
 62
               3
  5
25C
 10
-20.809763429320185
 20
330.82409774059505
 30
0.0
 40
2.4999999999999996
 50
269.99999999989649
 51
449.99999999982703
  0
LINE
  8
0
  6
CONTINUOUS
 62
               3
  5
25D
 10
-10.809763429320185
 20
215.32409774058596
 30
0.0
 11
-10.809763429319617
 21
312.49531828241152
 31
0.0
  0
LINE
  8
0
  6
CONTINUOUS
 62
               3
  5
25E
 10
-10.809763429320185
 20
427.41762932311889
 30
0.0
 11
-10.809763429320185
 21
442.32409774059505
 31
0.0
  0
ARC
  8
0
  6
CONTINUOUS
 62
               3
  5
25F
 10
334.19023657068027
 20
442.32409774059505
 30
0.0
 40
5.0
 50
0.0
 51
89.999999999965937
  0
LINE
  8
0
  6
CONTINUOUS
 62
               3
  5
260
 10
339.19023657068027
 20
441.85733008330936
 30
0.0
 11
339.19023657068027
 21
333.32409774059499
 31
0.0
  0
ARC
  8
0
  6
CONTINUOUS
 62
               3
  5
261
 10
339.19023657068027
 20
330.82409774059499
 30
0.0
 40
2.4999999999999996
 50
89.999999999965937
 51
269.99999999989518
  0
LINE
  8
0
  6
CONTINUOUS
 62
               3
  5
262
 10
397.56946643208465
 20
395.32409774059494
 30
0.0
 11
430.81100670927361
 21
395.32409774059494
 31
0.0
  0
CIRCLE
  8
0
  6
CONTINUOUS
 62
               3
  5
263
 10
414.19023657067913
 20
377.32409774059471
 30
0.0
 40
33.0
  0
CIRCLE
  8
0
  6
CONTINUOUS
 62
               3
  5
264
 10
414.19023657067913
 20
377.32409774059471
 30
0.0
 40
24.5
  0
LINE
  8
0
  6
CONTINUOUS
 62
               3
  5
265
 10
392.6234797444892
 20
355.75734091440535
 30
0.0
 11
390.8557127915239
 21
353.98957396143823
 31
0.0
  0
LINE
  8
0
  6
CONTINUOUS
 62
               3
  5
266
 10
435.75699339686906
 20
355.75734091440535
 30
0.0
 11
437.52476034983505
 21
353.98957396143868
 31
0.0
  0
ARC
  8
0
  6
CONTINUOUS
 62
               3
  5
267
 10
414.19023657067913
 20
377.32409774059494
 30
0.0
 40
30.5
 50
224.99999999991346
 51
314.99999999987904
  0
CIRCLE
  8
0
  6
CONTINUOUS
 62
               3
  5
268
 10
414.19023657067982
 20
377.32409774059494
 30
0.0
 40
43.100000000000001
  0
ARC
  8
0
  6
CONTINUOUS
 62
               3
  5
269
 10
391.69023657068027
 20
330.82409774059499
 30
0.0
 40
2.4999999999999996
 50
269.99999999989518
 51
449.99999999982703
  0
ARC
  8
0
  6
CONTINUOUS
 62
               3
  5
26A
 10
436.69023657068027
 20
330.82409774059499
 30
0.0
 40
2.4999999999999996
 50
89.999999999963322
 51
269.99999999989518
  0
LINE
  8
0
  6
CONTINUOUS
 62
               3
  5
26B
 10
339.19023657068027
 20
333.32409774059499
 30
0.0
 11
391.69023657068027
 21
333.32409774059499
 31
0.0
  0
LINE
  8
0
  6
CONTINUOUS
 62
               3
  5
26C
 10
339.19023657068027
 20
328.32409774059505
 30
0.0
 11
391.69023657068027
 21
328.32409774059499
 31
0.0
  0
LINE
  8
0
  6
CONTINUOUS
 62
               3
  5
26D
 10
436.69023657068027
 20
328.32409774059499
 30
0.0
 11
489.19023657067982
 21
328.32409774059499
 31
0.0
  0
LINE
  8
0
  6
CONTINUOUS
 62
               3
  5
26E
 10
436.69023657068027
 20
333.32409774059499
 30
0.0
 11
489.19023657067982
 21
333.32409774059499
 31
0.0
  0
LINE
  8
0
  6
CONTINUOUS
 62
               3
  5
26F
 10
51.190236570679531
 20
1016.4240977405951
 30
0.0
 11
51.190236570679531
 21
930.22409774059497
 31
0.0
  0
LINE
  8
0
  6
CONTINUOUS
 62
               3
  5
270
 10
51.190236570679531
 20
930.22409774059497
 30
0.0
 11
54.190236570679645
 21
933.22409774059452
 31
0.0
  0
LINE
  8
0
  6
CONTINUOUS
 62
               3
  5
271
 10
51.190236570679531
 20
1016.4240977405951
 30
0.0
 11
54.190236570679645
 21
1013.4240977405951
 31
0.0
  0
LINE
  8
0
  6
CONTINUOUS
 62
               3
  5
272
 10
59.190236570679616
 20
932.72409774059474
 30
0.0
 11
59.190236570679645
 21
1013.9240977405951
 31
0.0
  0
LINE
  8
0
  6
CONTINUOUS
 62
               3
  5
273
 10
54.190236570679645
 20
1016.4240977405951
 30
0.0
 11
54.190236570679645
 21
930.22409774059474
 31
0.0
  0
LINE
  8
0
  6
CONTINUOUS
 62
               3
  5
274
 10
54.190236570679645
 20
930.22409774059474
 30
0.0
 11
56.690236570679645
 21
930.22409774059474
 31
0.0
  0
LINE
  8
0
  6
CONTINUOUS
 62
               3
  5
275
 10
54.190236570679645
 20
1016.4240977405951
 30
0.0
 11
56.690236570679645
 21
1016.4240977405951
 31
0.0
  0
ARC
  8
0
  6
CONTINUOUS
 62
               3
  5
276
 10
56.690236570679645
 20
1013.9240977405951
 30
0.0
 40
2.5
 50
359.99999999986375
 51
449.99999999982703
  0
ARC
  8
0
  6
CONTINUOUS
 62
               3
  5
277
 10
56.690236570679645
 20
932.72409774059474
 30
0.0
 40
2.5
 50
269.99999999989649
 51
359.99999999986107
  0
LINE
  8
0
  6
CONTINUOUS
 62
               3
  5
278
 10
-1.1301318690829589
 20
1018.2296091406387
 30
0.0
 11
51.190236570679531
 21
1016.4240977405951
 31
0.0
  0
LINE
  8
0
  6
CONTINUOUS
 62
               3
  5
279
 10
-1.1301318690830158
 20
928.39703021458627
 30
0.0
 11
51.190236570679531
 21
930.22409774059497
 31
0.0
  0
LINE
  8
0
  6
CONTINUOUS
 62
               3
  5
27A
 10
-527.80976342931967
 20
-44.67590225940404
 30
0.0
 11
-527.80976342931967
 21
66.117012673805675
 31
0.0
  0
LINE
  8
0
  6
CONTINUOUS
 62
               3
  5
27B
 10
-643.80976342931967
 20
66.117012673805675
 30
0.0
 11
-643.80976342931967
 21
-44.67590225940404
 31
0.0
  0
LINE
  8
0
  6
CONTINUOUS
 62
               3
  5
27C
 10
-643.80976342931967
 20
66.117012673806073
 30
0.0
 11
-527.80976342931967
 21
66.117012673805675
 31
0.0
  0
LINE
  8
0
  6
CONTINUOUS
 62
               3
  5
27D
 10
-646.08847559535252
 20
86.117012673805959
 30
0.0
 11
-525.53105126328683
 21
86.117012673805959
 31
0.0
  0
LINE
  8
0
  6
CONTINUOUS
 62
               3
  5
27E
 10
-642.80976342932013
 20
-145.67590225940455
 30
0.0
 11
-528.80976342932013
 21
-145.67590225940455
 31
0.0
  0
LINE
  8
0
  6
CONTINUOUS
 62
               3
  5
27F
 10
-528.80976342932013
 20
-145.67590225940455
 30
0.0
 11
-528.80976342932013
 21
-45.675902259404495
 31
0.0
  0
LINE
  8
0
  6
CONTINUOUS
 62
               3
  5
280
 10
-642.80976342932013
 20
-145.67590225940455
 30
0.0
 11
-642.80976342932013
 21
-45.675902259404495
 31
0.0
  0
LINE
  8
0
  6
CONTINUOUS
 62
               3
  5
281
 10
-642.80976342932013
 20
-45.675902259404495
 30
0.0
 11
-528.80976342932013
 21
-45.675902259404495
 31
0.0
  0
LINE
  8
0
  6
CONTINUOUS
 62
               3
  5
282
 10
-528.80976342932013
 20
-45.675902259404495
 30
0.0
 11
-527.80976342931967
 21
-44.67590225940404
 31
0.0
  0
LINE
  8
0
  6
CONTINUOUS
 62
               3
  5
283
 10
-642.80976342932013
 20
-45.675902259404495
 30
0.0
 11
-643.80976342931967
 21
-44.67590225940404
 31
0.0
  0
LINE
  8
0
  6
CONTINUOUS
 62
               3
  5
284
 10
-27.80976342931973
 20
-44.67590225940404
 30
0.0
 11
-27.80976342931973
 21
66.117012673805675
 31
0.0
  0
LINE
  8
0
  6
CONTINUOUS
 62
               3
  5
285
 10
-143.80976342931973
 20
66.117012673805675
 30
0.0
 11
-143.80976342931973
 21
-44.67590225940404
 31
0.0
  0
LINE
  8
0
  6
CONTINUOUS
 62
               3
  5
286
 10
-143.80976342931973
 20
66.117012673806073
 30
0.0
 11
-27.80976342931973
 21
66.117012673805675
 31
0.0
  0
LINE
  8
0
  6
CONTINUOUS
 62
               3
  5
287
 10
-146.08847559535258
 20
86.117012673805959
 30
0.0
 11
-25.531051263286884
 21
86.117012673805959
 31
0.0
  0
LINE
  8
0
  6
CONTINUOUS
 62
               3
  5
288
 10
-142.80976342932018
 20
-145.67590225940455
 30
0.0
 11
-28.809763429320185
 21
-145.67590225940455
 31
0.0
  0
LINE
  8
0
  6
CONTINUOUS
 62
               3
  5
289
 10
-28.809763429320185
 20
-145.67590225940455
 30
0.0
 11
-28.809763429320185
 21
-45.675902259404495
 31
0.0
  0
LINE
  8
0
  6
CONTINUOUS
 62
               3
  5
28A
 10
-142.80976342932018
 20
-145.67590225940455
 30
0.0
 11
-142.80976342932018
 21
-45.675902259404495
 31
0.0
  0
LINE
  8
0
  6
CONTINUOUS
 62
               3
  5
28B
 10
-142.80976342932018
 20
-45.675902259404495
 30
0.0
 11
-28.809763429320185
 21
-45.675902259404495
 31
0.0
  0
LINE
  8
0
  6
CONTINUOUS
 62
               3
  5
28C
 10
-28.809763429320185
 20
-45.675902259404495
 30
0.0
 11
-27.80976342931973
 21
-44.67590225940404
 31
0.0
  0
LINE
  8
0
  6
CONTINUOUS
 62
               3
  5
28D
 10
-142.80976342932018
 20
-45.675902259404495
 30
0.0
 11
-143.80976342931973
 21
-44.67590225940404
 31
0.0
  0
LINE
  8
0
  6
CONTINUOUS
 62
               3
  5
28E
 10
472.19023657068027
 20
-44.67590225940404
 30
0.0
 11
472.19023657068027
 21
66.117012673805675
 31
0.0
  0
LINE
  8
0
  6
CONTINUOUS
 62
               3
  5
28F
 10
356.19023657068027
 20
66.117012673805675
 30
0.0
 11
356.19023657068027
 21
-44.67590225940404
 31
0.0
  0
LINE
  8
0
  6
CONTINUOUS
 62
               3
  5
290
 10
356.19023657068027
 20
66.117012673806073
 30
0.0
 11
472.19023657068027
 21
66.117012673805675
 31
0.0
  0
LINE
  8
0
  6
CONTINUOUS
 62
               3
  5
291
 10
353.91152440464742
 20
86.117012673805959
 30
0.0
 11
474.46894873671312
 21
86.117012673805959
 31
0.0
  0
LINE
  8
0
  6
CONTINUOUS
 62
               3
  5
292
 10
357.19023657067982
 20
-145.67590225940455
 30
0.0
 11
471.19023657067982
 21
-145.67590225940455
 31
0.0
  0
LINE
  8
0
  6
CONTINUOUS
 62
               3
  5
293
 10
471.19023657067982
 20
-145.67590225940455
 30
0.0
 11
471.19023657067982
 21
-45.675902259404495
 31
0.0
  0
LINE
  8
0
  6
CONTINUOUS
 62
               3
  5
294
 10
357.19023657067982
 20
-145.67590225940455
 30
0.0
 11
357.19023657067982
 21
-45.675902259404495
 31
0.0
  0
LINE
  8
0
  6
CONTINUOUS
 62
               3
  5
295
 10
357.19023657067982
 20
-45.675902259404495
 30
0.0
 11
471.19023657067982
 21
-45.675902259404495
 31
0.0
  0
LINE
  8
0
  6
CONTINUOUS
 62
               3
  5
296
 10
471.19023657067982
 20
-45.675902259404495
 30
0.0
 11
472.19023657068027
 21
-44.67590225940404
 31
0.0
  0
LINE
  8
0
  6
CONTINUOUS
 62
               3
  5
297
 10
357.19023657067982
 20
-45.675902259404495
 30
0.0
 11
356.19023657068027
 21
-44.67590225940404
 31
0.0
  0
CIRCLE
  8
0
  6
CONTINUOUS
 62
               3
  5
298
 10
-85.809763429320185
 20
973.32409774059499
 30
0.0
 40
59.0
  0
CIRCLE
  8
0
  6
CONTINUOUS
 62
               3
  5
299
 10
-85.809763429320185
 20
973.32409774059499
 30
0.0
 40
50.0
  0
LINE
  8
0
  6
CONTINUOUS
 62
               3
  5
29A
 10
-115.8097634293202
 20
1013.324097740595
 30
0.0
 11
-55.809763429319901
 21
1013.3240977405948
 31
0.0
  0
LINE
  8
0
  6
CONTINUOUS
 62
               3
  5
29B
 10
-107.80976342932075
 20
973.32409774059499
 30
0.0
 11
-107.80976342932075
 21
928.42420909930797
 31
0.0
  0
LINE
  8
0
  6
CONTINUOUS
 62
               3
  5
29C
 10
-107.80976342932075
 20
973.32409774059499
 30
0.0
 11
-128.97858427336283
 21
998.55211603246551
 31
0.0
  0
LINE
  8
0
  6
CONTINUOUS
 62
               3
  5
29D
 10
-107.80976342932075
 20
951.32409774059442
 30
0.0
 11
-40.909874788033115
 21
951.32409774059442
 31
0.0
  0
ARC
  8
0
  6
CONTINUOUS
 62
               3
  5
29E
 10
-505.80976342932064
 20
442.32409774059505
 30
0.0
 40
5.0
 50
89.999999999965937
 51
179.99999999993079
  0
ARC
  8
0
  6
CONTINUOUS
 62
               3
  5
29F
 10
-5.809763429320185
 20
442.32409774059505
 30
0.0
 40
5.0
 50
89.999999999965283
 51
179.99999999993079
  0
ARC
  8
0
  6
CONTINUOUS
 62
               3
  5
2A0
 10
494.19023657067936
 20
442.32409774059505
 30
0.0
 40
5.0
 50
89.999999999965937
 51
179.99999999993079
  0
CIRCLE
  8
0
  6
CONTINUOUS
 62
               3
  5
2A1
 10
523.47675978698771
 20
-509.63966216880408
 30
0.0
 40
75.0
  0
CIRCLE
  8
0
  6
CONTINUOUS
 62
               3
  5
2A2
 10
523.47675978698771
 20
-509.63966216880408
 30
0.0
 40
52.5
  0
LINE
  8
0
  6
CONTINUOUS
 62
               3
  5
2A3
 10
437.26626158636253
 20
-489.63966216880408
 30
0.0
 11
451.1925983129824
 21
-489.63966216880408
 31
0.0
  0
LINE
  8
0
  6
CONTINUOUS
 62
               3
  5
2A4
 10
451.1925983129824
 20
-529.63966216880419
 30
0.0
 11
437.26626158636253
 21
-529.63966216880419
 31
0.0
  0
ARC
  8
0
  6
CONTINUOUS
 62
               3
  5
2A5
 10
523.47675978698771
 20
-509.63966216880408
 30
0.0
 40
88.5
 50
166.93897588507147
 51
193.06102411465253
  0
LINE
  8
0
  6
CONTINUOUS
 62
               3
  5
2A6
 10
503.47675978698766
 20
-595.85016036942909
 30
0.0
 11
503.47675978698766
 21
-581.92382364280923
 31
0.0
  0
LINE
  8
0
  6
CONTINUOUS
 62
               3
  5
2A7
 10
543.47675978698771
 20
-581.92382364280923
 30
0.0
 11
543.47675978698771
 21
-595.85016036942909
 31
0.0
  0
ARC
  8
0
  6
CONTINUOUS
 62
               3
  5
2A8
 10
523.47675978698771
 20
-509.63966216880408
 30
0.0
 40
88.5
 50
256.93897588500255
 51
283.06102411458357
  0
LINE
  8
0
  6
CONTINUOUS
 62
               3
  5
2A9
 10
609.68725798761238
 20
-529.63966216880419
 30
0.0
 11
595.76092126099184
 21
-529.63966216880419
 31
0.0
  0
LINE
  8
0
  6
CONTINUOUS
 62
               3
  5
2AA
 10
595.76092126099184
 20
-489.63966216880408
 30
0.0
 11
609.68725798761238
 21
-489.63966216880408
 31
0.0
  0
ARC
  8
0
  6
CONTINUOUS
 62
               3
  5
2AB
 10
523.47675978698771
 20
-509.63966216880408
 30
0.0
 40
88.5
 50
346.93897588493354
 51
373.06102411451457
  0
LINE
  8
0
  6
CONTINUOUS
 62
               3
  5
2AC
 10
543.47675978698771
 20
-423.4291639681785
 30
0.0
 11
543.47675978698771
 21
-437.35550069479905
 31
0.0
  0
LINE
  8
0
  6
CONTINUOUS
 62
               3
  5
2AD
 10
503.47675978698766
 20
-437.35550069479905
 30
0.0
 11
503.47675978698766
 21
-423.4291639681785
 31
0.0
  0
ARC
  8
0
  6
CONTINUOUS
 62
               3
  5
2AE
 10
523.47675978698771
 20
-509.63966216880408
 30
0.0
 40
88.5
 50
76.938975885140493
 51
103.06102411472152
  0
LINE
  8
0
  6
CONTINUOUS
 62
               3
  5
2AF
 10
475.80863626612671
 20
-531.63966216880465
 30
0.0
 11
571.14488330784752
 21
-531.63966216880465
 31
0.0
  0
ARC
  8
0
  6
CONTINUOUS
 62
               3
  5
2B0
 10
535.98037143636884
 20
-500.93326454118505
 30
0.0
 40
54.763804151667173
 50
141.3859176367296
 51
145.15009542084252
  0
ARC
  8
0
  6
CONTINUOUS
 62
               3
  5
2B1
 10
523.47675978698771
 20
-509.63966216880408
 30
0.0
 40
51.5
 50
334.7109884732011
 51
410.95932736332554
  0
ARC
  8
0
  6
CONTINUOUS
 62
               3
  5
2B2
 10
523.47675978698771
 20
-509.63966216880408
 30
0.0
 40
51.5
 50
129.04067263626098
 51
205.289011526385
  0
ARC
  8
0
  6
CONTINUOUS
 62
               3
  5
2B3
 10
523.47675978698771
 20
-509.63966216880408
 30
0.0
 40
77.5
 50
104.95524831656299
 51
128.57288309093474
  0
ARC
  8
0
  6
CONTINUOUS
 62
               3
  5
2B4
 10
523.47675978698771
 20
-509.63966216880408
 30
0.0
 40
77.5
 50
14.95524831663182
 51
75.044751683299182
  0
ARC
  8
0
  6
CONTINUOUS
 62
               3
  5
2B5
 10
523.47675978698771
 20
-509.63966216880408
 30
0.0
 40
77.5
 50
321.42711690871977
 51
345.04475168309216
  0
LINE
  8
0
  6
CONTINUOUS
 62
               3
  5
2B6
 10
383.47675978698766
 20
-564.63966216880419
 30
0.0
 11
384.14831591295189
 21
-564.63966216880419
 31
0.0
  0
LINE
  8
0
  6
CONTINUOUS
 62
               3
  5
2B7
 10
386.64831591295234
 20
-567.13966216880419
 30
0.0
 11
384.14831591295189
 21
-564.63966216880419
 31
0.0
  0
LINE
  8
0
  6
CONTINUOUS
 62
               3
  5
2B8
 10
383.47675978698766
 20
-454.63966216880408
 30
0.0
 11
384.14831591295189
 21
-454.63966216880408
 31
0.0
  0
LINE
  8
0
  6
CONTINUOUS
 62
               3
  5
2B9
 10
386.64831591295189
 20
-452.13966216880408
 30
0.0
 11
384.14831591295189
 21
-454.63966216880408
 31
0.0
  0
LINE
  8
0
  6
CONTINUOUS
 62
               3
  5
2BA
 10
384.14831591295189
 20
-454.63966216880408
 30
0.0
 11
384.14831591295189
 21
-564.63966216880419
 31
0.0
  0
LINE
  8
0
  6
CONTINUOUS
 62
               3
  5
2BB
 10
477.9864240006097
 20
-448.95006515046248
 30
0.0
 11
386.64831591295189
 21
-452.13966216880408
 31
0.0
  0
LINE
  8
0
  6
CONTINUOUS
 62
               3
  5
2BC
 10
458.64028807043672
 20
-569.65367723377187
 30
0.0
 11
386.64831591295246
 21
-567.13966216880419
 31
0.0
  0
LINE
  8
0
  6
CONTINUOUS
 62
               3
  5
2BD
 10
378.47675978698766
 20
-454.8112182947682
 30
0.0
 11
378.47675978698766
 21
-564.7396621688041
 31
0.0
  0
LINE
  8
0
  6
CONTINUOUS
 62
               3
  5
2BE
 10
383.47675978698766
 20
-567.2396621688041
 30
0.0
 11
383.47675978698766
 21
-452.03966216880394
 31
0.0
  0
LINE
  8
0
  6
CONTINUOUS
 62
               3
  5
2BF
 10
383.47675978698766
 20
-452.03966216880394
 30
0.0
 11
380.97675978698766
 21
-452.03966216880394
 31
0.0
  0
LINE
  8
0
  6
CONTINUOUS
 62
               3
  5
2C0
 10
383.47675978698766
 20
-567.2396621688041
 30
0.0
 11
380.97675978698766
 21
-567.2396621688041
 31
0.0
  0
ARC
  8
0
  6
CONTINUOUS
 62
               3
  5
2C1
 10
380.97675978698766
 20
-564.7396621688041
 30
0.0
 40
2.5
 50
179.9999999998615
 51
269.99999999979229
  0
ARC
  8
0
  6
CONTINUOUS
 62
               3
  5
2C2
 10
380.97675978698766
 20
-454.53966216880394
 30
0.0
 40
2.5
 50
89.999999999932058
 51
179.9999999998615
  0
LINE
  8
0
  6
CONTINUOUS
 62
               3
  5
2C3
 10
491.03835662037017
 20
-469.63966216880431
 30
0.0
 11
523.47675978698771
 21
-469.63966216880431
 31
0.0
  0
LINE
  8
0
  6
CONTINUOUS
 62
               3
  5
2C4
 10
523.47675978698771
 20
-469.63966216880431
 30
0.0
 11
557.4804360588264
 21
-469.63966216880431
 31
0.0
  0
LINE
  8
0
  6
CONTINUOUS
 62
               3
  5
2C5
 10
386.64831591295234
 20
-567.13966216880419
 30
0.0
 11
386.64831591295189
 21
-452.13966216880408
 31
0.0
  0
ARC
  8
0
  6
CONTINUOUS
 62
               3
  5
2C6
 10
477.81192651709733
 20
-443.95311101536686
 30
0.0
 40
5.0
 50
271.9999999997919
 51
304.80675787019305
  0
LINE
  8
0
  6
CONTINUOUS
 62
               3
  5
2C7
 10
578.47675978698749
 20
-649.63966216880419
 30
0.0
 11
578.47675978698749
 21
-648.96810604283985
 31
0.0
  0
LINE
  8
0
  6
CONTINUOUS
 62
               3
  5
2C8
 10
580.97675978698749
 20
-646.46810604283939
 30
0.0
 11
578.47675978698749
 21
-648.96810604283985
 31
0.0
  0
LINE
  8
0
  6
CONTINUOUS
 62
               3
  5
2C9
 10
468.47675978698766
 20
-649.63966216880419
 30
0.0
 11
468.47675978698766
 21
-648.96810604283985
 31
0.0
  0
LINE
  8
0
  6
CONTINUOUS
 62
               3
  5
2CA
 10
465.97675978698766
 20
-646.46810604283985
 30
0.0
 11
468.47675978698766
 21
-648.96810604283985
 31
0.0
  0
LINE
  8
0
  6
CONTINUOUS
 62
               3
  5
2CB
 10
468.47675978698766
 20
-648.96810604283985
 30
0.0
 11
578.47675978698749
 21
-648.96810604283985
 31
0.0
  0
LINE
  8
0
  6
CONTINUOUS
 62
               3
  5
2CC
 10
468.64831591295177
 20
-654.63966216880419
 30
0.0
 11
578.57675978698762
 21
-654.63966216880419
 31
0.0
  0
LINE
  8
0
  6
CONTINUOUS
 62
               3
  5
2CD
 10
581.07675978698762
 20
-649.63966216880419
 30
0.0
 11
465.87675978698752
 21
-649.63966216880419
 31
0.0
  0
LINE
  8
0
  6
CONTINUOUS
 62
               3
  5
2CE
 10
465.87675978698752
 20
-649.63966216880419
 30
0.0
 11
465.87675978698752
 21
-652.13966216880419
 31
0.0
  0
LINE
  8
0
  6
CONTINUOUS
 62
               3
  5
2CF
 10
581.07675978698762
 20
-649.63966216880419
 30
0.0
 11
581.07675978698762
 21
-652.13966216880419
 31
0.0
  0
ARC
  8
0
  6
CONTINUOUS
 62
               3
  5
2D0
 10
578.57675978698762
 20
-652.13966216880419
 30
0.0
 40
2.5
 50
269.99999999979354
 51
359.999999999723
  0
ARC
  8
0
  6
CONTINUOUS
 62
               3
  5
2D1
 10
468.37675978698752
 20
-652.13966216880419
 30
0.0
 40
2.5
 50
179.99999999985891
 51
269.99999999979354
  0
LINE
  8
0
  6
CONTINUOUS
 62
               3
  5
2D2
 10
580.97675978698749
 20
-646.46810604283939
 30
0.0
 11
465.97675978698766
 21
-646.46810604283985
 31
0.0
  0
LINE
  8
0
  6
CONTINUOUS
 62
               3
  5
2D3
 10
584.16635680532863
 20
-555.12999795518238
 30
0.0
 11
580.97675978698749
 21
-646.46810604283939
 31
0.0
  0
ARC
  8
0
  6
CONTINUOUS
 62
               3
  5
2D4
 10
589.16331094042425
 20
-555.3044954386952
 30
0.0
 40
5.0
 50
145.19324212946151
 51
177.99999999986429
  0
LINE
  8
0
  6
CONTINUOUS
 62
               3
  5
2D5
 10
463.46274472201952
 20
-574.47613388535513
 30
0.0
 11
465.97675978698766
 21
-646.46810604283985
 31
0.0
  0
ARC
  8
0
  6
CONTINUOUS
 62
               3
  5
2D6
 10
458.46579058692413
 20
-574.65063136886704
 30
0.0
 40
5.0
 50
1.9999999999958187
 51
87.999999999932285
  0
LINE
  8
0
  6
CONTINUOUS
 62
               3
  5
2D7
 10
448.47675978698766
 20
-818.13909591738832
 30
0.0
 11
598.47675978698771
 21
-818.13909591738832
 31
0.0
  0
LINE
  8
0
  6
CONTINUOUS
 62
               3
  5
2D8
 10
434.97675978698743
 20
-828.13909591738832
 30
0.0
 11
434.97675978698743
 21
-835.13909591738786
 31
0.0
  0
LINE
  8
0
  6
CONTINUOUS
 62
               3
  5
2D9
 10
434.97675978698743
 20
-828.13909591738832
 30
0.0
 11
448.47675978698766
 21
-818.13909591738832
 31
0.0
  0
ARC
  8
0
  6
CONTINUOUS
 62
               3
  5
2DA
 10
446.47675978698788
 20
-839.72167161234358
 30
0.0
 40
4.9999999999999991
 50
0.0
 51
66.421821521747205
  0
LINE
  8
0
  6
CONTINUOUS
 62
               3
  5
2DB
 10
434.97675978698743
 20
-835.13909591738786
 30
0.0
 11
611.97675978698726
 21
-835.13909591738786
 31
0.0
  0
ARC
  8
0
  6
CONTINUOUS
 62
               3
  5
2DC
 10
468.47675978698766
 20
-925.13909591738832
 30
0.0
 40
19.999999999999996
 50
148.2116693828344
 51
167.26981986155914
  0
LINE
  8
0
  6
CONTINUOUS
 62
               3
  5
2DD
 10
451.47675978698788
 20
-839.72167161234358
 30
0.0
 11
451.47675978698788
 21
-914.60344216453552
 31
0.0
  0
LINE
  8
0
  6
CONTINUOUS
 62
               3
  5
2DE
 10
595.47675978698749
 20
-909.60344216453507
 30
0.0
 11
595.47675978698749
 21
-839.72167161234358
 31
0.0
  0
LINE
  8
0
  6
CONTINUOUS
 62
               3
  5
2DF
 10
451.47675978698788
 20
-914.60344216453552
 30
0.0
 11
594.97675978698794
 21
-914.60344216453552
 31
0.0
  0
LINE
  8
0
  6
CONTINUOUS
 62
               3
  5
2E0
 10
503.47675978698766
 20
-835.13909591738786
 30
0.0
 11
503.47675978698766
 21
-818.13909591738832
 31
0.0
  0
LINE
  8
0
  6
CONTINUOUS
 62
               3
  5
2E1
 10
543.47675978698771
 20
-818.13909591738832
 30
0.0
 11
543.47675978698771
 21
-835.13909591738786
 31
0.0
  0
LINE
  8
0
  6
CONTINUOUS
 62
               3
  5
2E2
 10
503.47675978698766
 20
-828.13909591738832
 30
0.0
 11
543.47675978698771
 21
-828.13909591738832
 31
0.0
  0
LINE
  8
0
  6
CONTINUOUS
 62
               3
  5
2E3
 10
451.1925983129824
 20
-818.13909591738832
 30
0.0
 11
451.1925983129824
 21
-835.13909591738786
 31
0.0
  0
LINE
  8
0
  6
CONTINUOUS
 62
               3
  5
2E4
 10
437.26626158636253
 20
-828.13909591738832
 30
0.0
 11
437.26626158636253
 21
-835.13909591738786
 31
0.0
  0
LINE
  8
0
  6
CONTINUOUS
 62
               3
  5
2E5
 10
434.97675978698743
 20
-828.13909591738832
 30
0.0
 11
437.26626158636253
 21
-828.13909591738832
 31
0.0
  0
LINE
  8
0
  6
CONTINUOUS
 62
               3
  5
2E6
 10
437.26626158636253
 20
-828.13909591738832
 30
0.0
 11
451.1925983129824
 21
-818.13909591738832
 31
0.0
  0
LINE
  8
0
  6
CONTINUOUS
 62
               3
  5
2E7
 10
611.97675978698726
 20
-828.13909591738832
 30
0.0
 11
611.97675978698726
 21
-835.13909591738786
 31
0.0
  0
LINE
  8
0
  6
CONTINUOUS
 62
               3
  5
2E8
 10
611.97675978698726
 20
-828.13909591738832
 30
0.0
 11
598.47675978698771
 21
-818.13909591738832
 31
0.0
  0
ARC
  8
0
  6
CONTINUOUS
 62
               3
  5
2E9
 10
600.47675978698749
 20
-839.72167161234358
 30
0.0
 40
4.9999999999999991
 50
113.5781784781135
 51
179.9999999998615
  0
LINE
  8
0
  6
CONTINUOUS
 62
               3
  5
2EA
 10
595.76092126099184
 20
-818.13909591738832
 30
0.0
 11
595.76092126099184
 21
-835.13909591738786
 31
0.0
  0
LINE
  8
0
  6
CONTINUOUS
 62
               3
  5
2EB
 10
609.68725798761284
 20
-828.13909591738832
 30
0.0
 11
609.68725798761284
 21
-835.13909591738786
 31
0.0
  0
LINE
  8
0
  6
CONTINUOUS
 62
               3
  5
2EC
 10
611.97675978698726
 20
-828.13909591738832
 30
0.0
 11
609.68725798761284
 21
-828.13909591738832
 31
0.0
  0
LINE
  8
0
  6
CONTINUOUS
 62
               3
  5
2ED
 10
609.68725798761284
 20
-828.13909591738832
 30
0.0
 11
595.76092126099184
 21
-818.13909591738832
 31
0.0
  0
ARC
  8
0
  6
CONTINUOUS
 62
               3
  5
2EE
 10
458.47675978698766
 20
-1046.6390959173882
 30
0.0
 40
2.4999999999999996
 50
89.999999999929457
 51
269.99999999979354
  0
ARC
  8
0
  6
CONTINUOUS
 62
               3
  5
2EF
 10
598.47675978698771
 20
-1046.6390959173882
 30
0.0
 40
2.4999999999999996
 50
269.99999999979354
 51
449.99999999965507
  0
LINE
  8
0
  6
CONTINUOUS
 62
               3
  5
2F0
 10
383.47675978698766
 20
-1039.1390959173882
 30
0.0
 11
384.148315912952
 21
-1039.1390959173882
 31
0.0
  0
LINE
  8
0
  6
CONTINUOUS
 62
               3
  5
2F1
 10
386.64831591295211
 20
-1041.6390959173877
 30
0.0
 11
384.148315912952
 21
-1039.1390959173882
 31
0.0
  0
LINE
  8
0
  6
CONTINUOUS
 62
               3
  5
2F2
 10
386.64831591295291
 20
-1041.6390959173882
 30
0.0
 11
428.81342616923024
 21
-1043.1115340132424
 31
0.0
  0
LINE
  8
0
  6
CONTINUOUS
 62
               3
  5
2F3
 10
447.01229369292031
 20
-1059.4107853436744
 30
0.0
 11
432.17446259165052
 21
-1044.5729542424051
 31
0.0
  0
ARC
  8
0
  6
CONTINUOUS
 62
               3
  5
2F4
 10
443.47675978698766
 20
-1062.9463192496073
 30
0.0
 40
4.9999999999999991
 50
0.0
 51
44.999999999964892
  0
LINE
  8
0
  6
CONTINUOUS
 62
               3
  5
2F5
 10
383.47675978698766
 20
-929.13909591738832
 30
0.0
 11
384.148315912952
 21
-929.13909591738832
 31
0.0
  0
LINE
  8
0
  6
CONTINUOUS
 62
               3
  5
2F6
 10
386.64831591295211
 20
-926.63909591738832
 30
0.0
 11
384.148315912952
 21
-929.13909591738832
 31
0.0
  0
LINE
  8
0
  6
CONTINUOUS
 62
               3
  5
2F7
 10
386.648315912952
 20
-926.63909591738832
 30
0.0
 11
444.26579211512643
 21
-924.62704931223618
 31
0.0
  0
LINE
  8
0
  6
CONTINUOUS
 62
               3
  5
2F8
 10
384.148315912952
 20
-929.13909591738832
 30
0.0
 11
384.148315912952
 21
-1039.1390959173882
 31
0.0
  0
LINE
  8
0
  6
CONTINUOUS
 62
               3
  5
2F9
 10
383.47675978698766
 20
-1041.7390959173881
 30
0.0
 11
383.47675978698766
 21
-926.53909591738841
 31
0.0
  0
LINE
  8
0
  6
CONTINUOUS
 62
               3
  5
2FA
 10
383.47675978698766
 20
-926.53909591738841
 30
0.0
 11
380.97675978698766
 21
-926.53909591738841
 31
0.0
  0
ARC
  8
0
  6
CONTINUOUS
 62
               3
  5
2FB
 10
380.97675978698766
 20
-929.03909591738841
 30
0.0
 40
2.5
 50
89.999999999932058
 51
179.99999999985891
  0
LINE
  8
0
  6
CONTINUOUS
 62
               3
  5
2FC
 10
378.47675978698766
 20
-929.03909591738841
 30
0.0
 11
378.47675978698766
 21
-1039.2390959173881
 31
0.0
  0
LINE
  8
0
  6
CONTINUOUS
 62
               3
  5
2FD
 10
383.47675978698766
 20
-1041.7390959173881
 30
0.0
 11
380.97675978698766
 21
-1041.7390959173881
 31
0.0
  0
ARC
  8
0
  6
CONTINUOUS
 62
               3
  5
2FE
 10
380.97675978698766
 20
-1039.2390959173881
 30
0.0
 40
2.5
 50
179.99999999985891
 51
269.99999999979229
  0
LINE
  8
0
  6
CONTINUOUS
 62
               3
  5
2FF
 10
386.64831591295211
 20
-926.63909591738832
 30
0.0
 11
386.64831591295291
 21
-1041.6390959173882
 31
0.0
  0
ARC
  8
0
  6
CONTINUOUS
 62
               3
  5
300
 10
428.63892868571787
 20
-1048.108488148338
 30
0.0
 40
5.0
 50
44.999999999968587
 51
87.999999999932243
  0
ARC
  8
0
  6
CONTINUOUS
 62
               3
  5
301
 10
444.09129463161383
 20
-919.63009517714056
 30
0.0
 40
5.0
 50
271.9999999997919
 51
347.26981986141988
  0
CIRCLE
  8
0
  6
CONTINUOUS
 62
               3
  5
302
 10
523.47675978698771
 20
-984.13909591738832
 30
0.0
 40
48.5
  0
CIRCLE
  8
0
  6
CONTINUOUS
 62
               3
  5
303
 10
523.47675978698771
 20
-984.13909591738832
 30
0.0
 40
47.299999999999997
  0
LINE
  8
0
  6
CONTINUOUS
 62
               3
  5
304
 10
491.6569546335931
 20
-1015.9589010707829
 30
0.0
 11
490.03060903686395
 21
-1017.585246667512
 31
0.0
  0
LINE
  8
0
  6
CONTINUOUS
 62
               3
  5
305
 10
555.29656494038227
 20
-1015.9589010707829
 30
0.0
 11
556.92291053711142
 21
-1017.585246667512
 31
0.0
  0
ARC
  8
0
  6
CONTINUOUS
 62
               3
  5
306
 10
523.47675978698771
 20
-984.13909591738832
 30
0.0
 40
45.0
 50
224.99999999982745
 51
314.99999999975864
  0
CIRCLE
  8
0
  6
CONTINUOUS
 62
               3
  5
307
 10
523.47675978698771
 20
-984.13909591738832
 30
0.0
 40
57.600000000000001
  0
ARC
  8
0
  6
CONTINUOUS
 62
               3
  5
308
 10
500.97675978698834
 20
-1046.6390959173882
 30
0.0
 40
2.4999999999999996
 50
269.99999999979354
 51
449.99999999965507
  0
ARC
  8
0
  6
CONTINUOUS
 62
               3
  5
309
 10
545.97675978698817
 20
-1046.6390959173882
 30
0.0
 40
2.4999999999999996
 50
89.999999999929457
 51
269.99999999979354
  0
LINE
  8
0
  6
CONTINUOUS
 62
               3
  5
30A
 10
458.47675978698766
 20
-1049.1390959173882
 30
0.0
 11
500.97675978698834
 21
-1049.1390959173882
 31
0.0
  0
LINE
  8
0
  6
CONTINUOUS
 62
               3
  5
30B
 10
458.47675978698766
 20
-1044.1390959173882
 30
0.0
 11
500.97675978698834
 21
-1044.1390959173882
 31
0.0
  0
LINE
  8
0
  6
CONTINUOUS
 62
               3
  5
30C
 10
545.97675978698817
 20
-1044.1390959173882
 30
0.0
 11
598.47675978698771
 21
-1044.1390959173882
 31
0.0
  0
LINE
  8
0
  6
CONTINUOUS
 62
               3
  5
30D
 10
545.97675978698817
 20
-1049.1390959173882
 30
0.0
 11
598.47675978698771
 21
-1049.1390959173882
 31
0.0
  0
CIRCLE
  8
0
  6
CONTINUOUS
 62
               3
  5
30E
 10
523.47675978698771
 20
-509.63966216880408
 30
0.0
 40
59.0
  0
LINE
  8
0
  6
DASHDOT
 62
               4
  5
30F
 10
-85.809763429320185
 20
1081.8240977405949
 30
0.0
 11
-85.809763429320171
 21
868.37993990073971
 31
0.0
  0
LINE
  8
0
  6
DASHDOT
 62
               4
  5
310
 10
-262.20638638602935
 20
973.32409774059499
 30
0.0
 11
77.044909749978444
 21
973.32409774059499
 31
0.0
  0
LINE
  8
0
  6
DASHDOT
 62
               4
  5
311
 10
-85.809763429320185
 20
739.32409774059545
 30
0.0
 11
-85.809763429320185
 21
-188.67590225940501
 31
0.0
  0
LINE
  8
0
  6
DASHDOT
 62
               4
  5
312
 10
414.19023657067982
 20
739.32409774059556
 30
0.0
 11
414.19023657067982
 21
-188.67590225940501
 31
0.0
  0
LINE
  8
0
  6
DASHDOT
 62
               4
  5
313
 10
-585.80976342932013
 20
739.32409774059556
 30
0.0
 11
-585.80976342932013
 21
-188.67590225940501
 31
0.0
  0
LINE
  8
0
  6
DASHDOT
 62
               4
  5
314
 10
-645.06511520506706
 20
384.82409774059528
 30
0.0
 11
-524.93781566361508
 21
384.82409774059528
 31
0.0
  0
LINE
  8
0
  6
DASHDOT
 62
               4
  5
315
 10
-165.77815897240612
 20
384.82409774059477
 30
0.0
 11
-250.80976342932047
 21
384.82409774059477
 31
0.0
  0
LINE
  8
0
  6
DASHDOT
 62
               4
  5
316
 10
-25.16989584226377
 20
377.32409774059516
 30
0.0
 11
86.726739945157135
 21
377.32409774059516
 31
0.0
  0
LINE
  8
0
  6
DASHDOT
 62
               4
  5
317
 10
478.90908752676131
 20
377.32409774059494
 30
0.0
 11
347.4913565630597
 21
377.32409774059494
 31
0.0
  0
LINE
  8
0
  6
DASHDOT
 62
               4
  5
318
 10
523.47675978698771
 20
-401.13966216880408
 30
0.0
 11
523.47675978698771
 21
-671.68644896863054
 31
0.0
  0
LINE
  8
0
  6
DASHDOT
 62
               4
  5
319
 10
361.47675978698777
 20
-509.63966216880408
 30
0.0
 11
631.97675978698794
 21
-509.63966216880408
 31
0.0
  0
LINE
  8
0
  6
DASHDOT
 62
               4
  5
31A
 10
592.00198456221233
 20
-984.13909591738832
 30
0.0
 11
361.74814649355943
 21
-984.13909591738832
 31
0.0
  0
LINE
  8
0
  6
DASHDOT
 62
               4
  5
31B
 10
523.47675978698771
 20
-798.13909591738832
 30
0.0
 11
523.47675978698771
 21
-1049.1390959173882
 31
0.0
  0
LINE
  8
0
  6
DASHDOT
 62
               4
  5
31C
 10
473.47675978698766
 20
-998.63909591738832
 30
0.0
 11
573.47675978698794
 21
-998.63909591738832
 31
0.0
  0
LINE
  8
0
  6
DASHDOT
 62
               4
  5
31D
 10
523.47675978698771
 20
-700.2396621688041
 30
0.0
 11
523.47675978698771
 21
-576.63966216880374
 31
0.0
  0
LINE
  8
0
  6
DASHDOT
 62
               4
  5
31E
 10
323.47675978698766
 20
-990.63909591738832
 30
0.0
 11
397.87675978698763
 21
-990.63909591738832
 31
0.0
  0
LINE
  8
0
  6
DASHDOT
 62
               4
  5
31F
 10
323.47675978698788
 20
-509.63966216880385
 30
0.0
 11
456.47675978698788
 21
-509.63966216880385
 31
0.0
  0
LINE
  8
0
  6
DASHDOT
 62
               4
  5
320
 10
37.951572602746282
 20
-706.42924059773748
 30
0.0
 11
37.951572602746339
 21
-590.42924059773759
 31
0.0
  0
LINE
  8
0
  6
DASHDOT
 62
               4
  5
321
 10
-20.048427397253661
 20
-648.42924059773759
 30
0.0
 11
95.951572602746353
 21
-648.42924059773759
 31
0.0
  0
LINE
  8
0
  6
DASHDOT
 62
               4
  5
322
 10
-12.048427397253661
 20
-656.42924059773759
 30
0.0
 11
87.951572602746353
 21
-656.42924059773759
 31
0.0
  0
LINE
  8
0
  6
DASHDOT
 62
               4
  5
323
 10
-125.9746556538426
 20
-656.42924059773759
 30
0.0
 11
-60.505359833773255
 21
-656.42924059773759
 31
0.0
  0
LINE
  8
0
  6
DASHDOT
 62
               4
  5
324
 10
-184.54842739725365
 20
-648.42924059773759
 30
0.0
 11
-85.948427397253568
 21
-648.42924059773759
 31
0.0
  0
LINE
  8
0
  6
DASHDOT
 62
               4
  5
325
 10
201.87780085933531
 20
-656.42924059773782
 30
0.0
 11
136.40850503926595
 21
-656.42924059773759
 31
0.0
  0
LINE
  8
0
  6
DASHDOT
 62
               4
  5
326
 10
260.45157260274635
 20
-648.42924059773782
 30
0.0
 11
161.85157260274627
 21
-648.42924059773759
 31
0.0
  0
LINE
  8
0
  6
DASHDOT
 62
               4
  5
327
 10
37.951572602746282
 20
-425.92924059773759
 30
0.0
 11
37.951572602746282
 21
-549.97230816121805
 31
0.0
  0
CIRCLE
  8
0
  6
CONTINUOUS
 62
               4
  5
328
 10
-150.15648051729642
 20
908.97738065261933
 30
0.0
 40
13.0
  0
CIRCLE
  8
0
  6
CONTINUOUS
 62
               4
  5
329
 10
-150.15648051729642
 20
1037.6708148285707
 30
0.0
 40
13.0
  0
CIRCLE
  8
0
  6
CONTINUOUS
 62
               4
  5
32A
 10
-21.463046341343841
 20
1037.6708148285707
 30
0.0
 40
13.0
  0
CIRCLE
  8
0
  6
CONTINUOUS
 62
               4
  5
32B
 10
-21.463046341343841
 20
908.97738065261933
 30
0.0
 40
13.0
  0
ARC
  8
0
  6
CONTINUOUS
 62
               4
  5
32C
 10
-60.025797617354044
 20
612.32409774059556
 30
0.0
 40
17.566965811965957
 50
143.14855134071405
 51
179.99999999993082
  0
LINE
  8
0
  6
CONTINUOUS
 62
               4
  5
32D
 10
-97.536763429320388
 20
627.85975149344824
 30
0.0
 11
-74.082763429319982
 21
627.85975149344824
 31
0.0
  0
ARC
  8
0
  6
CONTINUOUS
 62
               4
  5
32E
 10
-111.59372924128576
 20
612.32409774059556
 30
0.0
 40
17.566965811965957
 50
0.0
 51
36.851448659216757
  0
LINE
  8
0
  6
CONTINUOUS
 62
               4
  5
32F
 10
-74.082763429319982
 20
622.85975149344824
 30
0.0
 11
-74.082763429319982
 21
627.85975149344824
 31
0.0
  0
LINE
  8
0
  6
CONTINUOUS
 62
               4
  5
330
 10
-97.536763429320388
 20
622.85975149344824
 30
0.0
 11
-97.536763429320388
 21
627.85975149344824
 31
0.0
  0
LINE
  8
0
  6
CONTINUOUS
 62
               4
  5
331
 10
-74.082763429319982
 20
627.85975149344824
 30
0.0
 11
-79.809763429319958
 21
622.85975149344824
 31
0.0
  0
LINE
  8
0
  6
CONTINUOUS
 62
               4
  5
332
 10
-91.809763429319844
 20
622.85975149344824
 30
0.0
 11
-97.536763429320388
 21
627.85975149344824
 31
0.0
  0
LINE
  8
0
  6
CONTINUOUS
 62
               4
  5
333
 10
-79.809763429319958
 20
622.85975149344824
 30
0.0
 11
-91.809763429319844
 21
622.85975149344824
 31
0.0
  0
LINE
  8
0
  6
CONTINUOUS
 62
               4
  5
334
 10
-91.809763429319844
 20
491.32409774059551
 30
0.0
 11
-91.809763429319844
 21
622.85975149344824
 31
0.0
  0
LINE
  8
0
  6
CONTINUOUS
 62
               4
  5
335
 10
-79.809763429319958
 20
622.85975149344824
 30
0.0
 11
-79.809763429319958
 21
491.32409774059556
 31
0.0
  0
LINE
  8
0
  6
CONTINUOUS
 62
               4
  5
336
 10
-77.592763429319973
 20
612.32409774059556
 30
0.0
 11
-77.592763429319973
 21
491.32409774059562
 31
0.0
  0
LINE
  8
0
  6
CONTINUOUS
 62
               4
  5
337
 10
-94.026763429319828
 20
612.32409774059556
 30
0.0
 11
-94.026763429319828
 21
491.32409774059551
 31
0.0
  0
LINE
  8
0
  6
CONTINUOUS
 62
               4
  5
338
 10
-137.15976342932009
 20
493.62409774059495
 30
0.0
 11
-137.15976342932009
 21
491.32409774059505
 31
0.0
  0
LINE
  8
0
  6
CONTINUOUS
 62
               4
  5
339
 10
-137.15976342932009
 20
491.32409774059505
 30
0.0
 11
-163.15976342932009
 21
491.32409774059505
 31
0.0
  0
LINE
  8
0
  6
CONTINUOUS
 62
               4
  5
33A
 10
-163.15976342932009
 20
491.32409774059505
 30
0.0
 11
-163.15976342932009
 21
493.62409774059495
 31
0.0
  0
LINE
  8
0
  6
CONTINUOUS
 62
               4
  5
33B
 10
-163.15976342932009
 20
493.62409774059495
 30
0.0
 11
-137.15976342932009
 21
493.62409774059495
 31
0.0
  0
LINE
  8
0
  6
CONTINUOUS
 62
               4
  5
33C
 10
-144.15976342932032
 20
503.62409774059495
 30
0.0
 11
-144.15976342932032
 21
512.32409774059511
 31
0.0
  0
LINE
  8
0
  6
CONTINUOUS
 62
               4
  5
33D
 10
-156.15976342932032
 20
512.32409774059511
 30
0.0
 11
-156.15976342932032
 21
503.62409774059495
 31
0.0
  0
LINE
  8
0
  6
CONTINUOUS
 62
               4
  5
33E
 10
-156.15976342932032
 20
512.32409774059511
 30
0.0
 11
-144.15976342932032
 21
512.32409774059511
 31
0.0
  0
LINE
  8
0
  6
CONTINUOUS
 62
               4
  5
33F
 10
-34.459763429320276
 20
493.62409774059495
 30
0.0
 11
-34.459763429320276
 21
491.32409774059505
 31
0.0
  0
LINE
  8
0
  6
CONTINUOUS
 62
               4
  5
340
 10
-34.459763429320276
 20
491.32409774059505
 30
0.0
 11
-8.4597634293202759
 21
491.32409774059505
 31
0.0
  0
LINE
  8
0
  6
CONTINUOUS
 62
               4
  5
341
 10
-8.4597634293202759
 20
491.32409774059505
 30
0.0
 11
-8.4597634293202759
 21
493.62409774059495
 31
0.0
  0
LINE
  8
0
  6
CONTINUOUS
 62
               4
  5
342
 10
-8.4597634293202759
 20
493.62409774059495
 30
0.0
 11
-34.459763429320276
 21
493.62409774059495
 31
0.0
  0
LINE
  8
0
  6
CONTINUOUS
 62
               4
  5
343
 10
-27.459763429320049
 20
503.62409774059495
 30
0.0
 11
-27.459763429320049
 21
512.32409774059511
 31
0.0
  0
LINE
  8
0
  6
CONTINUOUS
 62
               4
  5
344
 10
-15.459763429320049
 20
512.32409774059511
 30
0.0
 11
-15.459763429320049
 21
503.62409774059495
 31
0.0
  0
LINE
  8
0
  6
CONTINUOUS
 62
               4
  5
345
 10
-15.459763429320049
 20
512.32409774059511
 30
0.0
 11
-27.459763429320049
 21
512.32409774059511
 31
0.0
  0
LINE
  8
0
  6
CONTINUOUS
 62
               4
  5
346
 10
337.19023657067982
 20
622.85975149344824
 30
0.0
 11
342.19023657067982
 21
627.85975149344824
 31
0.0
  0
ARC
  8
0
  6
CONTINUOUS
 62
               4
  5
347
 10
359.69023657067982
 20
612.32409774059556
 30
0.0
 40
19.999999999999996
 50
148.21166938289122
 51
179.99999999993088
  0
LINE
  8
0
  6
CONTINUOUS
 62
               4
  5
348
 10
342.69023657067936
 20
622.85975149344824
 30
0.0
 11
342.69023657067936
 21
627.85975149344893
 31
0.0
  0
LINE
  8
0
  6
CONTINUOUS
 62
               4
  5
349
 10
342.19023657067982
 20
627.85975149344824
 30
0.0
 11
342.69023657067936
 21
627.85975149344824
 31
0.0
  0
ARC
  8
0
  6
CONTINUOUS
 62
               4
  5
34A
 10
332.19023657067982
 20
496.32409774059499
 30
0.0
 40
5.0
 50
269.99999999989649
 51
359.99999999986159
  0
LINE
  8
0
  6
CONTINUOUS
 62
               4
  5
34B
 10
339.69023657067982
 20
612.32409774059556
 30
0.0
 11
339.69023657067982
 21
503.624097740595
 31
0.0
  0
LINE
  8
0
  6
CONTINUOUS
 62
               4
  5
34C
 10
337.19023657067982
 20
622.85975149344824
 30
0.0
 11
337.19023657067982
 21
496.32409774059499
 31
0.0
  0
LINE
  8
0
  6
CONTINUOUS
 62
               4
  5
34D
 10
362.84023657067991
 20
493.624097740595
 30
0.0
 11
362.84023657067991
 21
491.32409774059511
 31
0.0
  0
LINE
  8
0
  6
CONTINUOUS
 62
               4
  5
34E
 10
362.84023657067991
 20
491.32409774059511
 30
0.0
 11
336.84023657067991
 21
491.32409774059511
 31
0.0
  0
LINE
  8
0
  6
CONTINUOUS
 62
               4
  5
34F
 10
336.84023657067991
 20
491.32409774059511
 30
0.0
 11
336.84023657067991
 21
493.624097740595
 31
0.0
  0
LINE
  8
0
  6
CONTINUOUS
 62
               4
  5
350
 10
336.84023657067991
 20
493.624097740595
 30
0.0
 11
362.84023657067991
 21
493.624097740595
 31
0.0
  0
LINE
  8
0
  6
CONTINUOUS
 62
               4
  5
351
 10
355.84023657067968
 20
503.624097740595
 30
0.0
 11
355.84023657067968
 21
512.32409774059522
 31
0.0
  0
LINE
  8
0
  6
CONTINUOUS
 62
               4
  5
352
 10
343.84023657067968
 20
512.32409774059522
 30
0.0
 11
343.84023657067968
 21
503.624097740595
 31
0.0
  0
LINE
  8
0
  6
CONTINUOUS
 62
               4
  5
353
 10
343.84023657067968
 20
512.32409774059522
 30
0.0
 11
355.84023657067968
 21
512.32409774059522
 31
0.0
  0
LINE
  8
0
  6
CONTINUOUS
 62
               4
  5
354
 10
491.19023657067982
 20
622.85975149344824
 30
0.0
 11
486.19023657067982
 21
627.85975149344824
 31
0.0
  0
ARC
  8
0
  6
CONTINUOUS
 62
               4
  5
355
 10
468.69023657067982
 20
612.32409774059556
 30
0.0
 40
19.999999999999996
 50
0.0
 51
31.788330617039396
  0
LINE
  8
0
  6
CONTINUOUS
 62
               4
  5
356
 10
485.69023657068027
 20
622.85975149344824
 30
0.0
 11
485.69023657068027
 21
627.85975149344893
 31
0.0
  0
LINE
  8
0
  6
CONTINUOUS
 62
               4
  5
357
 10
486.19023657067982
 20
627.85975149344824
 30
0.0
 11
485.69023657068027
 21
627.85975149344824
 31
0.0
  0
ARC
  8
0
  6
CONTINUOUS
 62
               4
  5
358
 10
496.19023657067982
 20
496.32409774059499
 30
0.0
 40
5.0
 50
179.99999999993079
 51
269.99999999989518
  0
LINE
  8
0
  6
CONTINUOUS
 62
               4
  5
359
 10
488.69023657067982
 20
612.32409774059556
 30
0.0
 11
488.69023657067982
 21
503.10643004892529
 31
0.0
  0
LINE
  8
0
  6
CONTINUOUS
 62
               4
  5
35A
 10
491.19023657067982
 20
622.85975149344824
 30
0.0
 11
491.19023657067982
 21
496.32409774059499
 31
0.0
  0
LINE
  8
0
  6
CONTINUOUS
 62
               4
  5
35B
 10
465.54023657067972
 20
493.624097740595
 30
0.0
 11
465.54023657067972
 21
491.32409774059511
 31
0.0
  0
LINE
  8
0
  6
CONTINUOUS
 62
               4
  5
35C
 10
465.54023657067972
 20
491.32409774059511
 30
0.0
 11
491.54023657067972
 21
491.32409774059511
 31
0.0
  0
LINE
  8
0
  6
CONTINUOUS
 62
               4
  5
35D
 10
491.54023657067972
 20
491.32409774059511
 30
0.0
 11
491.54023657067972
 21
493.624097740595
 31
0.0
  0
LINE
  8
0
  6
CONTINUOUS
 62
               4
  5
35E
 10
491.54023657067972
 20
493.624097740595
 30
0.0
 11
465.54023657067972
 21
493.624097740595
 31
0.0
  0
LINE
  8
0
  6
CONTINUOUS
 62
               4
  5
35F
 10
472.54023657067995
 20
503.624097740595
 30
0.0
 11
472.54023657067995
 21
512.32409774059522
 31
0.0
  0
LINE
  8
0
  6
CONTINUOUS
 62
               4
  5
360
 10
484.54023657067995
 20
512.32409774059522
 30
0.0
 11
484.54023657067995
 21
503.624097740595
 31
0.0
  0
LINE
  8
0
  6
CONTINUOUS
 62
               4
  5
361
 10
484.54023657067995
 20
512.32409774059522
 30
0.0
 11
472.54023657067995
 21
512.32409774059522
 31
0.0
  0
LINE
  8
0
  6
CONTINUOUS
 62
               4
  5
362
 10
-662.80976342932013
 20
622.85975149344824
 30
0.0
 11
-657.80976342932013
 21
627.85975149344824
 31
0.0
  0
ARC
  8
0
  6
CONTINUOUS
 62
               4
  5
363
 10
-640.30976342932013
 20
612.32409774059556
 30
0.0
 40
19.999999999999996
 50
148.21166938289122
 51
179.99999999993088
  0
LINE
  8
0
  6
CONTINUOUS
 62
               4
  5
364
 10
-657.30976342932058
 20
622.85975149344824
 30
0.0
 11
-657.30976342932058
 21
627.85975149344893
 31
0.0
  0
LINE
  8
0
  6
CONTINUOUS
 62
               4
  5
365
 10
-657.80976342932013
 20
627.85975149344824
 30
0.0
 11
-657.30976342932058
 21
627.85975149344824
 31
0.0
  0
ARC
  8
0
  6
CONTINUOUS
 62
               4
  5
366
 10
-667.80976342932013
 20
496.32409774059499
 30
0.0
 40
5.0
 50
269.99999999989518
 51
359.99999999986159
  0
LINE
  8
0
  6
CONTINUOUS
 62
               4
  5
367
 10
-660.30976342932013
 20
612.32409774059556
 30
0.0
 11
-660.30976342932013
 21
503.624097740595
 31
0.0
  0
LINE
  8
0
  6
CONTINUOUS
 62
               4
  5
368
 10
-662.80976342932013
 20
622.85975149344824
 30
0.0
 11
-662.80976342932013
 21
496.32409774059499
 31
0.0
  0
LINE
  8
0
  6
CONTINUOUS
 62
               4
  5
369
 10
-637.15976342932004
 20
493.624097740595
 30
0.0
 11
-637.15976342932004
 21
491.32409774059511
 31
0.0
  0
LINE
  8
0
  6
CONTINUOUS
 62
               4
  5
36A
 10
-637.15976342932004
 20
491.32409774059511
 30
0.0
 11
-663.15976342932004
 21
491.32409774059511
 31
0.0
  0
LINE
  8
0
  6
CONTINUOUS
 62
               4
  5
36B
 10
-663.15976342932004
 20
491.32409774059511
 30
0.0
 11
-663.15976342932004
 21
493.624097740595
 31
0.0
  0
LINE
  8
0
  6
CONTINUOUS
 62
               4
  5
36C
 10
-663.15976342932004
 20
493.624097740595
 30
0.0
 11
-637.15976342932004
 21
493.624097740595
 31
0.0
  0
LINE
  8
0
  6
CONTINUOUS
 62
               4
  5
36D
 10
-644.15976342932026
 20
503.624097740595
 30
0.0
 11
-644.15976342932026
 21
512.32409774059522
 31
0.0
  0
LINE
  8
0
  6
CONTINUOUS
 62
               4
  5
36E
 10
-656.15976342932026
 20
512.32409774059522
 30
0.0
 11
-656.15976342932026
 21
503.624097740595
 31
0.0
  0
LINE
  8
0
  6
CONTINUOUS
 62
               4
  5
36F
 10
-656.15976342932026
 20
512.32409774059522
 30
0.0
 11
-644.15976342932026
 21
512.32409774059522
 31
0.0
  0
LINE
  8
0
  6
CONTINUOUS
 62
               4
  5
370
 10
-508.80976342932018
 20
622.85975149344824
 30
0.0
 11
-513.80976342932013
 21
627.85975149344824
 31
0.0
  0
ARC
  8
0
  6
CONTINUOUS
 62
               4
  5
371
 10
-531.30976342932013
 20
612.32409774059556
 30
0.0
 40
19.999999999999996
 50
0.0
 51
31.788330617039556
  0
LINE
  8
0
  6
CONTINUOUS
 62
               4
  5
372
 10
-514.30976342931967
 20
622.85975149344824
 30
0.0
 11
-514.30976342931967
 21
627.85975149344893
 31
0.0
  0
LINE
  8
0
  6
CONTINUOUS
 62
               4
  5
373
 10
-513.80976342932013
 20
627.85975149344824
 30
0.0
 11
-514.30976342931967
 21
627.85975149344824
 31
0.0
  0
ARC
  8
0
  6
CONTINUOUS
 62
               4
  5
374
 10
-503.80976342932018
 20
496.32409774059499
 30
0.0
 40
5.0
 50
179.99999999993079
 51
269.99999999989649
  0
LINE
  8
0
  6
CONTINUOUS
 62
               4
  5
375
 10
-511.30976342932018
 20
612.32409774059556
 30
0.0
 11
-511.30976342932018
 21
503.10643004892529
 31
0.0
  0
LINE
  8
0
  6
CONTINUOUS
 62
               4
  5
376
 10
-508.80976342932018
 20
622.85975149344824
 30
0.0
 11
-508.80976342932018
 21
496.32409774059499
 31
0.0
  0
LINE
  8
0
  6
CONTINUOUS
 62
               4
  5
377
 10
-534.45976342932022
 20
493.624097740595
 30
0.0
 11
-534.45976342932022
 21
491.32409774059511
 31
0.0
  0
LINE
  8
0
  6
CONTINUOUS
 62
               4
  5
378
 10
-534.45976342932022
 20
491.32409774059511
 30
0.0
 11
-508.45976342932028
 21
491.32409774059511
 31
0.0
  0
LINE
  8
0
  6
CONTINUOUS
 62
               4
  5
379
 10
-508.45976342932028
 20
491.32409774059511
 30
0.0
 11
-508.45976342932028
 21
493.624097740595
 31
0.0
  0
LINE
  8
0
  6
CONTINUOUS
 62
               4
  5
37A
 10
-508.45976342932028
 20
493.624097740595
 30
0.0
 11
-534.45976342932022
 21
493.624097740595
 31
0.0
  0
LINE
  8
0
  6
CONTINUOUS
 62
               4
  5
37B
 10
-527.45976342931999
 20
503.624097740595
 30
0.0
 11
-527.45976342931999
 21
512.32409774059522
 31
0.0
  0
LINE
  8
0
  6
CONTINUOUS
 62
               4
  5
37C
 10
-515.45976342931999
 20
512.32409774059522
 30
0.0
 11
-515.45976342931999
 21
503.624097740595
 31
0.0
  0
LINE
  8
0
  6
CONTINUOUS
 62
               4
  5
37D
 10
-515.45976342931999
 20
512.32409774059522
 30
0.0
 11
-527.45976342931999
 21
512.32409774059522
 31
0.0
  0
LINE
  8
0
  6
CONTINUOUS
 62
               4
  5
37E
 10
-664.0362374306801
 20
443.72409774059508
 30
0.0
 11
-658.15976342931845
 21
440.32409774059499
 31
0.0
  0
LINE
  8
0
  6
CONTINUOUS
 62
               4
  5
37F
 10
-641.65976342931822
 20
440.32409774059499
 30
0.0
 11
-641.65976342931822
 21
447.32409774059505
 31
0.0
  0
LINE
  8
0
  6
CONTINUOUS
 62
               4
  5
380
 10
-641.65976342931822
 20
440.32409774059499
 30
0.0
 11
-658.15976342931845
 21
440.32409774059499
 31
0.0
  0
LINE
  8
0
  6
CONTINUOUS
 62
               4
  5
381
 10
-666.98682489579596
 20
443.72409774059508
 30
0.0
 11
-664.0362374306801
 21
443.72409774059508
 31
0.0
  0
LINE
  8
0
  6
CONTINUOUS
 62
               4
  5
382
 10
-666.98682489579596
 20
447.32409774059505
 30
0.0
 11
-666.98682489579596
 21
443.72409774059508
 31
0.0
  0
LINE
  8
0
  6
CONTINUOUS
 62
               4
  5
383
 10
-641.65976342931822
 20
447.32409774059505
 30
0.0
 11
-666.98682489579596
 21
447.32409774059505
 31
0.0
  0
LINE
  8
0
  6
CONTINUOUS
 62
               4
  5
384
 10
-538.28682489579569
 20
447.32409774059505
 30
0.0
 11
-538.28682489579569
 21
443.72409774059508
 31
0.0
  0
LINE
  8
0
  6
CONTINUOUS
 62
               4
  5
385
 10
-538.28682489579569
 20
443.72409774059508
 30
0.0
 11
-523.31542215050854
 21
443.72409774059508
 31
0.0
  0
LINE
  8
0
  6
CONTINUOUS
 62
               4
  5
386
 10
-535.33623743067983
 20
443.72409774059508
 30
0.0
 11
-529.45976342931795
 21
440.32409774059499
 31
0.0
  0
LINE
  8
0
  6
CONTINUOUS
 62
               4
  5
387
 10
-526.2660096156244
 20
447.32409774059505
 30
0.0
 11
-526.2660096156244
 21
443.72409774059508
 31
0.0
  0
LINE
  8
0
  6
CONTINUOUS
 62
               4
  5
388
 10
-515.80290917982575
 20
440.32409774059499
 30
0.0
 11
-523.31542215050854
 21
443.72409774059508
 31
0.0
  0
LINE
  8
0
  6
CONTINUOUS
 62
               4
  5
389
 10
-512.95976342931795
 20
440.32409774059499
 30
0.0
 11
-529.45976342931795
 21
440.32409774059499
 31
0.0
  0
LINE
  8
0
  6
CONTINUOUS
 62
               4
  5
38A
 10
-512.95976342931795
 20
440.32409774059499
 30
0.0
 11
-512.95976342931795
 21
447.32409774059511
 31
0.0
  0
LINE
  8
0
  6
CONTINUOUS
 62
               4
  5
38B
 10
-512.95976342931795
 20
447.32409774059511
 30
0.0
 11
-538.28682489579569
 21
447.32409774059505
 31
0.0
  0
LINE
  8
0
  6
CONTINUOUS
 62
               4
  5
38C
 10
-164.03623743067925
 20
443.72409774059508
 30
0.0
 11
-158.15976342931748
 21
440.32409774059499
 31
0.0
  0
LINE
  8
0
  6
CONTINUOUS
 62
               4
  5
38D
 10
-141.65976342931737
 20
440.32409774059499
 30
0.0
 11
-141.65976342931737
 21
447.32409774059505
 31
0.0
  0
LINE
  8
0
  6
CONTINUOUS
 62
               4
  5
38E
 10
-141.65976342931737
 20
440.32409774059499
 30
0.0
 11
-158.15976342931748
 21
440.32409774059499
 31
0.0
  0
LINE
  8
0
  6
CONTINUOUS
 62
               4
  5
38F
 10
-166.98682489579511
 20
443.72409774059508
 30
0.0
 11
-164.03623743067925
 21
443.72409774059508
 31
0.0
  0
LINE
  8
0
  6
CONTINUOUS
 62
               4
  5
390
 10
-166.98682489579511
 20
447.32409774059505
 30
0.0
 11
-166.98682489579511
 21
443.72409774059508
 31
0.0
  0
LINE
  8
0
  6
CONTINUOUS
 62
               4
  5
391
 10
-141.65976342931737
 20
447.32409774059505
 30
0.0
 11
-166.98682489579511
 21
447.32409774059505
 31
0.0
  0
LINE
  8
0
  6
CONTINUOUS
 62
               4
  5
392
 10
-38.286824895794723
 20
447.32409774059505
 30
0.0
 11
-38.286824895794723
 21
443.72409774059508
 31
0.0
  0
LINE
  8
0
  6
CONTINUOUS
 62
               4
  5
393
 10
-38.286824895794723
 20
443.72409774059508
 30
0.0
 11
-23.315422150507572
 21
443.72409774059508
 31
0.0
  0
LINE
  8
0
  6
CONTINUOUS
 62
               4
  5
394
 10
-35.336237430678864
 20
443.72409774059508
 30
0.0
 11
-29.459763429317093
 21
440.32409774059499
 31
0.0
  0
LINE
  8
0
  6
CONTINUOUS
 62
               4
  5
395
 10
-26.266009615623432
 20
447.32409774059505
 30
0.0
 11
-26.266009615623432
 21
443.72409774059508
 31
0.0
  0
LINE
  8
0
  6
CONTINUOUS
 62
               4
  5
396
 10
-15.80290917982478
 20
440.32409774059499
 30
0.0
 11
-23.315422150507572
 21
443.72409774059508
 31
0.0
  0
LINE
  8
0
  6
CONTINUOUS
 62
               4
  5
397
 10
-12.959763429317093
 20
440.32409774059499
 30
0.0
 11
-29.459763429317093
 21
440.32409774059499
 31
0.0
  0
LINE
  8
0
  6
CONTINUOUS
 62
               4
  5
398
 10
-12.959763429317093
 20
440.32409774059499
 30
0.0
 11
-12.959763429317093
 21
447.32409774059511
 31
0.0
  0
LINE
  8
0
  6
CONTINUOUS
 62
               4
  5
399
 10
-12.959763429317093
 20
447.32409774059511
 30
0.0
 11
-38.286824895794723
 21
447.32409774059505
 31
0.0
  0
LINE
  8
0
  6
CONTINUOUS
 62
               4
  5
39A
 10
335.96376256932075
 20
443.72409774059508
 30
0.0
 11
341.84023657068252
 21
440.32409774059499
 31
0.0
  0
LINE
  8
0
  6
CONTINUOUS
 62
               4
  5
39B
 10
358.34023657068263
 20
440.32409774059499
 30
0.0
 11
358.34023657068263
 21
447.32409774059505
 31
0.0
  0
LINE
  8
0
  6
CONTINUOUS
 62
               4
  5
39C
 10
358.34023657068263
 20
440.32409774059499
 30
0.0
 11
341.84023657068252
 21
440.32409774059499
 31
0.0
  0
LINE
  8
0
  6
CONTINUOUS
 62
               4
  5
39D
 10
333.01317510420489
 20
443.72409774059508
 30
0.0
 11
335.96376256932075
 21
443.72409774059508
 31
0.0
  0
LINE
  8
0
  6
CONTINUOUS
 62
               4
  5
39E
 10
333.01317510420489
 20
447.32409774059505
 30
0.0
 11
333.01317510420489
 21
443.72409774059508
 31
0.0
  0
LINE
  8
0
  6
CONTINUOUS
 62
               4
  5
39F
 10
358.34023657068263
 20
447.32409774059505
 30
0.0
 11
333.01317510420489
 21
447.32409774059505
 31
0.0
  0
LINE
  8
0
  6
CONTINUOUS
 62
               4
  5
3A0
 10
461.71317510420528
 20
447.32409774059505
 30
0.0
 11
461.71317510420528
 21
443.72409774059508
 31
0.0
  0
LINE
  8
0
  6
CONTINUOUS
 62
               4
  5
3A1
 10
461.71317510420528
 20
443.72409774059508
 30
0.0
 11
476.68457784949243
 21
443.72409774059508
 31
0.0
  0
LINE
  8
0
  6
CONTINUOUS
 62
               4
  5
3A2
 10
464.66376256932114
 20
443.72409774059508
 30
0.0
 11
470.54023657068291
 21
440.32409774059499
 31
0.0
  0
LINE
  8
0
  6
CONTINUOUS
 62
               4
  5
3A3
 10
473.73399038437657
 20
447.32409774059505
 30
0.0
 11
473.73399038437657
 21
443.72409774059508
 31
0.0
  0
LINE
  8
0
  6
CONTINUOUS
 62
               4
  5
3A4
 10
484.19709082017522
 20
440.32409774059499
 30
0.0
 11
476.68457784949243
 21
443.72409774059508
 31
0.0
  0
LINE
  8
0
  6
CONTINUOUS
 62
               4
  5
3A5
 10
487.04023657068291
 20
440.32409774059499
 30
0.0
 11
470.54023657068291
 21
440.32409774059499
 31
0.0
  0
LINE
  8
0
  6
CONTINUOUS
 62
               4
  5
3A6
 10
487.04023657068291
 20
440.32409774059499
 30
0.0
 11
487.04023657068291
 21
447.32409774059511
 31
0.0
  0
LINE
  8
0
  6
CONTINUOUS
 62
               4
  5
3A7
 10
487.04023657068291
 20
447.32409774059511
 30
0.0
 11
461.71317510420528
 21
447.32409774059505
 31
0.0
  0
LINE
  8
0
  6
CONTINUOUS
 62
               4
  5
3A8
 10
600.47675978698749
 20
-914.60344216453552
 30
0.0
 11
595.47675978698749
 21
-909.60344216453552
 31
0.0
  0
ARC
  8
0
  6
CONTINUOUS
 62
               4
  5
3A9
 10
577.97675978698749
 20
-925.13909591738832
 30
0.0
 40
19.999999999999996
 50
0.0
 51
31.788330617027277
  0
LINE
  8
0
  6
CONTINUOUS
 62
               4
  5
3AA
 10
594.97675978698794
 20
-914.60344216453552
 30
0.0
 11
594.97675978698794
 21
-909.60344216453507
 31
0.0
  0
LINE
  8
0
  6
CONTINUOUS
 62
               4
  5
3AB
 10
595.47675978698749
 20
-909.60344216453552
 30
0.0
 11
594.97675978698794
 21
-909.60344216453552
 31
0.0
  0
LINE
  8
0
  6
CONTINUOUS
 62
               4
  5
3AC
 10
600.22675978698771
 20
-914.85344216453552
 30
0.0
 11
594.97675978698794
 21
-909.60344216453552
 31
0.0
  0
LINE
  8
0
  6
CONTINUOUS
 62
               4
  5
3AD
 10
600.22675978698771
 20
-914.85344216453552
 30
0.0
 11
600.47675978698749
 21
-914.60344216453552
 31
0.0
  0
LINE
  8
0
  6
CONTINUOUS
 62
               4
  5
3AE
 10
600.47675978698749
 20
-914.60344216453552
 30
0.0
 11
600.47675978698749
 21
-1045.2921195145054
 31
0.0
  0
LINE
  8
0
  6
CONTINUOUS
 62
               4
  5
3AF
 10
600.22675978698771
 20
-914.85344216453552
 30
0.0
 11
600.22675978698771
 21
-1045.0067624073699
 31
0.0
  0
LINE
  8
0
  6
CONTINUOUS
 62
               4
  5
3B0
 10
597.97675978698749
 20
-924.98607232027109
 30
0.0
 11
597.97675978698749
 21
-1044.1390959173882
 31
0.0
  0
POINT
  8
0
  6
CONTINUOUS
 62
               4
  5
3B1
 10
567.97675978698771
 20
-654.03966216880428
 30
0.0
  0
POINT
  8
0
  6
CONTINUOUS
 62
               4
  5
3B2
 10
379.07675978698768
 20
-939.63909591738832
 30
0.0
  0
POINT
  8
0
  6
CONTINUOUS
 62
               4
  5
3B3
 10
379.07675978698779
 20
-554.13966216880374
 30
0.0
  0
POINT
  8
0
  6
CONTINUOUS
 62
               4
  5
3B4
 10
-106.54842739725353
 20
-597.42924059773736
 30
0.0
  0
POINT
  8
0
  6
CONTINUOUS
 62
               4
  5
3B5
 10
182.4515726027463
 20
-597.42924059773759
 30
0.0
  0
POINT
  8
0
  6
CONTINUOUS
 62
               4
  5
3B6
 10
88.951572602746467
 20
-503.92924059773782
 30
0.0
  0
LINE
  8
0
  6
DASHED2
 62
               4
  5
3B7
 10
-142.80976342932018
 20
654.32409774059556
 30
0.0
 11
-28.809763429320185
 21
654.32409774059556
 31
0.0
  0
LINE
  8
0
  6
DASHED2
 62
               4
  5
3B8
 10
357.19023657067982
 20
654.32409774059556
 30
0.0
 11
471.19023657067982
 21
654.32409774059556
 31
0.0
  0
LINE
  8
0
  6
DASHED2
 62
               4
  5
3B9
 10
-642.80976342932013
 20
654.32409774059556
 30
0.0
 11
-528.80976342932013
 21
654.32409774059556
 31
0.0
  0
LINE
  8
0
  6
DASHED2
 62
               4
  5
3BA
 10
466.47675978698788
 20
-883.13909591738832
 30
0.0
 11
580.47675978698749
 21
-883.13909591738832
 31
0.0
  0
CIRCLE
  8
0
  6
DASHED
 62
               4
  5
3BB
 10
37.951572602746282
 20
-648.42924059773759
 30
0.0
 40
33.5
  0
INSERT
  8
0
  6
CONTINUOUS
  5
3BC
  2
GROUP_1
 10
0.0
 20
0.0
 30
0.0
  0
INSERT
  8
0
  6
CONTINUOUS
  5
3BD
  2
GROUP_2
 10
0.0
 20
0.0
 30
0.0
  0
INSERT
  8
0
  6
CONTINUOUS
  5
3BE
  2
GROUP_3
 10
0.0
 20
0.0
 30
0.0
  0
INSERT
  8
0
  6
CONTINUOUS
  5
3BF
  2
GROUP_4
 10
0.0
 20
0.0
 30
0.0
  0
INSERT
  8
0
  6
CONTINUOUS
  5
3C0
  2
GROUP_5
 10
0.0
 20
0.0
 30
0.0
  0
INSERT
  8
0
  6
CONTINUOUS
  5
3C1
  2
GROUP_6
 10
0.0
 20
0.0
 30
0.0
  0
INSERT
  8
0
  6
CONTINUOUS
  5
3C2
  2
GROUP_7
 10
0.0
 20
0.0
 30
0.0
  0
INSERT
  8
0
  6
CONTINUOUS
  5
3C3
  2
GROUP_8
 10
0.0
 20
0.0
 30
0.0
  0
INSERT
  8
0
  6
CONTINUOUS
  5
3C4
  2
GROUP_9
 10
0.0
 20
0.0
 30
0.0
  0
INSERT
  8
0
  6
CONTINUOUS
  5
3C5
  2
GROUP_10
 10
0.0
 20
0.0
 30
0.0
  0
POINT
  8
0
  6
CONTINUOUS
 62
               5
  5
3C6
 10
407.206831296948
 20
-985.42988999227748
 30
0.0
  0
POINT
  8
0
  6
CONTINUOUS
 62
               5
  5
3C7
 10
407.20683129694811
 20
-508.34886809391492
 30
0.0
  0
POINT
  8
0
  6
CONTINUOUS
 62
               5
  5
3C8
 10
37.951572602746339
 20
-641.92924059773759
 30
0.0
  0
POINT
  8
0
  6
CONTINUOUS
 62
               5
  5
3C9
 10
-135.27849890721387
 20
-643.2200346726263
 30
0.0
  0
POINT
  8
0
  6
CONTINUOUS
 62
               5
  5
3CA
 10
211.18164411270664
 20
-643.22003467262653
 30
0.0
  0
POINT
  8
0
  6
CONTINUOUS
 62
               5
  5
3CB
 10
43.160778527857403
 20
-475.19916908777736
 30
0.0
  0
CIRCLE
  8
0
  6
CONTINUOUS
 62
               7
  5
3CC
 10
523.47675978698771
 20
-998.63909591738832
 30
0.0
 40
25.5
  0
CIRCLE
  8
0
  6
CONTINUOUS
 62
               7
  5
3CD
 10
523.47675978698771
 20
-984.13909591738832
 30
0.0
 40
44.5
  0
CIRCLE
  8
0
  6
CONTINUOUS
 62
               7
  5
3CE
 10
523.47675978698771
 20
-998.63909591738832
 30
0.0
 40
30.0
  0
LINE
  8
0
  6
CONTINUOUS
 62
               7
  5
3CF
 10
494.47675978698766
 20
-680.2396621688041
 30
0.0
 11
552.47675978698771
 21
-680.2396621688041
 31
0.0
  0
LINE
  8
0
  6
CONTINUOUS
 62
               7
  5
3D0
 10
567.97675978698771
 20
-654.63966216880419
 30
0.0
 11
478.97675978698766
 21
-654.63966216880419
 31
0.0
  0
LINE
  8
0
  6
CONTINUOUS
 62
               7
  5
3D1
 10
567.97675978698771
 20
-654.03966216880428
 30
0.0
 11
567.97675978698771
 21
-654.63966216880419
 31
0.0
  0
LINE
  8
0
  6
CONTINUOUS
 62
               7
  5
3D2
 10
479.97675978698766
 20
-596.63966216880374
 30
0.0
 11
566.97675978698771
 21
-596.63966216880374
 31
0.0
  0
LINE
  8
0
  6
CONTINUOUS
 62
               7
  5
3D3
 10
567.97675978698771
 20
-654.50521042332377
 30
0.0
 11
567.97675978698771
 21
-597.63966216880374
 31
0.0
  0
LINE
  8
0
  6
CONTINUOUS
 62
               7
  5
3D4
 10
493.47675978698766
 20
-679.2396621688041
 30
0.0
 11
493.47675978698766
 21
-654.63966216880419
 31
0.0
  0
LINE
  8
0
  6
CONTINUOUS
 62
               7
  5
3D5
 10
553.47675978698771
 20
-679.2396621688041
 30
0.0
 11
553.47675978698771
 21
-654.63966216880419
 31
0.0
  0
LINE
  8
0
  6
CONTINUOUS
 62
               7
  5
3D6
 10
553.47675978698771
 20
-679.2396621688041
 30
0.0
 11
552.47675978698771
 21
-680.2396621688041
 31
0.0
  0
LINE
  8
0
  6
CONTINUOUS
 62
               7
  5
3D7
 10
567.97675978698771
 20
-597.63966216880374
 30
0.0
 11
566.97675978698771
 21
-596.63966216880374
 31
0.0
  0
LINE
  8
0
  6
CONTINUOUS
 62
               7
  5
3D8
 10
494.47675978698766
 20
-680.2396621688041
 30
0.0
 11
493.47675978698766
 21
-679.2396621688041
 31
0.0
  0
LINE
  8
0
  6
CONTINUOUS
 62
               7
  5
3D9
 10
479.97675978698766
 20
-596.63966216880374
 30
0.0
 11
478.97675978698766
 21
-597.63966216880374
 31
0.0
  0
LINE
  8
0
  6
CONTINUOUS
 62
               7
  5
3DA
 10
478.97675978698766
 20
-654.50521042332377
 30
0.0
 11
478.97675978698766
 21
-597.63966216880374
 31
0.0
  0
LINE
  8
0
  6
CONTINUOUS
 62
               7
  5
3DB
 10
378.47675978698766
 20
-939.63909591738832
 30
0.0
 11
378.47675978698766
 21
-1028.6338597967138
 31
0.0
  0
LINE
  8
0
  6
CONTINUOUS
 62
               7
  5
3DC
 10
379.07675978698768
 20
-939.63909591738832
 30
0.0
 11
378.47675978698766
 21
-939.63909591738832
 31
0.0
  0
LINE
  8
0
  6
CONTINUOUS
 62
               7
  5
3DD
 10
343.47675978698766
 20
-1027.6390959173882
 30
0.0
 11
343.47675978698766
 21
-953.63909591738832
 31
0.0
  0
LINE
  8
0
  6
CONTINUOUS
 62
               7
  5
3DE
 10
436.47675978698766
 20
-1027.6390959173882
 30
0.0
 11
436.47675978698766
 21
-940.63909591738832
 31
0.0
  0
LINE
  8
0
  6
CONTINUOUS
 62
               7
  5
3DF
 10
378.47675978698766
 20
-939.63909591738832
 30
0.0
 11
435.47675978698766
 21
-939.63909591738832
 31
0.0
  0
LINE
  8
0
  6
CONTINUOUS
 62
               7
  5
3E0
 10
344.47675978698766
 20
-1028.6390959173882
 30
0.0
 11
435.47675978698766
 21
-1028.6390959173882
 31
0.0
  0
LINE
  8
0
  6
CONTINUOUS
 62
               7
  5
3E1
 10
435.47675978698766
 20
-939.63909591738832
 30
0.0
 11
436.47675978698766
 21
-940.63909591738832
 31
0.0
  0
LINE
  8
0
  6
CONTINUOUS
 62
               7
  5
3E2
 10
436.47675978698766
 20
-1027.6390959173882
 30
0.0
 11
435.47675978698766
 21
-1028.6390959173882
 31
0.0
  0
LINE
  8
0
  6
CONTINUOUS
 62
               7
  5
3E3
 10
344.47675978698766
 20
-952.63909591738832
 30
0.0
 11
378.47675978698766
 21
-952.63909591738832
 31
0.0
  0
LINE
  8
0
  6
CONTINUOUS
 62
               7
  5
3E4
 10
344.47675978698766
 20
-952.63909591738832
 30
0.0
 11
343.47675978698766
 21
-953.63909591738832
 31
0.0
  0
LINE
  8
0
  6
CONTINUOUS
 62
               7
  5
3E5
 10
343.47675978698766
 20
-1027.6390959173882
 30
0.0
 11
344.47675978698766
 21
-1028.6390959173882
 31
0.0
  0
LINE
  8
0
  6
CONTINUOUS
 62
               7
  5
3E6
 10
378.47675978698766
 20
-554.13966216880374
 30
0.0
 11
378.47675978698788
 21
-465.14489828947831
 31
0.0
  0
LINE
  8
0
  6
CONTINUOUS
 62
               7
  5
3E7
 10
379.07675978698779
 20
-554.13966216880374
 30
0.0
 11
378.47675978698766
 21
-554.13966216880374
 31
0.0
  0
LINE
  8
0
  6
CONTINUOUS
 62
               7
  5
3E8
 10
343.47675978698788
 20
-472.63966216880385
 30
0.0
 11
343.47675978698766
 21
-546.63966216880374
 31
0.0
  0
LINE
  8
0
  6
CONTINUOUS
 62
               7
  5
3E9
 10
436.47675978698788
 20
-466.13966216880408
 30
0.0
 11
436.47675978698766
 21
-553.13966216880374
 31
0.0
  0
LINE
  8
0
  6
CONTINUOUS
 62
               7
  5
3EA
 10
378.47675978698766
 20
-554.13966216880374
 30
0.0
 11
435.47675978698766
 21
-554.13966216880374
 31
0.0
  0
LINE
  8
0
  6
CONTINUOUS
 62
               7
  5
3EB
 10
344.47675978698788
 20
-471.63966216880385
 30
0.0
 11
378.47675978698788
 21
-471.63966216880385
 31
0.0
  0
LINE
  8
0
  6
CONTINUOUS
 62
               7
  5
3EC
 10
435.47675978698766
 20
-554.13966216880374
 30
0.0
 11
436.47675978698766
 21
-553.13966216880374
 31
0.0
  0
LINE
  8
0
  6
CONTINUOUS
 62
               7
  5
3ED
 10
436.47675978698788
 20
-466.13966216880408
 30
0.0
 11
435.47675978698788
 21
-465.13966216880408
 31
0.0
  0
LINE
  8
0
  6
CONTINUOUS
 62
               7
  5
3EE
 10
344.47675978698766
 20
-547.63966216880374
 30
0.0
 11
378.47675978698788
 21
-547.63966216880374
 31
0.0
  0
LINE
  8
0
  6
CONTINUOUS
 62
               7
  5
3EF
 10
344.47675978698766
 20
-547.63966216880374
 30
0.0
 11
343.47675978698766
 21
-546.63966216880374
 31
0.0
  0
LINE
  8
0
  6
CONTINUOUS
 62
               7
  5
3F0
 10
343.47675978698788
 20
-472.63966216880385
 30
0.0
 11
344.47675978698788
 21
-471.63966216880385
 31
0.0
  0
LINE
  8
0
  6
CONTINUOUS
 62
               7
  5
3F1
 10
378.47675978698788
 20
-465.13966216880385
 30
0.0
 11
435.47675978698788
 21
-465.13966216880385
 31
0.0
  0
CIRCLE
  8
0
  6
CONTINUOUS
 62
               7
  5
3F2
 10
37.951572602746339
 20
-648.42924059773759
 30
0.0
 40
38.0
  0
LINE
  8
0
  6
CONTINUOUS
 62
               7
  5
3F3
 10
-106.54842739725353
 20
-610.42924059773736
 30
0.0
 11
-106.54842739725365
 21
-686.42400447706302
 31
0.0
  0
LINE
  8
0
  6
CONTINUOUS
 62
               7
  5
3F4
 10
-106.54842739725353
 20
-597.42924059773736
 30
0.0
 11
-105.94842739725357
 21
-597.42924059773736
 31
0.0
  0
LINE
  8
0
  6
CONTINUOUS
 62
               7
  5
3F5
 10
-164.54842739725365
 20
-685.42924059773748
 30
0.0
 11
-164.54842739725365
 21
-611.42924059773736
 31
0.0
  0
LINE
  8
0
  6
CONTINUOUS
 62
               7
  5
3F6
 10
-106.54842739725365
 20
-686.42924059773748
 30
0.0
 11
-81.948427397253582
 21
-686.42924059773748
 31
0.0
  0
LINE
  8
0
  6
CONTINUOUS
 62
               7
  5
3F7
 10
-164.54842739725365
 20
-685.42924059773748
 30
0.0
 11
-163.54842739725365
 21
-686.42924059773748
 31
0.0
  0
LINE
  8
0
  6
CONTINUOUS
 62
               7
  5
3F8
 10
-163.54842739725365
 20
-610.42924059773736
 30
0.0
 11
-106.54842739725353
 21
-610.42924059773736
 31
0.0
  0
LINE
  8
0
  6
CONTINUOUS
 62
               7
  5
3F9
 10
-71.548427397253661
 20
-685.42924059773748
 30
0.0
 11
-72.548427397253661
 21
-686.42924059773748
 31
0.0
  0
CIRCLE
  8
0
  6
CONTINUOUS
 62
               7
  5
3FA
 10
37.951572602746282
 20
-656.42924059773759
 30
0.0
 40
30.0
  0
CIRCLE
  8
0
  6
CONTINUOUS
 62
               7
  5
3FB
 10
37.951572602746282
 20
-656.42924059773759
 30
0.0
 40
0.1981604108525852
  0
CIRCLE
  8
0
  6
CONTINUOUS
 62
               7
  5
3FC
 10
37.951572602746282
 20
-656.42924059773759
 30
0.0
 40
25.5
  0
LINE
  8
0
  6
CONTINUOUS
 62
               7
  5
3FD
 10
-80.948427397253582
 20
-685.42924059773748
 30
0.0
 11
-80.948427397253582
 21
-627.42924059773759
 31
0.0
  0
LINE
  8
0
  6
CONTINUOUS
 62
               7
  5
3FE
 10
-106.54842739725353
 20
-626.42924059773759
 30
0.0
 11
-81.948427397253582
 21
-626.42924059773759
 31
0.0
  0
LINE
  8
0
  6
CONTINUOUS
 62
               7
  5
3FF
 10
-106.54842739725365
 20
-686.42400447706302
 30
0.0
 11
-163.54842739725365
 21
-686.42924059773748
 31
0.0
  0
LINE
  8
0
  6
CONTINUOUS
 62
               7
  5
400
 10
-163.54842739725365
 20
-610.42924059773736
 30
0.0
 11
-164.54842739725365
 21
-611.42924059773736
 31
0.0
  0
LINE
  8
0
  6
CONTINUOUS
 62
               7
  5
401
 10
-81.948427397253582
 20
-626.42924059773759
 30
0.0
 11
-80.948427397253582
 21
-627.42924059773759
 31
0.0
  0
LINE
  8
0
  6
CONTINUOUS
 62
               7
  5
402
 10
-80.948427397253582
 20
-685.42924059773748
 30
0.0
 11
-81.948427397253582
 21
-686.42924059773748
 31
0.0
  0
LINE
  8
0
  6
CONTINUOUS
 62
               7
  5
403
 10
182.4515726027463
 20
-610.42924059773759
 30
0.0
 11
182.45157260274624
 21
-686.42400447706302
 31
0.0
  0
LINE
  8
0
  6
CONTINUOUS
 62
               7
  5
404
 10
182.4515726027463
 20
-597.42924059773759
 30
0.0
 11
181.85157260274633
 21
-597.42924059773759
 31
0.0
  0
LINE
  8
0
  6
CONTINUOUS
 62
               7
  5
405
 10
240.4515726027463
 20
-685.42924059773748
 30
0.0
 11
240.45157260274635
 21
-611.42924059773759
 31
0.0
  0
LINE
  8
0
  6
CONTINUOUS
 62
               7
  5
406
 10
182.45157260274624
 20
-686.42924059773748
 30
0.0
 11
157.85157260274622
 21
-686.42924059773748
 31
0.0
  0
LINE
  8
0
  6
CONTINUOUS
 62
               7
  5
407
 10
240.4515726027463
 20
-685.42924059773748
 30
0.0
 11
239.4515726027463
 21
-686.42924059773748
 31
0.0
  0
LINE
  8
0
  6
CONTINUOUS
 62
               7
  5
408
 10
239.45157260274635
 20
-610.42924059773759
 30
0.0
 11
182.4515726027463
 21
-610.42924059773759
 31
0.0
  0
LINE
  8
0
  6
CONTINUOUS
 62
               7
  5
409
 10
147.4515726027463
 20
-685.42924059773748
 30
0.0
 11
148.4515726027463
 21
-686.42924059773748
 31
0.0
  0
LINE
  8
0
  6
CONTINUOUS
 62
               7
  5
40A
 10
156.85157260274622
 20
-685.42924059773748
 30
0.0
 11
156.85157260274627
 21
-627.42924059773782
 31
0.0
  0
LINE
  8
0
  6
CONTINUOUS
 62
               7
  5
40B
 10
182.45157260274624
 20
-626.42924059773782
 30
0.0
 11
157.85157260274627
 21
-626.42924059773782
 31
0.0
  0
LINE
  8
0
  6
CONTINUOUS
 62
               7
  5
40C
 10
182.45157260274624
 20
-686.42400447706302
 30
0.0
 11
239.4515726027463
 21
-686.42924059773748
 31
0.0
  0
LINE
  8
0
  6
CONTINUOUS
 62
               7
  5
40D
 10
239.45157260274635
 20
-610.42924059773759
 30
0.0
 11
240.45157260274635
 21
-611.42924059773759
 31
0.0
  0
LINE
  8
0
  6
CONTINUOUS
 62
               7
  5
40E
 10
157.85157260274627
 20
-626.42924059773782
 30
0.0
 11
156.85157260274627
 21
-627.42924059773782
 31
0.0
  0
LINE
  8
0
  6
CONTINUOUS
 62
               7
  5
40F
 10
156.85157260274622
 20
-685.42924059773748
 30
0.0
 11
157.85157260274622
 21
-686.42924059773748
 31
0.0
  0
LINE
  8
0
  6
CONTINUOUS
 62
               7
  5
410
 10
75.951572602746467
 20
-503.92924059773782
 30
0.0
 11
-0.0431912765790941
 21
-503.92924059773759
 31
0.0
  0
LINE
  8
0
  6
CONTINUOUS
 62
               7
  5
411
 10
88.951572602746467
 20
-503.32924059773768
 30
0.0
 11
88.951572602746467
 21
-503.92924059773782
 31
0.0
  0
LINE
  8
0
  6
CONTINUOUS
 62
               7
  5
412
 10
0.9515726027465092
 20
-445.92924059773759
 30
0.0
 11
74.951572602746523
 21
-445.92924059773759
 31
0.0
  0
LINE
  8
0
  6
CONTINUOUS
 62
               7
  5
413
 10
7.9515726027464524
 20
-503.92924059773759
 30
0.0
 11
7.9515726027464524
 21
-528.52924059773773
 31
0.0
  0
LINE
  8
0
  6
CONTINUOUS
 62
               7
  5
414
 10
0.9515726027465092
 20
-445.92924059773759
 30
0.0
 11
-0.0484273972534908
 21
-446.92924059773759
 31
0.0
  0
LINE
  8
0
  6
CONTINUOUS
 62
               7
  5
415
 10
75.951572602746523
 20
-446.92924059773759
 30
0.0
 11
75.951572602746467
 21
-503.92924059773782
 31
0.0
  0
LINE
  8
0
  6
CONTINUOUS
 62
               7
  5
416
 10
8.9515726027463955
 20
-538.92924059773759
 30
0.0
 11
7.9515726027463955
 21
-537.92924059773759
 31
0.0
  0
LINE
  8
0
  6
CONTINUOUS
 62
               7
  5
417
 10
8.9515726027464524
 20
-529.52924059773773
 30
0.0
 11
66.951572602746296
 21
-529.52924059773773
 31
0.0
  0
LINE
  8
0
  6
CONTINUOUS
 62
               7
  5
418
 10
67.951572602746296
 20
-503.92924059773782
 30
0.0
 11
67.951572602746296
 21
-528.52924059773773
 31
0.0
  0
LINE
  8
0
  6
CONTINUOUS
 62
               7
  5
419
 10
-0.0431912765790941
 20
-503.92924059773759
 30
0.0
 11
-0.0484273972534908
 21
-446.92924059773759
 31
0.0
  0
LINE
  8
0
  6
CONTINUOUS
 62
               7
  5
41A
 10
75.951572602746523
 20
-446.92924059773759
 30
0.0
 11
74.951572602746523
 21
-445.92924059773759
 31
0.0
  0
LINE
  8
0
  6
CONTINUOUS
 62
               7
  5
41B
 10
67.951572602746296
 20
-528.52924059773773
 30
0.0
 11
66.951572602746296
 21
-529.52924059773773
 31
0.0
  0
LINE
  8
0
  6
CONTINUOUS
 62
               7
  5
41C
 10
8.9515726027464524
 20
-529.52924059773773
 30
0.0
 11
7.9515726027464524
 21
-528.52924059773773
 31
0.0
  0
CIRCLE
  8
0
  6
DASHED
 62
               7
  5
41D
 10
523.47675978698771
 20
-984.13909591738832
 30
0.0
 40
40.0
  0
TEXT
  8
0
 62
               3
  5
41E
 10
519.77935580934741
 20
-330.19329366358465
 30
0.0
 40
40.0
  1
EMB使用例
 41
0.8
 72
               1
 11
519.77935580934741
 21
-330.19329366358465
 31
0.0
 73
               3
  0
TEXT
  8
0
 62
               3
  5
41F
 10
-209.55246752021108
 20
-275.83315776324525
 30
0.0
 40
35.0
  1
横枝管を縮径するときは、EMBをご使用ください。
 41
0.8
 72
               1
 11
-209.55246752021108
 21
-275.83315776324525
 31
0.0
 73
               3
  0
TEXT
  8
0
 62
               3
  5
420
 10
37.951572602746282
 20
-732.92924059773748
 30
0.0
 40
40.0
  1
EMB_65×50
 41
0.8
 72
               1
 11
37.951572602746282
 21
-732.92924059773748
 31
0.0
 73
               3
  0
ENDSEC
  0
EOF
