  0
SECTION
  2
HEADER
  9
$ACADVER
  1
AC1009
  9
$INSBASE
 10
0.0
 20
0.0
 30
0.0
  9
$EXTMIN
 10
-647.9357908324049
 20
-1552.4158253300066
 30
0.0
  9
$EXTMAX
 10
737.78547312504304
 20
678.14540833980402
 30
0.0
  9
$LIMMIN
 10
-691.2395803310751
 20
-1622.1208638821881
  9
$LIMMAX
 10
781.08926262371324
 20
747.8504468919856
  9
$ORTHOMODE
 70
               0
  9
$REGENMODE
 70
               1
  9
$FILLMODE
 70
               1
  9
$QTEXTMODE
 70
               0
  9
$MIRRTEXT
 70
               1
  9
$DRAGMODE
 70
               2
  9
$LTSCALE
 40
1.0
  9
$OSMODE
 70
               0
  9
$ATTMODE
 70
               1
  9
$TEXTSIZE
 40
0.2
  9
$TRACEWID
 40
0.05
  9
$TEXTSTYLE
  7
STANDARD
  9
$CLAYER
  8
0
  9
$CELTYPE
  6
CONTINUOUS
  9
$CECOLOR
 62
             256
  9
$DIMSCALE
 40
1.0
  9
$DIMASZ
 40
0.18
  9
$DIMEXO
 40
0.0625
  9
$DIMDLI
 40
0.38
  9
$DIMRND
 40
0.0
  9
$DIMDLE
 40
0.0
  9
$DIMEXE
 40
0.18
  9
$DIMTP
 40
0.0
  9
$DIMTM
 40
0.0
  9
$DIMTXT
 40
0.18
  9
$DIMCEN
 40
0.09
  9
$DIMTSZ
 40
0.0
  9
$DIMTOL
 70
               0
  9
$DIMLIM
 70
               0
  9
$DIMTIH
 70
               1
  9
$DIMTOH
 70
               1
  9
$DIMSE1
 70
               0
  9
$DIMSE2
 70
               0
  9
$DIMTAD
 70
               0
  9
$DIMZIN
 70
               0
  9
$DIMBLK
  1

  9
$DIMASO
 70
               1
  9
$DIMSHO
 70
               1
  9
$DIMPOST
  1

  9
$DIMAPOST
  1

  9
$DIMALT
 70
               0
  9
$DIMALTD
 70
               2
  9
$DIMALTF
 40
25.399999999999999
  9
$DIMLFAC
 40
1.0
  9
$DIMTOFL
 70
               0
  9
$DIMTVP
 40
0.0
  9
$DIMTIX
 70
               0
  9
$DIMSOXD
 70
               0
  9
$DIMSAH
 70
               0
  9
$DIMBLK1
  1

  9
$DIMBLK2
  1

  9
$DIMSTYLE
  2
STANDARD
  9
$DIMCLRD
 70
               0
  9
$DIMCLRE
 70
               0
  9
$DIMCLRT
 70
               0
  9
$DIMTFAC
 40
1.0
  9
$DIMGAP
 40
0.09
  9
$LUNITS
 70
               2
  9
$LUPREC
 70
               4
  9
$AXISMODE
 70
               0
  9
$AXISUNIT
 10
0.0
 20
0.0
  9
$SKETCHINC
 40
0.1
  9
$FILLETRAD
 40
0.0
  9
$AUNITS
 70
               0
  9
$AUPREC
 70
               0
  9
$MENU
  1
acad
  9
$ELEVATION
 40
0.0
  9
$PELEVATION
 40
0.0
  9
$THICKNESS
 40
0.0
  9
$LIMCHECK
 70
               0
  9
$BLIPMODE
 70
               1
  9
$CHAMFERA
 40
0.0
  9
$CHAMFERB
 40
0.0
  9
$SKPOLY
 70
               0
  9
$TDCREATE
 40
0.000000000
  9
$TDUPDATE
 40
0.000000000
  9
$TDINDWG
 40
0.0000000000
  9
$TDUSRTIMER
 40
0.0000000000
  9
$USRTIMER
 70
               1
  9
$ANGBASE
 50
0.0
  9
$ANGDIR
 70
               0
  9
$PDMODE
 70
               0
  9
$PDSIZE
 40
1.0
  9
$PLINEWID
 40
0.0
  9
$COORDS
 70
               1
  9
$SPLFRAME
 70
               0
  9
$SPLINETYPE
 70
               6
  9
$SPLINESEGS
 70
               8
  9
$ATTDIA
 70
               0
  9
$ATTREQ
 70
               1
  9
$HANDLING
 70
               1
  9
$HANDSEED
  5
483
  9
$SURFTAB1
 70
               6
  9
$SURFTAB2
 70
               6
  9
$SURFTYPE
 70
               6
  9
$SURFU
 70
               6
  9
$SURFV
 70
               6
  9
$UCSNAME
  2

  9
$UCSORG
 10
0.0
 20
0.0
 30
0.0
  9
$UCSXDIR
 10
1.0
 20
0.0
 30
0.0
  9
$UCSYDIR
 10
0.0
 20
1.0
 30
0.0
  9
$PUCSNAME
  2

  9
$PUCSORG
 10
0.0
 20
0.0
 30
0.0
  9
$PUCSXDIR
 10
1.0
 20
0.0
 30
0.0
  9
$PUCSYDIR
 10
0.0
 20
1.0
 30
0.0
  9
$USERI1
 70
               0
  9
$USERI2
 70
               0
  9
$USERI3
 70
               0
  9
$USERI4
 70
               0
  9
$USERI5
 70
               0
  9
$USERR1
 40
0.0
  9
$USERR2
 40
0.0
  9
$USERR3
 40
0.0
  9
$USERR4
 40
0.0
  9
$USERR5
 40
0.0
  9
$WORLDVIEW
 70
               1
  9
$SHADEDGE
 70
               3
  9
$SHADEDIF
 70
              70
  9
$TILEMODE
 70
               1
  9
$MAXACTVP
 70
              16
  9
$PINSBASE
 10
0.0
 20
0.0
 30
0.0
  9
$PLIMCHECK
 70
               0
  9
$PEXTMIN
 10
1.0000000000000000E+20
 20
1.0000000000000000E+20
 30
1.0000000000000000E+20
  9
$PEXTMAX
 10
-1.0000000000000000E+20
 20
-1.0000000000000000E+20
 30
-1.0000000000000000E+20
  9
$PLIMMIN
 10
0.0
 20
0.0
  9
$PLIMMAX
 10
12.0
 20
9.0
  9
$UNITMODE
 70
               0
  9
$VISRETAIN
 70
               0
  9
$PLINEGEN
 70
               1
  9
$PSLTSCALE
 70
               0
  9
$TREEDEPTH
 70
            3020
  9
$DWGCODEPAGE
  3
dos932
  0
ENDSEC
  0
SECTION
  2
TABLES
  0
TABLE
  2
VPORT
 70
               1
  0
VPORT
  2
*ACTIVE
 70
               0
 10
0.0
 20
0.0
 11
1.0
 21
1.0
 12
44.924841146319068
 22
-437.13520849510127
 13
0.0
 23
0.0
 14
1.0
 24
1.0
 15
0.0
 25
0.0
 16
0.0
 26
0.0
 36
1.0
 17
0.0
 27
0.0
 37
0.0
 40
2369.9713107741736
 41
0.6212433189639912
 42
50.0
 43
0.0
 44
0.0
 50
0.0
 51
0.0
 71
               0
 72
             100
 73
               1
 74
               1
 75
               0
 76
               0
 77
               0
 78
               0
  0
ENDTAB
  0
TABLE
  2
LTYPE
 70
              26
  0
LTYPE
  2
CONTINUOUS
 70
               0
  3
Solid line
 72
              65
 73
               0
 40
0.0
  0
LTYPE
  2
HIDDENX2
 70
               0
  3
CADPAC FUSION LINETYPE
 72
              65
 73
               2
 40
64.0
 49
48.0
 49
-16.0
  0
LTYPE
  2
HIDDEN
 70
               0
  3
CADPAC FUSION LINETYPE
 72
              65
 73
               2
 40
48.0
 49
32.0
 49
-16.0
  0
LTYPE
  2
HIDDEN2
 70
               0
  3
CADPAC FUSION LINETYPE
 72
              65
 73
               2
 40
40.0
 49
24.0
 49
-16.0
  0
LTYPE
  2
DASHED
 70
               0
  3
CADPAC FUSION LINETYPE
 72
              65
 73
               2
 40
48.0
 49
32.0
 49
-16.0
  0
LTYPE
  2
DASHED2
 70
               0
  3
CADPAC FUSION LINETYPE
 72
              65
 73
               2
 40
36.0
 49
24.0
 49
-12.0
  0
LTYPE
  2
DASHEDX2
 70
               0
  3
CADPAC FUSION LINETYPE
 72
              65
 73
               2
 40
72.0
 49
48.0
 49
-24.0
  0
LTYPE
  2
DOTX2
 70
               0
  3
CADPAC FUSION LINETYPE
 72
              65
 73
               2
 40
20.0
 49
0.0
 49
-20.0
  0
LTYPE
  2
DOT
 70
               0
  3
CADPAC FUSION LINETYPE
 72
              65
 73
               2
 40
16.0
 49
0.0
 49
-16.0
  0
LTYPE
  2
DOTS
 70
               0
  3
CADPAC FUSION LINETYPE
 72
              65
 73
               2
 40
16.0
 49
0.0
 49
-16.0
  0
LTYPE
  2
DOT2
 70
               0
  3
CADPAC FUSION LINETYPE
 72
              65
 73
               2
 40
12.0
 49
0.0
 49
-12.0
  0
LTYPE
  2
CENTERX2
 70
               0
  3
CADPAC FUSION LINETYPE
 72
              65
 73
               4
 40
96.0
 49
40.0
 49
-20.0
 49
16.0
 49
-20.0
  0
LTYPE
  2
CENTER
 70
               0
  3
CADPAC FUSION LINETYPE
 72
              65
 73
               4
 40
73.599999999999994
 49
32.0
 49
-16.0
 49
9.5999999999999996
 49
-16.0
  0
LTYPE
  2
CENTER2
 70
               0
  3
CADPAC FUSION LINETYPE
 72
              65
 73
               4
 40
51.200000000000003
 49
24.0
 49
-12.0
 49
3.2000000000000002
 49
-12.0
  0
LTYPE
  2
DASHDOTX2
 70
               0
  3
CADPAC FUSION LINETYPE
 72
              65
 73
               4
 40
80.0
 49
40.0
 49
-20.0
 49
0.0
 49
-20.0
  0
LTYPE
  2
DASHDOT
 70
               0
  3
CADPAC FUSION LINETYPE
 72
              65
 73
               4
 40
64.0
 49
32.0
 49
-16.0
 49
0.0
 49
-16.0
  0
LTYPE
  2
DASHDOT2
 70
               0
  3
CADPAC FUSION LINETYPE
 72
              65
 73
               4
 40
48.0
 49
24.0
 49
-12.0
 49
0.0
 49
-12.0
  0
LTYPE
  2
DIVIDEX2
 70
               0
  3
CADPAC FUSION LINETYPE
 72
              65
 73
               6
 40
100.0
 49
40.0
 49
-20.0
 49
0.0
 49
-20.0
 49
0.0
 49
-20.0
  0
LTYPE
  2
DIVIDE
 70
               0
  3
CADPAC FUSION LINETYPE
 72
              65
 73
               6
 40
80.0
 49
32.0
 49
-16.0
 49
0.0
 49
-16.0
 49
0.0
 49
-16.0
  0
LTYPE
  2
DIVIDE2
 70
               0
  3
CADPAC FUSION LINETYPE
 72
              65
 73
               6
 40
60.0
 49
24.0
 49
-12.0
 49
0.0
 49
-12.0
 49
0.0
 49
-12.0
  0
LTYPE
  2
BORDERX2
 70
               0
  3
CADPAC FUSION LINETYPE
 72
              65
 73
               6
 40
140.0
 49
40.0
 49
-20.0
 49
40.0
 49
-20.0
 49
0.0
 49
-20.0
  0
LTYPE
  2
BORDER
 70
               0
  3
CADPAC FUSION LINETYPE
 72
              65
 73
               6
 40
112.0
 49
32.0
 49
-16.0
 49
32.0
 49
-16.0
 49
0.0
 49
-16.0
  0
LTYPE
  2
BORDER2
 70
               0
  3
CADPAC FUSION LINETYPE
 72
              65
 73
               6
 40
84.0
 49
24.0
 49
-12.0
 49
24.0
 49
-12.0
 49
0.0
 49
-12.0
  0
LTYPE
  2
PHANTOMX2
 70
               0
  3
CADPAC FUSION LINETYPE
 72
              65
 73
               6
 40
120.0
 49
40.0
 49
-16.0
 49
16.0
 49
-16.0
 49
16.0
 49
-16.0
  0
LTYPE
  2
PHANTOM
 70
               0
  3
CADPAC FUSION LINETYPE
 72
              65
 73
               6
 40
99.199999999999989
 49
32.0
 49
-16.0
 49
9.5999999999999996
 49
-16.0
 49
9.5999999999999996
 49
-16.0
  0
LTYPE
  2
PHANTOM2
 70
               0
  3
CADPAC FUSION LINETYPE
 72
              65
 73
               6
 40
84.799999999999997
 49
24.0
 49
-16.0
 49
6.4000000000000004
 49
-16.0
 49
6.4000000000000004
 49
-16.0
  0
ENDTAB
  0
TABLE
  2
LAYER
 70
             256
  0
LAYER
  2
0
 70
               0
 62
               7
  6
CONTINUOUS
  0
LAYER
  2
LAYER001
 70
               0
 62
               7
  6
CONTINUOUS
  0
LAYER
  2
LAYER002
 70
               0
 62
               7
  6
CONTINUOUS
  0
LAYER
  2
LAYER003
 70
               0
 62
               7
  6
CONTINUOUS
  0
LAYER
  2
LAYER004
 70
               0
 62
               7
  6
CONTINUOUS
  0
LAYER
  2
LAYER005
 70
               0
 62
               7
  6
CONTINUOUS
  0
LAYER
  2
LAYER006
 70
               0
 62
               7
  6
CONTINUOUS
  0
LAYER
  2
LAYER007
 70
               0
 62
               7
  6
CONTINUOUS
  0
LAYER
  2
LAYER008
 70
               0
 62
               7
  6
CONTINUOUS
  0
LAYER
  2
LAYER009
 70
               0
 62
               7
  6
CONTINUOUS
  0
LAYER
  2
LAYER010
 70
               0
 62
               7
  6
CONTINUOUS
  0
LAYER
  2
LAYER011
 70
               0
 62
               7
  6
CONTINUOUS
  0
LAYER
  2
LAYER012
 70
               0
 62
               7
  6
CONTINUOUS
  0
LAYER
  2
LAYER013
 70
               0
 62
               7
  6
CONTINUOUS
  0
LAYER
  2
LAYER014
 70
               0
 62
               7
  6
CONTINUOUS
  0
LAYER
  2
LAYER015
 70
               0
 62
               7
  6
CONTINUOUS
  0
LAYER
  2
LAYER016
 70
               0
 62
               7
  6
CONTINUOUS
  0
LAYER
  2
LAYER017
 70
               0
 62
               7
  6
CONTINUOUS
  0
LAYER
  2
LAYER018
 70
               0
 62
               7
  6
CONTINUOUS
  0
LAYER
  2
LAYER019
 70
               0
 62
               7
  6
CONTINUOUS
  0
LAYER
  2
LAYER020
 70
               0
 62
               7
  6
CONTINUOUS
  0
LAYER
  2
LAYER021
 70
               0
 62
               7
  6
CONTINUOUS
  0
LAYER
  2
LAYER022
 70
               0
 62
               7
  6
CONTINUOUS
  0
LAYER
  2
LAYER023
 70
               0
 62
               7
  6
CONTINUOUS
  0
LAYER
  2
LAYER024
 70
               0
 62
               7
  6
CONTINUOUS
  0
LAYER
  2
LAYER025
 70
               0
 62
               7
  6
CONTINUOUS
  0
LAYER
  2
LAYER026
 70
               0
 62
               7
  6
CONTINUOUS
  0
LAYER
  2
LAYER027
 70
               0
 62
               7
  6
CONTINUOUS
  0
LAYER
  2
LAYER028
 70
               0
 62
               7
  6
CONTINUOUS
  0
LAYER
  2
LAYER029
 70
               0
 62
               7
  6
CONTINUOUS
  0
LAYER
  2
LAYER030
 70
               0
 62
               7
  6
CONTINUOUS
  0
LAYER
  2
LAYER031
 70
               0
 62
               7
  6
CONTINUOUS
  0
LAYER
  2
LAYER032
 70
               0
 62
               7
  6
CONTINUOUS
  0
LAYER
  2
LAYER033
 70
               0
 62
               7
  6
CONTINUOUS
  0
LAYER
  2
LAYER034
 70
               0
 62
               7
  6
CONTINUOUS
  0
LAYER
  2
LAYER035
 70
               0
 62
               7
  6
CONTINUOUS
  0
LAYER
  2
LAYER036
 70
               0
 62
               7
  6
CONTINUOUS
  0
LAYER
  2
LAYER037
 70
               0
 62
               7
  6
CONTINUOUS
  0
LAYER
  2
LAYER038
 70
               0
 62
               7
  6
CONTINUOUS
  0
LAYER
  2
LAYER039
 70
               0
 62
               7
  6
CONTINUOUS
  0
LAYER
  2
LAYER040
 70
               0
 62
               7
  6
CONTINUOUS
  0
LAYER
  2
LAYER041
 70
               0
 62
               7
  6
CONTINUOUS
  0
LAYER
  2
LAYER042
 70
               0
 62
               7
  6
CONTINUOUS
  0
LAYER
  2
LAYER043
 70
               0
 62
               7
  6
CONTINUOUS
  0
LAYER
  2
LAYER044
 70
               0
 62
               7
  6
CONTINUOUS
  0
LAYER
  2
LAYER045
 70
               0
 62
               7
  6
CONTINUOUS
  0
LAYER
  2
LAYER046
 70
               0
 62
               7
  6
CONTINUOUS
  0
LAYER
  2
LAYER047
 70
               0
 62
               7
  6
CONTINUOUS
  0
LAYER
  2
LAYER048
 70
               0
 62
               7
  6
CONTINUOUS
  0
LAYER
  2
LAYER049
 70
               0
 62
               7
  6
CONTINUOUS
  0
LAYER
  2
LAYER050
 70
               0
 62
               7
  6
CONTINUOUS
  0
LAYER
  2
LAYER051
 70
               0
 62
               7
  6
CONTINUOUS
  0
LAYER
  2
LAYER052
 70
               0
 62
               7
  6
CONTINUOUS
  0
LAYER
  2
LAYER053
 70
               0
 62
               7
  6
CONTINUOUS
  0
LAYER
  2
LAYER054
 70
               0
 62
               7
  6
CONTINUOUS
  0
LAYER
  2
LAYER055
 70
               0
 62
               7
  6
CONTINUOUS
  0
LAYER
  2
LAYER056
 70
               0
 62
               7
  6
CONTINUOUS
  0
LAYER
  2
LAYER057
 70
               0
 62
               7
  6
CONTINUOUS
  0
LAYER
  2
LAYER058
 70
               0
 62
               7
  6
CONTINUOUS
  0
LAYER
  2
LAYER059
 70
               0
 62
               7
  6
CONTINUOUS
  0
LAYER
  2
LAYER060
 70
               0
 62
               7
  6
CONTINUOUS
  0
LAYER
  2
LAYER061
 70
               0
 62
               7
  6
CONTINUOUS
  0
LAYER
  2
LAYER062
 70
               0
 62
               7
  6
CONTINUOUS
  0
LAYER
  2
LAYER063
 70
               0
 62
               7
  6
CONTINUOUS
  0
LAYER
  2
LAYER064
 70
               0
 62
               7
  6
CONTINUOUS
  0
LAYER
  2
LAYER065
 70
               0
 62
               7
  6
CONTINUOUS
  0
LAYER
  2
LAYER066
 70
               0
 62
               7
  6
CONTINUOUS
  0
LAYER
  2
LAYER067
 70
               0
 62
               7
  6
CONTINUOUS
  0
LAYER
  2
LAYER068
 70
               0
 62
               7
  6
CONTINUOUS
  0
LAYER
  2
LAYER069
 70
               0
 62
               7
  6
CONTINUOUS
  0
LAYER
  2
LAYER070
 70
               0
 62
               7
  6
CONTINUOUS
  0
LAYER
  2
LAYER071
 70
               0
 62
               7
  6
CONTINUOUS
  0
LAYER
  2
LAYER072
 70
               0
 62
               7
  6
CONTINUOUS
  0
LAYER
  2
LAYER073
 70
               0
 62
               7
  6
CONTINUOUS
  0
LAYER
  2
LAYER074
 70
               0
 62
               7
  6
CONTINUOUS
  0
LAYER
  2
LAYER075
 70
               0
 62
               7
  6
CONTINUOUS
  0
LAYER
  2
LAYER076
 70
               0
 62
               7
  6
CONTINUOUS
  0
LAYER
  2
LAYER077
 70
               0
 62
               7
  6
CONTINUOUS
  0
LAYER
  2
LAYER078
 70
               0
 62
               7
  6
CONTINUOUS
  0
LAYER
  2
LAYER079
 70
               0
 62
               7
  6
CONTINUOUS
  0
LAYER
  2
LAYER080
 70
               0
 62
               7
  6
CONTINUOUS
  0
LAYER
  2
LAYER081
 70
               0
 62
               7
  6
CONTINUOUS
  0
LAYER
  2
LAYER082
 70
               0
 62
               7
  6
CONTINUOUS
  0
LAYER
  2
LAYER083
 70
               0
 62
               7
  6
CONTINUOUS
  0
LAYER
  2
LAYER084
 70
               0
 62
               7
  6
CONTINUOUS
  0
LAYER
  2
LAYER085
 70
               0
 62
               7
  6
CONTINUOUS
  0
LAYER
  2
LAYER086
 70
               0
 62
               7
  6
CONTINUOUS
  0
LAYER
  2
LAYER087
 70
               0
 62
               7
  6
CONTINUOUS
  0
LAYER
  2
LAYER088
 70
               0
 62
               7
  6
CONTINUOUS
  0
LAYER
  2
LAYER089
 70
               0
 62
               7
  6
CONTINUOUS
  0
LAYER
  2
LAYER090
 70
               0
 62
               7
  6
CONTINUOUS
  0
LAYER
  2
LAYER091
 70
               0
 62
               7
  6
CONTINUOUS
  0
LAYER
  2
LAYER092
 70
               0
 62
               7
  6
CONTINUOUS
  0
LAYER
  2
LAYER093
 70
               0
 62
               7
  6
CONTINUOUS
  0
LAYER
  2
LAYER094
 70
               0
 62
               7
  6
CONTINUOUS
  0
LAYER
  2
LAYER095
 70
               0
 62
               7
  6
CONTINUOUS
  0
LAYER
  2
LAYER096
 70
               0
 62
               7
  6
CONTINUOUS
  0
LAYER
  2
LAYER097
 70
               0
 62
               7
  6
CONTINUOUS
  0
LAYER
  2
LAYER098
 70
               0
 62
               7
  6
CONTINUOUS
  0
LAYER
  2
LAYER099
 70
               0
 62
               7
  6
CONTINUOUS
  0
LAYER
  2
LAYER100
 70
               0
 62
               7
  6
CONTINUOUS
  0
LAYER
  2
LAYER101
 70
               0
 62
               7
  6
CONTINUOUS
  0
LAYER
  2
LAYER102
 70
               0
 62
               7
  6
CONTINUOUS
  0
LAYER
  2
LAYER103
 70
               0
 62
               7
  6
CONTINUOUS
  0
LAYER
  2
LAYER104
 70
               0
 62
               7
  6
CONTINUOUS
  0
LAYER
  2
LAYER105
 70
               0
 62
               7
  6
CONTINUOUS
  0
LAYER
  2
LAYER106
 70
               0
 62
               7
  6
CONTINUOUS
  0
LAYER
  2
LAYER107
 70
               0
 62
               7
  6
CONTINUOUS
  0
LAYER
  2
LAYER108
 70
               0
 62
               7
  6
CONTINUOUS
  0
LAYER
  2
LAYER109
 70
               0
 62
               7
  6
CONTINUOUS
  0
LAYER
  2
LAYER110
 70
               0
 62
               7
  6
CONTINUOUS
  0
LAYER
  2
LAYER111
 70
               0
 62
               7
  6
CONTINUOUS
  0
LAYER
  2
LAYER112
 70
               0
 62
               7
  6
CONTINUOUS
  0
LAYER
  2
LAYER113
 70
               0
 62
               7
  6
CONTINUOUS
  0
LAYER
  2
LAYER114
 70
               0
 62
               7
  6
CONTINUOUS
  0
LAYER
  2
LAYER115
 70
               0
 62
               7
  6
CONTINUOUS
  0
LAYER
  2
LAYER116
 70
               0
 62
               7
  6
CONTINUOUS
  0
LAYER
  2
LAYER117
 70
               0
 62
               7
  6
CONTINUOUS
  0
LAYER
  2
LAYER118
 70
               0
 62
               7
  6
CONTINUOUS
  0
LAYER
  2
LAYER119
 70
               0
 62
               7
  6
CONTINUOUS
  0
LAYER
  2
LAYER120
 70
               0
 62
               7
  6
CONTINUOUS
  0
LAYER
  2
LAYER121
 70
               0
 62
               7
  6
CONTINUOUS
  0
LAYER
  2
LAYER122
 70
               0
 62
               7
  6
CONTINUOUS
  0
LAYER
  2
LAYER123
 70
               0
 62
               7
  6
CONTINUOUS
  0
LAYER
  2
LAYER124
 70
               0
 62
               7
  6
CONTINUOUS
  0
LAYER
  2
LAYER125
 70
               0
 62
               7
  6
CONTINUOUS
  0
LAYER
  2
LAYER126
 70
               0
 62
               7
  6
CONTINUOUS
  0
LAYER
  2
LAYER127
 70
               0
 62
               7
  6
CONTINUOUS
  0
LAYER
  2
LAYER128
 70
               0
 62
               7
  6
CONTINUOUS
  0
LAYER
  2
LAYER129
 70
               0
 62
               7
  6
CONTINUOUS
  0
LAYER
  2
LAYER130
 70
               0
 62
               7
  6
CONTINUOUS
  0
LAYER
  2
LAYER131
 70
               0
 62
               7
  6
CONTINUOUS
  0
LAYER
  2
LAYER132
 70
               0
 62
               7
  6
CONTINUOUS
  0
LAYER
  2
LAYER133
 70
               0
 62
               7
  6
CONTINUOUS
  0
LAYER
  2
LAYER134
 70
               0
 62
               7
  6
CONTINUOUS
  0
LAYER
  2
LAYER135
 70
               0
 62
               7
  6
CONTINUOUS
  0
LAYER
  2
LAYER136
 70
               0
 62
               7
  6
CONTINUOUS
  0
LAYER
  2
LAYER137
 70
               0
 62
               7
  6
CONTINUOUS
  0
LAYER
  2
LAYER138
 70
               0
 62
               7
  6
CONTINUOUS
  0
LAYER
  2
LAYER139
 70
               0
 62
               7
  6
CONTINUOUS
  0
LAYER
  2
LAYER140
 70
               0
 62
               7
  6
CONTINUOUS
  0
LAYER
  2
LAYER141
 70
               0
 62
               7
  6
CONTINUOUS
  0
LAYER
  2
LAYER142
 70
               0
 62
               7
  6
CONTINUOUS
  0
LAYER
  2
LAYER143
 70
               0
 62
               7
  6
CONTINUOUS
  0
LAYER
  2
LAYER144
 70
               0
 62
               7
  6
CONTINUOUS
  0
LAYER
  2
LAYER145
 70
               0
 62
               7
  6
CONTINUOUS
  0
LAYER
  2
LAYER146
 70
               0
 62
               7
  6
CONTINUOUS
  0
LAYER
  2
LAYER147
 70
               0
 62
               7
  6
CONTINUOUS
  0
LAYER
  2
LAYER148
 70
               0
 62
               7
  6
CONTINUOUS
  0
LAYER
  2
LAYER149
 70
               0
 62
               7
  6
CONTINUOUS
  0
LAYER
  2
LAYER150
 70
               0
 62
               7
  6
CONTINUOUS
  0
LAYER
  2
LAYER151
 70
               0
 62
               7
  6
CONTINUOUS
  0
LAYER
  2
LAYER152
 70
               0
 62
               7
  6
CONTINUOUS
  0
LAYER
  2
LAYER153
 70
               0
 62
               7
  6
CONTINUOUS
  0
LAYER
  2
LAYER154
 70
               0
 62
               7
  6
CONTINUOUS
  0
LAYER
  2
LAYER155
 70
               0
 62
               7
  6
CONTINUOUS
  0
LAYER
  2
LAYER156
 70
               0
 62
               7
  6
CONTINUOUS
  0
LAYER
  2
LAYER157
 70
               0
 62
               7
  6
CONTINUOUS
  0
LAYER
  2
LAYER158
 70
               0
 62
               7
  6
CONTINUOUS
  0
LAYER
  2
LAYER159
 70
               0
 62
               7
  6
CONTINUOUS
  0
LAYER
  2
LAYER160
 70
               0
 62
               7
  6
CONTINUOUS
  0
LAYER
  2
LAYER161
 70
               0
 62
               7
  6
CONTINUOUS
  0
LAYER
  2
LAYER162
 70
               0
 62
               7
  6
CONTINUOUS
  0
LAYER
  2
LAYER163
 70
               0
 62
               7
  6
CONTINUOUS
  0
LAYER
  2
LAYER164
 70
               0
 62
               7
  6
CONTINUOUS
  0
LAYER
  2
LAYER165
 70
               0
 62
               7
  6
CONTINUOUS
  0
LAYER
  2
LAYER166
 70
               0
 62
               7
  6
CONTINUOUS
  0
LAYER
  2
LAYER167
 70
               0
 62
               7
  6
CONTINUOUS
  0
LAYER
  2
LAYER168
 70
               0
 62
               7
  6
CONTINUOUS
  0
LAYER
  2
LAYER169
 70
               0
 62
               7
  6
CONTINUOUS
  0
LAYER
  2
LAYER170
 70
               0
 62
               7
  6
CONTINUOUS
  0
LAYER
  2
LAYER171
 70
               0
 62
               7
  6
CONTINUOUS
  0
LAYER
  2
LAYER172
 70
               0
 62
               7
  6
CONTINUOUS
  0
LAYER
  2
LAYER173
 70
               0
 62
               7
  6
CONTINUOUS
  0
LAYER
  2
LAYER174
 70
               0
 62
               7
  6
CONTINUOUS
  0
LAYER
  2
LAYER175
 70
               0
 62
               7
  6
CONTINUOUS
  0
LAYER
  2
LAYER176
 70
               0
 62
               7
  6
CONTINUOUS
  0
LAYER
  2
LAYER177
 70
               0
 62
               7
  6
CONTINUOUS
  0
LAYER
  2
LAYER178
 70
               0
 62
               7
  6
CONTINUOUS
  0
LAYER
  2
LAYER179
 70
               0
 62
               7
  6
CONTINUOUS
  0
LAYER
  2
LAYER180
 70
               0
 62
               7
  6
CONTINUOUS
  0
LAYER
  2
LAYER181
 70
               0
 62
               7
  6
CONTINUOUS
  0
LAYER
  2
LAYER182
 70
               0
 62
               7
  6
CONTINUOUS
  0
LAYER
  2
LAYER183
 70
               0
 62
               7
  6
CONTINUOUS
  0
LAYER
  2
LAYER184
 70
               0
 62
               7
  6
CONTINUOUS
  0
LAYER
  2
LAYER185
 70
               0
 62
               7
  6
CONTINUOUS
  0
LAYER
  2
LAYER186
 70
               0
 62
               7
  6
CONTINUOUS
  0
LAYER
  2
LAYER187
 70
               0
 62
               7
  6
CONTINUOUS
  0
LAYER
  2
LAYER188
 70
               0
 62
               7
  6
CONTINUOUS
  0
LAYER
  2
LAYER189
 70
               0
 62
               7
  6
CONTINUOUS
  0
LAYER
  2
LAYER190
 70
               0
 62
               7
  6
CONTINUOUS
  0
LAYER
  2
LAYER191
 70
               0
 62
               7
  6
CONTINUOUS
  0
LAYER
  2
LAYER192
 70
               0
 62
               7
  6
CONTINUOUS
  0
LAYER
  2
LAYER193
 70
               0
 62
               7
  6
CONTINUOUS
  0
LAYER
  2
LAYER194
 70
               0
 62
               7
  6
CONTINUOUS
  0
LAYER
  2
LAYER195
 70
               0
 62
               7
  6
CONTINUOUS
  0
LAYER
  2
LAYER196
 70
               0
 62
               7
  6
CONTINUOUS
  0
LAYER
  2
LAYER197
 70
               0
 62
               7
  6
CONTINUOUS
  0
LAYER
  2
LAYER198
 70
               0
 62
               7
  6
CONTINUOUS
  0
LAYER
  2
LAYER199
 70
               0
 62
               7
  6
CONTINUOUS
  0
LAYER
  2
LAYER200
 70
               0
 62
               7
  6
CONTINUOUS
  0
LAYER
  2
LAYER201
 70
               0
 62
               7
  6
CONTINUOUS
  0
LAYER
  2
LAYER202
 70
               0
 62
               7
  6
CONTINUOUS
  0
LAYER
  2
LAYER203
 70
               0
 62
               7
  6
CONTINUOUS
  0
LAYER
  2
LAYER204
 70
               0
 62
               7
  6
CONTINUOUS
  0
LAYER
  2
LAYER205
 70
               0
 62
               7
  6
CONTINUOUS
  0
LAYER
  2
LAYER206
 70
               0
 62
               7
  6
CONTINUOUS
  0
LAYER
  2
LAYER207
 70
               0
 62
               7
  6
CONTINUOUS
  0
LAYER
  2
LAYER208
 70
               0
 62
               7
  6
CONTINUOUS
  0
LAYER
  2
LAYER209
 70
               0
 62
               7
  6
CONTINUOUS
  0
LAYER
  2
LAYER210
 70
               0
 62
               7
  6
CONTINUOUS
  0
LAYER
  2
LAYER211
 70
               0
 62
               7
  6
CONTINUOUS
  0
LAYER
  2
LAYER212
 70
               0
 62
               7
  6
CONTINUOUS
  0
LAYER
  2
LAYER213
 70
               0
 62
               7
  6
CONTINUOUS
  0
LAYER
  2
LAYER214
 70
               0
 62
               7
  6
CONTINUOUS
  0
LAYER
  2
LAYER215
 70
               0
 62
               7
  6
CONTINUOUS
  0
LAYER
  2
LAYER216
 70
               0
 62
               7
  6
CONTINUOUS
  0
LAYER
  2
LAYER217
 70
               0
 62
               7
  6
CONTINUOUS
  0
LAYER
  2
LAYER218
 70
               0
 62
               7
  6
CONTINUOUS
  0
LAYER
  2
LAYER219
 70
               0
 62
               7
  6
CONTINUOUS
  0
LAYER
  2
LAYER220
 70
               0
 62
               7
  6
CONTINUOUS
  0
LAYER
  2
LAYER221
 70
               0
 62
               7
  6
CONTINUOUS
  0
LAYER
  2
LAYER222
 70
               0
 62
               7
  6
CONTINUOUS
  0
LAYER
  2
LAYER223
 70
               0
 62
               7
  6
CONTINUOUS
  0
LAYER
  2
LAYER224
 70
               0
 62
               7
  6
CONTINUOUS
  0
LAYER
  2
LAYER225
 70
               0
 62
               7
  6
CONTINUOUS
  0
LAYER
  2
LAYER226
 70
               0
 62
               7
  6
CONTINUOUS
  0
LAYER
  2
LAYER227
 70
               0
 62
               7
  6
CONTINUOUS
  0
LAYER
  2
LAYER228
 70
               0
 62
               7
  6
CONTINUOUS
  0
LAYER
  2
LAYER229
 70
               0
 62
               7
  6
CONTINUOUS
  0
LAYER
  2
LAYER230
 70
               0
 62
               7
  6
CONTINUOUS
  0
LAYER
  2
LAYER231
 70
               0
 62
               7
  6
CONTINUOUS
  0
LAYER
  2
LAYER232
 70
               0
 62
               7
  6
CONTINUOUS
  0
LAYER
  2
LAYER233
 70
               0
 62
               7
  6
CONTINUOUS
  0
LAYER
  2
LAYER234
 70
               0
 62
               7
  6
CONTINUOUS
  0
LAYER
  2
LAYER235
 70
               0
 62
               7
  6
CONTINUOUS
  0
LAYER
  2
LAYER236
 70
               0
 62
               7
  6
CONTINUOUS
  0
LAYER
  2
LAYER237
 70
               0
 62
               7
  6
CONTINUOUS
  0
LAYER
  2
LAYER238
 70
               0
 62
               7
  6
CONTINUOUS
  0
LAYER
  2
LAYER239
 70
               0
 62
               7
  6
CONTINUOUS
  0
LAYER
  2
LAYER240
 70
               0
 62
               7
  6
CONTINUOUS
  0
LAYER
  2
LAYER241
 70
               0
 62
               7
  6
CONTINUOUS
  0
LAYER
  2
LAYER242
 70
               0
 62
               7
  6
CONTINUOUS
  0
LAYER
  2
LAYER243
 70
               0
 62
               7
  6
CONTINUOUS
  0
LAYER
  2
LAYER244
 70
               0
 62
               7
  6
CONTINUOUS
  0
LAYER
  2
LAYER245
 70
               0
 62
               7
  6
CONTINUOUS
  0
LAYER
  2
LAYER246
 70
               0
 62
               7
  6
CONTINUOUS
  0
LAYER
  2
LAYER247
 70
               0
 62
               7
  6
CONTINUOUS
  0
LAYER
  2
LAYER248
 70
               0
 62
               7
  6
CONTINUOUS
  0
LAYER
  2
LAYER249
 70
               0
 62
               7
  6
CONTINUOUS
  0
LAYER
  2
LAYER250
 70
               0
 62
               7
  6
CONTINUOUS
  0
LAYER
  2
LAYER251
 70
               0
 62
               7
  6
CONTINUOUS
  0
LAYER
  2
LAYER252
 70
               0
 62
               7
  6
CONTINUOUS
  0
LAYER
  2
LAYER253
 70
               0
 62
               7
  6
CONTINUOUS
  0
LAYER
  2
LAYER254
 70
               0
 62
               7
  6
CONTINUOUS
  0
LAYER
  2
LAYER255
 70
               0
 62
               7
  6
CONTINUOUS
  0
ENDTAB
  0
TABLE
  2
STYLE
 70
               1
  0
STYLE
  2
STANDARD
 70
               0
 40
0.0
 41
0.8
 50
0.0
 71
               0
 42
40.0
  3
MS PGothic.ttf
  4

  0
ENDTAB
  0
TABLE
  2
VIEW
 70
               0
  0
VIEW
  2
QQQQ
 70
               0
 40
2369.9713107741736
 10
44.924841146319068
 20
-437.13520849510127
 41
1472.3288429547883
 11
0.0
 21
0.0
 31
1.0
 12
100.0
 22
100.0
 32
0.0
 42
50.0
 43
0.0
 44
0.0
 50
0.0
 71
               0
  0
ENDTAB
  0
TABLE
  2
UCS
 70
               0
  0
ENDTAB
  0
TABLE
  2
APPID
 70
               1
  0
APPID
  2
ACAD
 70
               0
  0
ENDTAB
  0
TABLE
  2
DIMSTYLE
 70
               1
  0
DIMSTYLE
  2
STANDARD
 70
               0
  3

  4

  5

  6

  7

 40
1.0
 41
0.18
 42
0.0625
 43
0.38
 44
0.18
 45
0.0
 46
0.0
 47
0.0
 48
0.0
140
0.18
141
0.09
142
0.0
143
25.399999999999999
144
1.0
145
0.0
146
1.0
147
0.09
 71
               0
 72
               0
 73
               1
 74
               1
 75
               0
 76
               0
 77
               0
 78
               0
170
               0
171
               2
172
               0
173
               0
174
               0
175
               0
176
               0
177
               0
178
               0
  0
ENDTAB
  0
ENDSEC
  0
SECTION
  2
BLOCKS
  0
BLOCK
  8
0
  5
140
  2
GROUP_1
 70
               0
 10
0.0
 20
0.0
 30
0.0
  3
GROUP_1
  0
LINE
  8
0
  6
CONTINUOUS
 62
               4
  5
141
 10
-81.96590813917993
 20
462.40328291202428
 30
0.0
 11
-76.481080581878189
 21
452.90328291202439
 31
0.0
  0
LINE
  8
0
  6
CONTINUOUS
 62
               4
  5
142
 10
-76.481080581878189
 20
452.90328291202439
 30
0.0
 11
-65.51142546727516
 21
452.90328291202439
 31
0.0
  0
LINE
  8
0
  6
CONTINUOUS
 62
               4
  5
143
 10
-65.51142546727516
 20
452.90328291202439
 30
0.0
 11
-60.026597909973873
 21
462.40328291202428
 31
0.0
  0
LINE
  8
0
  6
CONTINUOUS
 62
               4
  5
144
 10
-60.026597909973873
 20
462.40328291202428
 30
0.0
 11
-65.51142546727516
 21
471.90328291202417
 31
0.0
  0
LINE
  8
0
  6
CONTINUOUS
 62
               4
  5
145
 10
-65.51142546727516
 20
471.90328291202417
 30
0.0
 11
-76.481080581878189
 21
471.90328291202417
 31
0.0
  0
LINE
  8
0
  6
CONTINUOUS
 62
               4
  5
146
 10
-76.481080581878189
 20
471.90328291202417
 30
0.0
 11
-81.96590813917993
 21
462.40328291202428
 31
0.0
  0
CIRCLE
  8
0
  6
CONTINUOUS
 62
               4
  5
147
 10
-70.996253024576902
 20
462.40328291202428
 30
0.0
 40
6.0000000000000009
  0
ENDBLK
  8
0
  5
148
  0
BLOCK
  8
0
  5
149
  2
GROUP_2
 70
               0
 10
0.0
 20
0.0
 30
0.0
  3
GROUP_2
  0
LINE
  8
0
  6
CONTINUOUS
 62
               4
  5
14A
 10
-81.96590813917993
 20
591.09671708797555
 30
0.0
 11
-76.481080581878189
 21
581.59671708797578
 31
0.0
  0
LINE
  8
0
  6
CONTINUOUS
 62
               4
  5
14B
 10
-76.481080581878189
 20
581.59671708797578
 30
0.0
 11
-65.51142546727516
 21
581.59671708797578
 31
0.0
  0
LINE
  8
0
  6
CONTINUOUS
 62
               4
  5
14C
 10
-65.51142546727516
 20
581.59671708797578
 30
0.0
 11
-60.026597909973873
 21
591.09671708797555
 31
0.0
  0
LINE
  8
0
  6
CONTINUOUS
 62
               4
  5
14D
 10
-60.026597909973873
 20
591.09671708797555
 30
0.0
 11
-65.51142546727516
 21
600.59671708797578
 31
0.0
  0
LINE
  8
0
  6
CONTINUOUS
 62
               4
  5
14E
 10
-65.51142546727516
 20
600.59671708797578
 30
0.0
 11
-76.481080581878189
 21
600.59671708797578
 31
0.0
  0
LINE
  8
0
  6
CONTINUOUS
 62
               4
  5
14F
 10
-76.481080581878189
 20
600.59671708797578
 30
0.0
 11
-81.96590813917993
 21
591.09671708797555
 31
0.0
  0
CIRCLE
  8
0
  6
CONTINUOUS
 62
               4
  5
150
 10
-70.996253024576902
 20
591.09671708797555
 30
0.0
 40
6.0000000000000009
  0
ENDBLK
  8
0
  5
151
  0
BLOCK
  8
0
  5
152
  2
GROUP_3
 70
               0
 10
0.0
 20
0.0
 30
0.0
  3
GROUP_3
  0
LINE
  8
0
  6
CONTINUOUS
 62
               4
  5
153
 10
68.666836265978702
 20
591.09671708797555
 30
0.0
 11
63.182008708677074
 21
581.59671708797578
 31
0.0
  0
LINE
  8
0
  6
CONTINUOUS
 62
               4
  5
154
 10
63.182008708677074
 20
581.59671708797578
 30
0.0
 11
52.212353594073932
 21
581.59671708797578
 31
0.0
  0
LINE
  8
0
  6
CONTINUOUS
 62
               4
  5
155
 10
52.212353594073932
 20
581.59671708797578
 30
0.0
 11
46.727526036772758
 21
591.09671708797555
 31
0.0
  0
LINE
  8
0
  6
CONTINUOUS
 62
               4
  5
156
 10
46.727526036772758
 20
591.09671708797555
 30
0.0
 11
52.212353594073932
 21
600.59671708797578
 31
0.0
  0
LINE
  8
0
  6
CONTINUOUS
 62
               4
  5
157
 10
52.212353594073932
 20
600.59671708797578
 30
0.0
 11
63.182008708677074
 21
600.59671708797578
 31
0.0
  0
LINE
  8
0
  6
CONTINUOUS
 62
               4
  5
158
 10
63.182008708677074
 20
600.59671708797578
 30
0.0
 11
68.666836265978702
 21
591.09671708797555
 31
0.0
  0
CIRCLE
  8
0
  6
CONTINUOUS
 62
               4
  5
159
 10
57.697181151375673
 20
591.09671708797555
 30
0.0
 40
6.0000000000000009
  0
ENDBLK
  8
0
  5
15A
  0
BLOCK
  8
0
  5
15B
  2
GROUP_4
 70
               0
 10
0.0
 20
0.0
 30
0.0
  3
GROUP_4
  0
LINE
  8
0
  6
CONTINUOUS
 62
               4
  5
15C
 10
68.666836265978702
 20
462.40328291202428
 30
0.0
 11
63.182008708677074
 21
452.90328291202439
 31
0.0
  0
LINE
  8
0
  6
CONTINUOUS
 62
               4
  5
15D
 10
63.182008708677074
 20
452.90328291202439
 30
0.0
 11
52.212353594073932
 21
452.90328291202439
 31
0.0
  0
LINE
  8
0
  6
CONTINUOUS
 62
               4
  5
15E
 10
52.212353594073932
 20
452.90328291202439
 30
0.0
 11
46.727526036772758
 21
462.40328291202428
 31
0.0
  0
LINE
  8
0
  6
CONTINUOUS
 62
               4
  5
15F
 10
46.727526036772758
 20
462.40328291202428
 30
0.0
 11
52.212353594073932
 21
471.90328291202417
 31
0.0
  0
LINE
  8
0
  6
CONTINUOUS
 62
               4
  5
160
 10
52.212353594073932
 20
471.90328291202417
 30
0.0
 11
63.182008708677074
 21
471.90328291202417
 31
0.0
  0
LINE
  8
0
  6
CONTINUOUS
 62
               4
  5
161
 10
63.182008708677074
 20
471.90328291202417
 30
0.0
 11
68.666836265978702
 21
462.40328291202428
 31
0.0
  0
CIRCLE
  8
0
  6
CONTINUOUS
 62
               4
  5
162
 10
57.697181151375673
 20
462.40328291202428
 30
0.0
 40
6.0000000000000009
  0
ENDBLK
  8
0
  5
163
  0
BLOCK
  8
0
  5
164
  2
GROUP_5
 70
               0
 10
0.0
 20
0.0
 30
0.0
  3
GROUP_5
  0
LINE
  8
0
  6
CONTINUOUS
 62
               4
  5
165
 10
-81.949535936600398
 20
47.049999999999955
 30
0.0
 11
-81.949535936600398
 21
57.049999999999955
 31
0.0
  0
LINE
  8
0
  6
CONTINUOUS
 62
               4
  5
166
 10
-76.464708379299111
 20
47.049999999999955
 30
0.0
 11
-76.464708379299111
 21
57.049999999999955
 31
0.0
  0
LINE
  8
0
  6
CONTINUOUS
 62
               4
  5
167
 10
-81.949535936600398
 20
47.049999999999955
 30
0.0
 11
-60.049535936600762
 21
47.049999999999955
 31
0.0
  0
LINE
  8
0
  6
CONTINUOUS
 62
               4
  5
168
 10
-81.949535936600398
 20
57.049999999999955
 30
0.0
 11
-60.049535936600762
 21
57.049999999999955
 31
0.0
  0
LINE
  8
0
  6
CONTINUOUS
 62
               4
  5
169
 10
-60.049535936600762
 20
47.049999999999955
 30
0.0
 11
-60.049535936600762
 21
57.049999999999955
 31
0.0
  0
LINE
  8
0
  6
CONTINUOUS
 62
               4
  5
16A
 10
-65.534363493902049
 20
47.049999999999955
 30
0.0
 11
-65.534363493902049
 21
57.049999999999955
 31
0.0
  0
ENDBLK
  8
0
  5
16B
  0
BLOCK
  8
0
  5
16C
  2
GROUP_6
 70
               0
 10
0.0
 20
0.0
 30
0.0
  3
GROUP_6
  0
LINE
  8
0
  6
CONTINUOUS
 62
               4
  5
16D
 10
68.650464063399056
 20
47.049999999999962
 30
0.0
 11
68.650464063399056
 21
57.049999999999962
 31
0.0
  0
LINE
  8
0
  6
CONTINUOUS
 62
               4
  5
16E
 10
63.165636506097769
 20
47.049999999999962
 30
0.0
 11
63.165636506097769
 21
57.049999999999962
 31
0.0
  0
LINE
  8
0
  6
CONTINUOUS
 62
               4
  5
16F
 10
68.650464063399056
 20
47.049999999999962
 30
0.0
 11
46.75046406339942
 21
47.049999999999955
 31
0.0
  0
LINE
  8
0
  6
CONTINUOUS
 62
               4
  5
170
 10
68.650464063399056
 20
57.049999999999962
 30
0.0
 11
46.75046406339942
 21
57.049999999999955
 31
0.0
  0
LINE
  8
0
  6
CONTINUOUS
 62
               4
  5
171
 10
46.75046406339942
 20
47.049999999999955
 30
0.0
 11
46.75046406339942
 21
57.049999999999955
 31
0.0
  0
LINE
  8
0
  6
CONTINUOUS
 62
               4
  5
172
 10
52.235291620700707
 20
47.049999999999962
 30
0.0
 11
52.235291620700707
 21
57.049999999999962
 31
0.0
  0
ENDBLK
  8
0
  5
173
  0
BLOCK
  8
0
  5
174
  2
GROUP_7
 70
               0
 10
0.0
 20
0.0
 30
0.0
  3
GROUP_7
  0
LINE
  8
0
  6
CONTINUOUS
 62
               4
  5
175
 10
418.0504640633996
 20
47.050000000000026
 30
0.0
 11
418.0504640633996
 21
57.050000000000026
 31
0.0
  0
LINE
  8
0
  6
CONTINUOUS
 62
               4
  5
176
 10
423.53529162070089
 20
47.050000000000026
 30
0.0
 11
423.53529162070089
 21
57.050000000000026
 31
0.0
  0
LINE
  8
0
  6
CONTINUOUS
 62
               4
  5
177
 10
418.0504640633996
 20
47.050000000000026
 30
0.0
 11
439.95046406339924
 21
47.050000000000026
 31
0.0
  0
LINE
  8
0
  6
CONTINUOUS
 62
               4
  5
178
 10
418.0504640633996
 20
57.050000000000026
 30
0.0
 11
439.95046406339924
 21
57.050000000000026
 31
0.0
  0
LINE
  8
0
  6
CONTINUOUS
 62
               4
  5
179
 10
439.95046406339924
 20
47.050000000000026
 30
0.0
 11
439.95046406339924
 21
57.050000000000026
 31
0.0
  0
LINE
  8
0
  6
CONTINUOUS
 62
               4
  5
17A
 10
434.46563650609795
 20
47.050000000000026
 30
0.0
 11
434.46563650609795
 21
57.050000000000026
 31
0.0
  0
ENDBLK
  8
0
  5
17B
  0
BLOCK
  8
0
  5
17C
  2
GROUP_8
 70
               0
 10
0.0
 20
0.0
 30
0.0
  3
GROUP_8
  0
LINE
  8
0
  6
CONTINUOUS
 62
               4
  5
17D
 10
568.65046406339911
 20
47.050000000000026
 30
0.0
 11
568.65046406339911
 21
57.050000000000026
 31
0.0
  0
LINE
  8
0
  6
CONTINUOUS
 62
               4
  5
17E
 10
563.16563650609783
 20
47.050000000000026
 30
0.0
 11
563.16563650609783
 21
57.050000000000026
 31
0.0
  0
LINE
  8
0
  6
CONTINUOUS
 62
               4
  5
17F
 10
568.65046406339911
 20
47.050000000000026
 30
0.0
 11
546.75046406339948
 21
47.050000000000026
 31
0.0
  0
LINE
  8
0
  6
CONTINUOUS
 62
               4
  5
180
 10
568.65046406339911
 20
57.050000000000026
 30
0.0
 11
546.75046406339948
 21
57.050000000000026
 31
0.0
  0
LINE
  8
0
  6
CONTINUOUS
 62
               4
  5
181
 10
546.75046406339948
 20
47.050000000000026
 30
0.0
 11
546.75046406339948
 21
57.050000000000026
 31
0.0
  0
LINE
  8
0
  6
CONTINUOUS
 62
               4
  5
182
 10
552.23529162070076
 20
47.050000000000026
 30
0.0
 11
552.23529162070076
 21
57.050000000000026
 31
0.0
  0
ENDBLK
  8
0
  5
183
  0
BLOCK
  8
0
  5
184
  2
GROUP_9
 70
               0
 10
0.0
 20
0.0
 30
0.0
  3
GROUP_9
  0
LINE
  8
0
  6
CONTINUOUS
 62
               4
  5
185
 10
-581.94953593660034
 20
47.050000000000026
 30
0.0
 11
-581.94953593660034
 21
57.050000000000026
 31
0.0
  0
LINE
  8
0
  6
CONTINUOUS
 62
               4
  5
186
 10
-576.46470837929905
 20
47.050000000000026
 30
0.0
 11
-576.46470837929905
 21
57.050000000000026
 31
0.0
  0
LINE
  8
0
  6
CONTINUOUS
 62
               4
  5
187
 10
-581.94953593660034
 20
47.050000000000026
 30
0.0
 11
-560.04953593660071
 21
47.050000000000026
 31
0.0
  0
LINE
  8
0
  6
CONTINUOUS
 62
               4
  5
188
 10
-581.94953593660034
 20
57.050000000000026
 30
0.0
 11
-560.04953593660071
 21
57.050000000000026
 31
0.0
  0
LINE
  8
0
  6
CONTINUOUS
 62
               4
  5
189
 10
-560.04953593660071
 20
47.050000000000026
 30
0.0
 11
-560.04953593660071
 21
57.050000000000026
 31
0.0
  0
LINE
  8
0
  6
CONTINUOUS
 62
               4
  5
18A
 10
-565.53436349390199
 20
47.050000000000026
 30
0.0
 11
-565.53436349390199
 21
57.050000000000026
 31
0.0
  0
ENDBLK
  8
0
  5
18B
  0
BLOCK
  8
0
  5
18C
  2
GROUP_10
 70
               0
 10
0.0
 20
0.0
 30
0.0
  3
GROUP_10
  0
LINE
  8
0
  6
CONTINUOUS
 62
               4
  5
18D
 10
-431.34953593660094
 20
47.050000000000026
 30
0.0
 11
-431.34953593660094
 21
57.050000000000026
 31
0.0
  0
LINE
  8
0
  6
CONTINUOUS
 62
               4
  5
18E
 10
-436.83436349390223
 20
47.050000000000026
 30
0.0
 11
-436.83436349390223
 21
57.050000000000026
 31
0.0
  0
LINE
  8
0
  6
CONTINUOUS
 62
               4
  5
18F
 10
-431.34953593660094
 20
47.050000000000026
 30
0.0
 11
-453.24953593660058
 21
47.050000000000026
 31
0.0
  0
LINE
  8
0
  6
CONTINUOUS
 62
               4
  5
190
 10
-431.34953593660094
 20
57.050000000000026
 30
0.0
 11
-453.24953593660058
 21
57.050000000000026
 31
0.0
  0
LINE
  8
0
  6
CONTINUOUS
 62
               4
  5
191
 10
-453.24953593660058
 20
47.050000000000026
 30
0.0
 11
-453.24953593660058
 21
57.050000000000026
 31
0.0
  0
LINE
  8
0
  6
CONTINUOUS
 62
               4
  5
192
 10
-447.76470837929929
 20
47.050000000000026
 30
0.0
 11
-447.76470837929929
 21
57.050000000000026
 31
0.0
  0
ENDBLK
  8
0
  5
193
  0
ENDSEC
  0
SECTION
  2
ENTITIES
  0
CIRCLE
  8
0
  6
CONTINUOUS
 62
               3
  5
194
 10
-6.649535936600671
 20
526.75
 30
0.0
 40
75.0
  0
LINE
  8
0
  6
CONTINUOUS
 62
               3
  5
195
 10
-92.860034137226023
 20
546.75
 30
0.0
 11
-78.933697410606158
 21
546.75
 31
0.0
  0
LINE
  8
0
  6
CONTINUOUS
 62
               3
  5
196
 10
-78.933697410606158
 20
506.74999999999994
 30
0.0
 11
-92.860034137226023
 21
506.74999999999994
 31
0.0
  0
ARC
  8
0
  6
CONTINUOUS
 62
               3
  5
197
 10
-6.649535936600671
 20
526.75
 30
0.0
 40
88.5
 50
166.9389758851672
 51
193.0610241147632
  0
LINE
  8
0
  6
CONTINUOUS
 62
               3
  5
198
 10
-26.649535936600671
 20
440.53950179937505
 30
0.0
 11
-26.649535936600671
 21
454.46583852599491
 31
0.0
  0
LINE
  8
0
  6
CONTINUOUS
 62
               3
  5
199
 10
13.350464063399329
 20
454.46583852599491
 30
0.0
 11
13.350464063399329
 21
440.53950179937505
 31
0.0
  0
ARC
  8
0
  6
CONTINUOUS
 62
               3
  5
19A
 10
-6.649535936600671
 20
526.75
 30
0.0
 40
88.5
 50
256.93897588514983
 51
283.06102411474581
  0
LINE
  8
0
  6
CONTINUOUS
 62
               3
  5
19B
 10
79.560962264023772
 20
506.74999999999994
 30
0.0
 11
65.634625537403451
 21
506.74999999999994
 31
0.0
  0
LINE
  8
0
  6
CONTINUOUS
 62
               3
  5
19C
 10
65.634625537403451
 20
546.75
 30
0.0
 11
79.560962264023772
 21
546.75
 31
0.0
  0
ARC
  8
0
  6
CONTINUOUS
 62
               3
  5
19D
 10
-6.649535936600671
 20
526.75
 30
0.0
 40
88.5
 50
346.93897588513238
 51
373.06102411472841
  0
LINE
  8
0
  6
CONTINUOUS
 62
               3
  5
19E
 10
13.350464063399329
 20
612.96049820062558
 30
0.0
 11
13.350464063399329
 21
599.0341614740048
 31
0.0
  0
LINE
  8
0
  6
CONTINUOUS
 62
               3
  5
19F
 10
-26.649535936600671
 20
599.0341614740048
 30
0.0
 11
-26.649535936600671
 21
612.96049820062558
 31
0.0
  0
ARC
  8
0
  6
CONTINUOUS
 62
               3
  5
1A0
 10
-6.649535936600671
 20
526.75
 30
0.0
 40
88.5
 50
76.938975885184604
 51
103.06102411478064
  0
ARC
  8
0
  6
CONTINUOUS
 62
               3
  5
1A1
 10
-70.996253024575992
 20
591.09671708797555
 30
0.0
 40
17.5
 50
97.816433606452236
 51
172.1835663934956
  0
LINE
  8
0
  6
CONTINUOUS
 62
               3
  5
1A2
 10
-88.333658314424895
 20
593.47671242736715
 30
0.0
 11
-95.813334570108339
 21
538.9899760311564
 31
0.0
  0
ARC
  8
0
  6
CONTINUOUS
 62
               3
  5
1A3
 10
57.69718115137556
 20
591.09671708797555
 30
0.0
 40
17.5
 50
7.8164336064694728
 51
82.183566393513019
  0
ARC
  8
0
  6
CONTINUOUS
 62
               3
  5
1A4
 10
57.69718115137556
 20
462.40328291202428
 30
0.0
 40
17.5
 50
277.81643360641743
 51
352.18356639346075
  0
ARC
  8
0
  6
CONTINUOUS
 62
               3
  5
1A5
 10
-70.996253024575992
 20
462.40328291202428
 30
0.0
 40
17.5
 50
187.81643360643486
 51
262.1835663934782
  0
LINE
  8
0
  6
CONTINUOUS
 62
               3
  5
1A6
 10
-88.333658314424895
 20
460.02328757263268
 30
0.0
 11
-95.813334570108395
 21
514.5100239688436
 31
0.0
  0
LINE
  8
0
  6
CONTINUOUS
 62
               3
  5
1A7
 10
75.034586441224008
 20
460.02328757263268
 30
0.0
 11
82.514262696907451
 21
514.51002396884337
 31
0.0
  0
ARC
  8
0
  6
CONTINUOUS
 62
               3
  5
1A8
 10
-6.649535936600671
 20
526.75
 30
0.0
 40
90.0
 50
352.18356639346075
 51
367.81643360639998
  0
LINE
  8
0
  6
CONTINUOUS
 62
               3
  5
1A9
 10
75.034586441224008
 20
593.47671242736715
 30
0.0
 11
82.514262696907451
 21
538.9899760311564
 31
0.0
  0
LINE
  8
0
  6
CONTINUOUS
 62
               3
  5
1AA
 10
60.077176490766931
 20
608.43412237782468
 30
0.0
 11
5.5904400945561861
 21
615.91379863350744
 31
0.0
  0
ARC
  8
0
  6
CONTINUOUS
 62
               3
  5
1AB
 10
-6.649535936600671
 20
526.75
 30
0.0
 40
90.0
 50
82.183566393512962
 51
97.816433606452264
  0
LINE
  8
0
  6
CONTINUOUS
 62
               3
  5
1AC
 10
-73.376248363967818
 20
608.43412237782468
 30
0.0
 11
-18.889511967757073
 21
615.91379863350744
 31
0.0
  0
LINE
  8
0
  6
CONTINUOUS
 62
               3
  5
1AD
 10
60.077176490766931
 20
445.06587762217504
 30
0.0
 11
5.590440094555845
 21
437.58620136649239
 31
0.0
  0
LINE
  8
0
  6
CONTINUOUS
 62
               3
  5
1AE
 10
-73.376248363967818
 20
445.06587762217504
 30
0.0
 11
-18.889511967757187
 21
437.58620136649239
 31
0.0
  0
ARC
  8
0
  6
CONTINUOUS
 62
               3
  5
1AF
 10
-6.649535936600671
 20
526.75
 30
0.0
 40
90.0
 50
262.1835663934782
 51
277.81643360641743
  0
ARC
  8
0
  6
CONTINUOUS
 62
               3
  5
1B0
 10
-6.649535936600671
 20
526.75
 30
0.0
 40
90.0
 50
172.18356639349557
 51
187.8164336064348
  0
ARC
  8
0
  6
CONTINUOUS
 62
               3
  5
1B1
 10
48.350464063398874
 20
165.75000000000051
 30
0.0
 40
19.999999999999996
 50
0.0
 51
31.788330617045627
  0
LINE
  8
0
  6
CONTINUOUS
 62
               3
  5
1B2
 10
65.350464063398874
 20
251.16742430504507
 30
0.0
 11
65.350464063398874
 21
176.28565375285325
 31
0.0
  0
ARC
  8
0
  6
CONTINUOUS
 62
               3
  5
1B3
 10
-61.649535936600671
 20
165.75000000000051
 30
0.0
 40
19.999999999999996
 50
148.21166938291961
 51
179.99999999996524
  0
LINE
  8
0
  6
CONTINUOUS
 62
               3
  5
1B4
 10
-78.649535936601126
 20
176.28565375285325
 30
0.0
 11
-78.649535936601126
 21
251.16742430504507
 31
0.0
  0
ARC
  8
0
  6
CONTINUOUS
 62
               3
  5
1B5
 10
-71.649535936600671
 20
-115.74999999999991
 30
0.0
 40
2.4999999999999996
 50
89.999999999982535
 51
269.99999999994793
  0
LINE
  8
0
  6
CONTINUOUS
 62
               3
  5
1B6
 10
-96.649535936600671
 20
26.750000000000014
 30
0.0
 11
-96.649535936600671
 21
44.749999999999986
 31
0.0
  0
LINE
  8
0
  6
CONTINUOUS
 62
               3
  5
1B7
 10
83.350464063399329
 20
26.750000000000014
 30
0.0
 11
83.350464063399329
 21
44.749999999999986
 31
0.0
  0
LINE
  8
0
  6
CONTINUOUS
 62
               3
  5
1B8
 10
83.350464063398874
 20
44.750000000001123
 30
0.0
 11
-96.649535936601126
 21
44.749999999999986
 31
0.0
  0
LINE
  8
0
  6
CONTINUOUS
 62
               3
  5
1B9
 10
-81.649535936600671
 20
57.049999999999955
 30
0.0
 11
-81.649535936600671
 21
165.75000000000051
 31
0.0
  0
LINE
  8
0
  6
CONTINUOUS
 62
               3
  5
1BA
 10
68.350464063398874
 20
165.75000000000051
 30
0.0
 11
68.350464063398874
 21
57.049999999999962
 31
0.0
  0
ARC
  8
0
  6
CONTINUOUS
 62
               3
  5
1BB
 10
-86.649535936601126
 20
49.749999999999986
 30
0.0
 40
5.0
 50
327.31636115368025
 51
340.05155641115505
  0
ARC
  8
0
  6
CONTINUOUS
 62
               3
  5
1BC
 10
-86.649535936601126
 20
49.749999999999986
 30
0.0
 40
5.0
 50
269.99999999994782
 51
302.00545482770701
  0
LINE
  8
0
  6
CONTINUOUS
 62
               3
  5
1BD
 10
83.350464063399784
 20
21.749999999999943
 30
0.0
 11
83.350464063399784
 21
0.7500000000000711
 31
0.0
  0
LINE
  8
0
  6
CONTINUOUS
 62
               3
  5
1BE
 10
-96.649535936601126
 20
21.749999999999943
 30
0.0
 11
-96.649535936601126
 21
0.7500000000000711
 31
0.0
  0
LINE
  8
0
  6
CONTINUOUS
 62
               3
  5
1BF
 10
65.350464063398874
 20
176.28565375285325
 30
0.0
 11
5.0774640633995318
 21
176.28565375285331
 31
0.0
  0
LINE
  8
0
  6
CONTINUOUS
 62
               3
  5
1C0
 10
-18.376535936600192
 20
176.28565375285325
 30
0.0
 11
-78.649535936601126
 21
176.28565375285325
 31
0.0
  0
LINE
  8
0
  6
CONTINUOUS
 62
               3
  5
1C1
 10
83.350464063399784
 20
26.749999999999943
 30
0.0
 11
-96.649535936600216
 21
26.749999999999943
 31
0.0
  0
LINE
  8
0
  6
CONTINUOUS
 62
               3
  5
1C2
 10
79.350464063399784
 20
26.749999999999943
 30
0.0
 11
79.350464063399784
 21
21.749999999999943
 31
0.0
  0
LINE
  8
0
  6
CONTINUOUS
 62
               3
  5
1C3
 10
-96.649535936601126
 20
21.749999999999943
 30
0.0
 11
83.350464063399784
 21
21.749999999999943
 31
0.0
  0
LINE
  8
0
  6
CONTINUOUS
 62
               3
  5
1C4
 10
-92.649535936601126
 20
26.749999999999943
 30
0.0
 11
-92.649535936601126
 21
21.749999999999943
 31
0.0
  0
LINE
  8
0
  6
CONTINUOUS
 62
               3
  5
1C5
 10
68.350464063399329
 20
272.75000000000051
 30
0.0
 11
-81.649535936600671
 21
272.75000000000051
 31
0.0
  0
LINE
  8
0
  6
CONTINUOUS
 62
               3
  5
1C6
 10
81.850464063399784
 20
262.75000000000051
 30
0.0
 11
81.850464063399784
 21
255.7500000000008
 31
0.0
  0
LINE
  8
0
  6
CONTINUOUS
 62
               3
  5
1C7
 10
81.850464063399784
 20
262.75000000000051
 30
0.0
 11
68.350464063399329
 21
272.75000000000051
 31
0.0
  0
ARC
  8
0
  6
CONTINUOUS
 62
               3
  5
1C8
 10
70.350464063399329
 20
251.16742430504507
 30
0.0
 40
4.9999999999999991
 50
113.57817847817988
 51
179.99999999996507
  0
LINE
  8
0
  6
CONTINUOUS
 62
               3
  5
1C9
 10
81.850464063399784
 20
255.7500000000008
 30
0.0
 11
-95.149535936600216
 21
255.7500000000008
 31
0.0
  0
LINE
  8
0
  6
CONTINUOUS
 62
               3
  5
1CA
 10
13.350464063399329
 20
255.7500000000008
 30
0.0
 11
13.350464063399329
 21
272.75000000000051
 31
0.0
  0
LINE
  8
0
  6
CONTINUOUS
 62
               3
  5
1CB
 10
-26.649535936600671
 20
272.75000000000051
 30
0.0
 11
-26.649535936600671
 21
255.7500000000008
 31
0.0
  0
LINE
  8
0
  6
CONTINUOUS
 62
               3
  5
1CC
 10
13.350464063399329
 20
262.75000000000051
 30
0.0
 11
-26.649535936600671
 21
262.75000000000051
 31
0.0
  0
LINE
  8
0
  6
CONTINUOUS
 62
               3
  5
1CD
 10
65.634625537404816
 20
272.75000000000051
 30
0.0
 11
65.634625537404816
 21
255.7500000000008
 31
0.0
  0
LINE
  8
0
  6
CONTINUOUS
 62
               3
  5
1CE
 10
-95.149535936600216
 20
262.75000000000051
 30
0.0
 11
-95.149535936600216
 21
255.7500000000008
 31
0.0
  0
LINE
  8
0
  6
CONTINUOUS
 62
               3
  5
1CF
 10
-95.149535936600216
 20
262.75000000000051
 30
0.0
 11
-81.649535936600671
 21
272.75000000000051
 31
0.0
  0
ARC
  8
0
  6
CONTINUOUS
 62
               3
  5
1D0
 10
-83.649535936600671
 20
251.16742430504507
 30
0.0
 40
4.9999999999999991
 50
0.0
 51
66.421821521785446
  0
LINE
  8
0
  6
CONTINUOUS
 62
               3
  5
1D1
 10
-78.933697410604793
 20
272.75000000000051
 30
0.0
 11
-78.933697410604793
 21
255.7500000000008
 31
0.0
  0
ARC
  8
0
  6
CONTINUOUS
 62
               3
  5
1D2
 10
73.35046406339967
 20
49.749999999999993
 30
0.0
 40
5.0
 50
199.94844358874056
 51
212.68363884621539
  0
ARC
  8
0
  6
CONTINUOUS
 62
               3
  5
1D3
 10
73.35046406339967
 20
49.749999999999993
 30
0.0
 40
5.0
 50
237.99454517218854
 51
269.99999999994782
  0
LINE
  8
0
  6
CONTINUOUS
 62
               3
  5
1D4
 10
-81.649535936600216
 20
-231.25000000000006
 30
0.0
 11
68.350464063399329
 21
-231.24999999999983
 31
0.0
  0
LINE
  8
0
  6
CONTINUOUS
 62
               3
  5
1D5
 10
-79.37082377056737
 20
-251.24999999999994
 30
0.0
 11
66.071751897367392
 21
-251.24999999999994
 31
0.0
  0
LINE
  8
0
  6
CONTINUOUS
 62
               3
  5
1D6
 10
-81.649535936601254
 20
-132.17575586106679
 30
0.0
 11
-81.649535936600216
 21
-231.25000000000006
 31
0.0
  0
LINE
  8
0
  6
CONTINUOUS
 62
               3
  5
1D7
 10
51.350464063399784
 20
-380.45708506678932
 30
0.0
 11
68.350464063399329
 21
-231.25000000000904
 31
0.0
  0
LINE
  8
0
  6
CONTINUOUS
 62
               3
  5
1D8
 10
-64.649535936600216
 20
-380.45708506678932
 30
0.0
 11
-81.649535936600216
 21
-231.25000000000006
 31
0.0
  0
LINE
  8
0
  6
CONTINUOUS
 62
               3
  5
1D9
 10
565.35046406339939
 20
251.16742430504507
 30
0.0
 11
565.35046406339939
 21
181.28565375285325
 31
0.0
  0
LINE
  8
0
  6
CONTINUOUS
 62
               3
  5
1DA
 10
421.35046406339933
 20
181.28565375285393
 30
0.0
 11
421.35046406339933
 21
251.16742430504507
 31
0.0
  0
LINE
  8
0
  6
CONTINUOUS
 62
               3
  5
1DB
 10
564.85046406339984
 20
176.28565375285325
 30
0.0
 11
421.85046406339887
 21
176.28565375285325
 31
0.0
  0
LINE
  8
0
  6
CONTINUOUS
 62
               3
  5
1DC
 10
403.35046406339933
 20
44.750000000001265
 30
0.0
 11
583.35046406339939
 21
44.749999999999986
 31
0.0
  0
LINE
  8
0
  6
CONTINUOUS
 62
               3
  5
1DD
 10
583.35046406339984
 20
21.750000000000014
 30
0.0
 11
583.35046406339984
 21
0.7500000000000711
 31
0.0
  0
LINE
  8
0
  6
CONTINUOUS
 62
               3
  5
1DE
 10
583.35046406339984
 20
26.750000000000014
 30
0.0
 11
583.35046406339984
 21
44.749999999999986
 31
0.0
  0
LINE
  8
0
  6
CONTINUOUS
 62
               3
  5
1DF
 10
403.35046406339978
 20
26.750000000000014
 30
0.0
 11
403.35046406339978
 21
44.749999999999986
 31
0.0
  0
LINE
  8
0
  6
CONTINUOUS
 62
               3
  5
1E0
 10
583.35046406339984
 20
26.750000000000014
 30
0.0
 11
403.35046406339978
 21
26.750000000000014
 31
0.0
  0
LINE
  8
0
  6
CONTINUOUS
 62
               3
  5
1E1
 10
579.35046406339984
 20
26.750000000000014
 30
0.0
 11
579.35046406339984
 21
21.750000000000014
 31
0.0
  0
LINE
  8
0
  6
CONTINUOUS
 62
               3
  5
1E2
 10
403.35046406339887
 20
21.750000000000014
 30
0.0
 11
583.35046406339984
 21
21.750000000000014
 31
0.0
  0
LINE
  8
0
  6
CONTINUOUS
 62
               3
  5
1E3
 10
403.35046406339887
 20
21.750000000000014
 30
0.0
 11
403.35046406339887
 21
0.7500000000000711
 31
0.0
  0
LINE
  8
0
  6
CONTINUOUS
 62
               3
  5
1E4
 10
407.35046406339887
 20
26.750000000000014
 30
0.0
 11
407.35046406339887
 21
21.750000000000014
 31
0.0
  0
ARC
  8
0
  6
CONTINUOUS
 62
               3
  5
1E5
 10
568.35046406339893
 20
-115.75
 30
0.0
 40
2.4999999999999996
 50
269.99999999994731
 51
449.99999999991297
  0
LINE
  8
0
  6
CONTINUOUS
 62
               3
  5
1E6
 10
568.35046406339893
 20
-113.25
 30
0.0
 11
568.35046406339893
 21
-72.250000000000057
 31
0.0
  0
LINE
  8
0
  6
CONTINUOUS
 62
               3
  5
1E7
 10
568.35046406339939
 20
272.75000000000051
 30
0.0
 11
418.35046406339933
 21
272.75000000000051
 31
0.0
  0
LINE
  8
0
  6
CONTINUOUS
 62
               3
  5
1E8
 10
581.85046406339984
 20
262.75000000000051
 30
0.0
 11
581.85046406339984
 21
255.7500000000008
 31
0.0
  0
LINE
  8
0
  6
CONTINUOUS
 62
               3
  5
1E9
 10
581.85046406339984
 20
262.75000000000051
 30
0.0
 11
568.35046406339939
 21
272.75000000000051
 31
0.0
  0
ARC
  8
0
  6
CONTINUOUS
 62
               3
  5
1EA
 10
570.35046406339939
 20
251.16742430504507
 30
0.0
 40
4.9999999999999991
 50
113.57817847818016
 51
179.99999999996507
  0
LINE
  8
0
  6
CONTINUOUS
 62
               3
  5
1EB
 10
581.85046406339984
 20
255.7500000000008
 30
0.0
 11
404.85046406339978
 21
255.7500000000008
 31
0.0
  0
LINE
  8
0
  6
CONTINUOUS
 62
               3
  5
1EC
 10
513.35046406339939
 20
255.7500000000008
 30
0.0
 11
513.35046406339939
 21
272.75000000000051
 31
0.0
  0
LINE
  8
0
  6
CONTINUOUS
 62
               3
  5
1ED
 10
473.35046406339933
 20
272.75000000000051
 30
0.0
 11
473.35046406339933
 21
255.7500000000008
 31
0.0
  0
LINE
  8
0
  6
CONTINUOUS
 62
               3
  5
1EE
 10
513.35046406339939
 20
262.75000000000051
 30
0.0
 11
473.35046406339933
 21
262.75000000000051
 31
0.0
  0
LINE
  8
0
  6
CONTINUOUS
 62
               3
  5
1EF
 10
565.63462553740487
 20
272.75000000000051
 30
0.0
 11
565.63462553740487
 21
255.7500000000008
 31
0.0
  0
LINE
  8
0
  6
CONTINUOUS
 62
               3
  5
1F0
 10
404.85046406339978
 20
262.75000000000051
 30
0.0
 11
404.85046406339978
 21
255.7500000000008
 31
0.0
  0
LINE
  8
0
  6
CONTINUOUS
 62
               3
  5
1F1
 10
404.85046406339978
 20
262.75000000000051
 30
0.0
 11
418.35046406339933
 21
272.75000000000051
 31
0.0
  0
ARC
  8
0
  6
CONTINUOUS
 62
               3
  5
1F2
 10
416.35046406339933
 20
251.16742430504507
 30
0.0
 40
4.9999999999999991
 50
0.0
 51
66.421821521785304
  0
LINE
  8
0
  6
CONTINUOUS
 62
               3
  5
1F3
 10
421.06630258939521
 20
272.75000000000051
 30
0.0
 11
421.06630258939521
 21
255.7500000000008
 31
0.0
  0
LINE
  8
0
  6
CONTINUOUS
 62
               3
  5
1F4
 10
418.35046406339978
 20
-231.25000000000006
 30
0.0
 11
568.35046406339939
 21
-231.24999999999983
 31
0.0
  0
LINE
  8
0
  6
CONTINUOUS
 62
               3
  5
1F5
 10
420.62917622943263
 20
-251.24999999999994
 30
0.0
 11
566.07175189736745
 21
-251.24999999999994
 31
0.0
  0
LINE
  8
0
  6
CONTINUOUS
 62
               3
  5
1F6
 10
568.35046406339939
 20
-231.25000000000904
 30
0.0
 11
568.35046406339893
 21
-118.25
 31
0.0
  0
LINE
  8
0
  6
CONTINUOUS
 62
               3
  5
1F7
 10
551.35046406339984
 20
-380.45708506678932
 30
0.0
 11
568.35046406339939
 21
-231.25000000000904
 31
0.0
  0
LINE
  8
0
  6
CONTINUOUS
 62
               3
  5
1F8
 10
435.35046406339978
 20
-380.45708506678932
 30
0.0
 11
418.35046406339978
 21
-231.25000000000006
 31
0.0
  0
LINE
  8
0
  6
CONTINUOUS
 62
               3
  5
1F9
 10
-564.64953593660016
 20
-380.45708506678932
 30
0.0
 11
-581.64953593660016
 21
-231.25000000000006
 31
0.0
  0
LINE
  8
0
  6
CONTINUOUS
 62
               3
  5
1FA
 10
-581.64953593660016
 20
-118.25
 30
0.0
 11
-581.64953593660016
 21
-231.25000000000006
 31
0.0
  0
ARC
  8
0
  6
CONTINUOUS
 62
               3
  5
1FB
 10
-581.64953593660016
 20
-115.75
 30
0.0
 40
2.4999999999999996
 50
89.999999999981569
 51
269.99999999994731
  0
LINE
  8
0
  6
CONTINUOUS
 62
               3
  5
1FC
 10
-448.64953593660022
 20
-380.45708506678932
 30
0.0
 11
-431.64953593660067
 21
-231.25000000000904
 31
0.0
  0
LINE
  8
0
  6
CONTINUOUS
 62
               3
  5
1FD
 10
-581.64953593660016
 20
-118.25
 30
0.0
 11
-529.14953593660016
 21
-118.25
 31
0.0
  0
LINE
  8
0
  6
CONTINUOUS
 62
               3
  5
1FE
 10
-581.64953593660016
 20
-113.25
 30
0.0
 11
-529.14953593660016
 21
-113.25
 31
0.0
  0
ARC
  8
0
  6
CONTINUOUS
 62
               3
  5
1FF
 10
-529.14953593660016
 20
-115.75
 30
0.0
 40
2.4999999999999996
 50
269.99999999994731
 51
449.99999999991297
  0
ARC
  8
0
  6
CONTINUOUS
 62
               3
  5
200
 10
-484.14953593660022
 20
-115.75
 30
0.0
 40
2.4999999999999996
 50
89.999999999982862
 51
269.99999999994731
  0
LINE
  8
0
  6
CONTINUOUS
 62
               3
  5
201
 10
-416.64953593660022
 20
21.750000000000014
 30
0.0
 11
-416.64953593660022
 21
0.7500000000000711
 31
0.0
  0
LINE
  8
0
  6
CONTINUOUS
 62
               3
  5
202
 10
-581.64953593660016
 20
-72.250000000000057
 30
0.0
 11
-581.64953593660016
 21
-113.25
 31
0.0
  0
LINE
  8
0
  6
CONTINUOUS
 62
               3
  5
203
 10
-581.64953593660016
 20
-231.25000000000006
 30
0.0
 11
-431.64953593660067
 21
-231.24999999999983
 31
0.0
  0
LINE
  8
0
  6
CONTINUOUS
 62
               3
  5
204
 10
-579.37082377056731
 20
-251.24999999999994
 30
0.0
 11
-433.92824810263261
 21
-251.24999999999994
 31
0.0
  0
LINE
  8
0
  6
CONTINUOUS
 62
               3
  5
205
 10
-596.64953593660107
 20
21.750000000000014
 30
0.0
 11
-596.64953593660107
 21
0.7500000000000711
 31
0.0
  0
LINE
  8
0
  6
CONTINUOUS
 62
               3
  5
206
 10
-431.64953593660067
 20
272.75000000000051
 30
0.0
 11
-581.64953593660061
 21
272.75000000000051
 31
0.0
  0
LINE
  8
0
  6
CONTINUOUS
 62
               3
  5
207
 10
-418.14953593660022
 20
262.75000000000051
 30
0.0
 11
-418.14953593660022
 21
255.7500000000008
 31
0.0
  0
LINE
  8
0
  6
CONTINUOUS
 62
               3
  5
208
 10
-418.14953593660022
 20
262.75000000000051
 30
0.0
 11
-431.64953593660067
 21
272.75000000000051
 31
0.0
  0
ARC
  8
0
  6
CONTINUOUS
 62
               3
  5
209
 10
-429.64953593660067
 20
251.16742430504507
 30
0.0
 40
4.9999999999999991
 50
113.57817847817958
 51
179.99999999996507
  0
LINE
  8
0
  6
CONTINUOUS
 62
               3
  5
20A
 10
-418.14953593660022
 20
255.7500000000008
 30
0.0
 11
-595.14953593660016
 21
255.7500000000008
 31
0.0
  0
LINE
  8
0
  6
CONTINUOUS
 62
               3
  5
20B
 10
-434.64953593660067
 20
251.16742430504507
 30
0.0
 11
-434.64953593660067
 21
181.28565375285325
 31
0.0
  0
LINE
  8
0
  6
CONTINUOUS
 62
               3
  5
20C
 10
-578.64953593660061
 20
181.28565375285393
 30
0.0
 11
-578.64953593660061
 21
251.16742430504507
 31
0.0
  0
LINE
  8
0
  6
CONTINUOUS
 62
               3
  5
20D
 10
-435.14953593660022
 20
176.28565375285325
 30
0.0
 11
-578.14953593660107
 21
176.28565375285325
 31
0.0
  0
LINE
  8
0
  6
CONTINUOUS
 62
               3
  5
20E
 10
-486.64953593660067
 20
255.7500000000008
 30
0.0
 11
-486.64953593660067
 21
272.75000000000051
 31
0.0
  0
LINE
  8
0
  6
CONTINUOUS
 62
               3
  5
20F
 10
-526.64953593660061
 20
272.75000000000051
 30
0.0
 11
-526.64953593660061
 21
255.7500000000008
 31
0.0
  0
LINE
  8
0
  6
CONTINUOUS
 62
               3
  5
210
 10
-486.64953593660067
 20
262.75000000000051
 30
0.0
 11
-526.64953593660061
 21
262.75000000000051
 31
0.0
  0
LINE
  8
0
  6
CONTINUOUS
 62
               3
  5
211
 10
-434.36537446259518
 20
272.75000000000051
 30
0.0
 11
-434.36537446259518
 21
255.7500000000008
 31
0.0
  0
LINE
  8
0
  6
CONTINUOUS
 62
               3
  5
212
 10
-595.14953593660016
 20
262.75000000000051
 30
0.0
 11
-595.14953593660016
 21
255.7500000000008
 31
0.0
  0
LINE
  8
0
  6
CONTINUOUS
 62
               3
  5
213
 10
-595.14953593660016
 20
262.75000000000051
 30
0.0
 11
-581.64953593660061
 21
272.75000000000051
 31
0.0
  0
ARC
  8
0
  6
CONTINUOUS
 62
               3
  5
214
 10
-583.64953593660061
 20
251.16742430504507
 30
0.0
 40
4.9999999999999991
 50
0.0
 51
66.421821521785304
  0
LINE
  8
0
  6
CONTINUOUS
 62
               3
  5
215
 10
-578.93369741060474
 20
272.75000000000051
 30
0.0
 11
-578.93369741060474
 21
255.7500000000008
 31
0.0
  0
LINE
  8
0
  6
CONTINUOUS
 62
               3
  5
216
 10
-596.64953593660061
 20
44.750000000001265
 30
0.0
 11
-416.64953593660067
 21
44.749999999999986
 31
0.0
  0
LINE
  8
0
  6
CONTINUOUS
 62
               3
  5
217
 10
-416.64953593660022
 20
26.750000000000014
 30
0.0
 11
-416.64953593660022
 21
44.749999999999986
 31
0.0
  0
LINE
  8
0
  6
CONTINUOUS
 62
               3
  5
218
 10
-596.64953593660016
 20
26.750000000000014
 30
0.0
 11
-596.64953593660016
 21
44.749999999999986
 31
0.0
  0
LINE
  8
0
  6
CONTINUOUS
 62
               3
  5
219
 10
-416.64953593660022
 20
26.750000000000014
 30
0.0
 11
-596.64953593660016
 21
26.750000000000014
 31
0.0
  0
LINE
  8
0
  6
CONTINUOUS
 62
               3
  5
21A
 10
-420.64953593660022
 20
26.750000000000014
 30
0.0
 11
-420.64953593660022
 21
21.750000000000014
 31
0.0
  0
LINE
  8
0
  6
CONTINUOUS
 62
               3
  5
21B
 10
-596.64953593660107
 20
21.750000000000014
 30
0.0
 11
-416.64953593660022
 21
21.750000000000014
 31
0.0
  0
LINE
  8
0
  6
CONTINUOUS
 62
               3
  5
21C
 10
-592.64953593660107
 20
26.750000000000014
 30
0.0
 11
-592.64953593660107
 21
21.750000000000014
 31
0.0
  0
LINE
  8
0
  6
CONTINUOUS
 62
               3
  5
21D
 10
-143.64953593660044
 20
469.14999999999992
 30
0.0
 11
-143.64953593660044
 21
584.34999999999991
 31
0.0
  0
LINE
  8
0
  6
CONTINUOUS
 62
               3
  5
21E
 10
-143.64953593660044
 20
584.34999999999991
 30
0.0
 11
-146.64953593660056
 21
581.35000000000036
 31
0.0
  0
LINE
  8
0
  6
CONTINUOUS
 62
               3
  5
21F
 10
-143.64953593660044
 20
469.14999999999992
 30
0.0
 11
-146.64953593660056
 21
472.14999999999992
 31
0.0
  0
LINE
  8
0
  6
CONTINUOUS
 62
               3
  5
220
 10
-151.64953593660056
 20
581.85000000000014
 30
0.0
 11
-151.64953593660056
 21
471.64999999999992
 31
0.0
  0
LINE
  8
0
  6
CONTINUOUS
 62
               3
  5
221
 10
-146.64953593660056
 20
469.14999999999992
 30
0.0
 11
-146.64953593660056
 21
584.35000000000014
 31
0.0
  0
LINE
  8
0
  6
CONTINUOUS
 62
               3
  5
222
 10
-146.64953593660056
 20
584.35000000000014
 30
0.0
 11
-149.14953593660056
 21
584.35000000000014
 31
0.0
  0
LINE
  8
0
  6
CONTINUOUS
 62
               3
  5
223
 10
-146.64953593660056
 20
469.14999999999992
 30
0.0
 11
-149.14953593660056
 21
469.14999999999992
 31
0.0
  0
ARC
  8
0
  6
CONTINUOUS
 62
               3
  5
224
 10
-149.14953593660056
 20
471.64999999999992
 30
0.0
 40
2.5
 50
179.99999999996572
 51
269.99999999994793
  0
ARC
  8
0
  6
CONTINUOUS
 62
               3
  5
225
 10
-149.14953593660056
 20
581.85000000000014
 30
0.0
 40
2.5
 50
89.999999999982862
 51
179.99999999996572
  0
LINE
  8
0
  6
CONTINUOUS
 62
               3
  5
226
 10
-89.329203239509269
 20
467.27547229953717
 30
0.0
 11
-143.64953593660044
 21
469.14999999999992
 31
0.0
  0
LINE
  8
0
  6
CONTINUOUS
 62
               3
  5
227
 10
-89.32611620664747
 20
586.24701561839356
 30
0.0
 11
-143.64953593660044
 21
584.34999999999991
 31
0.0
  0
LINE
  8
0
  6
CONTINUOUS
 62
               3
  5
228
 10
-143.64953593660056
 20
-110.84999999999982
 30
0.0
 11
-146.64953593660067
 21
-107.85000000000076
 31
0.0
  0
LINE
  8
0
  6
CONTINUOUS
 62
               3
  5
229
 10
-143.64953593660056
 20
-110.84999999999982
 30
0.0
 11
-101.3258650230427
 21
-112.32797515601723
 31
0.0
  0
LINE
  8
0
  6
CONTINUOUS
 62
               3
  5
22A
 10
-143.64953593660056
 20
4.350000000000172
 30
0.0
 11
-146.64953593660067
 21
1.3500000000000796
 31
0.0
  0
LINE
  8
0
  6
CONTINUOUS
 62
               3
  5
22B
 10
-143.64953593660056
 20
-110.84999999999982
 30
0.0
 11
-143.64953593660056
 21
4.350000000000172
 31
0.0
  0
LINE
  8
0
  6
CONTINUOUS
 62
               3
  5
22C
 10
-146.64953593660067
 20
-110.85000000000034
 30
0.0
 11
-146.64953593660067
 21
4.3500000000000583
 31
0.0
  0
LINE
  8
0
  6
CONTINUOUS
 62
               3
  5
22D
 10
-146.64953593660067
 20
4.3500000000000583
 30
0.0
 11
-149.14953593660067
 21
4.3500000000000583
 31
0.0
  0
ARC
  8
0
  6
CONTINUOUS
 62
               3
  5
22E
 10
-149.14953593660067
 20
1.8500000000000583
 30
0.0
 40
2.5
 50
89.999999999982862
 51
179.99999999996524
  0
LINE
  8
0
  6
CONTINUOUS
 62
               3
  5
22F
 10
-151.64953593660067
 20
1.8500000000000583
 30
0.0
 11
-151.64953593660067
 21
-108.35000000000034
 31
0.0
  0
LINE
  8
0
  6
CONTINUOUS
 62
               3
  5
230
 10
-146.64953593660067
 20
-110.85000000000034
 30
0.0
 11
-149.14953593660067
 21
-110.85000000000034
 31
0.0
  0
ARC
  8
0
  6
CONTINUOUS
 62
               3
  5
231
 10
-149.14953593660067
 20
-108.35000000000034
 30
0.0
 40
2.5
 50
179.99999999996507
 51
269.99999999994793
  0
LINE
  8
0
  6
CONTINUOUS
 62
               3
  5
232
 10
-143.64953593660056
 20
4.350000000000172
 30
0.0
 11
-99.544837446493887
 21
5.8901700094761864
 31
0.0
  0
ARC
  8
0
  6
CONTINUOUS
 62
               3
  5
233
 10
-99.649535936601353
 20
8.8883424905334678
 30
0.0
 40
3.0
 50
271.99999999994657
 51
359.99999999993042
  0
ARC
  8
0
  6
CONTINUOUS
 62
               3
  5
234
 10
-101.50036250655518
 20
-117.32492929111274
 30
0.0
 40
5.0
 50
44.999999999992419
 51
87.99999999998262
  0
LINE
  8
0
  6
CONTINUOUS
 62
               3
  5
235
 10
-83.114002030668019
 20
-128.64022195513408
 30
0.0
 11
-97.964828600622525
 21
-113.78939538517992
 31
0.0
  0
ARC
  8
0
  6
CONTINUOUS
 62
               3
  5
236
 10
-86.649535936600671
 20
-132.17575586106685
 30
0.0
 40
5.0
 50
0.0
 51
44.99999999999207
  0
LINE
  8
0
  6
CONTINUOUS
 62
               3
  5
237
 10
-479.86217884412105
 20
-25.250000000000171
 30
0.0
 11
-533.43689302908001
 21
-25.250000000000171
 31
0.0
  0
CIRCLE
  8
0
  6
CONTINUOUS
 62
               3
  5
238
 10
-506.64953593660067
 20
-53.250000000000057
 30
0.0
 40
38.75
  0
CIRCLE
  8
0
  6
CONTINUOUS
 62
               3
  5
239
 10
-506.64953593660067
 20
-53.250000000000057
 30
0.0
 40
47.299999999999997
  0
LINE
  8
0
  6
CONTINUOUS
 62
               3
  5
23A
 10
-538.46934108999517
 20
-85.069805153394384
 30
0.0
 11
-540.09568668672432
 21
-86.696150750123763
 31
0.0
  0
LINE
  8
0
  6
CONTINUOUS
 62
               3
  5
23B
 10
-474.82973078320589
 20
-85.069805153394384
 30
0.0
 11
-473.20338518647696
 21
-86.696150750123763
 31
0.0
  0
ARC
  8
0
  6
CONTINUOUS
 62
               3
  5
23C
 10
-506.64953593660067
 20
-53.250000000000057
 30
0.0
 40
45.0
 50
224.99999999995646
 51
314.99999999993918
  0
CIRCLE
  8
0
  6
CONTINUOUS
 62
               3
  5
23D
 10
-506.64953593660067
 20
-53.250000000000057
 30
0.0
 40
57.5
  0
LINE
  8
0
  6
CONTINUOUS
 62
               3
  5
23E
 10
-526.40428220173862
 20
0.7500000000000817
 30
0.0
 11
-596.64953593660016
 21
0.7500000000000711
 31
0.0
  0
LINE
  8
0
  6
CONTINUOUS
 62
               3
  5
23F
 10
-416.64953593660022
 20
0.7500000000000711
 30
0.0
 11
-486.89478967146266
 21
0.7500000000000817
 31
0.0
  0
LINE
  8
0
  6
CONTINUOUS
 62
               3
  5
240
 10
50.950464063399352
 20
389.75000000000017
 30
0.0
 11
-64.249535936600694
 21
389.75000000000017
 31
0.0
  0
LINE
  8
0
  6
CONTINUOUS
 62
               3
  5
241
 10
-64.249535936600694
 20
389.75000000000017
 30
0.0
 11
-61.249535936601148
 21
386.75000000000006
 31
0.0
  0
LINE
  8
0
  6
CONTINUOUS
 62
               3
  5
242
 10
50.950464063399352
 20
389.75000000000017
 30
0.0
 11
47.950464063399352
 21
386.75000000000006
 31
0.0
  0
LINE
  8
0
  6
CONTINUOUS
 62
               3
  5
243
 10
-61.749535936600807
 20
381.75000000000006
 30
0.0
 11
48.450464063399352
 21
381.75000000000006
 31
0.0
  0
LINE
  8
0
  6
CONTINUOUS
 62
               3
  5
244
 10
50.950464063399352
 20
386.75000000000006
 30
0.0
 11
-64.249535936600807
 21
386.75000000000006
 31
0.0
  0
LINE
  8
0
  6
CONTINUOUS
 62
               3
  5
245
 10
-64.249535936600807
 20
386.75000000000006
 30
0.0
 11
-64.249535936600807
 21
384.25000000000006
 31
0.0
  0
LINE
  8
0
  6
CONTINUOUS
 62
               3
  5
246
 10
50.950464063399352
 20
386.75000000000006
 30
0.0
 11
50.950464063399352
 21
384.25000000000006
 31
0.0
  0
ARC
  8
0
  6
CONTINUOUS
 62
               3
  5
247
 10
48.450464063399352
 20
384.25000000000006
 30
0.0
 40
2.5
 50
269.99999999994782
 51
359.99999999993014
  0
ARC
  8
0
  6
CONTINUOUS
 62
               3
  5
248
 10
-61.749535936600807
 20
384.25000000000006
 30
0.0
 40
2.5
 50
179.99999999996572
 51
269.99999999994782
  0
LINE
  8
0
  6
CONTINUOUS
 62
               3
  5
249
 10
52.824991763862101
 20
444.07033269709132
 30
0.0
 11
50.950464063399352
 21
389.75000000000017
 31
0.0
  0
LINE
  8
0
  6
CONTINUOUS
 62
               3
  5
24A
 10
-66.146551554994232
 20
444.07341972995312
 30
0.0
 11
-64.249535936600694
 21
389.75000000000017
 31
0.0
  0
CIRCLE
  8
0
  6
CONTINUOUS
 62
               3
  5
24B
 10
-6.649535936600671
 20
-53.250000000000128
 30
0.0
 40
57.5
  0
CIRCLE
  8
0
  6
CONTINUOUS
 62
               3
  5
24C
 10
-6.649535936600671
 20
-53.250000000000128
 30
0.0
 40
47.299999999999997
  0
LINE
  8
0
  6
CONTINUOUS
 62
               3
  5
24D
 10
20.137821155878953
 20
-25.250000000000242
 30
0.0
 11
-33.436893029080068
 21
-25.250000000000242
 31
0.0
  0
LINE
  8
0
  6
CONTINUOUS
 62
               3
  5
24E
 10
-38.469341089995226
 20
-85.069805153394455
 30
0.0
 11
-40.095686686724378
 21
-86.696150750123834
 31
0.0
  0
LINE
  8
0
  6
CONTINUOUS
 62
               3
  5
24F
 10
25.170269216794111
 20
-85.069805153394455
 30
0.0
 11
26.796614813523036
 21
-86.696150750123834
 31
0.0
  0
ARC
  8
0
  6
CONTINUOUS
 62
               3
  5
250
 10
-6.649535936600671
 20
-53.250000000000128
 30
0.0
 40
45.0
 50
224.99999999995646
 51
314.99999999993918
  0
CIRCLE
  8
0
  6
CONTINUOUS
 62
               3
  5
251
 10
-6.649535936600671
 20
-53.250000000000128
 30
0.0
 40
38.75
  0
LINE
  8
0
  6
CONTINUOUS
 62
               3
  5
252
 10
-26.404282201738681
 20
0.7500000000000107
 30
0.0
 11
-96.649535936600216
 21
0.75
 31
0.0
  0
LINE
  8
0
  6
CONTINUOUS
 62
               3
  5
253
 10
83.350464063399784
 20
0.75
 30
0.0
 11
13.105210328537339
 21
0.7500000000000107
 31
0.0
  0
ARC
  8
0
  6
CONTINUOUS
 62
               3
  5
254
 10
-29.149535936600216
 20
-115.75000000000006
 30
0.0
 40
2.4999999999999996
 50
269.99999999994782
 51
449.99999999991297
  0
ARC
  8
0
  6
CONTINUOUS
 62
               3
  5
255
 10
15.850464063399784
 20
-115.75000000000006
 30
0.0
 40
2.4999999999999996
 50
89.99999999998262
 51
269.99999999994782
  0
LINE
  8
0
  6
CONTINUOUS
 62
               3
  5
256
 10
15.850464063399784
 20
-118.24999999999991
 30
0.0
 11
58.350464063399329
 21
-118.24999999999991
 31
0.0
  0
LINE
  8
0
  6
CONTINUOUS
 62
               3
  5
257
 10
15.850464063399784
 20
-113.24999999999991
 30
0.0
 11
58.350464063399329
 21
-113.24999999999991
 31
0.0
  0
LINE
  8
0
  6
CONTINUOUS
 62
               3
  5
258
 10
-71.649535936600671
 20
-118.24999999999991
 30
0.0
 11
-29.149535936600216
 21
-118.24999999999991
 31
0.0
  0
LINE
  8
0
  6
CONTINUOUS
 62
               3
  5
259
 10
-71.649535936600671
 20
-113.24999999999991
 30
0.0
 11
-29.149535936600216
 21
-113.24999999999991
 31
0.0
  0
LINE
  8
0
  6
CONTINUOUS
 62
               3
  5
25A
 10
-369.64953593660078
 20
-110.84999999999982
 30
0.0
 11
-366.64953593660067
 21
-107.85000000000076
 31
0.0
  0
LINE
  8
0
  6
CONTINUOUS
 62
               3
  5
25B
 10
-369.64953593660078
 20
4.350000000000172
 30
0.0
 11
-366.64953593660067
 21
1.3500000000000796
 31
0.0
  0
LINE
  8
0
  6
CONTINUOUS
 62
               3
  5
25C
 10
-369.64953593660078
 20
-110.84999999999982
 30
0.0
 11
-369.64953593660078
 21
4.350000000000172
 31
0.0
  0
LINE
  8
0
  6
CONTINUOUS
 62
               3
  5
25D
 10
-366.64953593660067
 20
-110.85000000000034
 30
0.0
 11
-366.64953593660067
 21
4.3500000000000583
 31
0.0
  0
LINE
  8
0
  6
CONTINUOUS
 62
               3
  5
25E
 10
-366.64953593660067
 20
4.3500000000000583
 30
0.0
 11
-364.14953593660067
 21
4.3500000000000583
 31
0.0
  0
ARC
  8
0
  6
CONTINUOUS
 62
               3
  5
25F
 10
-364.14953593660067
 20
1.8500000000000583
 30
0.0
 40
2.5
 50
0.0
 51
89.999999999982862
  0
LINE
  8
0
  6
CONTINUOUS
 62
               3
  5
260
 10
-361.64953593660067
 20
1.8500000000000583
 30
0.0
 11
-361.64953593660067
 21
-108.35000000000034
 31
0.0
  0
LINE
  8
0
  6
CONTINUOUS
 62
               3
  5
261
 10
-366.64953593660067
 20
-110.85000000000034
 30
0.0
 11
-364.14953593660067
 21
-110.85000000000034
 31
0.0
  0
ARC
  8
0
  6
CONTINUOUS
 62
               3
  5
262
 10
-364.14953593660067
 20
-108.35000000000034
 30
0.0
 40
2.5
 50
269.99999999994731
 51
359.99999999993014
  0
ARC
  8
0
  6
CONTINUOUS
 62
               3
  5
263
 10
-441.64953593660067
 20
-115.74999999999991
 30
0.0
 40
2.4999999999999996
 50
269.99999999994731
 51
449.99999999991297
  0
ARC
  8
0
  6
CONTINUOUS
 62
               3
  5
264
 10
-411.79870936664616
 20
-117.32492929111274
 30
0.0
 40
5.0
 50
91.999999999982577
 51
134.99999999997274
  0
LINE
  8
0
  6
CONTINUOUS
 62
               3
  5
265
 10
-430.18506984253332
 20
-128.64022195513408
 30
0.0
 11
-415.33424327257882
 21
-113.78939538517992
 31
0.0
  0
ARC
  8
0
  6
CONTINUOUS
 62
               3
  5
266
 10
-426.64953593660067
 20
-132.17575586106685
 30
0.0
 40
5.0
 50
134.9999999999732
 51
179.99999999996507
  0
LINE
  8
0
  6
CONTINUOUS
 62
               3
  5
267
 10
-369.64953593660078
 20
-110.84999999999982
 30
0.0
 11
-411.97320685015865
 21
-112.32797515601723
 31
0.0
  0
LINE
  8
0
  6
CONTINUOUS
 62
               3
  5
268
 10
-369.64953593660078
 20
4.350000000000172
 30
0.0
 11
-413.75423442670746
 21
5.8901700094761864
 31
0.0
  0
LINE
  8
0
  6
CONTINUOUS
 62
               3
  5
269
 10
-431.6495359366001
 20
-132.17575586106679
 30
0.0
 11
-431.64953593660113
 21
-231.25000000000006
 31
0.0
  0
LINE
  8
0
  6
CONTINUOUS
 62
               3
  5
26A
 10
-441.64953593660067
 20
-118.24999999999991
 30
0.0
 11
-484.14953593660113
 21
-118.24999999999991
 31
0.0
  0
LINE
  8
0
  6
CONTINUOUS
 62
               3
  5
26B
 10
-441.64953593660067
 20
-113.24999999999991
 30
0.0
 11
-484.14953593660113
 21
-113.24999999999991
 31
0.0
  0
ARC
  8
0
  6
CONTINUOUS
 62
               3
  5
26C
 10
-413.64953593659999
 20
8.8883424905334678
 30
0.0
 40
3.0
 50
179.99999999996518
 51
267.99999999994907
  0
LINE
  8
0
  6
CONTINUOUS
 62
               3
  5
26D
 10
356.35046406339944
 20
-110.84999999999982
 30
0.0
 11
353.35046406339933
 21
-107.85000000000076
 31
0.0
  0
LINE
  8
0
  6
CONTINUOUS
 62
               3
  5
26E
 10
356.35046406339944
 20
4.350000000000172
 30
0.0
 11
353.35046406339933
 21
1.3500000000000796
 31
0.0
  0
LINE
  8
0
  6
CONTINUOUS
 62
               3
  5
26F
 10
356.35046406339944
 20
-110.84999999999982
 30
0.0
 11
356.35046406339944
 21
4.350000000000172
 31
0.0
  0
LINE
  8
0
  6
CONTINUOUS
 62
               3
  5
270
 10
353.35046406339933
 20
-110.85000000000034
 30
0.0
 11
353.35046406339933
 21
4.3500000000000583
 31
0.0
  0
LINE
  8
0
  6
CONTINUOUS
 62
               3
  5
271
 10
353.35046406339933
 20
4.3500000000000583
 30
0.0
 11
350.85046406339933
 21
4.3500000000000583
 31
0.0
  0
ARC
  8
0
  6
CONTINUOUS
 62
               3
  5
272
 10
350.85046406339933
 20
1.8500000000000583
 30
0.0
 40
2.5
 50
89.999999999982862
 51
179.99999999996524
  0
LINE
  8
0
  6
CONTINUOUS
 62
               3
  5
273
 10
348.35046406339933
 20
1.8500000000000583
 30
0.0
 11
348.35046406339933
 21
-108.35000000000034
 31
0.0
  0
LINE
  8
0
  6
CONTINUOUS
 62
               3
  5
274
 10
353.35046406339933
 20
-110.85000000000034
 30
0.0
 11
350.85046406339933
 21
-110.85000000000034
 31
0.0
  0
ARC
  8
0
  6
CONTINUOUS
 62
               3
  5
275
 10
350.85046406339933
 20
-108.35000000000034
 30
0.0
 40
2.5
 50
179.99999999996507
 51
269.99999999994731
  0
ARC
  8
0
  6
CONTINUOUS
 62
               3
  5
276
 10
428.35046406339933
 20
-115.74999999999991
 30
0.0
 40
2.4999999999999996
 50
89.999999999982862
 51
269.99999999994731
  0
ARC
  8
0
  6
CONTINUOUS
 62
               3
  5
277
 10
398.49963749344482
 20
-117.32492929111274
 30
0.0
 40
5.0
 50
44.999999999992305
 51
87.999999999982478
  0
LINE
  8
0
  6
CONTINUOUS
 62
               3
  5
278
 10
416.88599796933198
 20
-128.64022195513408
 30
0.0
 11
402.03517139937748
 21
-113.78939538517992
 31
0.0
  0
ARC
  8
0
  6
CONTINUOUS
 62
               3
  5
279
 10
413.35046406339933
 20
-132.17575586106685
 30
0.0
 40
5.0
 50
0.0
 51
44.99999999999207
  0
LINE
  8
0
  6
CONTINUOUS
 62
               3
  5
27A
 10
356.35046406339944
 20
-110.84999999999982
 30
0.0
 11
398.6741349769573
 21
-112.32797515601723
 31
0.0
  0
LINE
  8
0
  6
CONTINUOUS
 62
               3
  5
27B
 10
356.35046406339944
 20
4.350000000000172
 30
0.0
 11
400.45516255350611
 21
5.8901700094761864
 31
0.0
  0
LINE
  8
0
  6
CONTINUOUS
 62
               3
  5
27C
 10
418.35046406339876
 20
-132.17575586106679
 30
0.0
 11
418.35046406339978
 21
-231.25000000000006
 31
0.0
  0
ARC
  8
0
  6
CONTINUOUS
 62
               3
  5
27D
 10
400.35046406339865
 20
8.8883424905334678
 30
0.0
 40
3.0
 50
271.99999999994657
 51
359.99999999993042
  0
LINE
  8
0
  6
CONTINUOUS
 62
               3
  5
27E
 10
576.35046406339939
 20
0.7500000000000711
 30
0.0
 11
576.35046406339939
 21
-72.250000000000057
 31
0.0
  0
LINE
  8
0
  6
CONTINUOUS
 62
               3
  5
27F
 10
576.35046406339939
 20
-72.250000000000057
 30
0.0
 11
568.35046406339893
 21
-72.250000000000057
 31
0.0
  0
LINE
  8
0
  6
CONTINUOUS
 62
               3
  5
280
 10
-589.64953593660061
 20
-72.250000000000057
 30
0.0
 11
-581.64953593660016
 21
-72.250000000000057
 31
0.0
  0
LINE
  8
0
  6
CONTINUOUS
 62
               3
  5
281
 10
-589.64953593660061
 20
0.7500000000000711
 30
0.0
 11
-589.64953593660061
 21
-72.250000000000057
 31
0.0
  0
LINE
  8
0
  6
CONTINUOUS
 62
               3
  5
282
 10
130.35046406339922
 20
-110.84999999999982
 30
0.0
 11
133.35046406339933
 21
-107.85000000000076
 31
0.0
  0
LINE
  8
0
  6
CONTINUOUS
 62
               3
  5
283
 10
133.35046406339933
 20
-110.85000000000034
 30
0.0
 11
135.85046406339933
 21
-110.85000000000034
 31
0.0
  0
ARC
  8
0
  6
CONTINUOUS
 62
               3
  5
284
 10
135.85046406339933
 20
-108.35000000000034
 30
0.0
 40
2.5
 50
269.99999999994793
 51
359.99999999993014
  0
ARC
  8
0
  6
CONTINUOUS
 62
               3
  5
285
 10
58.350464063399329
 20
-115.74999999999991
 30
0.0
 40
2.4999999999999996
 50
269.99999999994793
 51
449.99999999991297
  0
ARC
  8
0
  6
CONTINUOUS
 62
               3
  5
286
 10
88.201290633353835
 20
-117.32492929111274
 30
0.0
 40
5.0
 50
91.999999999982577
 51
134.99999999997297
  0
LINE
  8
0
  6
CONTINUOUS
 62
               3
  5
287
 10
69.814930157466677
 20
-128.64022195513408
 30
0.0
 11
84.665756727421183
 21
-113.78939538517992
 31
0.0
  0
ARC
  8
0
  6
CONTINUOUS
 62
               3
  5
288
 10
73.350464063399329
 20
-132.17575586106685
 30
0.0
 40
5.0
 50
134.99999999997311
 51
179.99999999996507
  0
LINE
  8
0
  6
CONTINUOUS
 62
               3
  5
289
 10
130.35046406339922
 20
-110.84999999999982
 30
0.0
 11
88.026793149841353
 21
-112.32797515601723
 31
0.0
  0
LINE
  8
0
  6
CONTINUOUS
 62
               3
  5
28A
 10
130.35046406339922
 20
4.350000000000172
 30
0.0
 11
133.35046406339933
 21
1.3500000000000796
 31
0.0
  0
LINE
  8
0
  6
CONTINUOUS
 62
               3
  5
28B
 10
130.35046406339922
 20
-110.84999999999982
 30
0.0
 11
130.35046406339922
 21
4.350000000000172
 31
0.0
  0
LINE
  8
0
  6
CONTINUOUS
 62
               3
  5
28C
 10
133.35046406339933
 20
-110.85000000000034
 30
0.0
 11
133.35046406339933
 21
4.3500000000000583
 31
0.0
  0
LINE
  8
0
  6
CONTINUOUS
 62
               3
  5
28D
 10
133.35046406339933
 20
4.3500000000000583
 30
0.0
 11
135.85046406339933
 21
4.3500000000000583
 31
0.0
  0
ARC
  8
0
  6
CONTINUOUS
 62
               3
  5
28E
 10
135.85046406339933
 20
1.8500000000000583
 30
0.0
 40
2.5
 50
0.0
 51
89.999999999982862
  0
LINE
  8
0
  6
CONTINUOUS
 62
               3
  5
28F
 10
138.35046406339933
 20
1.8500000000000583
 30
0.0
 11
138.35046406339933
 21
-108.35000000000034
 31
0.0
  0
LINE
  8
0
  6
CONTINUOUS
 62
               3
  5
290
 10
130.35046406339922
 20
4.350000000000172
 30
0.0
 11
86.245765573292545
 21
5.8901700094761864
 31
0.0
  0
ARC
  8
0
  6
CONTINUOUS
 62
               3
  5
291
 10
86.350464063400011
 20
8.8883424905334678
 30
0.0
 40
3.0
 50
179.99999999996518
 51
267.99999999994873
  0
LINE
  8
0
  6
CONTINUOUS
 62
               3
  5
292
 10
68.350464063399897
 20
-132.17575586106688
 30
0.0
 11
68.350464063398874
 21
-231.25000000000011
 31
0.0
  0
CIRCLE
  8
0
  6
CONTINUOUS
 62
               3
  5
293
 10
493.35046406339933
 20
-53.250000000000128
 30
0.0
 40
47.299999999999997
  0
LINE
  8
0
  6
CONTINUOUS
 62
               3
  5
294
 10
520.13782115587901
 20
-25.250000000000242
 30
0.0
 11
466.56310697091993
 21
-25.250000000000242
 31
0.0
  0
LINE
  8
0
  6
CONTINUOUS
 62
               3
  5
295
 10
461.53065891000477
 20
-85.069805153394455
 30
0.0
 11
459.90431331327562
 21
-86.696150750123834
 31
0.0
  0
LINE
  8
0
  6
CONTINUOUS
 62
               3
  5
296
 10
525.17026921679417
 20
-85.069805153394455
 30
0.0
 11
526.79661481352309
 21
-86.696150750123834
 31
0.0
  0
ARC
  8
0
  6
CONTINUOUS
 62
               3
  5
297
 10
493.35046406339933
 20
-53.250000000000128
 30
0.0
 40
45.0
 50
224.99999999995646
 51
314.99999999993918
  0
CIRCLE
  8
0
  6
CONTINUOUS
 62
               3
  5
298
 10
493.35046406339933
 20
-53.250000000000128
 30
0.0
 40
38.75
  0
ARC
  8
0
  6
CONTINUOUS
 62
               3
  5
299
 10
470.85046406339978
 20
-115.75000000000006
 30
0.0
 40
2.4999999999999996
 50
269.99999999994731
 51
449.99999999991297
  0
ARC
  8
0
  6
CONTINUOUS
 62
               3
  5
29A
 10
515.85046406339984
 20
-115.75000000000006
 30
0.0
 40
2.4999999999999996
 50
89.999999999981569
 51
269.99999999994731
  0
CIRCLE
  8
0
  6
CONTINUOUS
 62
               3
  5
29B
 10
493.35046406339933
 20
-53.250000000000128
 30
0.0
 40
57.5
  0
LINE
  8
0
  6
CONTINUOUS
 62
               3
  5
29C
 10
428.35046406339933
 20
-113.24999999999991
 30
0.0
 11
470.85046406339978
 21
-113.24999999999991
 31
0.0
  0
LINE
  8
0
  6
CONTINUOUS
 62
               3
  5
29D
 10
428.35046406339933
 20
-118.24999999999991
 30
0.0
 11
470.85046406339978
 21
-118.24999999999991
 31
0.0
  0
LINE
  8
0
  6
CONTINUOUS
 62
               3
  5
29E
 10
515.85046406339984
 20
-118.24999999999991
 30
0.0
 11
568.35046406339939
 21
-118.24999999999991
 31
0.0
  0
LINE
  8
0
  6
CONTINUOUS
 62
               3
  5
29F
 10
515.85046406339984
 20
-113.24999999999991
 30
0.0
 11
568.35046406339939
 21
-113.24999999999991
 31
0.0
  0
LINE
  8
0
  6
CONTINUOUS
 62
               3
  5
2A0
 10
473.59571779826149
 20
0.7500000000000817
 30
0.0
 11
403.35046406339978
 21
0.7500000000000711
 31
0.0
  0
LINE
  8
0
  6
CONTINUOUS
 62
               3
  5
2A1
 10
583.35046406339984
 20
0.7500000000000711
 30
0.0
 11
513.10521032853717
 21
0.7500000000000817
 31
0.0
  0
LINE
  8
0
  6
CONTINUOUS
 62
               3
  5
2A2
 10
130.35046406339913
 20
469.14999999999992
 30
0.0
 11
130.35046406339913
 21
584.34999999999991
 31
0.0
  0
LINE
  8
0
  6
CONTINUOUS
 62
               3
  5
2A3
 10
130.35046406339913
 20
584.34999999999991
 30
0.0
 11
133.35046406339924
 21
581.35000000000036
 31
0.0
  0
LINE
  8
0
  6
CONTINUOUS
 62
               3
  5
2A4
 10
130.35046406339913
 20
469.14999999999992
 30
0.0
 11
133.35046406339924
 21
472.14999999999992
 31
0.0
  0
LINE
  8
0
  6
CONTINUOUS
 62
               3
  5
2A5
 10
138.35046406339924
 20
581.85000000000014
 30
0.0
 11
138.35046406339924
 21
471.64999999999992
 31
0.0
  0
LINE
  8
0
  6
CONTINUOUS
 62
               3
  5
2A6
 10
133.35046406339924
 20
469.14999999999992
 30
0.0
 11
133.35046406339924
 21
584.35000000000014
 31
0.0
  0
LINE
  8
0
  6
CONTINUOUS
 62
               3
  5
2A7
 10
133.35046406339924
 20
584.35000000000014
 30
0.0
 11
135.85046406339924
 21
584.35000000000014
 31
0.0
  0
LINE
  8
0
  6
CONTINUOUS
 62
               3
  5
2A8
 10
133.35046406339924
 20
469.14999999999992
 30
0.0
 11
135.85046406339924
 21
469.14999999999992
 31
0.0
  0
ARC
  8
0
  6
CONTINUOUS
 62
               3
  5
2A9
 10
135.85046406339924
 20
471.64999999999992
 30
0.0
 40
2.5
 50
269.99999999994793
 51
359.99999999993014
  0
ARC
  8
0
  6
CONTINUOUS
 62
               3
  5
2AA
 10
135.85046406339924
 20
581.85000000000014
 30
0.0
 40
2.5
 50
0.0
 51
89.999999999982862
  0
LINE
  8
0
  6
CONTINUOUS
 62
               3
  5
2AB
 10
76.030131366307941
 20
467.27547229953717
 30
0.0
 11
130.35046406339913
 21
469.14999999999992
 31
0.0
  0
LINE
  8
0
  6
CONTINUOUS
 62
               3
  5
2AC
 10
76.027044333446128
 20
586.24701561839356
 30
0.0
 11
130.35046406339913
 21
584.34999999999991
 31
0.0
  0
LINE
  8
0
  6
CONTINUOUS
 62
               3
  5
2AD
 10
-448.64953593660022
 20
-491.24999999999903
 30
0.0
 11
-448.64953593660022
 21
-380.45708506678932
 31
0.0
  0
LINE
  8
0
  6
CONTINUOUS
 62
               3
  5
2AE
 10
-564.64953593660016
 20
-380.45708506678932
 30
0.0
 11
-564.64953593660016
 21
-491.24999999999903
 31
0.0
  0
LINE
  8
0
  6
CONTINUOUS
 62
               3
  5
2AF
 10
-564.64953593660016
 20
-380.45708506678892
 30
0.0
 11
-448.64953593660022
 21
-380.45708506678932
 31
0.0
  0
LINE
  8
0
  6
CONTINUOUS
 62
               3
  5
2B0
 10
-566.92824810263301
 20
-360.45708506678903
 30
0.0
 11
-446.37082377056737
 21
-360.45708506678903
 31
0.0
  0
LINE
  8
0
  6
CONTINUOUS
 62
               3
  5
2B1
 10
-563.64953593660061
 20
-592.24999999999955
 30
0.0
 11
-449.64953593660067
 21
-592.24999999999955
 31
0.0
  0
LINE
  8
0
  6
CONTINUOUS
 62
               3
  5
2B2
 10
-449.64953593660067
 20
-592.24999999999955
 30
0.0
 11
-449.64953593660067
 21
-492.24999999999949
 31
0.0
  0
LINE
  8
0
  6
CONTINUOUS
 62
               3
  5
2B3
 10
-563.64953593660061
 20
-592.24999999999955
 30
0.0
 11
-563.64953593660061
 21
-492.24999999999949
 31
0.0
  0
LINE
  8
0
  6
CONTINUOUS
 62
               3
  5
2B4
 10
-563.64953593660061
 20
-492.24999999999949
 30
0.0
 11
-449.64953593660067
 21
-492.24999999999949
 31
0.0
  0
LINE
  8
0
  6
CONTINUOUS
 62
               3
  5
2B5
 10
-449.64953593660067
 20
-492.24999999999949
 30
0.0
 11
-448.64953593660022
 21
-491.24999999999903
 31
0.0
  0
LINE
  8
0
  6
CONTINUOUS
 62
               3
  5
2B6
 10
-563.64953593660061
 20
-492.24999999999949
 30
0.0
 11
-564.64953593660016
 21
-491.24999999999903
 31
0.0
  0
LINE
  8
0
  6
CONTINUOUS
 62
               3
  5
2B7
 10
51.350464063399784
 20
-491.24999999999903
 30
0.0
 11
51.350464063399784
 21
-380.45708506678932
 31
0.0
  0
LINE
  8
0
  6
CONTINUOUS
 62
               3
  5
2B8
 10
-64.649535936600216
 20
-380.45708506678932
 30
0.0
 11
-64.649535936600216
 21
-491.24999999999903
 31
0.0
  0
LINE
  8
0
  6
CONTINUOUS
 62
               3
  5
2B9
 10
-64.649535936600216
 20
-380.45708506678892
 30
0.0
 11
51.350464063399784
 21
-380.45708506678932
 31
0.0
  0
LINE
  8
0
  6
CONTINUOUS
 62
               3
  5
2BA
 10
-66.928248102633063
 20
-360.45708506678903
 30
0.0
 11
53.62917622943263
 21
-360.45708506678903
 31
0.0
  0
LINE
  8
0
  6
CONTINUOUS
 62
               3
  5
2BB
 10
-63.649535936600671
 20
-592.24999999999955
 30
0.0
 11
50.350464063399329
 21
-592.24999999999955
 31
0.0
  0
LINE
  8
0
  6
CONTINUOUS
 62
               3
  5
2BC
 10
50.350464063399329
 20
-592.24999999999955
 30
0.0
 11
50.350464063399329
 21
-492.24999999999949
 31
0.0
  0
LINE
  8
0
  6
CONTINUOUS
 62
               3
  5
2BD
 10
-63.649535936600671
 20
-592.24999999999955
 30
0.0
 11
-63.649535936600671
 21
-492.24999999999949
 31
0.0
  0
LINE
  8
0
  6
CONTINUOUS
 62
               3
  5
2BE
 10
-63.649535936600671
 20
-492.24999999999949
 30
0.0
 11
50.350464063399329
 21
-492.24999999999949
 31
0.0
  0
LINE
  8
0
  6
CONTINUOUS
 62
               3
  5
2BF
 10
50.350464063399329
 20
-492.24999999999949
 30
0.0
 11
51.350464063399784
 21
-491.24999999999903
 31
0.0
  0
LINE
  8
0
  6
CONTINUOUS
 62
               3
  5
2C0
 10
-63.649535936600671
 20
-492.24999999999949
 30
0.0
 11
-64.649535936600216
 21
-491.24999999999903
 31
0.0
  0
LINE
  8
0
  6
CONTINUOUS
 62
               3
  5
2C1
 10
551.35046406339984
 20
-491.24999999999903
 30
0.0
 11
551.35046406339984
 21
-380.45708506678932
 31
0.0
  0
LINE
  8
0
  6
CONTINUOUS
 62
               3
  5
2C2
 10
435.35046406339978
 20
-380.45708506678932
 30
0.0
 11
435.35046406339978
 21
-491.24999999999903
 31
0.0
  0
LINE
  8
0
  6
CONTINUOUS
 62
               3
  5
2C3
 10
435.35046406339978
 20
-380.45708506678892
 30
0.0
 11
551.35046406339984
 21
-380.45708506678932
 31
0.0
  0
LINE
  8
0
  6
CONTINUOUS
 62
               3
  5
2C4
 10
433.07175189736694
 20
-360.45708506678903
 30
0.0
 11
553.62917622943269
 21
-360.45708506678903
 31
0.0
  0
LINE
  8
0
  6
CONTINUOUS
 62
               3
  5
2C5
 10
436.35046406339933
 20
-592.24999999999955
 30
0.0
 11
550.35046406339939
 21
-592.24999999999955
 31
0.0
  0
LINE
  8
0
  6
CONTINUOUS
 62
               3
  5
2C6
 10
550.35046406339939
 20
-592.24999999999955
 30
0.0
 11
550.35046406339939
 21
-492.24999999999949
 31
0.0
  0
LINE
  8
0
  6
CONTINUOUS
 62
               3
  5
2C7
 10
436.35046406339933
 20
-592.24999999999955
 30
0.0
 11
436.35046406339933
 21
-492.24999999999949
 31
0.0
  0
LINE
  8
0
  6
CONTINUOUS
 62
               3
  5
2C8
 10
436.35046406339933
 20
-492.24999999999949
 30
0.0
 11
550.35046406339939
 21
-492.24999999999949
 31
0.0
  0
LINE
  8
0
  6
CONTINUOUS
 62
               3
  5
2C9
 10
550.35046406339939
 20
-492.24999999999949
 30
0.0
 11
551.35046406339984
 21
-491.24999999999903
 31
0.0
  0
LINE
  8
0
  6
CONTINUOUS
 62
               3
  5
2CA
 10
436.35046406339933
 20
-492.24999999999949
 30
0.0
 11
435.35046406339978
 21
-491.24999999999903
 31
0.0
  0
CIRCLE
  8
0
  6
CONTINUOUS
 62
               3
  5
2CB
 10
-6.649535936600671
 20
526.75
 30
0.0
 40
59.0
  0
CIRCLE
  8
0
  6
CONTINUOUS
 62
               3
  5
2CC
 10
-6.649535936600671
 20
526.75
 30
0.0
 40
50.0
  0
LINE
  8
0
  6
CONTINUOUS
 62
               3
  5
2CD
 10
-36.649535936600685
 20
566.75
 30
0.0
 11
23.350464063399617
 21
566.74999999999977
 31
0.0
  0
LINE
  8
0
  6
CONTINUOUS
 62
               3
  5
2CE
 10
-28.649535936601239
 20
526.75
 30
0.0
 11
-28.649535936601239
 21
481.85011135871292
 31
0.0
  0
LINE
  8
0
  6
CONTINUOUS
 62
               3
  5
2CF
 10
-28.649535936601239
 20
526.75
 30
0.0
 11
-49.81835678064332
 21
551.97801829187051
 31
0.0
  0
LINE
  8
0
  6
CONTINUOUS
 62
               3
  5
2D0
 10
-28.649535936601239
 20
504.74999999999949
 30
0.0
 11
38.250352704686399
 21
504.74999999999949
 31
0.0
  0
CIRCLE
  8
0
  6
CONTINUOUS
 62
               3
  5
2D1
 10
602.63698727970723
 20
-956.21375990939896
 30
0.0
 40
75.0
  0
CIRCLE
  8
0
  6
CONTINUOUS
 62
               3
  5
2D2
 10
602.63698727970723
 20
-956.21375990939896
 30
0.0
 40
52.5
  0
LINE
  8
0
  6
CONTINUOUS
 62
               3
  5
2D3
 10
516.42648907908188
 20
-936.21375990939896
 30
0.0
 11
530.35282580570174
 21
-936.21375990939896
 31
0.0
  0
LINE
  8
0
  6
CONTINUOUS
 62
               3
  5
2D4
 10
530.35282580570174
 20
-976.21375990939896
 30
0.0
 11
516.42648907908188
 21
-976.21375990939896
 31
0.0
  0
ARC
  8
0
  6
CONTINUOUS
 62
               3
  5
2D5
 10
602.63698727970723
 20
-956.21375990939896
 30
0.0
 40
88.5
 50
166.93897588513528
 51
193.06102411472631
  0
LINE
  8
0
  6
CONTINUOUS
 62
               3
  5
2D6
 10
582.63698727970723
 20
-1042.4242581100239
 30
0.0
 11
582.63698727970723
 21
-1028.497921383404
 31
0.0
  0
LINE
  8
0
  6
CONTINUOUS
 62
               3
  5
2D7
 10
622.63698727970723
 20
-1028.497921383404
 30
0.0
 11
622.63698727970723
 21
-1042.4242581100239
 31
0.0
  0
ARC
  8
0
  6
CONTINUOUS
 62
               3
  5
2D8
 10
602.63698727970723
 20
-956.21375990939896
 30
0.0
 40
88.5
 50
256.93897588510077
 51
283.06102411469175
  0
LINE
  8
0
  6
CONTINUOUS
 62
               3
  5
2D9
 10
688.8474854803319
 20
-976.21375990939896
 30
0.0
 11
674.92114875371135
 21
-976.21375990939896
 31
0.0
  0
LINE
  8
0
  6
CONTINUOUS
 62
               3
  5
2DA
 10
674.92114875371135
 20
-936.21375990939896
 30
0.0
 11
688.8474854803319
 21
-936.21375990939896
 31
0.0
  0
ARC
  8
0
  6
CONTINUOUS
 62
               3
  5
2DB
 10
602.63698727970723
 20
-956.21375990939896
 30
0.0
 40
88.5
 50
346.9389758850661
 51
373.06102411465713
  0
LINE
  8
0
  6
CONTINUOUS
 62
               3
  5
2DC
 10
622.63698727970723
 20
-870.00326170877338
 30
0.0
 11
622.63698727970723
 21
-883.92959843539393
 31
0.0
  0
LINE
  8
0
  6
CONTINUOUS
 62
               3
  5
2DD
 10
582.63698727970723
 20
-883.92959843539393
 30
0.0
 11
582.63698727970723
 21
-870.00326170877338
 31
0.0
  0
ARC
  8
0
  6
CONTINUOUS
 62
               3
  5
2DE
 10
602.63698727970723
 20
-956.21375990939896
 30
0.0
 40
88.5
 50
76.938975885169896
 51
103.06102411476094
  0
LINE
  8
0
  6
CONTINUOUS
 62
               3
  5
2DF
 10
554.96886375884606
 20
-978.21375990939941
 30
0.0
 11
650.30511080056704
 21
-978.21375990939941
 31
0.0
  0
ARC
  8
0
  6
CONTINUOUS
 62
               3
  5
2E0
 10
615.14059892908836
 20
-947.50736228177993
 30
0.0
 40
54.763804151667173
 50
141.3859176367836
 51
145.15009542089808
  0
ARC
  8
0
  6
CONTINUOUS
 62
               3
  5
2E1
 10
602.63698727970723
 20
-956.21375990939896
 30
0.0
 40
51.5
 50
334.71098847332905
 51
410.9593273634826
  0
ARC
  8
0
  6
CONTINUOUS
 62
               3
  5
2E2
 10
602.63698727970723
 20
-956.21375990939896
 30
0.0
 40
51.5
 50
129.04067263631032
 51
205.28901152646336
  0
ARC
  8
0
  6
CONTINUOUS
 62
               3
  5
2E3
 10
602.63698727970723
 20
-956.21375990939896
 30
0.0
 40
77.5
 50
104.955248316603
 51
128.57288309098388
  0
ARC
  8
0
  6
CONTINUOUS
 62
               3
  5
2E4
 10
602.63698727970723
 20
-956.21375990939896
 30
0.0
 40
77.5
 50
14.955248316637585
 51
75.044751683327831
  0
ARC
  8
0
  6
CONTINUOUS
 62
               3
  5
2E5
 10
602.63698727970723
 20
-956.21375990939896
 30
0.0
 40
77.5
 50
321.42711690884255
 51
345.04475168322404
  0
LINE
  8
0
  6
CONTINUOUS
 62
               3
  5
2E6
 10
462.63698727970717
 20
-1011.213759909399
 30
0.0
 11
463.3085434056714
 21
-1011.213759909399
 31
0.0
  0
LINE
  8
0
  6
CONTINUOUS
 62
               3
  5
2E7
 10
465.80854340567186
 20
-1013.713759909399
 30
0.0
 11
463.3085434056714
 21
-1011.213759909399
 31
0.0
  0
LINE
  8
0
  6
CONTINUOUS
 62
               3
  5
2E8
 10
462.63698727970717
 20
-901.21375990939896
 30
0.0
 11
463.3085434056714
 21
-901.21375990939896
 31
0.0
  0
LINE
  8
0
  6
CONTINUOUS
 62
               3
  5
2E9
 10
465.8085434056714
 20
-898.71375990939896
 30
0.0
 11
463.3085434056714
 21
-901.21375990939896
 31
0.0
  0
LINE
  8
0
  6
CONTINUOUS
 62
               3
  5
2EA
 10
463.3085434056714
 20
-901.21375990939896
 30
0.0
 11
463.3085434056714
 21
-1011.213759909399
 31
0.0
  0
LINE
  8
0
  6
CONTINUOUS
 62
               3
  5
2EB
 10
557.14665149332927
 20
-895.52416289105736
 30
0.0
 11
465.8085434056714
 21
-898.71375990939896
 31
0.0
  0
LINE
  8
0
  6
CONTINUOUS
 62
               3
  5
2EC
 10
537.80051556315607
 20
-1016.2277749743666
 30
0.0
 11
465.80854340567197
 21
-1013.713759909399
 31
0.0
  0
LINE
  8
0
  6
CONTINUOUS
 62
               3
  5
2ED
 10
457.63698727970717
 20
-901.38531603536308
 30
0.0
 11
457.63698727970717
 21
-1011.313759909399
 31
0.0
  0
LINE
  8
0
  6
CONTINUOUS
 62
               3
  5
2EE
 10
462.63698727970717
 20
-1013.813759909399
 30
0.0
 11
462.63698727970717
 21
-898.61375990939894
 31
0.0
  0
LINE
  8
0
  6
CONTINUOUS
 62
               3
  5
2EF
 10
462.63698727970717
 20
-898.61375990939894
 30
0.0
 11
460.13698727970717
 21
-898.61375990939894
 31
0.0
  0
LINE
  8
0
  6
CONTINUOUS
 62
               3
  5
2F0
 10
462.63698727970717
 20
-1013.813759909399
 30
0.0
 11
460.13698727970717
 21
-1013.813759909399
 31
0.0
  0
ARC
  8
0
  6
CONTINUOUS
 62
               3
  5
2F1
 10
460.13698727970717
 20
-1011.313759909399
 30
0.0
 40
2.5
 50
179.99999999993088
 51
269.99999999989649
  0
ARC
  8
0
  6
CONTINUOUS
 62
               3
  5
2F2
 10
460.13698727970717
 20
-901.11375990939894
 30
0.0
 40
2.5
 50
89.999999999965596
 51
179.99999999993088
  0
LINE
  8
0
  6
CONTINUOUS
 62
               3
  5
2F3
 10
570.19858411308951
 20
-916.21375990939919
 30
0.0
 11
602.63698727970723
 21
-916.21375990939919
 31
0.0
  0
LINE
  8
0
  6
CONTINUOUS
 62
               3
  5
2F4
 10
602.63698727970723
 20
-916.21375990939919
 30
0.0
 11
636.64066355154591
 21
-916.21375990939919
 31
0.0
  0
LINE
  8
0
  6
CONTINUOUS
 62
               3
  5
2F5
 10
465.80854340567186
 20
-1013.713759909399
 30
0.0
 11
465.8085434056714
 21
-898.71375990939896
 31
0.0
  0
ARC
  8
0
  6
CONTINUOUS
 62
               3
  5
2F6
 10
556.97215400981668
 20
-890.52720875596185
 30
0.0
 40
5.0
 50
271.99999999989558
 51
304.80675787031049
  0
LINE
  8
0
  6
CONTINUOUS
 62
               3
  5
2F7
 10
657.636987279707
 20
-1096.213759909399
 30
0.0
 11
657.636987279707
 21
-1095.5422037834346
 31
0.0
  0
LINE
  8
0
  6
CONTINUOUS
 62
               3
  5
2F8
 10
660.136987279707
 20
-1093.0422037834342
 30
0.0
 11
657.636987279707
 21
-1095.5422037834346
 31
0.0
  0
LINE
  8
0
  6
CONTINUOUS
 62
               3
  5
2F9
 10
547.636987279707
 20
-1096.213759909399
 30
0.0
 11
547.636987279707
 21
-1095.5422037834346
 31
0.0
  0
LINE
  8
0
  6
CONTINUOUS
 62
               3
  5
2FA
 10
545.136987279707
 20
-1093.0422037834346
 30
0.0
 11
547.636987279707
 21
-1095.5422037834346
 31
0.0
  0
LINE
  8
0
  6
CONTINUOUS
 62
               3
  5
2FB
 10
547.636987279707
 20
-1095.5422037834346
 30
0.0
 11
657.636987279707
 21
-1095.5422037834346
 31
0.0
  0
LINE
  8
0
  6
CONTINUOUS
 62
               3
  5
2FC
 10
547.80854340567112
 20
-1101.213759909399
 30
0.0
 11
657.73698727970714
 21
-1101.213759909399
 31
0.0
  0
LINE
  8
0
  6
CONTINUOUS
 62
               3
  5
2FD
 10
660.23698727970714
 20
-1096.213759909399
 30
0.0
 11
545.03698727970709
 21
-1096.213759909399
 31
0.0
  0
LINE
  8
0
  6
CONTINUOUS
 62
               3
  5
2FE
 10
545.03698727970709
 20
-1096.213759909399
 30
0.0
 11
545.03698727970709
 21
-1098.713759909399
 31
0.0
  0
LINE
  8
0
  6
CONTINUOUS
 62
               3
  5
2FF
 10
660.23698727970714
 20
-1096.213759909399
 30
0.0
 11
660.23698727970714
 21
-1098.713759909399
 31
0.0
  0
ARC
  8
0
  6
CONTINUOUS
 62
               3
  5
300
 10
657.73698727970714
 20
-1098.713759909399
 30
0.0
 40
2.5
 50
269.99999999989615
 51
359.99999999986142
  0
ARC
  8
0
  6
CONTINUOUS
 62
               3
  5
301
 10
547.53698727970709
 20
-1098.713759909399
 30
0.0
 40
2.5
 50
179.99999999993057
 51
269.99999999989626
  0
LINE
  8
0
  6
CONTINUOUS
 62
               3
  5
302
 10
660.136987279707
 20
-1093.0422037834342
 30
0.0
 11
545.136987279707
 21
-1093.0422037834346
 31
0.0
  0
LINE
  8
0
  6
CONTINUOUS
 62
               3
  5
303
 10
663.32658429804815
 20
-1001.7040956957775
 30
0.0
 11
660.136987279707
 21
-1093.0422037834342
 31
0.0
  0
ARC
  8
0
  6
CONTINUOUS
 62
               3
  5
304
 10
668.32353843314377
 20
-1001.87859317929
 30
0.0
 40
5.0
 50
145.19324212951597
 51
177.9999999999317
  0
LINE
  8
0
  6
CONTINUOUS
 62
               3
  5
305
 10
542.62297221473909
 20
-1021.0502316259499
 30
0.0
 11
545.136987279707
 21
-1093.0422037834346
 31
0.0
  0
ARC
  8
0
  6
CONTINUOUS
 62
               3
  5
306
 10
537.6260180796437
 20
-1021.2247291094621
 30
0.0
 40
5.0
 50
1.9999999999967224
 51
87.999999999966334
  0
LINE
  8
0
  6
CONTINUOUS
 62
               3
  5
307
 10
527.63698727970723
 20
-1264.7131936579833
 30
0.0
 11
677.63698727970723
 21
-1264.7131936579833
 31
0.0
  0
LINE
  8
0
  6
CONTINUOUS
 62
               3
  5
308
 10
514.136987279707
 20
-1274.7131936579833
 30
0.0
 11
514.136987279707
 21
-1281.7131936579829
 31
0.0
  0
LINE
  8
0
  6
CONTINUOUS
 62
               3
  5
309
 10
514.136987279707
 20
-1274.7131936579833
 30
0.0
 11
527.63698727970723
 21
-1264.7131936579833
 31
0.0
  0
ARC
  8
0
  6
CONTINUOUS
 62
               3
  5
30A
 10
525.63698727970723
 20
-1286.2957693529386
 30
0.0
 40
4.9999999999999991
 50
0.0
 51
66.4218215217725
  0
LINE
  8
0
  6
CONTINUOUS
 62
               3
  5
30B
 10
514.136987279707
 20
-1281.7131936579829
 30
0.0
 11
691.13698727970677
 21
-1281.7131936579829
 31
0.0
  0
ARC
  8
0
  6
CONTINUOUS
 62
               3
  5
30C
 10
547.63698727970723
 20
-1371.7131936579833
 30
0.0
 40
19.999999999999996
 50
148.21166938289122
 51
167.2698198616232
  0
LINE
  8
0
  6
CONTINUOUS
 62
               3
  5
30D
 10
530.63698727970723
 20
-1286.2957693529386
 30
0.0
 11
530.63698727970723
 21
-1361.1775399051305
 31
0.0
  0
LINE
  8
0
  6
CONTINUOUS
 62
               3
  5
30E
 10
674.636987279707
 20
-1356.1775399051301
 30
0.0
 11
674.636987279707
 21
-1286.2957693529386
 31
0.0
  0
LINE
  8
0
  6
CONTINUOUS
 62
               3
  5
30F
 10
530.63698727970723
 20
-1361.1775399051305
 30
0.0
 11
674.13698727970745
 21
-1361.1775399051305
 31
0.0
  0
LINE
  8
0
  6
CONTINUOUS
 62
               3
  5
310
 10
582.63698727970723
 20
-1281.7131936579829
 30
0.0
 11
582.63698727970723
 21
-1264.7131936579833
 31
0.0
  0
LINE
  8
0
  6
CONTINUOUS
 62
               3
  5
311
 10
622.63698727970723
 20
-1264.7131936579833
 30
0.0
 11
622.63698727970723
 21
-1281.7131936579829
 31
0.0
  0
LINE
  8
0
  6
CONTINUOUS
 62
               3
  5
312
 10
582.63698727970723
 20
-1274.7131936579833
 30
0.0
 11
622.63698727970723
 21
-1274.7131936579833
 31
0.0
  0
LINE
  8
0
  6
CONTINUOUS
 62
               3
  5
313
 10
530.35282580570174
 20
-1264.7131936579833
 30
0.0
 11
530.35282580570174
 21
-1281.7131936579829
 31
0.0
  0
LINE
  8
0
  6
CONTINUOUS
 62
               3
  5
314
 10
516.42648907908188
 20
-1274.7131936579833
 30
0.0
 11
516.42648907908188
 21
-1281.7131936579829
 31
0.0
  0
LINE
  8
0
  6
CONTINUOUS
 62
               3
  5
315
 10
514.136987279707
 20
-1274.7131936579833
 30
0.0
 11
516.42648907908188
 21
-1274.7131936579833
 31
0.0
  0
LINE
  8
0
  6
CONTINUOUS
 62
               3
  5
316
 10
516.42648907908188
 20
-1274.7131936579833
 30
0.0
 11
530.35282580570174
 21
-1264.7131936579833
 31
0.0
  0
LINE
  8
0
  6
CONTINUOUS
 62
               3
  5
317
 10
691.13698727970677
 20
-1274.7131936579833
 30
0.0
 11
691.13698727970677
 21
-1281.7131936579829
 31
0.0
  0
LINE
  8
0
  6
CONTINUOUS
 62
               3
  5
318
 10
691.13698727970677
 20
-1274.7131936579833
 30
0.0
 11
677.63698727970723
 21
-1264.7131936579833
 31
0.0
  0
ARC
  8
0
  6
CONTINUOUS
 62
               3
  5
319
 10
679.636987279707
 20
-1286.2957693529386
 30
0.0
 40
4.9999999999999991
 50
113.57817847815815
 51
179.99999999993057
  0
LINE
  8
0
  6
CONTINUOUS
 62
               3
  5
31A
 10
674.92114875371135
 20
-1264.7131936579833
 30
0.0
 11
674.92114875371135
 21
-1281.7131936579829
 31
0.0
  0
LINE
  8
0
  6
CONTINUOUS
 62
               3
  5
31B
 10
688.84748548033235
 20
-1274.7131936579833
 30
0.0
 11
688.84748548033235
 21
-1281.7131936579829
 31
0.0
  0
LINE
  8
0
  6
CONTINUOUS
 62
               3
  5
31C
 10
691.13698727970677
 20
-1274.7131936579833
 30
0.0
 11
688.84748548033235
 21
-1274.7131936579833
 31
0.0
  0
LINE
  8
0
  6
CONTINUOUS
 62
               3
  5
31D
 10
688.84748548033235
 20
-1274.7131936579833
 30
0.0
 11
674.92114875371135
 21
-1264.7131936579833
 31
0.0
  0
ARC
  8
0
  6
CONTINUOUS
 62
               3
  5
31E
 10
537.63698727970723
 20
-1493.2131936579833
 30
0.0
 40
2.4999999999999996
 50
89.999999999965354
 51
269.99999999989632
  0
ARC
  8
0
  6
CONTINUOUS
 62
               3
  5
31F
 10
677.63698727970723
 20
-1493.2131936579833
 30
0.0
 40
2.4999999999999996
 50
269.99999999989649
 51
449.99999999982703
  0
LINE
  8
0
  6
CONTINUOUS
 62
               3
  5
320
 10
462.63698727970717
 20
-1485.7131936579833
 30
0.0
 11
463.30854340567151
 21
-1485.7131936579833
 31
0.0
  0
LINE
  8
0
  6
CONTINUOUS
 62
               3
  5
321
 10
465.80854340567163
 20
-1488.2131936579826
 30
0.0
 11
463.30854340567151
 21
-1485.7131936579833
 31
0.0
  0
LINE
  8
0
  6
CONTINUOUS
 62
               3
  5
322
 10
465.80854340567242
 20
-1488.2131936579833
 30
0.0
 11
507.97365366194975
 21
-1489.6856317538375
 31
0.0
  0
LINE
  8
0
  6
CONTINUOUS
 62
               3
  5
323
 10
526.17252118563965
 20
-1505.9848830842693
 30
0.0
 11
511.33469008436992
 21
-1491.147051983
 31
0.0
  0
ARC
  8
0
  6
CONTINUOUS
 62
               3
  5
324
 10
522.63698727970723
 20
-1509.5204169902024
 30
0.0
 40
4.9999999999999991
 50
0.0
 51
44.99999999998176
  0
LINE
  8
0
  6
CONTINUOUS
 62
               3
  5
325
 10
462.63698727970717
 20
-1375.7131936579833
 30
0.0
 11
463.30854340567151
 21
-1375.7131936579833
 31
0.0
  0
LINE
  8
0
  6
CONTINUOUS
 62
               3
  5
326
 10
465.80854340567163
 20
-1373.2131936579833
 30
0.0
 11
463.30854340567151
 21
-1375.7131936579833
 31
0.0
  0
LINE
  8
0
  6
CONTINUOUS
 62
               3
  5
327
 10
465.80854340567151
 20
-1373.2131936579833
 30
0.0
 11
523.42601960784577
 21
-1371.2011470528309
 31
0.0
  0
LINE
  8
0
  6
CONTINUOUS
 62
               3
  5
328
 10
463.30854340567151
 20
-1375.7131936579833
 30
0.0
 11
463.30854340567151
 21
-1485.7131936579833
 31
0.0
  0
LINE
  8
0
  6
CONTINUOUS
 62
               3
  5
329
 10
462.63698727970717
 20
-1488.3131936579832
 30
0.0
 11
462.63698727970717
 21
-1373.1131936579834
 31
0.0
  0
LINE
  8
0
  6
CONTINUOUS
 62
               3
  5
32A
 10
462.63698727970717
 20
-1373.1131936579834
 30
0.0
 11
460.13698727970717
 21
-1373.1131936579834
 31
0.0
  0
ARC
  8
0
  6
CONTINUOUS
 62
               3
  5
32B
 10
460.13698727970717
 20
-1375.6131936579834
 30
0.0
 40
2.5
 50
89.999999999965596
 51
179.99999999993057
  0
LINE
  8
0
  6
CONTINUOUS
 62
               3
  5
32C
 10
457.63698727970717
 20
-1375.6131936579834
 30
0.0
 11
457.63698727970717
 21
-1485.8131936579832
 31
0.0
  0
LINE
  8
0
  6
CONTINUOUS
 62
               3
  5
32D
 10
462.63698727970717
 20
-1488.3131936579832
 30
0.0
 11
460.13698727970717
 21
-1488.3131936579832
 31
0.0
  0
ARC
  8
0
  6
CONTINUOUS
 62
               3
  5
32E
 10
460.13698727970717
 20
-1485.8131936579832
 30
0.0
 40
2.5
 50
179.99999999993057
 51
269.99999999989649
  0
LINE
  8
0
  6
CONTINUOUS
 62
               3
  5
32F
 10
465.80854340567163
 20
-1373.2131936579833
 30
0.0
 11
465.80854340567242
 21
-1488.2131936579833
 31
0.0
  0
ARC
  8
0
  6
CONTINUOUS
 62
               3
  5
330
 10
507.79915617843727
 20
-1494.6825858889329
 30
0.0
 40
5.0
 50
44.999999999983494
 51
87.999999999965766
  0
ARC
  8
0
  6
CONTINUOUS
 62
               3
  5
331
 10
523.25152212433341
 20
-1366.2041929177356
 30
0.0
 40
5.0
 50
271.99999999989535
 51
347.26981986155278
  0
CIRCLE
  8
0
  6
CONTINUOUS
 62
               3
  5
332
 10
602.63698727970723
 20
-1430.7131936579833
 30
0.0
 40
48.5
  0
CIRCLE
  8
0
  6
CONTINUOUS
 62
               3
  5
333
 10
602.63698727970723
 20
-1430.7131936579833
 30
0.0
 40
47.299999999999997
  0
LINE
  8
0
  6
CONTINUOUS
 62
               3
  5
334
 10
570.81718212631267
 20
-1462.5329988113779
 30
0.0
 11
569.19083652958352
 21
-1464.159344408107
 31
0.0
  0
LINE
  8
0
  6
CONTINUOUS
 62
               3
  5
335
 10
634.45679243310178
 20
-1462.5329988113779
 30
0.0
 11
636.08313802983093
 21
-1464.159344408107
 31
0.0
  0
ARC
  8
0
  6
CONTINUOUS
 62
               3
  5
336
 10
602.63698727970723
 20
-1430.7131936579833
 30
0.0
 40
45.0
 50
224.99999999991346
 51
314.99999999987898
  0
CIRCLE
  8
0
  6
CONTINUOUS
 62
               3
  5
337
 10
602.63698727970723
 20
-1430.7131936579833
 30
0.0
 40
57.600000000000001
  0
ARC
  8
0
  6
CONTINUOUS
 62
               3
  5
338
 10
580.13698727970768
 20
-1493.2131936579833
 30
0.0
 40
2.4999999999999996
 50
269.99999999989626
 51
449.99999999982697
  0
ARC
  8
0
  6
CONTINUOUS
 62
               3
  5
339
 10
625.13698727970768
 20
-1493.2131936579833
 30
0.0
 40
2.4999999999999996
 50
89.999999999965439
 51
269.99999999989615
  0
LINE
  8
0
  6
CONTINUOUS
 62
               3
  5
33A
 10
537.63698727970723
 20
-1495.7131936579833
 30
0.0
 11
580.13698727970768
 21
-1495.7131936579833
 31
0.0
  0
LINE
  8
0
  6
CONTINUOUS
 62
               3
  5
33B
 10
537.63698727970723
 20
-1490.7131936579833
 30
0.0
 11
580.13698727970768
 21
-1490.7131936579833
 31
0.0
  0
LINE
  8
0
  6
CONTINUOUS
 62
               3
  5
33C
 10
625.13698727970768
 20
-1490.7131936579833
 30
0.0
 11
677.63698727970723
 21
-1490.7131936579833
 31
0.0
  0
LINE
  8
0
  6
CONTINUOUS
 62
               3
  5
33D
 10
625.13698727970768
 20
-1495.7131936579833
 30
0.0
 11
677.63698727970723
 21
-1495.7131936579833
 31
0.0
  0
CIRCLE
  8
0
  6
CONTINUOUS
 62
               3
  5
33E
 10
602.63698727970723
 20
-956.21375990939896
 30
0.0
 40
59.0
  0
LINE
  8
0
  6
DASHDOT
 62
               4
  5
33F
 10
-6.649535936600671
 20
635.25
 30
0.0
 11
-6.6495359366006541
 21
360.74325309471391
 31
0.0
  0
LINE
  8
0
  6
DASHDOT
 62
               4
  5
340
 10
-183.04615889330984
 20
526.75
 30
0.0
 11
152.45231015581589
 21
526.75
 31
0.0
  0
LINE
  8
0
  6
DASHDOT
 62
               4
  5
341
 10
-6.649535936600671
 20
292.75000000000045
 30
0.0
 11
-6.649535936600671
 21
-635.25
 31
0.0
  0
LINE
  8
0
  6
DASHDOT
 62
               4
  5
342
 10
493.35046406339933
 20
292.75000000000051
 30
0.0
 11
493.35046406339933
 21
-635.25
 31
0.0
  0
LINE
  8
0
  6
DASHDOT
 62
               4
  5
343
 10
-506.64953593660067
 20
292.75000000000051
 30
0.0
 11
-506.64953593660067
 21
-635.25
 31
0.0
  0
LINE
  8
0
  6
DASHDOT
 62
               4
  5
344
 10
-88.124311161375942
 20
-53.249999999999829
 30
0.0
 11
-176.64953593660113
 21
-53.249999999999829
 31
0.0
  0
LINE
  8
0
  6
DASHDOT
 62
               4
  5
345
 10
-438.12431116137583
 20
-53.250000000000057
 30
0.0
 11
-574.82511036217488
 21
-53.250000000000057
 31
0.0
  0
LINE
  8
0
  6
DASHDOT
 62
               4
  5
346
 10
61.875688838624171
 20
-53.250000000000128
 30
0.0
 11
-74.825110362174939
 21
-53.250000000000128
 31
0.0
  0
LINE
  8
0
  6
DASHDOT
 62
               4
  5
347
 10
-425.1747607118254
 20
-53.249999999999829
 30
0.0
 11
-336.64953593660022
 21
-53.249999999999829
 31
0.0
  0
LINE
  8
0
  6
DASHDOT
 62
               4
  5
348
 10
411.87568883862406
 20
-53.249999999999829
 30
0.0
 11
323.35046406339887
 21
-53.249999999999829
 31
0.0
  0
LINE
  8
0
  6
DASHDOT
 62
               4
  5
349
 10
558.47346561256222
 20
-33.250000000000057
 30
0.0
 11
596.64953593660107
 21
-33.250000000000057
 31
0.0
  0
LINE
  8
0
  6
DASHDOT
 62
               4
  5
34A
 10
74.8252392881746
 20
-53.249999999999829
 30
0.0
 11
163.35046406339978
 21
-53.249999999999829
 31
0.0
  0
LINE
  8
0
  6
DASHDOT
 62
               4
  5
34B
 10
561.87568883862423
 20
-53.250000000000128
 30
0.0
 11
425.17488963782506
 21
-53.250000000000128
 31
0.0
  0
LINE
  8
0
  6
DASHDOT
 62
               4
  5
34C
 10
-398.78730498706938
 20
-1078.39819548119
 30
0.0
 11
-398.78730498706926
 21
-949.39819548118999
 31
0.0
  0
LINE
  8
0
  6
DASHDOT
 62
               4
  5
34D
 10
-456.78730498706938
 20
-1020.39819548119
 30
0.0
 11
-340.78730498706938
 21
-1020.39819548119
 31
0.0
  0
LINE
  8
0
  6
DASHDOT
 62
               4
  5
34E
 10
-468.59048347117681
 20
-1013.89819548119
 30
0.0
 11
-334.28730498706938
 21
-1013.89819548119
 31
0.0
  0
LINE
  8
0
  6
DASHDOT
 62
               4
  5
34F
 10
-274.88730498706929
 20
-1013.89819548119
 30
0.0
 11
-176.28730498706938
 21
-1013.89819548119
 31
0.0
  0
LINE
  8
0
  6
DASHDOT
 62
               4
  5
350
 10
-309.28730498706938
 20
-1020.39819548119
 30
0.0
 11
-234.8873049870694
 21
-1020.39819548119
 31
0.0
  0
LINE
  8
0
  6
DASHDOT
 62
               4
  5
351
 10
-522.68730498706918
 20
-1013.8981954811898
 30
0.0
 11
-621.28730498706932
 21
-1013.8981954811895
 31
0.0
  0
LINE
  8
0
  6
DASHDOT
 62
               4
  5
352
 10
-488.28730498706938
 20
-1020.3981954811898
 30
0.0
 11
-562.68730498706918
 21
-1020.3981954811898
 31
0.0
  0
LINE
  8
0
  6
DASHDOT
 62
               4
  5
353
 10
-400.7332623828359
 20
-916.93031141215488
 30
0.0
 11
-400.7332623828359
 21
-783.93031141215488
 31
0.0
  0
LINE
  8
0
  6
DASHDOT
 62
               4
  5
354
 10
214.9843877492803
 20
-1013.89819548119
 30
0.0
 11
313.58438774928044
 21
-1013.89819548119
 31
0.0
  0
LINE
  8
0
  6
DASHDOT
 62
               4
  5
355
 10
189.9843877492803
 20
-1028.39819548119
 30
0.0
 11
254.9843877492803
 21
-1028.39819548119
 31
0.0
  0
LINE
  8
0
  6
DASHDOT
 62
               4
  5
356
 10
64.2283715240373
 20
-1028.39819548119
 30
0.0
 11
164.22837152403753
 21
-1028.39819548119
 31
0.0
  0
LINE
  8
0
  6
DASHDOT
 62
               4
  5
357
 10
114.2283715240373
 20
-1078.39819548119
 30
0.0
 11
114.22837152403753
 21
-949.39819548118999
 31
0.0
  0
LINE
  8
0
  6
DASHDOT
 62
               4
  5
358
 10
49.7283715240373
 20
-1013.89819548119
 30
0.0
 11
184.27238130398854
 21
-1013.89819548119
 31
0.0
  0
LINE
  8
0
  6
DASHDOT
 62
               4
  5
359
 10
13.472355298794525
 20
-1013.89819548119
 30
0.0
 11
-85.127644701205497
 21
-1013.89819548119
 31
0.0
  0
LINE
  8
0
  6
DASHDOT
 62
               4
  5
35A
 10
38.472355298794525
 20
-1028.39819548119
 30
0.0
 11
-26.527644701205475
 21
-1028.39819548119
 31
0.0
  0
LINE
  8
0
  6
DASHDOT
 62
               4
  5
35B
 10
114.22837152403753
 20
-927.64217925594721
 30
0.0
 11
114.22837152403753
 21
-804.04217925594708
 31
0.0
  0
LINE
  8
0
  6
DASHDOT
 62
               4
  5
35C
 10
602.63698727970723
 20
-847.71375990939896
 30
0.0
 11
602.63698727970723
 21
-1118.2605467092253
 31
0.0
  0
LINE
  8
0
  6
DASHDOT
 62
               4
  5
35D
 10
440.63698727970728
 20
-956.21375990939896
 30
0.0
 11
711.13698727970745
 21
-956.21375990939896
 31
0.0
  0
LINE
  8
0
  6
DASHDOT
 62
               4
  5
35E
 10
671.16221205493184
 20
-1430.7131936579833
 30
0.0
 11
440.90837398627895
 21
-1430.7131936579833
 31
0.0
  0
LINE
  8
0
  6
DASHDOT
 62
               4
  5
35F
 10
602.63698727970723
 20
-1244.7131936579833
 30
0.0
 11
602.63698727970723
 21
-1495.7131936579833
 31
0.0
  0
LINE
  8
0
  6
DASHDOT
 62
               4
  5
360
 10
552.63698727970723
 20
-1445.2131936579833
 30
0.0
 11
652.63698727970745
 21
-1445.2131936579833
 31
0.0
  0
LINE
  8
0
  6
DASHDOT
 62
               4
  5
361
 10
602.63698727970723
 20
-1146.8137599093991
 30
0.0
 11
602.63698727970723
 21
-1023.2137599093988
 31
0.0
  0
LINE
  8
0
  6
DASHDOT
 62
               4
  5
362
 10
402.63698727970717
 20
-1437.2131936579833
 30
0.0
 11
477.03698727970715
 21
-1437.2131936579833
 31
0.0
  0
LINE
  8
0
  6
DASHDOT
 62
               4
  5
363
 10
402.6369872797074
 20
-956.21375990939873
 30
0.0
 11
535.63698727970745
 21
-956.21375990939873
 31
0.0
  0
CIRCLE
  8
0
  6
CONTINUOUS
 62
               4
  5
364
 10
-70.996253024576902
 20
462.40328291202428
 30
0.0
 40
13.0
  0
CIRCLE
  8
0
  6
CONTINUOUS
 62
               4
  5
365
 10
-70.996253024576902
 20
591.09671708797555
 30
0.0
 40
13.0
  0
CIRCLE
  8
0
  6
CONTINUOUS
 62
               4
  5
366
 10
57.697181151375673
 20
591.09671708797555
 30
0.0
 40
13.0
  0
CIRCLE
  8
0
  6
CONTINUOUS
 62
               4
  5
367
 10
57.697181151375673
 20
462.40328291202428
 30
0.0
 40
13.0
  0
ARC
  8
0
  6
CONTINUOUS
 62
               4
  5
368
 10
19.13442987536547
 20
165.75000000000051
 30
0.0
 40
17.566965811965957
 50
143.14855134074139
 51
179.99999999996521
  0
LINE
  8
0
  6
CONTINUOUS
 62
               4
  5
369
 10
-18.376535936600874
 20
181.28565375285325
 30
0.0
 11
5.0774640633995318
 21
181.28565375285325
 31
0.0
  0
ARC
  8
0
  6
CONTINUOUS
 62
               4
  5
36A
 10
-32.433501748566243
 20
165.75000000000051
 30
0.0
 40
17.566965811965957
 50
0.0
 51
36.851448659223813
  0
LINE
  8
0
  6
CONTINUOUS
 62
               4
  5
36B
 10
5.0774640633995318
 20
176.28565375285325
 30
0.0
 11
5.0774640633995318
 21
181.28565375285325
 31
0.0
  0
LINE
  8
0
  6
CONTINUOUS
 62
               4
  5
36C
 10
-18.376535936600874
 20
176.28565375285325
 30
0.0
 11
-18.376535936600874
 21
181.28565375285325
 31
0.0
  0
LINE
  8
0
  6
CONTINUOUS
 62
               4
  5
36D
 10
5.0774640633995318
 20
181.28565375285325
 30
0.0
 11
-0.6495359366004436
 21
176.28565375285325
 31
0.0
  0
LINE
  8
0
  6
CONTINUOUS
 62
               4
  5
36E
 10
-12.64953593660033
 20
176.28565375285325
 30
0.0
 11
-18.376535936600874
 21
181.28565375285325
 31
0.0
  0
LINE
  8
0
  6
CONTINUOUS
 62
               4
  5
36F
 10
-0.6495359366004436
 20
176.28565375285325
 30
0.0
 11
-12.64953593660033
 21
176.28565375285325
 31
0.0
  0
LINE
  8
0
  6
CONTINUOUS
 62
               4
  5
370
 10
-12.64953593660033
 20
44.750000000000519
 30
0.0
 11
-12.64953593660033
 21
176.28565375285325
 31
0.0
  0
LINE
  8
0
  6
CONTINUOUS
 62
               4
  5
371
 10
-0.6495359366004436
 20
176.28565375285325
 30
0.0
 11
-0.6495359366004436
 21
44.75000000000059
 31
0.0
  0
LINE
  8
0
  6
CONTINUOUS
 62
               4
  5
372
 10
1.5674640633995409
 20
165.75000000000051
 30
0.0
 11
1.5674640633995409
 21
44.750000000000611
 31
0.0
  0
LINE
  8
0
  6
CONTINUOUS
 62
               4
  5
373
 10
-14.866535936600314
 20
165.75000000000051
 30
0.0
 11
-14.866535936600314
 21
44.750000000000497
 31
0.0
  0
LINE
  8
0
  6
CONTINUOUS
 62
               4
  5
374
 10
-57.99953593660058
 20
47.049999999999955
 30
0.0
 11
-57.99953593660058
 21
44.750000000000057
 31
0.0
  0
LINE
  8
0
  6
CONTINUOUS
 62
               4
  5
375
 10
-57.99953593660058
 20
44.750000000000057
 30
0.0
 11
-83.99953593660058
 21
44.750000000000057
 31
0.0
  0
LINE
  8
0
  6
CONTINUOUS
 62
               4
  5
376
 10
-83.99953593660058
 20
44.750000000000057
 30
0.0
 11
-83.99953593660058
 21
47.049999999999955
 31
0.0
  0
LINE
  8
0
  6
CONTINUOUS
 62
               4
  5
377
 10
-83.99953593660058
 20
47.049999999999955
 30
0.0
 11
-57.99953593660058
 21
47.049999999999955
 31
0.0
  0
LINE
  8
0
  6
CONTINUOUS
 62
               4
  5
378
 10
-64.999535936600807
 20
57.049999999999955
 30
0.0
 11
-64.999535936600807
 21
65.750000000000142
 31
0.0
  0
LINE
  8
0
  6
CONTINUOUS
 62
               4
  5
379
 10
-76.999535936600807
 20
65.750000000000142
 30
0.0
 11
-76.999535936600807
 21
57.049999999999955
 31
0.0
  0
LINE
  8
0
  6
CONTINUOUS
 62
               4
  5
37A
 10
-76.999535936600807
 20
65.750000000000142
 30
0.0
 11
-64.999535936600807
 21
65.750000000000142
 31
0.0
  0
LINE
  8
0
  6
CONTINUOUS
 62
               4
  5
37B
 10
44.700464063399238
 20
47.049999999999955
 30
0.0
 11
44.700464063399238
 21
44.750000000000057
 31
0.0
  0
LINE
  8
0
  6
CONTINUOUS
 62
               4
  5
37C
 10
44.700464063399238
 20
44.750000000000057
 30
0.0
 11
70.700464063399238
 21
44.750000000000064
 31
0.0
  0
LINE
  8
0
  6
CONTINUOUS
 62
               4
  5
37D
 10
70.700464063399238
 20
44.750000000000064
 30
0.0
 11
70.700464063399238
 21
47.049999999999962
 31
0.0
  0
LINE
  8
0
  6
CONTINUOUS
 62
               4
  5
37E
 10
70.700464063399238
 20
47.049999999999962
 30
0.0
 11
44.700464063399238
 21
47.049999999999955
 31
0.0
  0
LINE
  8
0
  6
CONTINUOUS
 62
               4
  5
37F
 10
51.700464063399465
 20
57.049999999999962
 30
0.0
 11
51.700464063399465
 21
65.750000000000142
 31
0.0
  0
LINE
  8
0
  6
CONTINUOUS
 62
               4
  5
380
 10
63.700464063399465
 20
65.750000000000142
 30
0.0
 11
63.700464063399465
 21
57.049999999999962
 31
0.0
  0
LINE
  8
0
  6
CONTINUOUS
 62
               4
  5
381
 10
63.700464063399465
 20
65.750000000000142
 30
0.0
 11
51.700464063399465
 21
65.750000000000142
 31
0.0
  0
LINE
  8
0
  6
CONTINUOUS
 62
               4
  5
382
 10
416.35046406339933
 20
176.28565375285325
 30
0.0
 11
421.35046406339933
 21
181.28565375285325
 31
0.0
  0
ARC
  8
0
  6
CONTINUOUS
 62
               4
  5
383
 10
438.85046406339933
 20
165.75000000000051
 30
0.0
 40
19.999999999999996
 50
148.21166938291961
 51
179.99999999996524
  0
LINE
  8
0
  6
CONTINUOUS
 62
               4
  5
384
 10
421.85046406339887
 20
176.28565375285325
 30
0.0
 11
421.85046406339887
 21
181.28565375285393
 31
0.0
  0
LINE
  8
0
  6
CONTINUOUS
 62
               4
  5
385
 10
421.35046406339933
 20
181.28565375285325
 30
0.0
 11
421.85046406339887
 21
181.28565375285325
 31
0.0
  0
ARC
  8
0
  6
CONTINUOUS
 62
               4
  5
386
 10
411.35046406339933
 20
49.749999999999986
 30
0.0
 40
5.0
 50
269.99999999994793
 51
359.99999999993042
  0
LINE
  8
0
  6
CONTINUOUS
 62
               4
  5
387
 10
418.85046406339933
 20
165.75000000000051
 30
0.0
 11
418.85046406339933
 21
57.050000000000026
 31
0.0
  0
LINE
  8
0
  6
CONTINUOUS
 62
               4
  5
388
 10
416.35046406339933
 20
176.28565375285325
 30
0.0
 11
416.35046406339933
 21
49.749999999999986
 31
0.0
  0
LINE
  8
0
  6
CONTINUOUS
 62
               4
  5
389
 10
442.00046406339942
 20
47.050000000000026
 30
0.0
 11
442.00046406339942
 21
44.750000000000128
 31
0.0
  0
LINE
  8
0
  6
CONTINUOUS
 62
               4
  5
38A
 10
442.00046406339942
 20
44.750000000000128
 30
0.0
 11
416.00046406339942
 21
44.750000000000128
 31
0.0
  0
LINE
  8
0
  6
CONTINUOUS
 62
               4
  5
38B
 10
416.00046406339942
 20
44.750000000000128
 30
0.0
 11
416.00046406339942
 21
47.050000000000026
 31
0.0
  0
LINE
  8
0
  6
CONTINUOUS
 62
               4
  5
38C
 10
416.00046406339942
 20
47.050000000000026
 30
0.0
 11
442.00046406339942
 21
47.050000000000026
 31
0.0
  0
LINE
  8
0
  6
CONTINUOUS
 62
               4
  5
38D
 10
435.00046406339919
 20
57.050000000000026
 30
0.0
 11
435.00046406339919
 21
65.750000000000213
 31
0.0
  0
LINE
  8
0
  6
CONTINUOUS
 62
               4
  5
38E
 10
423.00046406339919
 20
65.750000000000213
 30
0.0
 11
423.00046406339919
 21
57.050000000000026
 31
0.0
  0
LINE
  8
0
  6
CONTINUOUS
 62
               4
  5
38F
 10
423.00046406339919
 20
65.750000000000213
 30
0.0
 11
435.00046406339919
 21
65.750000000000213
 31
0.0
  0
LINE
  8
0
  6
CONTINUOUS
 62
               4
  5
390
 10
570.35046406339939
 20
176.28565375285325
 30
0.0
 11
565.35046406339939
 21
181.28565375285325
 31
0.0
  0
ARC
  8
0
  6
CONTINUOUS
 62
               4
  5
391
 10
547.85046406339939
 20
165.75000000000051
 30
0.0
 40
19.999999999999996
 50
0.0
 51
31.788330617045538
  0
LINE
  8
0
  6
CONTINUOUS
 62
               4
  5
392
 10
564.85046406339984
 20
176.28565375285325
 30
0.0
 11
564.85046406339984
 21
181.28565375285393
 31
0.0
  0
LINE
  8
0
  6
CONTINUOUS
 62
               4
  5
393
 10
565.35046406339939
 20
181.28565375285325
 30
0.0
 11
564.85046406339984
 21
181.28565375285325
 31
0.0
  0
ARC
  8
0
  6
CONTINUOUS
 62
               4
  5
394
 10
575.35046406339939
 20
49.749999999999986
 30
0.0
 40
5.0
 50
179.99999999996518
 51
269.99999999994731
  0
LINE
  8
0
  6
CONTINUOUS
 62
               4
  5
395
 10
567.85046406339939
 20
165.75000000000051
 30
0.0
 11
567.85046406339939
 21
56.532332308330282
 31
0.0
  0
LINE
  8
0
  6
CONTINUOUS
 62
               4
  5
396
 10
570.35046406339939
 20
176.28565375285325
 30
0.0
 11
570.35046406339939
 21
49.749999999999986
 31
0.0
  0
LINE
  8
0
  6
CONTINUOUS
 62
               4
  5
397
 10
544.70046406339929
 20
47.050000000000026
 30
0.0
 11
544.70046406339929
 21
44.750000000000128
 31
0.0
  0
LINE
  8
0
  6
CONTINUOUS
 62
               4
  5
398
 10
544.70046406339929
 20
44.750000000000128
 30
0.0
 11
570.70046406339929
 21
44.750000000000128
 31
0.0
  0
LINE
  8
0
  6
CONTINUOUS
 62
               4
  5
399
 10
570.70046406339929
 20
44.750000000000128
 30
0.0
 11
570.70046406339929
 21
47.050000000000026
 31
0.0
  0
LINE
  8
0
  6
CONTINUOUS
 62
               4
  5
39A
 10
570.70046406339929
 20
47.050000000000026
 30
0.0
 11
544.70046406339929
 21
47.050000000000026
 31
0.0
  0
LINE
  8
0
  6
CONTINUOUS
 62
               4
  5
39B
 10
551.70046406339952
 20
57.050000000000026
 30
0.0
 11
551.70046406339952
 21
65.750000000000213
 31
0.0
  0
LINE
  8
0
  6
CONTINUOUS
 62
               4
  5
39C
 10
563.70046406339952
 20
65.750000000000213
 30
0.0
 11
563.70046406339952
 21
57.050000000000026
 31
0.0
  0
LINE
  8
0
  6
CONTINUOUS
 62
               4
  5
39D
 10
563.70046406339952
 20
65.750000000000213
 30
0.0
 11
551.70046406339952
 21
65.750000000000213
 31
0.0
  0
LINE
  8
0
  6
CONTINUOUS
 62
               4
  5
39E
 10
-583.64953593660061
 20
176.28565375285325
 30
0.0
 11
-578.64953593660061
 21
181.28565375285325
 31
0.0
  0
ARC
  8
0
  6
CONTINUOUS
 62
               4
  5
39F
 10
-561.14953593660061
 20
165.75000000000051
 30
0.0
 40
19.999999999999996
 50
148.21166938291961
 51
179.99999999996524
  0
LINE
  8
0
  6
CONTINUOUS
 62
               4
  5
3A0
 10
-578.14953593660107
 20
176.28565375285325
 30
0.0
 11
-578.14953593660107
 21
181.28565375285393
 31
0.0
  0
LINE
  8
0
  6
CONTINUOUS
 62
               4
  5
3A1
 10
-578.64953593660061
 20
181.28565375285325
 30
0.0
 11
-578.14953593660107
 21
181.28565375285325
 31
0.0
  0
ARC
  8
0
  6
CONTINUOUS
 62
               4
  5
3A2
 10
-588.64953593660061
 20
49.749999999999986
 30
0.0
 40
5.0
 50
269.99999999994731
 51
359.99999999993042
  0
LINE
  8
0
  6
CONTINUOUS
 62
               4
  5
3A3
 10
-581.14953593660061
 20
165.75000000000051
 30
0.0
 11
-581.14953593660061
 21
57.050000000000026
 31
0.0
  0
LINE
  8
0
  6
CONTINUOUS
 62
               4
  5
3A4
 10
-583.64953593660061
 20
176.28565375285325
 30
0.0
 11
-583.64953593660061
 21
49.749999999999986
 31
0.0
  0
LINE
  8
0
  6
CONTINUOUS
 62
               4
  5
3A5
 10
-557.99953593660052
 20
47.050000000000026
 30
0.0
 11
-557.99953593660052
 21
44.750000000000128
 31
0.0
  0
LINE
  8
0
  6
CONTINUOUS
 62
               4
  5
3A6
 10
-557.99953593660052
 20
44.750000000000128
 30
0.0
 11
-583.99953593660052
 21
44.750000000000128
 31
0.0
  0
LINE
  8
0
  6
CONTINUOUS
 62
               4
  5
3A7
 10
-583.99953593660052
 20
44.750000000000128
 30
0.0
 11
-583.99953593660052
 21
47.050000000000026
 31
0.0
  0
LINE
  8
0
  6
CONTINUOUS
 62
               4
  5
3A8
 10
-583.99953593660052
 20
47.050000000000026
 30
0.0
 11
-557.99953593660052
 21
47.050000000000026
 31
0.0
  0
LINE
  8
0
  6
CONTINUOUS
 62
               4
  5
3A9
 10
-564.99953593660075
 20
57.050000000000026
 30
0.0
 11
-564.99953593660075
 21
65.750000000000213
 31
0.0
  0
LINE
  8
0
  6
CONTINUOUS
 62
               4
  5
3AA
 10
-576.99953593660075
 20
65.750000000000213
 30
0.0
 11
-576.99953593660075
 21
57.050000000000026
 31
0.0
  0
LINE
  8
0
  6
CONTINUOUS
 62
               4
  5
3AB
 10
-576.99953593660075
 20
65.750000000000213
 30
0.0
 11
-564.99953593660075
 21
65.750000000000213
 31
0.0
  0
LINE
  8
0
  6
CONTINUOUS
 62
               4
  5
3AC
 10
-429.64953593660067
 20
176.28565375285325
 30
0.0
 11
-434.64953593660067
 21
181.28565375285325
 31
0.0
  0
ARC
  8
0
  6
CONTINUOUS
 62
               4
  5
3AD
 10
-452.14953593660067
 20
165.75000000000051
 30
0.0
 40
19.999999999999996
 50
0.0
 51
31.788330617045627
  0
LINE
  8
0
  6
CONTINUOUS
 62
               4
  5
3AE
 10
-435.14953593660022
 20
176.28565375285325
 30
0.0
 11
-435.14953593660022
 21
181.28565375285393
 31
0.0
  0
LINE
  8
0
  6
CONTINUOUS
 62
               4
  5
3AF
 10
-434.64953593660067
 20
181.28565375285325
 30
0.0
 11
-435.14953593660022
 21
181.28565375285325
 31
0.0
  0
ARC
  8
0
  6
CONTINUOUS
 62
               4
  5
3B0
 10
-424.64953593660067
 20
49.749999999999986
 30
0.0
 40
5.0
 50
179.99999999996518
 51
269.99999999994793
  0
LINE
  8
0
  6
CONTINUOUS
 62
               4
  5
3B1
 10
-432.14953593660067
 20
165.75000000000051
 30
0.0
 11
-432.14953593660067
 21
56.532332308330282
 31
0.0
  0
LINE
  8
0
  6
CONTINUOUS
 62
               4
  5
3B2
 10
-429.64953593660067
 20
176.28565375285325
 30
0.0
 11
-429.64953593660067
 21
49.749999999999986
 31
0.0
  0
LINE
  8
0
  6
CONTINUOUS
 62
               4
  5
3B3
 10
-455.29953593660076
 20
47.050000000000026
 30
0.0
 11
-455.29953593660076
 21
44.750000000000128
 31
0.0
  0
LINE
  8
0
  6
CONTINUOUS
 62
               4
  5
3B4
 10
-455.29953593660076
 20
44.750000000000128
 30
0.0
 11
-429.29953593660076
 21
44.750000000000128
 31
0.0
  0
LINE
  8
0
  6
CONTINUOUS
 62
               4
  5
3B5
 10
-429.29953593660076
 20
44.750000000000128
 30
0.0
 11
-429.29953593660076
 21
47.050000000000026
 31
0.0
  0
LINE
  8
0
  6
CONTINUOUS
 62
               4
  5
3B6
 10
-429.29953593660076
 20
47.050000000000026
 30
0.0
 11
-455.29953593660076
 21
47.050000000000026
 31
0.0
  0
LINE
  8
0
  6
CONTINUOUS
 62
               4
  5
3B7
 10
-448.29953593660053
 20
57.050000000000026
 30
0.0
 11
-448.29953593660053
 21
65.750000000000213
 31
0.0
  0
LINE
  8
0
  6
CONTINUOUS
 62
               4
  5
3B8
 10
-436.29953593660053
 20
65.750000000000213
 30
0.0
 11
-436.29953593660053
 21
57.050000000000026
 31
0.0
  0
LINE
  8
0
  6
CONTINUOUS
 62
               4
  5
3B9
 10
-436.29953593660053
 20
65.750000000000213
 30
0.0
 11
-448.29953593660053
 21
65.750000000000213
 31
0.0
  0
LINE
  8
0
  6
CONTINUOUS
 62
               4
  5
3BA
 10
-584.87600993796059
 20
-2.8499999999998948
 30
0.0
 11
-578.99953593659893
 21
-6.2499999999999858
 31
0.0
  0
LINE
  8
0
  6
CONTINUOUS
 62
               4
  5
3BB
 10
-562.4995359365987
 20
-6.2499999999999858
 30
0.0
 11
-562.4995359365987
 21
0.7500000000000746
 31
0.0
  0
LINE
  8
0
  6
CONTINUOUS
 62
               4
  5
3BC
 10
-562.4995359365987
 20
-6.2499999999999858
 30
0.0
 11
-578.99953593659893
 21
-6.2499999999999858
 31
0.0
  0
LINE
  8
0
  6
CONTINUOUS
 62
               4
  5
3BD
 10
-587.82659740307645
 20
-2.8499999999998948
 30
0.0
 11
-584.87600993796059
 21
-2.8499999999998948
 31
0.0
  0
LINE
  8
0
  6
CONTINUOUS
 62
               4
  5
3BE
 10
-587.82659740307645
 20
0.7500000000000711
 30
0.0
 11
-587.82659740307645
 21
-2.8499999999998948
 31
0.0
  0
LINE
  8
0
  6
CONTINUOUS
 62
               4
  5
3BF
 10
-562.4995359365987
 20
0.7500000000000746
 30
0.0
 11
-587.82659740307645
 21
0.7500000000000711
 31
0.0
  0
LINE
  8
0
  6
CONTINUOUS
 62
               4
  5
3C0
 10
-459.12659740307612
 20
0.7500000000000817
 30
0.0
 11
-459.12659740307612
 21
-2.8499999999998842
 31
0.0
  0
LINE
  8
0
  6
CONTINUOUS
 62
               4
  5
3C1
 10
-459.12659740307612
 20
-2.8499999999998842
 30
0.0
 11
-444.15519465778897
 21
-2.8499999999998806
 31
0.0
  0
LINE
  8
0
  6
CONTINUOUS
 62
               4
  5
3C2
 10
-456.17600993796026
 20
-2.8499999999998842
 30
0.0
 11
-450.29953593659849
 21
-6.2499999999999716
 31
0.0
  0
LINE
  8
0
  6
CONTINUOUS
 62
               4
  5
3C3
 10
-447.10578212290483
 20
0.7500000000000817
 30
0.0
 11
-447.10578212290483
 21
-2.8499999999998842
 31
0.0
  0
LINE
  8
0
  6
CONTINUOUS
 62
               4
  5
3C4
 10
-436.64268168710618
 20
-6.2499999999999716
 30
0.0
 11
-444.15519465778897
 21
-2.8499999999998806
 31
0.0
  0
LINE
  8
0
  6
CONTINUOUS
 62
               4
  5
3C5
 10
-433.79953593659849
 20
-6.2499999999999716
 30
0.0
 11
-450.29953593659849
 21
-6.2499999999999716
 31
0.0
  0
LINE
  8
0
  6
CONTINUOUS
 62
               4
  5
3C6
 10
-433.79953593659849
 20
-6.2499999999999716
 30
0.0
 11
-433.79953593659849
 21
0.7500000000000853
 31
0.0
  0
LINE
  8
0
  6
CONTINUOUS
 62
               4
  5
3C7
 10
-433.79953593659849
 20
0.7500000000000853
 30
0.0
 11
-459.12659740307612
 21
0.7500000000000817
 31
0.0
  0
LINE
  8
0
  6
CONTINUOUS
 62
               4
  5
3C8
 10
-84.876009937960646
 20
-2.8499999999998948
 30
0.0
 11
-78.999535936598875
 21
-6.2499999999999858
 31
0.0
  0
LINE
  8
0
  6
CONTINUOUS
 62
               4
  5
3C9
 10
-62.499535936598761
 20
-6.2499999999999858
 30
0.0
 11
-62.499535936598761
 21
0.7500000000000746
 31
0.0
  0
LINE
  8
0
  6
CONTINUOUS
 62
               4
  5
3CA
 10
-62.499535936598761
 20
-6.2499999999999858
 30
0.0
 11
-78.999535936598875
 21
-6.2499999999999858
 31
0.0
  0
LINE
  8
0
  6
CONTINUOUS
 62
               4
  5
3CB
 10
-87.826597403076505
 20
-2.8499999999998948
 30
0.0
 11
-84.876009937960646
 21
-2.8499999999998948
 31
0.0
  0
LINE
  8
0
  6
CONTINUOUS
 62
               4
  5
3CC
 10
-87.826597403076505
 20
0.7500000000000711
 30
0.0
 11
-87.826597403076505
 21
-2.8499999999998948
 31
0.0
  0
LINE
  8
0
  6
CONTINUOUS
 62
               4
  5
3CD
 10
-62.499535936598761
 20
0.7500000000000746
 30
0.0
 11
-87.826597403076505
 21
0.7500000000000711
 31
0.0
  0
LINE
  8
0
  6
CONTINUOUS
 62
               4
  5
3CE
 10
40.873402596923881
 20
0.7500000000000817
 30
0.0
 11
40.873402596923881
 21
-2.8499999999998842
 31
0.0
  0
LINE
  8
0
  6
CONTINUOUS
 62
               4
  5
3CF
 10
40.873402596923881
 20
-2.8499999999998842
 30
0.0
 11
55.844805342211032
 21
-2.8499999999998806
 31
0.0
  0
LINE
  8
0
  6
CONTINUOUS
 62
               4
  5
3D0
 10
43.823990062039741
 20
-2.8499999999998842
 30
0.0
 11
49.700464063401512
 21
-6.2499999999999716
 31
0.0
  0
LINE
  8
0
  6
CONTINUOUS
 62
               4
  5
3D1
 10
52.894217877095173
 20
0.7500000000000817
 30
0.0
 11
52.894217877095173
 21
-2.8499999999998842
 31
0.0
  0
LINE
  8
0
  6
CONTINUOUS
 62
               4
  5
3D2
 10
63.357318312893824
 20
-6.2499999999999716
 30
0.0
 11
55.844805342211032
 21
-2.8499999999998806
 31
0.0
  0
LINE
  8
0
  6
CONTINUOUS
 62
               4
  5
3D3
 10
66.200464063401512
 20
-6.2499999999999716
 30
0.0
 11
49.700464063401512
 21
-6.2499999999999716
 31
0.0
  0
LINE
  8
0
  6
CONTINUOUS
 62
               4
  5
3D4
 10
66.200464063401512
 20
-6.2499999999999716
 30
0.0
 11
66.200464063401512
 21
0.7500000000000853
 31
0.0
  0
LINE
  8
0
  6
CONTINUOUS
 62
               4
  5
3D5
 10
66.200464063401512
 20
0.7500000000000853
 30
0.0
 11
40.873402596923881
 21
0.7500000000000817
 31
0.0
  0
LINE
  8
0
  6
CONTINUOUS
 62
               4
  5
3D6
 10
415.12399006203935
 20
-2.8499999999998948
 30
0.0
 11
421.00046406340113
 21
-6.2499999999999858
 31
0.0
  0
LINE
  8
0
  6
CONTINUOUS
 62
               4
  5
3D7
 10
437.50046406340124
 20
-6.2499999999999858
 30
0.0
 11
437.50046406340124
 21
0.7500000000000746
 31
0.0
  0
LINE
  8
0
  6
CONTINUOUS
 62
               4
  5
3D8
 10
437.50046406340124
 20
-6.2499999999999858
 30
0.0
 11
421.00046406340113
 21
-6.2499999999999858
 31
0.0
  0
LINE
  8
0
  6
CONTINUOUS
 62
               4
  5
3D9
 10
412.17340259692349
 20
-2.8499999999998948
 30
0.0
 11
415.12399006203935
 21
-2.8499999999998948
 31
0.0
  0
LINE
  8
0
  6
CONTINUOUS
 62
               4
  5
3DA
 10
412.17340259692349
 20
0.7500000000000711
 30
0.0
 11
412.17340259692349
 21
-2.8499999999998948
 31
0.0
  0
LINE
  8
0
  6
CONTINUOUS
 62
               4
  5
3DB
 10
437.50046406340124
 20
0.7500000000000746
 30
0.0
 11
412.17340259692349
 21
0.7500000000000711
 31
0.0
  0
LINE
  8
0
  6
CONTINUOUS
 62
               4
  5
3DC
 10
540.87340259692382
 20
0.7500000000000817
 30
0.0
 11
540.87340259692382
 21
-2.8499999999998842
 31
0.0
  0
LINE
  8
0
  6
CONTINUOUS
 62
               4
  5
3DD
 10
540.87340259692382
 20
-2.8499999999998842
 30
0.0
 11
555.84480534221098
 21
-2.8499999999998806
 31
0.0
  0
LINE
  8
0
  6
CONTINUOUS
 62
               4
  5
3DE
 10
543.82399006203968
 20
-2.8499999999998842
 30
0.0
 11
549.70046406340157
 21
-6.2499999999999716
 31
0.0
  0
LINE
  8
0
  6
CONTINUOUS
 62
               4
  5
3DF
 10
552.89421787709512
 20
0.7500000000000817
 30
0.0
 11
552.89421787709512
 21
-2.8499999999998842
 31
0.0
  0
LINE
  8
0
  6
CONTINUOUS
 62
               4
  5
3E0
 10
563.35731831289377
 20
-6.2499999999999716
 30
0.0
 11
555.84480534221098
 21
-2.8499999999998806
 31
0.0
  0
LINE
  8
0
  6
CONTINUOUS
 62
               4
  5
3E1
 10
566.20046406340157
 20
-6.2499999999999716
 30
0.0
 11
549.70046406340157
 21
-6.2499999999999716
 31
0.0
  0
LINE
  8
0
  6
CONTINUOUS
 62
               4
  5
3E2
 10
566.20046406340157
 20
-6.2499999999999716
 30
0.0
 11
566.20046406340157
 21
0.7500000000000853
 31
0.0
  0
LINE
  8
0
  6
CONTINUOUS
 62
               4
  5
3E3
 10
566.20046406340157
 20
0.7500000000000853
 30
0.0
 11
540.87340259692382
 21
0.7500000000000817
 31
0.0
  0
POINT
  8
0
  6
CONTINUOUS
 62
               4
  5
3E4
 10
-253.68730498706935
 20
-969.39819548118999
 30
0.0
  0
POINT
  8
0
  6
CONTINUOUS
 62
               4
  5
3E5
 10
-543.88730498706923
 20
-969.39819548118976
 30
0.0
  0
POINT
  8
0
  6
CONTINUOUS
 62
               4
  5
3E6
 10
-356.2332623828359
 20
-861.33031141215497
 30
0.0
  0
POINT
  8
0
  6
CONTINUOUS
 62
               4
  5
3E7
 10
236.18438774928035
 20
-969.39819548118999
 30
0.0
  0
POINT
  8
0
  6
CONTINUOUS
 62
               4
  5
3E8
 10
-7.7276447012055201
 20
-969.39819548118999
 30
0.0
  0
POINT
  8
0
  6
CONTINUOUS
 62
               4
  5
3E9
 10
158.72837152403753
 20
-881.44217925594717
 30
0.0
  0
LINE
  8
0
  6
CONTINUOUS
 62
               4
  5
3EA
 10
679.636987279707
 20
-1361.1775399051305
 30
0.0
 11
674.636987279707
 21
-1356.1775399051305
 31
0.0
  0
ARC
  8
0
  6
CONTINUOUS
 62
               4
  5
3EB
 10
657.136987279707
 20
-1371.7131936579833
 30
0.0
 40
19.999999999999996
 50
0.0
 51
31.788330617039573
  0
LINE
  8
0
  6
CONTINUOUS
 62
               4
  5
3EC
 10
674.13698727970745
 20
-1361.1775399051305
 30
0.0
 11
674.13698727970745
 21
-1356.1775399051301
 31
0.0
  0
LINE
  8
0
  6
CONTINUOUS
 62
               4
  5
3ED
 10
674.636987279707
 20
-1356.1775399051305
 30
0.0
 11
674.13698727970745
 21
-1356.1775399051305
 31
0.0
  0
LINE
  8
0
  6
CONTINUOUS
 62
               4
  5
3EE
 10
679.38698727970723
 20
-1361.4275399051305
 30
0.0
 11
674.13698727970745
 21
-1356.1775399051305
 31
0.0
  0
LINE
  8
0
  6
CONTINUOUS
 62
               4
  5
3EF
 10
679.38698727970723
 20
-1361.4275399051305
 30
0.0
 11
679.636987279707
 21
-1361.1775399051305
 31
0.0
  0
LINE
  8
0
  6
CONTINUOUS
 62
               4
  5
3F0
 10
679.636987279707
 20
-1361.1775399051305
 30
0.0
 11
679.636987279707
 21
-1491.8662172551003
 31
0.0
  0
LINE
  8
0
  6
CONTINUOUS
 62
               4
  5
3F1
 10
679.38698727970723
 20
-1361.4275399051305
 30
0.0
 11
679.38698727970723
 21
-1491.5808601479648
 31
0.0
  0
LINE
  8
0
  6
CONTINUOUS
 62
               4
  5
3F2
 10
677.136987279707
 20
-1371.5601700608661
 30
0.0
 11
677.136987279707
 21
-1490.7131936579833
 31
0.0
  0
POINT
  8
0
  6
CONTINUOUS
 62
               4
  5
3F3
 10
647.13698727970723
 20
-1100.6137599093991
 30
0.0
  0
POINT
  8
0
  6
CONTINUOUS
 62
               4
  5
3F4
 10
458.23698727970719
 20
-1386.2131936579833
 30
0.0
  0
POINT
  8
0
  6
CONTINUOUS
 62
               4
  5
3F5
 10
458.23698727970731
 20
-1000.7137599093987
 30
0.0
  0
LINE
  8
0
  6
DASHED2
 62
               4
  5
3F6
 10
-63.649535936600671
 20
207.75000000000051
 30
0.0
 11
50.350464063399329
 21
207.75000000000051
 31
0.0
  0
LINE
  8
0
  6
DASHED2
 62
               4
  5
3F7
 10
436.35046406339933
 20
207.75000000000051
 30
0.0
 11
550.35046406339939
 21
207.75000000000051
 31
0.0
  0
LINE
  8
0
  6
DASHED2
 62
               4
  5
3F8
 10
-563.64953593660061
 20
207.75000000000051
 30
0.0
 11
-449.64953593660067
 21
207.75000000000051
 31
0.0
  0
LINE
  8
0
  6
DASHED2
 62
               4
  5
3F9
 10
545.63698727970723
 20
-1329.7131936579833
 30
0.0
 11
659.636987279707
 21
-1329.7131936579833
 31
0.0
  0
INSERT
  8
0
  6
CONTINUOUS
  5
3FA
  2
GROUP_1
 10
0.0
 20
0.0
 30
0.0
  0
INSERT
  8
0
  6
CONTINUOUS
  5
3FB
  2
GROUP_2
 10
0.0
 20
0.0
 30
0.0
  0
INSERT
  8
0
  6
CONTINUOUS
  5
3FC
  2
GROUP_3
 10
0.0
 20
0.0
 30
0.0
  0
INSERT
  8
0
  6
CONTINUOUS
  5
3FD
  2
GROUP_4
 10
0.0
 20
0.0
 30
0.0
  0
INSERT
  8
0
  6
CONTINUOUS
  5
3FE
  2
GROUP_5
 10
0.0
 20
0.0
 30
0.0
  0
INSERT
  8
0
  6
CONTINUOUS
  5
3FF
  2
GROUP_6
 10
0.0
 20
0.0
 30
0.0
  0
INSERT
  8
0
  6
CONTINUOUS
  5
400
  2
GROUP_7
 10
0.0
 20
0.0
 30
0.0
  0
INSERT
  8
0
  6
CONTINUOUS
  5
401
  2
GROUP_8
 10
0.0
 20
0.0
 30
0.0
  0
INSERT
  8
0
  6
CONTINUOUS
  5
402
  2
GROUP_9
 10
0.0
 20
0.0
 30
0.0
  0
INSERT
  8
0
  6
CONTINUOUS
  5
403
  2
GROUP_10
 10
0.0
 20
0.0
 30
0.0
  0
POINT
  8
0
  6
CONTINUOUS
 62
               5
  5
404
 10
-398.78730498706938
 20
-1013.89819548119
 30
0.0
  0
POINT
  8
0
  6
CONTINUOUS
 62
               5
  5
405
 10
-225.55723347710904
 20
-1015.1889895560789
 30
0.0
  0
POINT
  8
0
  6
CONTINUOUS
 62
               5
  5
406
 10
-572.01737649702955
 20
-1015.1889895560787
 30
0.0
  0
POINT
  8
0
  6
CONTINUOUS
 62
               5
  5
407
 10
-402.02405645772495
 20
-833.20023990219465
 30
0.0
  0
POINT
  8
0
  6
CONTINUOUS
 62
               5
  5
408
 10
486.36705878966751
 20
-1432.0039877328722
 30
0.0
  0
POINT
  8
0
  6
CONTINUOUS
 62
               5
  5
409
 10
486.36705878966762
 20
-954.9229658345098
 30
0.0
  0
CIRCLE
  8
0
  6
CONTINUOUS
 62
               7
  5
40A
 10
-398.78730498706938
 20
-1020.39819548119
 30
0.0
 40
38.0
  0
CIRCLE
  8
0
  6
CONTINUOUS
 62
               7
  5
40B
 10
-398.78730498706938
 20
-1020.39819548119
 30
0.0
 40
33.5
  0
LINE
  8
0
  6
CONTINUOUS
 62
               7
  5
40C
 10
-254.28730498706938
 20
-969.39819548118999
 30
0.0
 11
-254.28730498706938
 21
-1058.3929593605155
 31
0.0
  0
LINE
  8
0
  6
CONTINUOUS
 62
               7
  5
40D
 10
-253.68730498706935
 20
-969.39819548118999
 30
0.0
 11
-254.28730498706938
 21
-969.39819548118999
 31
0.0
  0
LINE
  8
0
  6
CONTINUOUS
 62
               7
  5
40E
 10
-289.28730498706938
 20
-1057.39819548119
 30
0.0
 11
-289.28730498706938
 21
-983.39819548118999
 31
0.0
  0
LINE
  8
0
  6
CONTINUOUS
 62
               7
  5
40F
 10
-196.28730498706938
 20
-1057.39819548119
 30
0.0
 11
-196.28730498706938
 21
-970.39819548118999
 31
0.0
  0
LINE
  8
0
  6
CONTINUOUS
 62
               7
  5
410
 10
-254.28730498706938
 20
-969.39819548118999
 30
0.0
 11
-197.28730498706938
 21
-969.39819548118999
 31
0.0
  0
LINE
  8
0
  6
CONTINUOUS
 62
               7
  5
411
 10
-288.28730498706938
 20
-1058.39819548119
 30
0.0
 11
-197.28730498706938
 21
-1058.39819548119
 31
0.0
  0
LINE
  8
0
  6
CONTINUOUS
 62
               7
  5
412
 10
-197.28730498706938
 20
-969.39819548118999
 30
0.0
 11
-196.28730498706938
 21
-970.39819548118999
 31
0.0
  0
LINE
  8
0
  6
CONTINUOUS
 62
               7
  5
413
 10
-196.28730498706938
 20
-1057.39819548119
 30
0.0
 11
-197.28730498706938
 21
-1058.39819548119
 31
0.0
  0
LINE
  8
0
  6
CONTINUOUS
 62
               7
  5
414
 10
-288.28730498706938
 20
-982.39819548118999
 30
0.0
 11
-254.28730498706938
 21
-982.39819548118999
 31
0.0
  0
CIRCLE
  8
0
  6
CONTINUOUS
 62
               7
  5
415
 10
-398.78730498706938
 20
-1013.89819548119
 30
0.0
 40
44.5
  0
LINE
  8
0
  6
CONTINUOUS
 62
               7
  5
416
 10
-288.28730498706938
 20
-982.39819548118999
 30
0.0
 11
-289.28730498706938
 21
-983.39819548118999
 31
0.0
  0
LINE
  8
0
  6
CONTINUOUS
 62
               7
  5
417
 10
-289.28730498706938
 20
-1057.39819548119
 30
0.0
 11
-288.28730498706938
 21
-1058.39819548119
 31
0.0
  0
LINE
  8
0
  6
CONTINUOUS
 62
               7
  5
418
 10
-543.28730498706932
 20
-969.39819548118976
 30
0.0
 11
-543.28730498706932
 21
-1058.3929593605153
 31
0.0
  0
LINE
  8
0
  6
CONTINUOUS
 62
               7
  5
419
 10
-543.88730498706923
 20
-969.39819548118976
 30
0.0
 11
-543.28730498706932
 21
-969.39819548118976
 31
0.0
  0
LINE
  8
0
  6
CONTINUOUS
 62
               7
  5
41A
 10
-508.28730498706938
 20
-1057.3981954811898
 30
0.0
 11
-508.28730498706926
 21
-983.39819548118976
 31
0.0
  0
LINE
  8
0
  6
CONTINUOUS
 62
               7
  5
41B
 10
-601.28730498706932
 20
-1057.3981954811898
 30
0.0
 11
-601.28730498706932
 21
-970.39819548118976
 31
0.0
  0
LINE
  8
0
  6
CONTINUOUS
 62
               7
  5
41C
 10
-543.28730498706932
 20
-969.39819548118976
 30
0.0
 11
-600.28730498706932
 21
-969.39819548118976
 31
0.0
  0
LINE
  8
0
  6
CONTINUOUS
 62
               7
  5
41D
 10
-509.28730498706938
 20
-1058.3981954811898
 30
0.0
 11
-600.28730498706932
 21
-1058.3981954811898
 31
0.0
  0
LINE
  8
0
  6
CONTINUOUS
 62
               7
  5
41E
 10
-600.28730498706932
 20
-969.39819548118976
 30
0.0
 11
-601.28730498706932
 21
-970.39819548118976
 31
0.0
  0
LINE
  8
0
  6
CONTINUOUS
 62
               7
  5
41F
 10
-601.28730498706932
 20
-1057.3981954811898
 30
0.0
 11
-600.28730498706932
 21
-1058.3981954811898
 31
0.0
  0
LINE
  8
0
  6
CONTINUOUS
 62
               7
  5
420
 10
-509.28730498706926
 20
-982.39819548118976
 30
0.0
 11
-543.28730498706932
 21
-982.39819548118976
 31
0.0
  0
LINE
  8
0
  6
CONTINUOUS
 62
               7
  5
421
 10
-509.28730498706926
 20
-982.39819548118976
 30
0.0
 11
-508.28730498706926
 21
-983.39819548118976
 31
0.0
  0
LINE
  8
0
  6
CONTINUOUS
 62
               7
  5
422
 10
-508.28730498706938
 20
-1057.3981954811898
 30
0.0
 11
-509.28730498706938
 21
-1058.3981954811898
 31
0.0
  0
LINE
  8
0
  6
CONTINUOUS
 62
               7
  5
423
 10
-356.2332623828359
 20
-861.93031141215511
 30
0.0
 11
-445.22802626216145
 21
-861.93031141215488
 31
0.0
  0
LINE
  8
0
  6
CONTINUOUS
 62
               7
  5
424
 10
-356.2332623828359
 20
-861.33031141215497
 30
0.0
 11
-356.2332623828359
 21
-861.93031141215511
 31
0.0
  0
LINE
  8
0
  6
CONTINUOUS
 62
               7
  5
425
 10
-437.7332623828359
 20
-896.93031141215488
 30
0.0
 11
-363.7332623828359
 21
-896.93031141215511
 31
0.0
  0
LINE
  8
0
  6
CONTINUOUS
 62
               7
  5
426
 10
-444.23326238283579
 20
-803.93031141215488
 30
0.0
 11
-357.2332623828359
 21
-803.93031141215511
 31
0.0
  0
LINE
  8
0
  6
CONTINUOUS
 62
               7
  5
427
 10
-356.2332623828359
 20
-861.93031141215511
 30
0.0
 11
-356.2332623828359
 21
-804.93031141215511
 31
0.0
  0
LINE
  8
0
  6
CONTINUOUS
 62
               7
  5
428
 10
-438.7332623828359
 20
-895.93031141215488
 30
0.0
 11
-438.7332623828359
 21
-861.93031141215488
 31
0.0
  0
LINE
  8
0
  6
CONTINUOUS
 62
               7
  5
429
 10
-356.2332623828359
 20
-804.93031141215511
 30
0.0
 11
-357.2332623828359
 21
-803.93031141215511
 31
0.0
  0
LINE
  8
0
  6
CONTINUOUS
 62
               7
  5
42A
 10
-444.23326238283579
 20
-803.93031141215488
 30
0.0
 11
-445.23326238283579
 21
-804.93031141215488
 31
0.0
  0
LINE
  8
0
  6
CONTINUOUS
 62
               7
  5
42B
 10
-362.7332623828359
 20
-895.93031141215511
 30
0.0
 11
-362.7332623828359
 21
-861.93031141215488
 31
0.0
  0
LINE
  8
0
  6
CONTINUOUS
 62
               7
  5
42C
 10
-362.7332623828359
 20
-895.93031141215511
 30
0.0
 11
-363.7332623828359
 21
-896.93031141215511
 31
0.0
  0
LINE
  8
0
  6
CONTINUOUS
 62
               7
  5
42D
 10
-437.7332623828359
 20
-896.93031141215488
 30
0.0
 11
-438.7332623828359
 21
-895.93031141215488
 31
0.0
  0
LINE
  8
0
  6
CONTINUOUS
 62
               7
  5
42E
 10
-445.2332623828359
 20
-861.93031141215488
 30
0.0
 11
-445.2332623828359
 21
-804.93031141215488
 31
0.0
  0
LINE
  8
0
  6
CONTINUOUS
 62
               7
  5
42F
 10
209.9843877492803
 20
-1057.39819548119
 30
0.0
 11
209.9843877492803
 21
-999.39819548118999
 31
0.0
  0
LINE
  8
0
  6
CONTINUOUS
 62
               7
  5
430
 10
235.58438774928021
 20
-969.39819548118999
 30
0.0
 11
235.58438774928021
 21
-1058.39819548119
 31
0.0
  0
LINE
  8
0
  6
CONTINUOUS
 62
               7
  5
431
 10
236.18438774928035
 20
-969.39819548118999
 30
0.0
 11
235.58438774928021
 21
-969.39819548118999
 31
0.0
  0
LINE
  8
0
  6
CONTINUOUS
 62
               7
  5
432
 10
293.58438774928044
 20
-1057.39819548119
 30
0.0
 11
293.58438774928044
 21
-970.39819548118999
 31
0.0
  0
CIRCLE
  8
0
  6
CONTINUOUS
 62
               7
  5
433
 10
114.2283715240373
 20
-1028.39819548119
 30
0.0
 40
30.0
  0
CIRCLE
  8
0
  6
CONTINUOUS
 62
               7
  5
434
 10
114.2283715240373
 20
-1028.39819548119
 30
0.0
 40
25.5
  0
CIRCLE
  8
0
  6
CONTINUOUS
 62
               7
  5
435
 10
114.2283715240373
 20
-1013.89819548119
 30
0.0
 40
44.5
  0
LINE
  8
0
  6
CONTINUOUS
 62
               7
  5
436
 10
235.71883949476063
 20
-969.39819548118999
 30
0.0
 11
292.58438774928044
 21
-969.39819548118999
 31
0.0
  0
LINE
  8
0
  6
CONTINUOUS
 62
               7
  5
437
 10
210.9843877492803
 20
-1058.39819548119
 30
0.0
 11
292.58438774928044
 21
-1058.39819548119
 31
0.0
  0
LINE
  8
0
  6
CONTINUOUS
 62
               7
  5
438
 10
210.9843877492803
 20
-998.39819548118999
 30
0.0
 11
235.58438774928021
 21
-998.39819548118999
 31
0.0
  0
LINE
  8
0
  6
CONTINUOUS
 62
               7
  5
439
 10
210.9843877492803
 20
-998.39819548118999
 30
0.0
 11
209.9843877492803
 21
-999.39819548118999
 31
0.0
  0
LINE
  8
0
  6
CONTINUOUS
 62
               7
  5
43A
 10
292.58438774928044
 20
-969.39819548118999
 30
0.0
 11
293.58438774928044
 21
-970.39819548118999
 31
0.0
  0
LINE
  8
0
  6
CONTINUOUS
 62
               7
  5
43B
 10
209.9843877492803
 20
-1057.39819548119
 30
0.0
 11
210.9843877492803
 21
-1058.39819548119
 31
0.0
  0
LINE
  8
0
  6
CONTINUOUS
 62
               7
  5
43C
 10
293.58438774928044
 20
-1057.39819548119
 30
0.0
 11
292.58438774928044
 21
-1058.39819548119
 31
0.0
  0
LINE
  8
0
  6
CONTINUOUS
 62
               7
  5
43D
 10
18.472355298794525
 20
-1057.39819548119
 30
0.0
 11
18.472355298794525
 21
-999.39819548118999
 31
0.0
  0
LINE
  8
0
  6
CONTINUOUS
 62
               7
  5
43E
 10
-7.1276447012054973
 20
-969.39819548118999
 30
0.0
 11
-7.1276447012054973
 21
-1058.39819548119
 31
0.0
  0
LINE
  8
0
  6
CONTINUOUS
 62
               7
  5
43F
 10
-7.7276447012055201
 20
-969.39819548118999
 30
0.0
 11
-7.1276447012054973
 21
-969.39819548118999
 31
0.0
  0
LINE
  8
0
  6
CONTINUOUS
 62
               7
  5
440
 10
-65.127644701205497
 20
-1057.39819548119
 30
0.0
 11
-65.127644701205497
 21
-970.39819548118999
 31
0.0
  0
LINE
  8
0
  6
CONTINUOUS
 62
               7
  5
441
 10
-7.2620964466858027
 20
-969.39819548118999
 30
0.0
 11
-64.127644701205497
 21
-969.39819548118999
 31
0.0
  0
LINE
  8
0
  6
CONTINUOUS
 62
               7
  5
442
 10
17.472355298794525
 20
-1058.39819548119
 30
0.0
 11
-64.127644701205497
 21
-1058.39819548119
 31
0.0
  0
LINE
  8
0
  6
CONTINUOUS
 62
               7
  5
443
 10
17.472355298794525
 20
-998.39819548118999
 30
0.0
 11
-7.1276447012054973
 21
-998.39819548118999
 31
0.0
  0
LINE
  8
0
  6
CONTINUOUS
 62
               7
  5
444
 10
17.472355298794525
 20
-998.39819548118999
 30
0.0
 11
18.472355298794525
 21
-999.39819548118999
 31
0.0
  0
LINE
  8
0
  6
CONTINUOUS
 62
               7
  5
445
 10
-64.127644701205497
 20
-969.39819548118999
 30
0.0
 11
-65.127644701205497
 21
-970.39819548118999
 31
0.0
  0
LINE
  8
0
  6
CONTINUOUS
 62
               7
  5
446
 10
18.472355298794525
 20
-1057.39819548119
 30
0.0
 11
17.472355298794525
 21
-1058.39819548119
 31
0.0
  0
LINE
  8
0
  6
CONTINUOUS
 62
               7
  5
447
 10
-65.127644701205497
 20
-1057.39819548119
 30
0.0
 11
-64.127644701205497
 21
-1058.39819548119
 31
0.0
  0
LINE
  8
0
  6
CONTINUOUS
 62
               7
  5
448
 10
85.228371524037527
 20
-907.64217925594721
 30
0.0
 11
143.22837152403753
 21
-907.64217925594721
 31
0.0
  0
LINE
  8
0
  6
CONTINUOUS
 62
               7
  5
449
 10
158.72837152403753
 20
-882.04217925594708
 30
0.0
 11
69.728371524037527
 21
-882.04217925594708
 31
0.0
  0
LINE
  8
0
  6
CONTINUOUS
 62
               7
  5
44A
 10
158.72837152403753
 20
-881.44217925594717
 30
0.0
 11
158.72837152403753
 21
-882.04217925594708
 31
0.0
  0
LINE
  8
0
  6
CONTINUOUS
 62
               7
  5
44B
 10
70.728371524037527
 20
-824.04217925594708
 30
0.0
 11
157.72837152403753
 21
-824.04217925594708
 31
0.0
  0
LINE
  8
0
  6
CONTINUOUS
 62
               7
  5
44C
 10
158.72837152403753
 20
-881.90772751046688
 30
0.0
 11
158.72837152403753
 21
-825.04217925594708
 31
0.0
  0
LINE
  8
0
  6
CONTINUOUS
 62
               7
  5
44D
 10
84.228371524037527
 20
-906.64217925594721
 30
0.0
 11
84.228371524037527
 21
-882.04217925594708
 31
0.0
  0
LINE
  8
0
  6
CONTINUOUS
 62
               7
  5
44E
 10
144.22837152403753
 20
-906.64217925594721
 30
0.0
 11
144.22837152403753
 21
-882.04217925594708
 31
0.0
  0
LINE
  8
0
  6
CONTINUOUS
 62
               7
  5
44F
 10
144.22837152403753
 20
-906.64217925594721
 30
0.0
 11
143.22837152403753
 21
-907.64217925594721
 31
0.0
  0
LINE
  8
0
  6
CONTINUOUS
 62
               7
  5
450
 10
158.72837152403753
 20
-825.04217925594708
 30
0.0
 11
157.72837152403753
 21
-824.04217925594708
 31
0.0
  0
LINE
  8
0
  6
CONTINUOUS
 62
               7
  5
451
 10
85.228371524037527
 20
-907.64217925594721
 30
0.0
 11
84.228371524037527
 21
-906.64217925594721
 31
0.0
  0
LINE
  8
0
  6
CONTINUOUS
 62
               7
  5
452
 10
70.728371524037527
 20
-824.04217925594708
 30
0.0
 11
69.728371524037527
 21
-825.04217925594708
 31
0.0
  0
LINE
  8
0
  6
CONTINUOUS
 62
               7
  5
453
 10
69.728371524037527
 20
-881.90772751046666
 30
0.0
 11
69.728371524037527
 21
-825.04217925594708
 31
0.0
  0
CIRCLE
  8
0
  6
CONTINUOUS
 62
               7
  5
454
 10
602.63698727970723
 20
-1445.2131936579833
 30
0.0
 40
25.5
  0
CIRCLE
  8
0
  6
CONTINUOUS
 62
               7
  5
455
 10
602.63698727970723
 20
-1430.7131936579833
 30
0.0
 40
44.5
  0
CIRCLE
  8
0
  6
CONTINUOUS
 62
               7
  5
456
 10
602.63698727970723
 20
-1445.2131936579833
 30
0.0
 40
30.0
  0
LINE
  8
0
  6
CONTINUOUS
 62
               7
  5
457
 10
573.63698727970723
 20
-1126.8137599093989
 30
0.0
 11
631.63698727970723
 21
-1126.8137599093989
 31
0.0
  0
LINE
  8
0
  6
CONTINUOUS
 62
               7
  5
458
 10
647.13698727970723
 20
-1101.213759909399
 30
0.0
 11
558.13698727970723
 21
-1101.213759909399
 31
0.0
  0
LINE
  8
0
  6
CONTINUOUS
 62
               7
  5
459
 10
647.13698727970723
 20
-1100.6137599093991
 30
0.0
 11
647.13698727970723
 21
-1101.213759909399
 31
0.0
  0
LINE
  8
0
  6
CONTINUOUS
 62
               7
  5
45A
 10
559.13698727970723
 20
-1043.213759909399
 30
0.0
 11
646.13698727970723
 21
-1043.213759909399
 31
0.0
  0
LINE
  8
0
  6
CONTINUOUS
 62
               7
  5
45B
 10
647.13698727970723
 20
-1101.0793081639185
 30
0.0
 11
647.13698727970723
 21
-1044.213759909399
 31
0.0
  0
LINE
  8
0
  6
CONTINUOUS
 62
               7
  5
45C
 10
572.63698727970723
 20
-1125.8137599093989
 30
0.0
 11
572.63698727970723
 21
-1101.213759909399
 31
0.0
  0
LINE
  8
0
  6
CONTINUOUS
 62
               7
  5
45D
 10
632.63698727970723
 20
-1125.8137599093989
 30
0.0
 11
632.63698727970723
 21
-1101.213759909399
 31
0.0
  0
LINE
  8
0
  6
CONTINUOUS
 62
               7
  5
45E
 10
632.63698727970723
 20
-1125.8137599093989
 30
0.0
 11
631.63698727970723
 21
-1126.8137599093989
 31
0.0
  0
LINE
  8
0
  6
CONTINUOUS
 62
               7
  5
45F
 10
647.13698727970723
 20
-1044.213759909399
 30
0.0
 11
646.13698727970723
 21
-1043.213759909399
 31
0.0
  0
LINE
  8
0
  6
CONTINUOUS
 62
               7
  5
460
 10
573.63698727970723
 20
-1126.8137599093989
 30
0.0
 11
572.63698727970723
 21
-1125.8137599093989
 31
0.0
  0
LINE
  8
0
  6
CONTINUOUS
 62
               7
  5
461
 10
559.13698727970723
 20
-1043.213759909399
 30
0.0
 11
558.13698727970723
 21
-1044.213759909399
 31
0.0
  0
LINE
  8
0
  6
CONTINUOUS
 62
               7
  5
462
 10
558.13698727970723
 20
-1101.0793081639185
 30
0.0
 11
558.13698727970723
 21
-1044.213759909399
 31
0.0
  0
LINE
  8
0
  6
CONTINUOUS
 62
               7
  5
463
 10
457.63698727970717
 20
-1386.2131936579833
 30
0.0
 11
457.63698727970717
 21
-1475.2079575373089
 31
0.0
  0
LINE
  8
0
  6
CONTINUOUS
 62
               7
  5
464
 10
458.23698727970719
 20
-1386.2131936579833
 30
0.0
 11
457.63698727970717
 21
-1386.2131936579833
 31
0.0
  0
LINE
  8
0
  6
CONTINUOUS
 62
               7
  5
465
 10
422.63698727970717
 20
-1474.2131936579833
 30
0.0
 11
422.63698727970717
 21
-1400.2131936579833
 31
0.0
  0
LINE
  8
0
  6
CONTINUOUS
 62
               7
  5
466
 10
515.63698727970723
 20
-1474.2131936579833
 30
0.0
 11
515.63698727970723
 21
-1387.2131936579833
 31
0.0
  0
LINE
  8
0
  6
CONTINUOUS
 62
               7
  5
467
 10
457.63698727970717
 20
-1386.2131936579833
 30
0.0
 11
514.63698727970723
 21
-1386.2131936579833
 31
0.0
  0
LINE
  8
0
  6
CONTINUOUS
 62
               7
  5
468
 10
423.63698727970717
 20
-1475.2131936579833
 30
0.0
 11
514.63698727970723
 21
-1475.2131936579833
 31
0.0
  0
LINE
  8
0
  6
CONTINUOUS
 62
               7
  5
469
 10
514.63698727970723
 20
-1386.2131936579833
 30
0.0
 11
515.63698727970723
 21
-1387.2131936579833
 31
0.0
  0
LINE
  8
0
  6
CONTINUOUS
 62
               7
  5
46A
 10
515.63698727970723
 20
-1474.2131936579833
 30
0.0
 11
514.63698727970723
 21
-1475.2131936579833
 31
0.0
  0
LINE
  8
0
  6
CONTINUOUS
 62
               7
  5
46B
 10
423.63698727970717
 20
-1399.2131936579833
 30
0.0
 11
457.63698727970717
 21
-1399.2131936579833
 31
0.0
  0
LINE
  8
0
  6
CONTINUOUS
 62
               7
  5
46C
 10
423.63698727970717
 20
-1399.2131936579833
 30
0.0
 11
422.63698727970717
 21
-1400.2131936579833
 31
0.0
  0
LINE
  8
0
  6
CONTINUOUS
 62
               7
  5
46D
 10
422.63698727970717
 20
-1474.2131936579833
 30
0.0
 11
423.63698727970717
 21
-1475.2131936579833
 31
0.0
  0
LINE
  8
0
  6
CONTINUOUS
 62
               7
  5
46E
 10
457.63698727970717
 20
-1000.7137599093987
 30
0.0
 11
457.6369872797074
 21
-911.71899603007319
 31
0.0
  0
LINE
  8
0
  6
CONTINUOUS
 62
               7
  5
46F
 10
458.23698727970731
 20
-1000.7137599093987
 30
0.0
 11
457.63698727970717
 21
-1000.7137599093987
 31
0.0
  0
LINE
  8
0
  6
CONTINUOUS
 62
               7
  5
470
 10
422.6369872797074
 20
-919.21375990939873
 30
0.0
 11
422.63698727970717
 21
-993.21375990939873
 31
0.0
  0
LINE
  8
0
  6
CONTINUOUS
 62
               7
  5
471
 10
515.63698727970745
 20
-912.71375990939896
 30
0.0
 11
515.63698727970723
 21
-999.71375990939873
 31
0.0
  0
LINE
  8
0
  6
CONTINUOUS
 62
               7
  5
472
 10
457.63698727970717
 20
-1000.7137599093987
 30
0.0
 11
514.63698727970723
 21
-1000.7137599093987
 31
0.0
  0
LINE
  8
0
  6
CONTINUOUS
 62
               7
  5
473
 10
423.6369872797074
 20
-918.21375990939873
 30
0.0
 11
457.6369872797074
 21
-918.21375990939873
 31
0.0
  0
LINE
  8
0
  6
CONTINUOUS
 62
               7
  5
474
 10
514.63698727970723
 20
-1000.7137599093987
 30
0.0
 11
515.63698727970723
 21
-999.71375990939873
 31
0.0
  0
LINE
  8
0
  6
CONTINUOUS
 62
               7
  5
475
 10
515.63698727970745
 20
-912.71375990939896
 30
0.0
 11
514.63698727970745
 21
-911.71375990939896
 31
0.0
  0
LINE
  8
0
  6
CONTINUOUS
 62
               7
  5
476
 10
423.63698727970717
 20
-994.21375990939873
 30
0.0
 11
457.6369872797074
 21
-994.21375990939873
 31
0.0
  0
LINE
  8
0
  6
CONTINUOUS
 62
               7
  5
477
 10
423.63698727970717
 20
-994.21375990939873
 30
0.0
 11
422.63698727970717
 21
-993.21375990939873
 31
0.0
  0
LINE
  8
0
  6
CONTINUOUS
 62
               7
  5
478
 10
422.6369872797074
 20
-919.21375990939873
 30
0.0
 11
423.6369872797074
 21
-918.21375990939873
 31
0.0
  0
LINE
  8
0
  6
CONTINUOUS
 62
               7
  5
479
 10
457.6369872797074
 20
-911.71375990939873
 30
0.0
 11
514.63698727970745
 21
-911.71375990939873
 31
0.0
  0
CIRCLE
  8
0
  6
DASHED
 62
               7
  5
47A
 10
-398.78730498706938
 20
-1013.89819548119
 30
0.0
 40
40.0
  0
CIRCLE
  8
0
  6
DASHED
 62
               7
  5
47B
 10
114.2283715240373
 20
-1013.89819548119
 30
0.0
 40
40.0
  0
CIRCLE
  8
0
  6
DASHED
 62
               7
  5
47C
 10
602.63698727970723
 20
-1430.7131936579833
 30
0.0
 40
40.0
  0
TEXT
  8
0
 62
               3
  5
47D
 10
-398.78730498706938
 20
-1098.3981954811898
 30
0.0
 40
40.0
  1
EMB_80×65
 41
0.8
 72
               1
 11
-398.78730498706938
 21
-1098.3981954811898
 31
0.0
 73
               3
  0
TEXT
  8
0
 62
               3
  5
47E
 10
114.2283715240373
 20
-1098.39819548119
 30
0.0
 40
40.0
  1
EMB_80×50
 41
0.8
 72
               1
 11
114.2283715240373
 21
-1098.39819548119
 31
0.0
 73
               3
  0
TEXT
  8
0
 62
               3
  5
47F
 10
598.93958330206692
 20
-776.76739140417965
 30
0.0
 40
40.0
  1
EMB使用例
 41
0.8
 72
               1
 11
598.93958330206692
 21
-776.76739140417965
 31
0.0
 73
               3
  0
TEXT
  8
0
 62
               3
  5
480
 10
-130.39224002749157
 20
-722.40725550384013
 30
0.0
 40
35.0
  1
横枝管に呼び６５、５０の管を接続するときは、EMBをご使用ください。
 41
0.8
 72
               1
 11
-130.39224002749157
 21
-722.40725550384013
 31
0.0
 73
               3
  0
ENDSEC
  0
EOF
