  0
SECTION
  2
HEADER
  9
$ACADVER
  1
AC1009
  9
$INSBASE
 10
0.0
 20
0.0
 30
0.0
  9
$EXTMIN
 10
-641.28625489580429
 20
-1552.4158253300066
 30
0.0
  9
$EXTMAX
 10
744.43500906164365
 20
678.14540833980402
 30
0.0
  9
$LIMMIN
 10
-684.59004439447449
 20
-1622.1208638821881
  9
$LIMMAX
 10
787.73879856031385
 20
747.8504468919856
  9
$ORTHOMODE
 70
               0
  9
$REGENMODE
 70
               1
  9
$FILLMODE
 70
               1
  9
$QTEXTMODE
 70
               0
  9
$MIRRTEXT
 70
               1
  9
$DRAGMODE
 70
               2
  9
$LTSCALE
 40
1.0
  9
$OSMODE
 70
               0
  9
$ATTMODE
 70
               1
  9
$TEXTSIZE
 40
0.2
  9
$TRACEWID
 40
0.05
  9
$TEXTSTYLE
  7
STANDARD
  9
$CLAYER
  8
0
  9
$CELTYPE
  6
CONTINUOUS
  9
$CECOLOR
 62
             256
  9
$DIMSCALE
 40
1.0
  9
$DIMASZ
 40
0.18
  9
$DIMEXO
 40
0.0625
  9
$DIMDLI
 40
0.38
  9
$DIMRND
 40
0.0
  9
$DIMDLE
 40
0.0
  9
$DIMEXE
 40
0.18
  9
$DIMTP
 40
0.0
  9
$DIMTM
 40
0.0
  9
$DIMTXT
 40
0.18
  9
$DIMCEN
 40
0.09
  9
$DIMTSZ
 40
0.0
  9
$DIMTOL
 70
               0
  9
$DIMLIM
 70
               0
  9
$DIMTIH
 70
               1
  9
$DIMTOH
 70
               1
  9
$DIMSE1
 70
               0
  9
$DIMSE2
 70
               0
  9
$DIMTAD
 70
               0
  9
$DIMZIN
 70
               0
  9
$DIMBLK
  1

  9
$DIMASO
 70
               1
  9
$DIMSHO
 70
               1
  9
$DIMPOST
  1

  9
$DIMAPOST
  1

  9
$DIMALT
 70
               0
  9
$DIMALTD
 70
               2
  9
$DIMALTF
 40
25.399999999999999
  9
$DIMLFAC
 40
1.0
  9
$DIMTOFL
 70
               0
  9
$DIMTVP
 40
0.0
  9
$DIMTIX
 70
               0
  9
$DIMSOXD
 70
               0
  9
$DIMSAH
 70
               0
  9
$DIMBLK1
  1

  9
$DIMBLK2
  1

  9
$DIMSTYLE
  2
STANDARD
  9
$DIMCLRD
 70
               0
  9
$DIMCLRE
 70
               0
  9
$DIMCLRT
 70
               0
  9
$DIMTFAC
 40
1.0
  9
$DIMGAP
 40
0.09
  9
$LUNITS
 70
               2
  9
$LUPREC
 70
               4
  9
$AXISMODE
 70
               0
  9
$AXISUNIT
 10
0.0
 20
0.0
  9
$SKETCHINC
 40
0.1
  9
$FILLETRAD
 40
0.0
  9
$AUNITS
 70
               0
  9
$AUPREC
 70
               0
  9
$MENU
  1
acad
  9
$ELEVATION
 40
0.0
  9
$PELEVATION
 40
0.0
  9
$THICKNESS
 40
0.0
  9
$LIMCHECK
 70
               0
  9
$BLIPMODE
 70
               1
  9
$CHAMFERA
 40
0.0
  9
$CHAMFERB
 40
0.0
  9
$SKPOLY
 70
               0
  9
$TDCREATE
 40
0.000000000
  9
$TDUPDATE
 40
0.000000000
  9
$TDINDWG
 40
0.0000000000
  9
$TDUSRTIMER
 40
0.0000000000
  9
$USRTIMER
 70
               1
  9
$ANGBASE
 50
0.0
  9
$ANGDIR
 70
               0
  9
$PDMODE
 70
               0
  9
$PDSIZE
 40
1.0
  9
$PLINEWID
 40
0.0
  9
$COORDS
 70
               1
  9
$SPLFRAME
 70
               0
  9
$SPLINETYPE
 70
               6
  9
$SPLINESEGS
 70
               8
  9
$ATTDIA
 70
               0
  9
$ATTREQ
 70
               1
  9
$HANDLING
 70
               1
  9
$HANDSEED
  5
457
  9
$SURFTAB1
 70
               6
  9
$SURFTAB2
 70
               6
  9
$SURFTYPE
 70
               6
  9
$SURFU
 70
               6
  9
$SURFV
 70
               6
  9
$UCSNAME
  2

  9
$UCSORG
 10
0.0
 20
0.0
 30
0.0
  9
$UCSXDIR
 10
1.0
 20
0.0
 30
0.0
  9
$UCSYDIR
 10
0.0
 20
1.0
 30
0.0
  9
$PUCSNAME
  2

  9
$PUCSORG
 10
0.0
 20
0.0
 30
0.0
  9
$PUCSXDIR
 10
1.0
 20
0.0
 30
0.0
  9
$PUCSYDIR
 10
0.0
 20
1.0
 30
0.0
  9
$USERI1
 70
               0
  9
$USERI2
 70
               0
  9
$USERI3
 70
               0
  9
$USERI4
 70
               0
  9
$USERI5
 70
               0
  9
$USERR1
 40
0.0
  9
$USERR2
 40
0.0
  9
$USERR3
 40
0.0
  9
$USERR4
 40
0.0
  9
$USERR5
 40
0.0
  9
$WORLDVIEW
 70
               1
  9
$SHADEDGE
 70
               3
  9
$SHADEDIF
 70
              70
  9
$TILEMODE
 70
               1
  9
$MAXACTVP
 70
              16
  9
$PINSBASE
 10
0.0
 20
0.0
 30
0.0
  9
$PLIMCHECK
 70
               0
  9
$PEXTMIN
 10
1.0000000000000000E+20
 20
1.0000000000000000E+20
 30
1.0000000000000000E+20
  9
$PEXTMAX
 10
-1.0000000000000000E+20
 20
-1.0000000000000000E+20
 30
-1.0000000000000000E+20
  9
$PLIMMIN
 10
0.0
 20
0.0
  9
$PLIMMAX
 10
12.0
 20
9.0
  9
$UNITMODE
 70
               0
  9
$VISRETAIN
 70
               0
  9
$PLINEGEN
 70
               1
  9
$PSLTSCALE
 70
               0
  9
$TREEDEPTH
 70
            3020
  9
$DWGCODEPAGE
  3
dos932
  0
ENDSEC
  0
SECTION
  2
TABLES
  0
TABLE
  2
VPORT
 70
               1
  0
VPORT
  2
*ACTIVE
 70
               0
 10
0.0
 20
0.0
 11
1.0
 21
1.0
 12
51.574377082919682
 22
-437.13520849510127
 13
0.0
 23
0.0
 14
1.0
 24
1.0
 15
0.0
 25
0.0
 16
0.0
 26
0.0
 36
1.0
 17
0.0
 27
0.0
 37
0.0
 40
2369.9713107741736
 41
0.6212433189639912
 42
50.0
 43
0.0
 44
0.0
 50
0.0
 51
0.0
 71
               0
 72
             100
 73
               1
 74
               1
 75
               0
 76
               0
 77
               0
 78
               0
  0
ENDTAB
  0
TABLE
  2
LTYPE
 70
              26
  0
LTYPE
  2
CONTINUOUS
 70
               0
  3
Solid line
 72
              65
 73
               0
 40
0.0
  0
LTYPE
  2
HIDDENX2
 70
               0
  3
CADPAC FUSION LINETYPE
 72
              65
 73
               2
 40
64.0
 49
48.0
 49
-16.0
  0
LTYPE
  2
HIDDEN
 70
               0
  3
CADPAC FUSION LINETYPE
 72
              65
 73
               2
 40
48.0
 49
32.0
 49
-16.0
  0
LTYPE
  2
HIDDEN2
 70
               0
  3
CADPAC FUSION LINETYPE
 72
              65
 73
               2
 40
40.0
 49
24.0
 49
-16.0
  0
LTYPE
  2
DASHED
 70
               0
  3
CADPAC FUSION LINETYPE
 72
              65
 73
               2
 40
48.0
 49
32.0
 49
-16.0
  0
LTYPE
  2
DASHED2
 70
               0
  3
CADPAC FUSION LINETYPE
 72
              65
 73
               2
 40
36.0
 49
24.0
 49
-12.0
  0
LTYPE
  2
DASHEDX2
 70
               0
  3
CADPAC FUSION LINETYPE
 72
              65
 73
               2
 40
72.0
 49
48.0
 49
-24.0
  0
LTYPE
  2
DOTX2
 70
               0
  3
CADPAC FUSION LINETYPE
 72
              65
 73
               2
 40
20.0
 49
0.0
 49
-20.0
  0
LTYPE
  2
DOT
 70
               0
  3
CADPAC FUSION LINETYPE
 72
              65
 73
               2
 40
16.0
 49
0.0
 49
-16.0
  0
LTYPE
  2
DOTS
 70
               0
  3
CADPAC FUSION LINETYPE
 72
              65
 73
               2
 40
16.0
 49
0.0
 49
-16.0
  0
LTYPE
  2
DOT2
 70
               0
  3
CADPAC FUSION LINETYPE
 72
              65
 73
               2
 40
12.0
 49
0.0
 49
-12.0
  0
LTYPE
  2
CENTERX2
 70
               0
  3
CADPAC FUSION LINETYPE
 72
              65
 73
               4
 40
96.0
 49
40.0
 49
-20.0
 49
16.0
 49
-20.0
  0
LTYPE
  2
CENTER
 70
               0
  3
CADPAC FUSION LINETYPE
 72
              65
 73
               4
 40
73.599999999999994
 49
32.0
 49
-16.0
 49
9.5999999999999996
 49
-16.0
  0
LTYPE
  2
CENTER2
 70
               0
  3
CADPAC FUSION LINETYPE
 72
              65
 73
               4
 40
51.200000000000003
 49
24.0
 49
-12.0
 49
3.2000000000000002
 49
-12.0
  0
LTYPE
  2
DASHDOTX2
 70
               0
  3
CADPAC FUSION LINETYPE
 72
              65
 73
               4
 40
80.0
 49
40.0
 49
-20.0
 49
0.0
 49
-20.0
  0
LTYPE
  2
DASHDOT
 70
               0
  3
CADPAC FUSION LINETYPE
 72
              65
 73
               4
 40
64.0
 49
32.0
 49
-16.0
 49
0.0
 49
-16.0
  0
LTYPE
  2
DASHDOT2
 70
               0
  3
CADPAC FUSION LINETYPE
 72
              65
 73
               4
 40
48.0
 49
24.0
 49
-12.0
 49
0.0
 49
-12.0
  0
LTYPE
  2
DIVIDEX2
 70
               0
  3
CADPAC FUSION LINETYPE
 72
              65
 73
               6
 40
100.0
 49
40.0
 49
-20.0
 49
0.0
 49
-20.0
 49
0.0
 49
-20.0
  0
LTYPE
  2
DIVIDE
 70
               0
  3
CADPAC FUSION LINETYPE
 72
              65
 73
               6
 40
80.0
 49
32.0
 49
-16.0
 49
0.0
 49
-16.0
 49
0.0
 49
-16.0
  0
LTYPE
  2
DIVIDE2
 70
               0
  3
CADPAC FUSION LINETYPE
 72
              65
 73
               6
 40
60.0
 49
24.0
 49
-12.0
 49
0.0
 49
-12.0
 49
0.0
 49
-12.0
  0
LTYPE
  2
BORDERX2
 70
               0
  3
CADPAC FUSION LINETYPE
 72
              65
 73
               6
 40
140.0
 49
40.0
 49
-20.0
 49
40.0
 49
-20.0
 49
0.0
 49
-20.0
  0
LTYPE
  2
BORDER
 70
               0
  3
CADPAC FUSION LINETYPE
 72
              65
 73
               6
 40
112.0
 49
32.0
 49
-16.0
 49
32.0
 49
-16.0
 49
0.0
 49
-16.0
  0
LTYPE
  2
BORDER2
 70
               0
  3
CADPAC FUSION LINETYPE
 72
              65
 73
               6
 40
84.0
 49
24.0
 49
-12.0
 49
24.0
 49
-12.0
 49
0.0
 49
-12.0
  0
LTYPE
  2
PHANTOMX2
 70
               0
  3
CADPAC FUSION LINETYPE
 72
              65
 73
               6
 40
120.0
 49
40.0
 49
-16.0
 49
16.0
 49
-16.0
 49
16.0
 49
-16.0
  0
LTYPE
  2
PHANTOM
 70
               0
  3
CADPAC FUSION LINETYPE
 72
              65
 73
               6
 40
99.199999999999989
 49
32.0
 49
-16.0
 49
9.5999999999999996
 49
-16.0
 49
9.5999999999999996
 49
-16.0
  0
LTYPE
  2
PHANTOM2
 70
               0
  3
CADPAC FUSION LINETYPE
 72
              65
 73
               6
 40
84.799999999999997
 49
24.0
 49
-16.0
 49
6.4000000000000004
 49
-16.0
 49
6.4000000000000004
 49
-16.0
  0
ENDTAB
  0
TABLE
  2
LAYER
 70
             256
  0
LAYER
  2
0
 70
               0
 62
               7
  6
CONTINUOUS
  0
LAYER
  2
LAYER001
 70
               0
 62
               7
  6
CONTINUOUS
  0
LAYER
  2
LAYER002
 70
               0
 62
               7
  6
CONTINUOUS
  0
LAYER
  2
LAYER003
 70
               0
 62
               7
  6
CONTINUOUS
  0
LAYER
  2
LAYER004
 70
               0
 62
               7
  6
CONTINUOUS
  0
LAYER
  2
LAYER005
 70
               0
 62
               7
  6
CONTINUOUS
  0
LAYER
  2
LAYER006
 70
               0
 62
               7
  6
CONTINUOUS
  0
LAYER
  2
LAYER007
 70
               0
 62
               7
  6
CONTINUOUS
  0
LAYER
  2
LAYER008
 70
               0
 62
               7
  6
CONTINUOUS
  0
LAYER
  2
LAYER009
 70
               0
 62
               7
  6
CONTINUOUS
  0
LAYER
  2
LAYER010
 70
               0
 62
               7
  6
CONTINUOUS
  0
LAYER
  2
LAYER011
 70
               0
 62
               7
  6
CONTINUOUS
  0
LAYER
  2
LAYER012
 70
               0
 62
               7
  6
CONTINUOUS
  0
LAYER
  2
LAYER013
 70
               0
 62
               7
  6
CONTINUOUS
  0
LAYER
  2
LAYER014
 70
               0
 62
               7
  6
CONTINUOUS
  0
LAYER
  2
LAYER015
 70
               0
 62
               7
  6
CONTINUOUS
  0
LAYER
  2
LAYER016
 70
               0
 62
               7
  6
CONTINUOUS
  0
LAYER
  2
LAYER017
 70
               0
 62
               7
  6
CONTINUOUS
  0
LAYER
  2
LAYER018
 70
               0
 62
               7
  6
CONTINUOUS
  0
LAYER
  2
LAYER019
 70
               0
 62
               7
  6
CONTINUOUS
  0
LAYER
  2
LAYER020
 70
               0
 62
               7
  6
CONTINUOUS
  0
LAYER
  2
LAYER021
 70
               0
 62
               7
  6
CONTINUOUS
  0
LAYER
  2
LAYER022
 70
               0
 62
               7
  6
CONTINUOUS
  0
LAYER
  2
LAYER023
 70
               0
 62
               7
  6
CONTINUOUS
  0
LAYER
  2
LAYER024
 70
               0
 62
               7
  6
CONTINUOUS
  0
LAYER
  2
LAYER025
 70
               0
 62
               7
  6
CONTINUOUS
  0
LAYER
  2
LAYER026
 70
               0
 62
               7
  6
CONTINUOUS
  0
LAYER
  2
LAYER027
 70
               0
 62
               7
  6
CONTINUOUS
  0
LAYER
  2
LAYER028
 70
               0
 62
               7
  6
CONTINUOUS
  0
LAYER
  2
LAYER029
 70
               0
 62
               7
  6
CONTINUOUS
  0
LAYER
  2
LAYER030
 70
               0
 62
               7
  6
CONTINUOUS
  0
LAYER
  2
LAYER031
 70
               0
 62
               7
  6
CONTINUOUS
  0
LAYER
  2
LAYER032
 70
               0
 62
               7
  6
CONTINUOUS
  0
LAYER
  2
LAYER033
 70
               0
 62
               7
  6
CONTINUOUS
  0
LAYER
  2
LAYER034
 70
               0
 62
               7
  6
CONTINUOUS
  0
LAYER
  2
LAYER035
 70
               0
 62
               7
  6
CONTINUOUS
  0
LAYER
  2
LAYER036
 70
               0
 62
               7
  6
CONTINUOUS
  0
LAYER
  2
LAYER037
 70
               0
 62
               7
  6
CONTINUOUS
  0
LAYER
  2
LAYER038
 70
               0
 62
               7
  6
CONTINUOUS
  0
LAYER
  2
LAYER039
 70
               0
 62
               7
  6
CONTINUOUS
  0
LAYER
  2
LAYER040
 70
               0
 62
               7
  6
CONTINUOUS
  0
LAYER
  2
LAYER041
 70
               0
 62
               7
  6
CONTINUOUS
  0
LAYER
  2
LAYER042
 70
               0
 62
               7
  6
CONTINUOUS
  0
LAYER
  2
LAYER043
 70
               0
 62
               7
  6
CONTINUOUS
  0
LAYER
  2
LAYER044
 70
               0
 62
               7
  6
CONTINUOUS
  0
LAYER
  2
LAYER045
 70
               0
 62
               7
  6
CONTINUOUS
  0
LAYER
  2
LAYER046
 70
               0
 62
               7
  6
CONTINUOUS
  0
LAYER
  2
LAYER047
 70
               0
 62
               7
  6
CONTINUOUS
  0
LAYER
  2
LAYER048
 70
               0
 62
               7
  6
CONTINUOUS
  0
LAYER
  2
LAYER049
 70
               0
 62
               7
  6
CONTINUOUS
  0
LAYER
  2
LAYER050
 70
               0
 62
               7
  6
CONTINUOUS
  0
LAYER
  2
LAYER051
 70
               0
 62
               7
  6
CONTINUOUS
  0
LAYER
  2
LAYER052
 70
               0
 62
               7
  6
CONTINUOUS
  0
LAYER
  2
LAYER053
 70
               0
 62
               7
  6
CONTINUOUS
  0
LAYER
  2
LAYER054
 70
               0
 62
               7
  6
CONTINUOUS
  0
LAYER
  2
LAYER055
 70
               0
 62
               7
  6
CONTINUOUS
  0
LAYER
  2
LAYER056
 70
               0
 62
               7
  6
CONTINUOUS
  0
LAYER
  2
LAYER057
 70
               0
 62
               7
  6
CONTINUOUS
  0
LAYER
  2
LAYER058
 70
               0
 62
               7
  6
CONTINUOUS
  0
LAYER
  2
LAYER059
 70
               0
 62
               7
  6
CONTINUOUS
  0
LAYER
  2
LAYER060
 70
               0
 62
               7
  6
CONTINUOUS
  0
LAYER
  2
LAYER061
 70
               0
 62
               7
  6
CONTINUOUS
  0
LAYER
  2
LAYER062
 70
               0
 62
               7
  6
CONTINUOUS
  0
LAYER
  2
LAYER063
 70
               0
 62
               7
  6
CONTINUOUS
  0
LAYER
  2
LAYER064
 70
               0
 62
               7
  6
CONTINUOUS
  0
LAYER
  2
LAYER065
 70
               0
 62
               7
  6
CONTINUOUS
  0
LAYER
  2
LAYER066
 70
               0
 62
               7
  6
CONTINUOUS
  0
LAYER
  2
LAYER067
 70
               0
 62
               7
  6
CONTINUOUS
  0
LAYER
  2
LAYER068
 70
               0
 62
               7
  6
CONTINUOUS
  0
LAYER
  2
LAYER069
 70
               0
 62
               7
  6
CONTINUOUS
  0
LAYER
  2
LAYER070
 70
               0
 62
               7
  6
CONTINUOUS
  0
LAYER
  2
LAYER071
 70
               0
 62
               7
  6
CONTINUOUS
  0
LAYER
  2
LAYER072
 70
               0
 62
               7
  6
CONTINUOUS
  0
LAYER
  2
LAYER073
 70
               0
 62
               7
  6
CONTINUOUS
  0
LAYER
  2
LAYER074
 70
               0
 62
               7
  6
CONTINUOUS
  0
LAYER
  2
LAYER075
 70
               0
 62
               7
  6
CONTINUOUS
  0
LAYER
  2
LAYER076
 70
               0
 62
               7
  6
CONTINUOUS
  0
LAYER
  2
LAYER077
 70
               0
 62
               7
  6
CONTINUOUS
  0
LAYER
  2
LAYER078
 70
               0
 62
               7
  6
CONTINUOUS
  0
LAYER
  2
LAYER079
 70
               0
 62
               7
  6
CONTINUOUS
  0
LAYER
  2
LAYER080
 70
               0
 62
               7
  6
CONTINUOUS
  0
LAYER
  2
LAYER081
 70
               0
 62
               7
  6
CONTINUOUS
  0
LAYER
  2
LAYER082
 70
               0
 62
               7
  6
CONTINUOUS
  0
LAYER
  2
LAYER083
 70
               0
 62
               7
  6
CONTINUOUS
  0
LAYER
  2
LAYER084
 70
               0
 62
               7
  6
CONTINUOUS
  0
LAYER
  2
LAYER085
 70
               0
 62
               7
  6
CONTINUOUS
  0
LAYER
  2
LAYER086
 70
               0
 62
               7
  6
CONTINUOUS
  0
LAYER
  2
LAYER087
 70
               0
 62
               7
  6
CONTINUOUS
  0
LAYER
  2
LAYER088
 70
               0
 62
               7
  6
CONTINUOUS
  0
LAYER
  2
LAYER089
 70
               0
 62
               7
  6
CONTINUOUS
  0
LAYER
  2
LAYER090
 70
               0
 62
               7
  6
CONTINUOUS
  0
LAYER
  2
LAYER091
 70
               0
 62
               7
  6
CONTINUOUS
  0
LAYER
  2
LAYER092
 70
               0
 62
               7
  6
CONTINUOUS
  0
LAYER
  2
LAYER093
 70
               0
 62
               7
  6
CONTINUOUS
  0
LAYER
  2
LAYER094
 70
               0
 62
               7
  6
CONTINUOUS
  0
LAYER
  2
LAYER095
 70
               0
 62
               7
  6
CONTINUOUS
  0
LAYER
  2
LAYER096
 70
               0
 62
               7
  6
CONTINUOUS
  0
LAYER
  2
LAYER097
 70
               0
 62
               7
  6
CONTINUOUS
  0
LAYER
  2
LAYER098
 70
               0
 62
               7
  6
CONTINUOUS
  0
LAYER
  2
LAYER099
 70
               0
 62
               7
  6
CONTINUOUS
  0
LAYER
  2
LAYER100
 70
               0
 62
               7
  6
CONTINUOUS
  0
LAYER
  2
LAYER101
 70
               0
 62
               7
  6
CONTINUOUS
  0
LAYER
  2
LAYER102
 70
               0
 62
               7
  6
CONTINUOUS
  0
LAYER
  2
LAYER103
 70
               0
 62
               7
  6
CONTINUOUS
  0
LAYER
  2
LAYER104
 70
               0
 62
               7
  6
CONTINUOUS
  0
LAYER
  2
LAYER105
 70
               0
 62
               7
  6
CONTINUOUS
  0
LAYER
  2
LAYER106
 70
               0
 62
               7
  6
CONTINUOUS
  0
LAYER
  2
LAYER107
 70
               0
 62
               7
  6
CONTINUOUS
  0
LAYER
  2
LAYER108
 70
               0
 62
               7
  6
CONTINUOUS
  0
LAYER
  2
LAYER109
 70
               0
 62
               7
  6
CONTINUOUS
  0
LAYER
  2
LAYER110
 70
               0
 62
               7
  6
CONTINUOUS
  0
LAYER
  2
LAYER111
 70
               0
 62
               7
  6
CONTINUOUS
  0
LAYER
  2
LAYER112
 70
               0
 62
               7
  6
CONTINUOUS
  0
LAYER
  2
LAYER113
 70
               0
 62
               7
  6
CONTINUOUS
  0
LAYER
  2
LAYER114
 70
               0
 62
               7
  6
CONTINUOUS
  0
LAYER
  2
LAYER115
 70
               0
 62
               7
  6
CONTINUOUS
  0
LAYER
  2
LAYER116
 70
               0
 62
               7
  6
CONTINUOUS
  0
LAYER
  2
LAYER117
 70
               0
 62
               7
  6
CONTINUOUS
  0
LAYER
  2
LAYER118
 70
               0
 62
               7
  6
CONTINUOUS
  0
LAYER
  2
LAYER119
 70
               0
 62
               7
  6
CONTINUOUS
  0
LAYER
  2
LAYER120
 70
               0
 62
               7
  6
CONTINUOUS
  0
LAYER
  2
LAYER121
 70
               0
 62
               7
  6
CONTINUOUS
  0
LAYER
  2
LAYER122
 70
               0
 62
               7
  6
CONTINUOUS
  0
LAYER
  2
LAYER123
 70
               0
 62
               7
  6
CONTINUOUS
  0
LAYER
  2
LAYER124
 70
               0
 62
               7
  6
CONTINUOUS
  0
LAYER
  2
LAYER125
 70
               0
 62
               7
  6
CONTINUOUS
  0
LAYER
  2
LAYER126
 70
               0
 62
               7
  6
CONTINUOUS
  0
LAYER
  2
LAYER127
 70
               0
 62
               7
  6
CONTINUOUS
  0
LAYER
  2
LAYER128
 70
               0
 62
               7
  6
CONTINUOUS
  0
LAYER
  2
LAYER129
 70
               0
 62
               7
  6
CONTINUOUS
  0
LAYER
  2
LAYER130
 70
               0
 62
               7
  6
CONTINUOUS
  0
LAYER
  2
LAYER131
 70
               0
 62
               7
  6
CONTINUOUS
  0
LAYER
  2
LAYER132
 70
               0
 62
               7
  6
CONTINUOUS
  0
LAYER
  2
LAYER133
 70
               0
 62
               7
  6
CONTINUOUS
  0
LAYER
  2
LAYER134
 70
               0
 62
               7
  6
CONTINUOUS
  0
LAYER
  2
LAYER135
 70
               0
 62
               7
  6
CONTINUOUS
  0
LAYER
  2
LAYER136
 70
               0
 62
               7
  6
CONTINUOUS
  0
LAYER
  2
LAYER137
 70
               0
 62
               7
  6
CONTINUOUS
  0
LAYER
  2
LAYER138
 70
               0
 62
               7
  6
CONTINUOUS
  0
LAYER
  2
LAYER139
 70
               0
 62
               7
  6
CONTINUOUS
  0
LAYER
  2
LAYER140
 70
               0
 62
               7
  6
CONTINUOUS
  0
LAYER
  2
LAYER141
 70
               0
 62
               7
  6
CONTINUOUS
  0
LAYER
  2
LAYER142
 70
               0
 62
               7
  6
CONTINUOUS
  0
LAYER
  2
LAYER143
 70
               0
 62
               7
  6
CONTINUOUS
  0
LAYER
  2
LAYER144
 70
               0
 62
               7
  6
CONTINUOUS
  0
LAYER
  2
LAYER145
 70
               0
 62
               7
  6
CONTINUOUS
  0
LAYER
  2
LAYER146
 70
               0
 62
               7
  6
CONTINUOUS
  0
LAYER
  2
LAYER147
 70
               0
 62
               7
  6
CONTINUOUS
  0
LAYER
  2
LAYER148
 70
               0
 62
               7
  6
CONTINUOUS
  0
LAYER
  2
LAYER149
 70
               0
 62
               7
  6
CONTINUOUS
  0
LAYER
  2
LAYER150
 70
               0
 62
               7
  6
CONTINUOUS
  0
LAYER
  2
LAYER151
 70
               0
 62
               7
  6
CONTINUOUS
  0
LAYER
  2
LAYER152
 70
               0
 62
               7
  6
CONTINUOUS
  0
LAYER
  2
LAYER153
 70
               0
 62
               7
  6
CONTINUOUS
  0
LAYER
  2
LAYER154
 70
               0
 62
               7
  6
CONTINUOUS
  0
LAYER
  2
LAYER155
 70
               0
 62
               7
  6
CONTINUOUS
  0
LAYER
  2
LAYER156
 70
               0
 62
               7
  6
CONTINUOUS
  0
LAYER
  2
LAYER157
 70
               0
 62
               7
  6
CONTINUOUS
  0
LAYER
  2
LAYER158
 70
               0
 62
               7
  6
CONTINUOUS
  0
LAYER
  2
LAYER159
 70
               0
 62
               7
  6
CONTINUOUS
  0
LAYER
  2
LAYER160
 70
               0
 62
               7
  6
CONTINUOUS
  0
LAYER
  2
LAYER161
 70
               0
 62
               7
  6
CONTINUOUS
  0
LAYER
  2
LAYER162
 70
               0
 62
               7
  6
CONTINUOUS
  0
LAYER
  2
LAYER163
 70
               0
 62
               7
  6
CONTINUOUS
  0
LAYER
  2
LAYER164
 70
               0
 62
               7
  6
CONTINUOUS
  0
LAYER
  2
LAYER165
 70
               0
 62
               7
  6
CONTINUOUS
  0
LAYER
  2
LAYER166
 70
               0
 62
               7
  6
CONTINUOUS
  0
LAYER
  2
LAYER167
 70
               0
 62
               7
  6
CONTINUOUS
  0
LAYER
  2
LAYER168
 70
               0
 62
               7
  6
CONTINUOUS
  0
LAYER
  2
LAYER169
 70
               0
 62
               7
  6
CONTINUOUS
  0
LAYER
  2
LAYER170
 70
               0
 62
               7
  6
CONTINUOUS
  0
LAYER
  2
LAYER171
 70
               0
 62
               7
  6
CONTINUOUS
  0
LAYER
  2
LAYER172
 70
               0
 62
               7
  6
CONTINUOUS
  0
LAYER
  2
LAYER173
 70
               0
 62
               7
  6
CONTINUOUS
  0
LAYER
  2
LAYER174
 70
               0
 62
               7
  6
CONTINUOUS
  0
LAYER
  2
LAYER175
 70
               0
 62
               7
  6
CONTINUOUS
  0
LAYER
  2
LAYER176
 70
               0
 62
               7
  6
CONTINUOUS
  0
LAYER
  2
LAYER177
 70
               0
 62
               7
  6
CONTINUOUS
  0
LAYER
  2
LAYER178
 70
               0
 62
               7
  6
CONTINUOUS
  0
LAYER
  2
LAYER179
 70
               0
 62
               7
  6
CONTINUOUS
  0
LAYER
  2
LAYER180
 70
               0
 62
               7
  6
CONTINUOUS
  0
LAYER
  2
LAYER181
 70
               0
 62
               7
  6
CONTINUOUS
  0
LAYER
  2
LAYER182
 70
               0
 62
               7
  6
CONTINUOUS
  0
LAYER
  2
LAYER183
 70
               0
 62
               7
  6
CONTINUOUS
  0
LAYER
  2
LAYER184
 70
               0
 62
               7
  6
CONTINUOUS
  0
LAYER
  2
LAYER185
 70
               0
 62
               7
  6
CONTINUOUS
  0
LAYER
  2
LAYER186
 70
               0
 62
               7
  6
CONTINUOUS
  0
LAYER
  2
LAYER187
 70
               0
 62
               7
  6
CONTINUOUS
  0
LAYER
  2
LAYER188
 70
               0
 62
               7
  6
CONTINUOUS
  0
LAYER
  2
LAYER189
 70
               0
 62
               7
  6
CONTINUOUS
  0
LAYER
  2
LAYER190
 70
               0
 62
               7
  6
CONTINUOUS
  0
LAYER
  2
LAYER191
 70
               0
 62
               7
  6
CONTINUOUS
  0
LAYER
  2
LAYER192
 70
               0
 62
               7
  6
CONTINUOUS
  0
LAYER
  2
LAYER193
 70
               0
 62
               7
  6
CONTINUOUS
  0
LAYER
  2
LAYER194
 70
               0
 62
               7
  6
CONTINUOUS
  0
LAYER
  2
LAYER195
 70
               0
 62
               7
  6
CONTINUOUS
  0
LAYER
  2
LAYER196
 70
               0
 62
               7
  6
CONTINUOUS
  0
LAYER
  2
LAYER197
 70
               0
 62
               7
  6
CONTINUOUS
  0
LAYER
  2
LAYER198
 70
               0
 62
               7
  6
CONTINUOUS
  0
LAYER
  2
LAYER199
 70
               0
 62
               7
  6
CONTINUOUS
  0
LAYER
  2
LAYER200
 70
               0
 62
               7
  6
CONTINUOUS
  0
LAYER
  2
LAYER201
 70
               0
 62
               7
  6
CONTINUOUS
  0
LAYER
  2
LAYER202
 70
               0
 62
               7
  6
CONTINUOUS
  0
LAYER
  2
LAYER203
 70
               0
 62
               7
  6
CONTINUOUS
  0
LAYER
  2
LAYER204
 70
               0
 62
               7
  6
CONTINUOUS
  0
LAYER
  2
LAYER205
 70
               0
 62
               7
  6
CONTINUOUS
  0
LAYER
  2
LAYER206
 70
               0
 62
               7
  6
CONTINUOUS
  0
LAYER
  2
LAYER207
 70
               0
 62
               7
  6
CONTINUOUS
  0
LAYER
  2
LAYER208
 70
               0
 62
               7
  6
CONTINUOUS
  0
LAYER
  2
LAYER209
 70
               0
 62
               7
  6
CONTINUOUS
  0
LAYER
  2
LAYER210
 70
               0
 62
               7
  6
CONTINUOUS
  0
LAYER
  2
LAYER211
 70
               0
 62
               7
  6
CONTINUOUS
  0
LAYER
  2
LAYER212
 70
               0
 62
               7
  6
CONTINUOUS
  0
LAYER
  2
LAYER213
 70
               0
 62
               7
  6
CONTINUOUS
  0
LAYER
  2
LAYER214
 70
               0
 62
               7
  6
CONTINUOUS
  0
LAYER
  2
LAYER215
 70
               0
 62
               7
  6
CONTINUOUS
  0
LAYER
  2
LAYER216
 70
               0
 62
               7
  6
CONTINUOUS
  0
LAYER
  2
LAYER217
 70
               0
 62
               7
  6
CONTINUOUS
  0
LAYER
  2
LAYER218
 70
               0
 62
               7
  6
CONTINUOUS
  0
LAYER
  2
LAYER219
 70
               0
 62
               7
  6
CONTINUOUS
  0
LAYER
  2
LAYER220
 70
               0
 62
               7
  6
CONTINUOUS
  0
LAYER
  2
LAYER221
 70
               0
 62
               7
  6
CONTINUOUS
  0
LAYER
  2
LAYER222
 70
               0
 62
               7
  6
CONTINUOUS
  0
LAYER
  2
LAYER223
 70
               0
 62
               7
  6
CONTINUOUS
  0
LAYER
  2
LAYER224
 70
               0
 62
               7
  6
CONTINUOUS
  0
LAYER
  2
LAYER225
 70
               0
 62
               7
  6
CONTINUOUS
  0
LAYER
  2
LAYER226
 70
               0
 62
               7
  6
CONTINUOUS
  0
LAYER
  2
LAYER227
 70
               0
 62
               7
  6
CONTINUOUS
  0
LAYER
  2
LAYER228
 70
               0
 62
               7
  6
CONTINUOUS
  0
LAYER
  2
LAYER229
 70
               0
 62
               7
  6
CONTINUOUS
  0
LAYER
  2
LAYER230
 70
               0
 62
               7
  6
CONTINUOUS
  0
LAYER
  2
LAYER231
 70
               0
 62
               7
  6
CONTINUOUS
  0
LAYER
  2
LAYER232
 70
               0
 62
               7
  6
CONTINUOUS
  0
LAYER
  2
LAYER233
 70
               0
 62
               7
  6
CONTINUOUS
  0
LAYER
  2
LAYER234
 70
               0
 62
               7
  6
CONTINUOUS
  0
LAYER
  2
LAYER235
 70
               0
 62
               7
  6
CONTINUOUS
  0
LAYER
  2
LAYER236
 70
               0
 62
               7
  6
CONTINUOUS
  0
LAYER
  2
LAYER237
 70
               0
 62
               7
  6
CONTINUOUS
  0
LAYER
  2
LAYER238
 70
               0
 62
               7
  6
CONTINUOUS
  0
LAYER
  2
LAYER239
 70
               0
 62
               7
  6
CONTINUOUS
  0
LAYER
  2
LAYER240
 70
               0
 62
               7
  6
CONTINUOUS
  0
LAYER
  2
LAYER241
 70
               0
 62
               7
  6
CONTINUOUS
  0
LAYER
  2
LAYER242
 70
               0
 62
               7
  6
CONTINUOUS
  0
LAYER
  2
LAYER243
 70
               0
 62
               7
  6
CONTINUOUS
  0
LAYER
  2
LAYER244
 70
               0
 62
               7
  6
CONTINUOUS
  0
LAYER
  2
LAYER245
 70
               0
 62
               7
  6
CONTINUOUS
  0
LAYER
  2
LAYER246
 70
               0
 62
               7
  6
CONTINUOUS
  0
LAYER
  2
LAYER247
 70
               0
 62
               7
  6
CONTINUOUS
  0
LAYER
  2
LAYER248
 70
               0
 62
               7
  6
CONTINUOUS
  0
LAYER
  2
LAYER249
 70
               0
 62
               7
  6
CONTINUOUS
  0
LAYER
  2
LAYER250
 70
               0
 62
               7
  6
CONTINUOUS
  0
LAYER
  2
LAYER251
 70
               0
 62
               7
  6
CONTINUOUS
  0
LAYER
  2
LAYER252
 70
               0
 62
               7
  6
CONTINUOUS
  0
LAYER
  2
LAYER253
 70
               0
 62
               7
  6
CONTINUOUS
  0
LAYER
  2
LAYER254
 70
               0
 62
               7
  6
CONTINUOUS
  0
LAYER
  2
LAYER255
 70
               0
 62
               7
  6
CONTINUOUS
  0
ENDTAB
  0
TABLE
  2
STYLE
 70
               1
  0
STYLE
  2
STANDARD
 70
               0
 40
0.0
 41
0.8
 50
0.0
 71
               0
 42
40.0
  3
MS PGothic.ttf
  4

  0
ENDTAB
  0
TABLE
  2
VIEW
 70
               0
  0
VIEW
  2
QQQQ
 70
               0
 40
2369.9713107741736
 10
51.574377082919682
 20
-437.13520849510127
 41
1472.3288429547883
 11
0.0
 21
0.0
 31
1.0
 12
100.0
 22
100.0
 32
0.0
 42
50.0
 43
0.0
 44
0.0
 50
0.0
 71
               0
  0
ENDTAB
  0
TABLE
  2
UCS
 70
               0
  0
ENDTAB
  0
TABLE
  2
APPID
 70
               1
  0
APPID
  2
ACAD
 70
               0
  0
ENDTAB
  0
TABLE
  2
DIMSTYLE
 70
               1
  0
DIMSTYLE
  2
STANDARD
 70
               0
  3

  4

  5

  6

  7

 40
1.0
 41
0.18
 42
0.0625
 43
0.38
 44
0.18
 45
0.0
 46
0.0
 47
0.0
 48
0.0
140
0.18
141
0.09
142
0.0
143
25.399999999999999
144
1.0
145
0.0
146
1.0
147
0.09
 71
               0
 72
               0
 73
               1
 74
               1
 75
               0
 76
               0
 77
               0
 78
               0
170
               0
171
               2
172
               0
173
               0
174
               0
175
               0
176
               0
177
               0
178
               0
  0
ENDTAB
  0
ENDSEC
  0
SECTION
  2
BLOCKS
  0
BLOCK
  8
0
  5
140
  2
GROUP_1
 70
               0
 10
0.0
 20
0.0
 30
0.0
  3
GROUP_1
  0
LINE
  8
0
  6
CONTINUOUS
 62
               4
  5
141
 10
-75.316372202579259
 20
462.40328291202428
 30
0.0
 11
-69.831544645277518
 21
452.90328291202439
 31
0.0
  0
LINE
  8
0
  6
CONTINUOUS
 62
               4
  5
142
 10
-69.831544645277518
 20
452.90328291202439
 30
0.0
 11
-58.861889530674489
 21
452.90328291202439
 31
0.0
  0
LINE
  8
0
  6
CONTINUOUS
 62
               4
  5
143
 10
-58.861889530674489
 20
452.90328291202439
 30
0.0
 11
-53.377061973373202
 21
462.40328291202428
 31
0.0
  0
LINE
  8
0
  6
CONTINUOUS
 62
               4
  5
144
 10
-53.377061973373202
 20
462.40328291202428
 30
0.0
 11
-58.861889530674489
 21
471.90328291202417
 31
0.0
  0
LINE
  8
0
  6
CONTINUOUS
 62
               4
  5
145
 10
-58.861889530674489
 20
471.90328291202417
 30
0.0
 11
-69.831544645277518
 21
471.90328291202417
 31
0.0
  0
LINE
  8
0
  6
CONTINUOUS
 62
               4
  5
146
 10
-69.831544645277518
 20
471.90328291202417
 30
0.0
 11
-75.316372202579259
 21
462.40328291202428
 31
0.0
  0
CIRCLE
  8
0
  6
CONTINUOUS
 62
               4
  5
147
 10
-64.346717087976231
 20
462.40328291202428
 30
0.0
 40
6.0000000000000009
  0
ENDBLK
  8
0
  5
148
  0
BLOCK
  8
0
  5
149
  2
GROUP_2
 70
               0
 10
0.0
 20
0.0
 30
0.0
  3
GROUP_2
  0
LINE
  8
0
  6
CONTINUOUS
 62
               4
  5
14A
 10
-75.316372202579259
 20
591.09671708797555
 30
0.0
 11
-69.831544645277518
 21
581.59671708797578
 31
0.0
  0
LINE
  8
0
  6
CONTINUOUS
 62
               4
  5
14B
 10
-69.831544645277518
 20
581.59671708797578
 30
0.0
 11
-58.861889530674489
 21
581.59671708797578
 31
0.0
  0
LINE
  8
0
  6
CONTINUOUS
 62
               4
  5
14C
 10
-58.861889530674489
 20
581.59671708797578
 30
0.0
 11
-53.377061973373202
 21
591.09671708797555
 31
0.0
  0
LINE
  8
0
  6
CONTINUOUS
 62
               4
  5
14D
 10
-53.377061973373202
 20
591.09671708797555
 30
0.0
 11
-58.861889530674489
 21
600.59671708797578
 31
0.0
  0
LINE
  8
0
  6
CONTINUOUS
 62
               4
  5
14E
 10
-58.861889530674489
 20
600.59671708797578
 30
0.0
 11
-69.831544645277518
 21
600.59671708797578
 31
0.0
  0
LINE
  8
0
  6
CONTINUOUS
 62
               4
  5
14F
 10
-69.831544645277518
 20
600.59671708797578
 30
0.0
 11
-75.316372202579259
 21
591.09671708797555
 31
0.0
  0
CIRCLE
  8
0
  6
CONTINUOUS
 62
               4
  5
150
 10
-64.346717087976231
 20
591.09671708797555
 30
0.0
 40
6.0000000000000009
  0
ENDBLK
  8
0
  5
151
  0
BLOCK
  8
0
  5
152
  2
GROUP_3
 70
               0
 10
0.0
 20
0.0
 30
0.0
  3
GROUP_3
  0
LINE
  8
0
  6
CONTINUOUS
 62
               4
  5
153
 10
75.316372202579373
 20
591.09671708797555
 30
0.0
 11
69.831544645277745
 21
581.59671708797578
 31
0.0
  0
LINE
  8
0
  6
CONTINUOUS
 62
               4
  5
154
 10
69.831544645277745
 20
581.59671708797578
 30
0.0
 11
58.861889530674603
 21
581.59671708797578
 31
0.0
  0
LINE
  8
0
  6
CONTINUOUS
 62
               4
  5
155
 10
58.861889530674603
 20
581.59671708797578
 30
0.0
 11
53.377061973373429
 21
591.09671708797555
 31
0.0
  0
LINE
  8
0
  6
CONTINUOUS
 62
               4
  5
156
 10
53.377061973373429
 20
591.09671708797555
 30
0.0
 11
58.861889530674603
 21
600.59671708797578
 31
0.0
  0
LINE
  8
0
  6
CONTINUOUS
 62
               4
  5
157
 10
58.861889530674603
 20
600.59671708797578
 30
0.0
 11
69.831544645277745
 21
600.59671708797578
 31
0.0
  0
LINE
  8
0
  6
CONTINUOUS
 62
               4
  5
158
 10
69.831544645277745
 20
600.59671708797578
 30
0.0
 11
75.316372202579373
 21
591.09671708797555
 31
0.0
  0
CIRCLE
  8
0
  6
CONTINUOUS
 62
               4
  5
159
 10
64.346717087976344
 20
591.09671708797555
 30
0.0
 40
6.0000000000000009
  0
ENDBLK
  8
0
  5
15A
  0
BLOCK
  8
0
  5
15B
  2
GROUP_4
 70
               0
 10
0.0
 20
0.0
 30
0.0
  3
GROUP_4
  0
LINE
  8
0
  6
CONTINUOUS
 62
               4
  5
15C
 10
75.316372202579373
 20
462.40328291202428
 30
0.0
 11
69.831544645277745
 21
452.90328291202439
 31
0.0
  0
LINE
  8
0
  6
CONTINUOUS
 62
               4
  5
15D
 10
69.831544645277745
 20
452.90328291202439
 30
0.0
 11
58.861889530674603
 21
452.90328291202439
 31
0.0
  0
LINE
  8
0
  6
CONTINUOUS
 62
               4
  5
15E
 10
58.861889530674603
 20
452.90328291202439
 30
0.0
 11
53.377061973373429
 21
462.40328291202428
 31
0.0
  0
LINE
  8
0
  6
CONTINUOUS
 62
               4
  5
15F
 10
53.377061973373429
 20
462.40328291202428
 30
0.0
 11
58.861889530674603
 21
471.90328291202417
 31
0.0
  0
LINE
  8
0
  6
CONTINUOUS
 62
               4
  5
160
 10
58.861889530674603
 20
471.90328291202417
 30
0.0
 11
69.831544645277745
 21
471.90328291202417
 31
0.0
  0
LINE
  8
0
  6
CONTINUOUS
 62
               4
  5
161
 10
69.831544645277745
 20
471.90328291202417
 30
0.0
 11
75.316372202579373
 21
462.40328291202428
 31
0.0
  0
CIRCLE
  8
0
  6
CONTINUOUS
 62
               4
  5
162
 10
64.346717087976344
 20
462.40328291202428
 30
0.0
 40
6.0000000000000009
  0
ENDBLK
  8
0
  5
163
  0
BLOCK
  8
0
  5
164
  2
GROUP_5
 70
               0
 10
0.0
 20
0.0
 30
0.0
  3
GROUP_5
  0
LINE
  8
0
  6
CONTINUOUS
 62
               4
  5
165
 10
-75.299999999999727
 20
47.049999999999955
 30
0.0
 11
-75.299999999999727
 21
57.049999999999955
 31
0.0
  0
LINE
  8
0
  6
CONTINUOUS
 62
               4
  5
166
 10
-69.81517244269844
 20
47.049999999999955
 30
0.0
 11
-69.81517244269844
 21
57.049999999999955
 31
0.0
  0
LINE
  8
0
  6
CONTINUOUS
 62
               4
  5
167
 10
-75.299999999999727
 20
47.049999999999955
 30
0.0
 11
-53.400000000000091
 21
47.049999999999955
 31
0.0
  0
LINE
  8
0
  6
CONTINUOUS
 62
               4
  5
168
 10
-75.299999999999727
 20
57.049999999999955
 30
0.0
 11
-53.400000000000091
 21
57.049999999999955
 31
0.0
  0
LINE
  8
0
  6
CONTINUOUS
 62
               4
  5
169
 10
-53.400000000000091
 20
47.049999999999955
 30
0.0
 11
-53.400000000000091
 21
57.049999999999955
 31
0.0
  0
LINE
  8
0
  6
CONTINUOUS
 62
               4
  5
16A
 10
-58.884827557301378
 20
47.049999999999955
 30
0.0
 11
-58.884827557301378
 21
57.049999999999955
 31
0.0
  0
ENDBLK
  8
0
  5
16B
  0
BLOCK
  8
0
  5
16C
  2
GROUP_6
 70
               0
 10
0.0
 20
0.0
 30
0.0
  3
GROUP_6
  0
LINE
  8
0
  6
CONTINUOUS
 62
               4
  5
16D
 10
75.299999999999727
 20
47.049999999999962
 30
0.0
 11
75.299999999999727
 21
57.049999999999962
 31
0.0
  0
LINE
  8
0
  6
CONTINUOUS
 62
               4
  5
16E
 10
69.81517244269844
 20
47.049999999999962
 30
0.0
 11
69.81517244269844
 21
57.049999999999962
 31
0.0
  0
LINE
  8
0
  6
CONTINUOUS
 62
               4
  5
16F
 10
75.299999999999727
 20
47.049999999999962
 30
0.0
 11
53.400000000000091
 21
47.049999999999955
 31
0.0
  0
LINE
  8
0
  6
CONTINUOUS
 62
               4
  5
170
 10
75.299999999999727
 20
57.049999999999962
 30
0.0
 11
53.400000000000091
 21
57.049999999999955
 31
0.0
  0
LINE
  8
0
  6
CONTINUOUS
 62
               4
  5
171
 10
53.400000000000091
 20
47.049999999999955
 30
0.0
 11
53.400000000000091
 21
57.049999999999955
 31
0.0
  0
LINE
  8
0
  6
CONTINUOUS
 62
               4
  5
172
 10
58.884827557301378
 20
47.049999999999962
 30
0.0
 11
58.884827557301378
 21
57.049999999999962
 31
0.0
  0
ENDBLK
  8
0
  5
173
  0
BLOCK
  8
0
  5
174
  2
GROUP_7
 70
               0
 10
0.0
 20
0.0
 30
0.0
  3
GROUP_7
  0
LINE
  8
0
  6
CONTINUOUS
 62
               4
  5
175
 10
424.70000000000027
 20
47.050000000000026
 30
0.0
 11
424.70000000000027
 21
57.050000000000026
 31
0.0
  0
LINE
  8
0
  6
CONTINUOUS
 62
               4
  5
176
 10
430.18482755730156
 20
47.050000000000026
 30
0.0
 11
430.18482755730156
 21
57.050000000000026
 31
0.0
  0
LINE
  8
0
  6
CONTINUOUS
 62
               4
  5
177
 10
424.70000000000027
 20
47.050000000000026
 30
0.0
 11
446.59999999999991
 21
47.050000000000026
 31
0.0
  0
LINE
  8
0
  6
CONTINUOUS
 62
               4
  5
178
 10
424.70000000000027
 20
57.050000000000026
 30
0.0
 11
446.59999999999991
 21
57.050000000000026
 31
0.0
  0
LINE
  8
0
  6
CONTINUOUS
 62
               4
  5
179
 10
446.59999999999991
 20
47.050000000000026
 30
0.0
 11
446.59999999999991
 21
57.050000000000026
 31
0.0
  0
LINE
  8
0
  6
CONTINUOUS
 62
               4
  5
17A
 10
441.11517244269862
 20
47.050000000000026
 30
0.0
 11
441.11517244269862
 21
57.050000000000026
 31
0.0
  0
ENDBLK
  8
0
  5
17B
  0
BLOCK
  8
0
  5
17C
  2
GROUP_8
 70
               0
 10
0.0
 20
0.0
 30
0.0
  3
GROUP_8
  0
LINE
  8
0
  6
CONTINUOUS
 62
               4
  5
17D
 10
575.29999999999973
 20
47.050000000000026
 30
0.0
 11
575.29999999999973
 21
57.050000000000026
 31
0.0
  0
LINE
  8
0
  6
CONTINUOUS
 62
               4
  5
17E
 10
569.81517244269844
 20
47.050000000000026
 30
0.0
 11
569.81517244269844
 21
57.050000000000026
 31
0.0
  0
LINE
  8
0
  6
CONTINUOUS
 62
               4
  5
17F
 10
575.29999999999973
 20
47.050000000000026
 30
0.0
 11
553.40000000000009
 21
47.050000000000026
 31
0.0
  0
LINE
  8
0
  6
CONTINUOUS
 62
               4
  5
180
 10
575.29999999999973
 20
57.050000000000026
 30
0.0
 11
553.40000000000009
 21
57.050000000000026
 31
0.0
  0
LINE
  8
0
  6
CONTINUOUS
 62
               4
  5
181
 10
553.40000000000009
 20
47.050000000000026
 30
0.0
 11
553.40000000000009
 21
57.050000000000026
 31
0.0
  0
LINE
  8
0
  6
CONTINUOUS
 62
               4
  5
182
 10
558.88482755730138
 20
47.050000000000026
 30
0.0
 11
558.88482755730138
 21
57.050000000000026
 31
0.0
  0
ENDBLK
  8
0
  5
183
  0
BLOCK
  8
0
  5
184
  2
GROUP_9
 70
               0
 10
0.0
 20
0.0
 30
0.0
  3
GROUP_9
  0
LINE
  8
0
  6
CONTINUOUS
 62
               4
  5
185
 10
-575.29999999999973
 20
47.050000000000026
 30
0.0
 11
-575.29999999999973
 21
57.050000000000026
 31
0.0
  0
LINE
  8
0
  6
CONTINUOUS
 62
               4
  5
186
 10
-569.81517244269844
 20
47.050000000000026
 30
0.0
 11
-569.81517244269844
 21
57.050000000000026
 31
0.0
  0
LINE
  8
0
  6
CONTINUOUS
 62
               4
  5
187
 10
-575.29999999999973
 20
47.050000000000026
 30
0.0
 11
-553.40000000000009
 21
47.050000000000026
 31
0.0
  0
LINE
  8
0
  6
CONTINUOUS
 62
               4
  5
188
 10
-575.29999999999973
 20
57.050000000000026
 30
0.0
 11
-553.40000000000009
 21
57.050000000000026
 31
0.0
  0
LINE
  8
0
  6
CONTINUOUS
 62
               4
  5
189
 10
-553.40000000000009
 20
47.050000000000026
 30
0.0
 11
-553.40000000000009
 21
57.050000000000026
 31
0.0
  0
LINE
  8
0
  6
CONTINUOUS
 62
               4
  5
18A
 10
-558.88482755730138
 20
47.050000000000026
 30
0.0
 11
-558.88482755730138
 21
57.050000000000026
 31
0.0
  0
ENDBLK
  8
0
  5
18B
  0
BLOCK
  8
0
  5
18C
  2
GROUP_10
 70
               0
 10
0.0
 20
0.0
 30
0.0
  3
GROUP_10
  0
LINE
  8
0
  6
CONTINUOUS
 62
               4
  5
18D
 10
-424.70000000000027
 20
47.050000000000026
 30
0.0
 11
-424.70000000000027
 21
57.050000000000026
 31
0.0
  0
LINE
  8
0
  6
CONTINUOUS
 62
               4
  5
18E
 10
-430.18482755730156
 20
47.050000000000026
 30
0.0
 11
-430.18482755730156
 21
57.050000000000026
 31
0.0
  0
LINE
  8
0
  6
CONTINUOUS
 62
               4
  5
18F
 10
-424.70000000000027
 20
47.050000000000026
 30
0.0
 11
-446.59999999999991
 21
47.050000000000026
 31
0.0
  0
LINE
  8
0
  6
CONTINUOUS
 62
               4
  5
190
 10
-424.70000000000027
 20
57.050000000000026
 30
0.0
 11
-446.59999999999991
 21
57.050000000000026
 31
0.0
  0
LINE
  8
0
  6
CONTINUOUS
 62
               4
  5
191
 10
-446.59999999999991
 20
47.050000000000026
 30
0.0
 11
-446.59999999999991
 21
57.050000000000026
 31
0.0
  0
LINE
  8
0
  6
CONTINUOUS
 62
               4
  5
192
 10
-441.11517244269862
 20
47.050000000000026
 30
0.0
 11
-441.11517244269862
 21
57.050000000000026
 31
0.0
  0
ENDBLK
  8
0
  5
193
  0
ENDSEC
  0
SECTION
  2
ENTITIES
  0
CIRCLE
  8
0
  6
CONTINUOUS
 62
               3
  5
194
 10
0.0
 20
526.75
 30
0.0
 40
75.0
  0
LINE
  8
0
  6
CONTINUOUS
 62
               3
  5
195
 10
-86.210498200625352
 20
546.75
 30
0.0
 11
-72.284161474005487
 21
546.75
 31
0.0
  0
LINE
  8
0
  6
CONTINUOUS
 62
               3
  5
196
 10
-72.284161474005487
 20
506.74999999999994
 30
0.0
 11
-86.210498200625352
 21
506.74999999999994
 31
0.0
  0
ARC
  8
0
  6
CONTINUOUS
 62
               3
  5
197
 10
0.0
 20
526.75
 30
0.0
 40
88.5
 50
166.9389758851672
 51
193.0610241147632
  0
LINE
  8
0
  6
CONTINUOUS
 62
               3
  5
198
 10
-20.0
 20
440.53950179937505
 30
0.0
 11
-20.0
 21
454.46583852599491
 31
0.0
  0
LINE
  8
0
  6
CONTINUOUS
 62
               3
  5
199
 10
20.0
 20
454.46583852599491
 30
0.0
 11
20.0
 21
440.53950179937505
 31
0.0
  0
ARC
  8
0
  6
CONTINUOUS
 62
               3
  5
19A
 10
0.0
 20
526.75
 30
0.0
 40
88.5
 50
256.93897588514983
 51
283.06102411474581
  0
LINE
  8
0
  6
CONTINUOUS
 62
               3
  5
19B
 10
86.210498200624443
 20
506.74999999999994
 30
0.0
 11
72.284161474004122
 21
506.74999999999994
 31
0.0
  0
LINE
  8
0
  6
CONTINUOUS
 62
               3
  5
19C
 10
72.284161474004122
 20
546.75
 30
0.0
 11
86.210498200624443
 21
546.75
 31
0.0
  0
ARC
  8
0
  6
CONTINUOUS
 62
               3
  5
19D
 10
0.0
 20
526.75
 30
0.0
 40
88.5
 50
346.93897588513238
 51
373.06102411472841
  0
LINE
  8
0
  6
CONTINUOUS
 62
               3
  5
19E
 10
20.0
 20
612.96049820062558
 30
0.0
 11
20.0
 21
599.0341614740048
 31
0.0
  0
LINE
  8
0
  6
CONTINUOUS
 62
               3
  5
19F
 10
-20.0
 20
599.0341614740048
 30
0.0
 11
-20.0
 21
612.96049820062558
 31
0.0
  0
ARC
  8
0
  6
CONTINUOUS
 62
               3
  5
1A0
 10
0.0
 20
526.75
 30
0.0
 40
88.5
 50
76.938975885184604
 51
103.06102411478064
  0
ARC
  8
0
  6
CONTINUOUS
 62
               3
  5
1A1
 10
-64.346717087975321
 20
591.09671708797555
 30
0.0
 40
17.5
 50
97.816433606452236
 51
172.1835663934956
  0
LINE
  8
0
  6
CONTINUOUS
 62
               3
  5
1A2
 10
-81.684122377824224
 20
593.47671242736715
 30
0.0
 11
-89.163798633507668
 21
538.9899760311564
 31
0.0
  0
ARC
  8
0
  6
CONTINUOUS
 62
               3
  5
1A3
 10
64.346717087976231
 20
591.09671708797555
 30
0.0
 40
17.5
 50
7.8164336064694728
 51
82.183566393513019
  0
ARC
  8
0
  6
CONTINUOUS
 62
               3
  5
1A4
 10
64.346717087976231
 20
462.40328291202428
 30
0.0
 40
17.5
 50
277.81643360641743
 51
352.18356639346075
  0
ARC
  8
0
  6
CONTINUOUS
 62
               3
  5
1A5
 10
-64.346717087975321
 20
462.40328291202428
 30
0.0
 40
17.5
 50
187.81643360643486
 51
262.1835663934782
  0
LINE
  8
0
  6
CONTINUOUS
 62
               3
  5
1A6
 10
-81.684122377824224
 20
460.02328757263268
 30
0.0
 11
-89.163798633507724
 21
514.5100239688436
 31
0.0
  0
LINE
  8
0
  6
CONTINUOUS
 62
               3
  5
1A7
 10
81.684122377824679
 20
460.02328757263268
 30
0.0
 11
89.163798633508122
 21
514.51002396884337
 31
0.0
  0
ARC
  8
0
  6
CONTINUOUS
 62
               3
  5
1A8
 10
0.0
 20
526.75
 30
0.0
 40
90.0
 50
352.18356639346075
 51
367.81643360639998
  0
LINE
  8
0
  6
CONTINUOUS
 62
               3
  5
1A9
 10
81.684122377824679
 20
593.47671242736715
 30
0.0
 11
89.163798633508122
 21
538.9899760311564
 31
0.0
  0
LINE
  8
0
  6
CONTINUOUS
 62
               3
  5
1AA
 10
66.726712427367602
 20
608.43412237782468
 30
0.0
 11
12.239976031156857
 21
615.91379863350744
 31
0.0
  0
ARC
  8
0
  6
CONTINUOUS
 62
               3
  5
1AB
 10
0.0
 20
526.75
 30
0.0
 40
90.0
 50
82.183566393512962
 51
97.816433606452264
  0
LINE
  8
0
  6
CONTINUOUS
 62
               3
  5
1AC
 10
-66.726712427367147
 20
608.43412237782468
 30
0.0
 11
-12.239976031156402
 21
615.91379863350744
 31
0.0
  0
LINE
  8
0
  6
CONTINUOUS
 62
               3
  5
1AD
 10
66.726712427367602
 20
445.06587762217504
 30
0.0
 11
12.239976031156516
 21
437.58620136649239
 31
0.0
  0
LINE
  8
0
  6
CONTINUOUS
 62
               3
  5
1AE
 10
-66.726712427367147
 20
445.06587762217504
 30
0.0
 11
-12.239976031156516
 21
437.58620136649239
 31
0.0
  0
ARC
  8
0
  6
CONTINUOUS
 62
               3
  5
1AF
 10
0.0
 20
526.75
 30
0.0
 40
90.0
 50
262.1835663934782
 51
277.81643360641743
  0
ARC
  8
0
  6
CONTINUOUS
 62
               3
  5
1B0
 10
0.0
 20
526.75
 30
0.0
 40
90.0
 50
172.18356639349557
 51
187.8164336064348
  0
ARC
  8
0
  6
CONTINUOUS
 62
               3
  5
1B1
 10
54.999999999999545
 20
165.75000000000051
 30
0.0
 40
19.999999999999996
 50
0.0
 51
31.788330617045627
  0
LINE
  8
0
  6
CONTINUOUS
 62
               3
  5
1B2
 10
71.999999999999545
 20
251.16742430504507
 30
0.0
 11
71.999999999999545
 21
176.28565375285325
 31
0.0
  0
ARC
  8
0
  6
CONTINUOUS
 62
               3
  5
1B3
 10
-55.0
 20
165.75000000000051
 30
0.0
 40
19.999999999999996
 50
148.21166938291961
 51
179.99999999996524
  0
LINE
  8
0
  6
CONTINUOUS
 62
               3
  5
1B4
 10
-72.000000000000455
 20
176.28565375285325
 30
0.0
 11
-72.000000000000455
 21
251.16742430504507
 31
0.0
  0
ARC
  8
0
  6
CONTINUOUS
 62
               3
  5
1B5
 10
-65.0
 20
-115.74999999999991
 30
0.0
 40
2.4999999999999996
 50
89.999999999982535
 51
269.99999999994793
  0
LINE
  8
0
  6
CONTINUOUS
 62
               3
  5
1B6
 10
-90.0
 20
26.750000000000014
 30
0.0
 11
-90.0
 21
44.749999999999986
 31
0.0
  0
LINE
  8
0
  6
CONTINUOUS
 62
               3
  5
1B7
 10
90.0
 20
26.750000000000014
 30
0.0
 11
90.0
 21
44.749999999999986
 31
0.0
  0
LINE
  8
0
  6
CONTINUOUS
 62
               3
  5
1B8
 10
89.999999999999545
 20
44.750000000001123
 30
0.0
 11
-90.000000000000455
 21
44.749999999999986
 31
0.0
  0
LINE
  8
0
  6
CONTINUOUS
 62
               3
  5
1B9
 10
-75.0
 20
57.049999999999955
 30
0.0
 11
-75.0
 21
165.75000000000051
 31
0.0
  0
LINE
  8
0
  6
CONTINUOUS
 62
               3
  5
1BA
 10
74.999999999999545
 20
165.75000000000051
 30
0.0
 11
74.999999999999545
 21
57.049999999999962
 31
0.0
  0
ARC
  8
0
  6
CONTINUOUS
 62
               3
  5
1BB
 10
-80.000000000000455
 20
49.749999999999986
 30
0.0
 40
5.0
 50
327.31636115368025
 51
340.05155641115505
  0
ARC
  8
0
  6
CONTINUOUS
 62
               3
  5
1BC
 10
-80.000000000000455
 20
49.749999999999986
 30
0.0
 40
5.0
 50
269.99999999994782
 51
302.00545482770701
  0
LINE
  8
0
  6
CONTINUOUS
 62
               3
  5
1BD
 10
90.000000000000455
 20
21.749999999999943
 30
0.0
 11
90.000000000000455
 21
0.7500000000000711
 31
0.0
  0
LINE
  8
0
  6
CONTINUOUS
 62
               3
  5
1BE
 10
-90.000000000000455
 20
21.749999999999943
 30
0.0
 11
-90.000000000000455
 21
0.7500000000000711
 31
0.0
  0
LINE
  8
0
  6
CONTINUOUS
 62
               3
  5
1BF
 10
71.999999999999545
 20
176.28565375285325
 30
0.0
 11
11.727000000000203
 21
176.28565375285331
 31
0.0
  0
LINE
  8
0
  6
CONTINUOUS
 62
               3
  5
1C0
 10
-11.726999999999521
 20
176.28565375285325
 30
0.0
 11
-72.000000000000455
 21
176.28565375285325
 31
0.0
  0
LINE
  8
0
  6
CONTINUOUS
 62
               3
  5
1C1
 10
90.000000000000455
 20
26.749999999999943
 30
0.0
 11
-89.999999999999545
 21
26.749999999999943
 31
0.0
  0
LINE
  8
0
  6
CONTINUOUS
 62
               3
  5
1C2
 10
86.000000000000455
 20
26.749999999999943
 30
0.0
 11
86.000000000000455
 21
21.749999999999943
 31
0.0
  0
LINE
  8
0
  6
CONTINUOUS
 62
               3
  5
1C3
 10
-90.000000000000455
 20
21.749999999999943
 30
0.0
 11
90.000000000000455
 21
21.749999999999943
 31
0.0
  0
LINE
  8
0
  6
CONTINUOUS
 62
               3
  5
1C4
 10
-86.000000000000455
 20
26.749999999999943
 30
0.0
 11
-86.000000000000455
 21
21.749999999999943
 31
0.0
  0
LINE
  8
0
  6
CONTINUOUS
 62
               3
  5
1C5
 10
75.0
 20
272.75000000000051
 30
0.0
 11
-75.0
 21
272.75000000000051
 31
0.0
  0
LINE
  8
0
  6
CONTINUOUS
 62
               3
  5
1C6
 10
88.500000000000455
 20
262.75000000000051
 30
0.0
 11
88.500000000000455
 21
255.7500000000008
 31
0.0
  0
LINE
  8
0
  6
CONTINUOUS
 62
               3
  5
1C7
 10
88.500000000000455
 20
262.75000000000051
 30
0.0
 11
75.0
 21
272.75000000000051
 31
0.0
  0
ARC
  8
0
  6
CONTINUOUS
 62
               3
  5
1C8
 10
77.0
 20
251.16742430504507
 30
0.0
 40
4.9999999999999991
 50
113.57817847817988
 51
179.99999999996507
  0
LINE
  8
0
  6
CONTINUOUS
 62
               3
  5
1C9
 10
88.500000000000455
 20
255.7500000000008
 30
0.0
 11
-88.499999999999545
 21
255.7500000000008
 31
0.0
  0
LINE
  8
0
  6
CONTINUOUS
 62
               3
  5
1CA
 10
20.0
 20
255.7500000000008
 30
0.0
 11
20.0
 21
272.75000000000051
 31
0.0
  0
LINE
  8
0
  6
CONTINUOUS
 62
               3
  5
1CB
 10
-20.0
 20
272.75000000000051
 30
0.0
 11
-20.0
 21
255.7500000000008
 31
0.0
  0
LINE
  8
0
  6
CONTINUOUS
 62
               3
  5
1CC
 10
20.0
 20
262.75000000000051
 30
0.0
 11
-20.0
 21
262.75000000000051
 31
0.0
  0
LINE
  8
0
  6
CONTINUOUS
 62
               3
  5
1CD
 10
72.284161474005487
 20
272.75000000000051
 30
0.0
 11
72.284161474005487
 21
255.7500000000008
 31
0.0
  0
LINE
  8
0
  6
CONTINUOUS
 62
               3
  5
1CE
 10
-88.499999999999545
 20
262.75000000000051
 30
0.0
 11
-88.499999999999545
 21
255.7500000000008
 31
0.0
  0
LINE
  8
0
  6
CONTINUOUS
 62
               3
  5
1CF
 10
-88.499999999999545
 20
262.75000000000051
 30
0.0
 11
-75.0
 21
272.75000000000051
 31
0.0
  0
ARC
  8
0
  6
CONTINUOUS
 62
               3
  5
1D0
 10
-77.0
 20
251.16742430504507
 30
0.0
 40
4.9999999999999991
 50
0.0
 51
66.421821521785446
  0
LINE
  8
0
  6
CONTINUOUS
 62
               3
  5
1D1
 10
-72.284161474004122
 20
272.75000000000051
 30
0.0
 11
-72.284161474004122
 21
255.7500000000008
 31
0.0
  0
ARC
  8
0
  6
CONTINUOUS
 62
               3
  5
1D2
 10
80.000000000000341
 20
49.749999999999993
 30
0.0
 40
5.0
 50
199.94844358874056
 51
212.68363884621539
  0
ARC
  8
0
  6
CONTINUOUS
 62
               3
  5
1D3
 10
80.000000000000341
 20
49.749999999999993
 30
0.0
 40
5.0
 50
237.99454517218854
 51
269.99999999994782
  0
LINE
  8
0
  6
CONTINUOUS
 62
               3
  5
1D4
 10
-74.999999999999545
 20
-231.25000000000006
 30
0.0
 11
75.0
 21
-231.24999999999983
 31
0.0
  0
LINE
  8
0
  6
CONTINUOUS
 62
               3
  5
1D5
 10
-72.721287833966699
 20
-251.24999999999994
 30
0.0
 11
72.721287833968063
 21
-251.24999999999994
 31
0.0
  0
LINE
  8
0
  6
CONTINUOUS
 62
               3
  5
1D6
 10
-75.000000000000583
 20
-132.17575586106679
 30
0.0
 11
-74.999999999999545
 21
-231.25000000000006
 31
0.0
  0
LINE
  8
0
  6
CONTINUOUS
 62
               3
  5
1D7
 10
75.0
 20
-231.25000000000904
 30
0.0
 11
75.0
 21
-4.2499999999999964
 31
0.0
  0
LINE
  8
0
  6
CONTINUOUS
 62
               3
  5
1D8
 10
58.000000000000455
 20
-380.45708506678932
 30
0.0
 11
75.0
 21
-231.25000000000904
 31
0.0
  0
LINE
  8
0
  6
CONTINUOUS
 62
               3
  5
1D9
 10
-57.999999999999545
 20
-380.45708506678932
 30
0.0
 11
-74.999999999999545
 21
-231.25000000000006
 31
0.0
  0
LINE
  8
0
  6
CONTINUOUS
 62
               3
  5
1DA
 10
572.0
 20
251.16742430504507
 30
0.0
 11
572.0
 21
181.28565375285325
 31
0.0
  0
LINE
  8
0
  6
CONTINUOUS
 62
               3
  5
1DB
 10
428.0
 20
181.28565375285393
 30
0.0
 11
428.0
 21
251.16742430504507
 31
0.0
  0
LINE
  8
0
  6
CONTINUOUS
 62
               3
  5
1DC
 10
571.50000000000045
 20
176.28565375285325
 30
0.0
 11
428.49999999999955
 21
176.28565375285325
 31
0.0
  0
LINE
  8
0
  6
CONTINUOUS
 62
               3
  5
1DD
 10
410.0
 20
44.750000000001265
 30
0.0
 11
590.0
 21
44.749999999999986
 31
0.0
  0
LINE
  8
0
  6
CONTINUOUS
 62
               3
  5
1DE
 10
590.00000000000045
 20
21.750000000000014
 30
0.0
 11
590.00000000000045
 21
0.7500000000000711
 31
0.0
  0
LINE
  8
0
  6
CONTINUOUS
 62
               3
  5
1DF
 10
590.00000000000045
 20
26.750000000000014
 30
0.0
 11
590.00000000000045
 21
44.749999999999986
 31
0.0
  0
LINE
  8
0
  6
CONTINUOUS
 62
               3
  5
1E0
 10
410.00000000000045
 20
26.750000000000014
 30
0.0
 11
410.00000000000045
 21
44.749999999999986
 31
0.0
  0
LINE
  8
0
  6
CONTINUOUS
 62
               3
  5
1E1
 10
590.00000000000045
 20
26.750000000000014
 30
0.0
 11
410.00000000000045
 21
26.750000000000014
 31
0.0
  0
LINE
  8
0
  6
CONTINUOUS
 62
               3
  5
1E2
 10
586.00000000000045
 20
26.750000000000014
 30
0.0
 11
586.00000000000045
 21
21.750000000000014
 31
0.0
  0
LINE
  8
0
  6
CONTINUOUS
 62
               3
  5
1E3
 10
409.99999999999955
 20
21.750000000000014
 30
0.0
 11
590.00000000000045
 21
21.750000000000014
 31
0.0
  0
LINE
  8
0
  6
CONTINUOUS
 62
               3
  5
1E4
 10
409.99999999999955
 20
21.750000000000014
 30
0.0
 11
409.99999999999955
 21
0.7500000000000711
 31
0.0
  0
LINE
  8
0
  6
CONTINUOUS
 62
               3
  5
1E5
 10
413.99999999999955
 20
26.750000000000014
 30
0.0
 11
413.99999999999955
 21
21.750000000000014
 31
0.0
  0
LINE
  8
0
  6
CONTINUOUS
 62
               3
  5
1E6
 10
590.00000000000045
 20
0.7500000000000711
 30
0.0
 11
410.00000000000045
 21
0.7500000000000711
 31
0.0
  0
ARC
  8
0
  6
CONTINUOUS
 62
               3
  5
1E7
 10
574.99999999999955
 20
-115.75
 30
0.0
 40
2.4999999999999996
 50
269.99999999994731
 51
449.99999999991297
  0
LINE
  8
0
  6
CONTINUOUS
 62
               3
  5
1E8
 10
574.99999999999955
 20
-113.25
 30
0.0
 11
574.99999999999955
 21
-4.2499999999999289
 31
0.0
  0
LINE
  8
0
  6
CONTINUOUS
 62
               3
  5
1E9
 10
575.0
 20
272.75000000000051
 30
0.0
 11
425.0
 21
272.75000000000051
 31
0.0
  0
LINE
  8
0
  6
CONTINUOUS
 62
               3
  5
1EA
 10
588.50000000000045
 20
262.75000000000051
 30
0.0
 11
588.50000000000045
 21
255.7500000000008
 31
0.0
  0
LINE
  8
0
  6
CONTINUOUS
 62
               3
  5
1EB
 10
588.50000000000045
 20
262.75000000000051
 30
0.0
 11
575.0
 21
272.75000000000051
 31
0.0
  0
ARC
  8
0
  6
CONTINUOUS
 62
               3
  5
1EC
 10
577.0
 20
251.16742430504507
 30
0.0
 40
4.9999999999999991
 50
113.57817847818016
 51
179.99999999996507
  0
LINE
  8
0
  6
CONTINUOUS
 62
               3
  5
1ED
 10
588.50000000000045
 20
255.7500000000008
 30
0.0
 11
411.50000000000045
 21
255.7500000000008
 31
0.0
  0
LINE
  8
0
  6
CONTINUOUS
 62
               3
  5
1EE
 10
520.0
 20
255.7500000000008
 30
0.0
 11
520.0
 21
272.75000000000051
 31
0.0
  0
LINE
  8
0
  6
CONTINUOUS
 62
               3
  5
1EF
 10
480.0
 20
272.75000000000051
 30
0.0
 11
480.0
 21
255.7500000000008
 31
0.0
  0
LINE
  8
0
  6
CONTINUOUS
 62
               3
  5
1F0
 10
520.0
 20
262.75000000000051
 30
0.0
 11
480.0
 21
262.75000000000051
 31
0.0
  0
LINE
  8
0
  6
CONTINUOUS
 62
               3
  5
1F1
 10
572.28416147400549
 20
272.75000000000051
 30
0.0
 11
572.28416147400549
 21
255.7500000000008
 31
0.0
  0
LINE
  8
0
  6
CONTINUOUS
 62
               3
  5
1F2
 10
411.50000000000045
 20
262.75000000000051
 30
0.0
 11
411.50000000000045
 21
255.7500000000008
 31
0.0
  0
LINE
  8
0
  6
CONTINUOUS
 62
               3
  5
1F3
 10
411.50000000000045
 20
262.75000000000051
 30
0.0
 11
425.0
 21
272.75000000000051
 31
0.0
  0
ARC
  8
0
  6
CONTINUOUS
 62
               3
  5
1F4
 10
423.0
 20
251.16742430504507
 30
0.0
 40
4.9999999999999991
 50
0.0
 51
66.421821521785304
  0
LINE
  8
0
  6
CONTINUOUS
 62
               3
  5
1F5
 10
427.71583852599588
 20
272.75000000000051
 30
0.0
 11
427.71583852599588
 21
255.7500000000008
 31
0.0
  0
LINE
  8
0
  6
CONTINUOUS
 62
               3
  5
1F6
 10
425.00000000000045
 20
-231.25000000000006
 30
0.0
 11
575.0
 21
-231.24999999999983
 31
0.0
  0
LINE
  8
0
  6
CONTINUOUS
 62
               3
  5
1F7
 10
427.2787121660333
 20
-251.24999999999994
 30
0.0
 11
572.72128783396806
 21
-251.24999999999994
 31
0.0
  0
LINE
  8
0
  6
CONTINUOUS
 62
               3
  5
1F8
 10
575.0
 20
-231.25000000000904
 30
0.0
 11
574.99999999999955
 21
-118.25
 31
0.0
  0
LINE
  8
0
  6
CONTINUOUS
 62
               3
  5
1F9
 10
558.00000000000045
 20
-380.45708506678932
 30
0.0
 11
575.0
 21
-231.25000000000904
 31
0.0
  0
LINE
  8
0
  6
CONTINUOUS
 62
               3
  5
1FA
 10
442.00000000000045
 20
-380.45708506678932
 30
0.0
 11
425.00000000000045
 21
-231.25000000000006
 31
0.0
  0
LINE
  8
0
  6
CONTINUOUS
 62
               3
  5
1FB
 10
-557.99999999999955
 20
-380.45708506678932
 30
0.0
 11
-574.99999999999955
 21
-231.25000000000006
 31
0.0
  0
LINE
  8
0
  6
CONTINUOUS
 62
               3
  5
1FC
 10
-574.99999999999955
 20
-118.25
 30
0.0
 11
-574.99999999999955
 21
-231.25000000000006
 31
0.0
  0
ARC
  8
0
  6
CONTINUOUS
 62
               3
  5
1FD
 10
-574.99999999999955
 20
-115.75
 30
0.0
 40
2.4999999999999996
 50
89.999999999981569
 51
269.99999999994731
  0
LINE
  8
0
  6
CONTINUOUS
 62
               3
  5
1FE
 10
-441.99999999999955
 20
-380.45708506678932
 30
0.0
 11
-425.0
 21
-231.25000000000904
 31
0.0
  0
LINE
  8
0
  6
CONTINUOUS
 62
               3
  5
1FF
 10
-574.99999999999955
 20
-118.25
 30
0.0
 11
-522.49999999999955
 21
-118.25
 31
0.0
  0
LINE
  8
0
  6
CONTINUOUS
 62
               3
  5
200
 10
-574.99999999999955
 20
-113.25
 30
0.0
 11
-522.49999999999955
 21
-113.25
 31
0.0
  0
ARC
  8
0
  6
CONTINUOUS
 62
               3
  5
201
 10
-522.49999999999955
 20
-115.75
 30
0.0
 40
2.4999999999999996
 50
269.99999999994731
 51
449.99999999991297
  0
ARC
  8
0
  6
CONTINUOUS
 62
               3
  5
202
 10
-477.49999999999955
 20
-115.75
 30
0.0
 40
2.4999999999999996
 50
89.999999999982862
 51
269.99999999994731
  0
LINE
  8
0
  6
CONTINUOUS
 62
               3
  5
203
 10
-409.99999999999955
 20
21.750000000000014
 30
0.0
 11
-409.99999999999955
 21
0.7500000000000711
 31
0.0
  0
LINE
  8
0
  6
CONTINUOUS
 62
               3
  5
204
 10
-574.99999999999955
 20
-4.7167676572861978
 30
0.0
 11
-574.99999999999955
 21
-113.25
 31
0.0
  0
LINE
  8
0
  6
CONTINUOUS
 62
               3
  5
205
 10
-574.99999999999955
 20
-231.25000000000006
 30
0.0
 11
-425.0
 21
-231.24999999999983
 31
0.0
  0
LINE
  8
0
  6
CONTINUOUS
 62
               3
  5
206
 10
-572.7212878339667
 20
-251.24999999999994
 30
0.0
 11
-427.27871216603194
 21
-251.24999999999994
 31
0.0
  0
LINE
  8
0
  6
CONTINUOUS
 62
               3
  5
207
 10
-590.00000000000045
 20
21.750000000000014
 30
0.0
 11
-590.00000000000045
 21
0.7500000000000711
 31
0.0
  0
LINE
  8
0
  6
CONTINUOUS
 62
               3
  5
208
 10
-425.0
 20
272.75000000000051
 30
0.0
 11
-575.0
 21
272.75000000000051
 31
0.0
  0
LINE
  8
0
  6
CONTINUOUS
 62
               3
  5
209
 10
-411.49999999999955
 20
262.75000000000051
 30
0.0
 11
-411.49999999999955
 21
255.7500000000008
 31
0.0
  0
LINE
  8
0
  6
CONTINUOUS
 62
               3
  5
20A
 10
-411.49999999999955
 20
262.75000000000051
 30
0.0
 11
-425.0
 21
272.75000000000051
 31
0.0
  0
ARC
  8
0
  6
CONTINUOUS
 62
               3
  5
20B
 10
-423.0
 20
251.16742430504507
 30
0.0
 40
4.9999999999999991
 50
113.57817847817958
 51
179.99999999996507
  0
LINE
  8
0
  6
CONTINUOUS
 62
               3
  5
20C
 10
-411.49999999999955
 20
255.7500000000008
 30
0.0
 11
-588.49999999999955
 21
255.7500000000008
 31
0.0
  0
LINE
  8
0
  6
CONTINUOUS
 62
               3
  5
20D
 10
-428.0
 20
251.16742430504507
 30
0.0
 11
-428.0
 21
181.28565375285325
 31
0.0
  0
LINE
  8
0
  6
CONTINUOUS
 62
               3
  5
20E
 10
-572.0
 20
181.28565375285393
 30
0.0
 11
-572.0
 21
251.16742430504507
 31
0.0
  0
LINE
  8
0
  6
CONTINUOUS
 62
               3
  5
20F
 10
-428.49999999999955
 20
176.28565375285325
 30
0.0
 11
-571.50000000000045
 21
176.28565375285325
 31
0.0
  0
LINE
  8
0
  6
CONTINUOUS
 62
               3
  5
210
 10
-480.0
 20
255.7500000000008
 30
0.0
 11
-480.0
 21
272.75000000000051
 31
0.0
  0
LINE
  8
0
  6
CONTINUOUS
 62
               3
  5
211
 10
-520.0
 20
272.75000000000051
 30
0.0
 11
-520.0
 21
255.7500000000008
 31
0.0
  0
LINE
  8
0
  6
CONTINUOUS
 62
               3
  5
212
 10
-480.0
 20
262.75000000000051
 30
0.0
 11
-520.0
 21
262.75000000000051
 31
0.0
  0
LINE
  8
0
  6
CONTINUOUS
 62
               3
  5
213
 10
-427.71583852599451
 20
272.75000000000051
 30
0.0
 11
-427.71583852599451
 21
255.7500000000008
 31
0.0
  0
LINE
  8
0
  6
CONTINUOUS
 62
               3
  5
214
 10
-588.49999999999955
 20
262.75000000000051
 30
0.0
 11
-588.49999999999955
 21
255.7500000000008
 31
0.0
  0
LINE
  8
0
  6
CONTINUOUS
 62
               3
  5
215
 10
-588.49999999999955
 20
262.75000000000051
 30
0.0
 11
-575.0
 21
272.75000000000051
 31
0.0
  0
ARC
  8
0
  6
CONTINUOUS
 62
               3
  5
216
 10
-577.0
 20
251.16742430504507
 30
0.0
 40
4.9999999999999991
 50
0.0
 51
66.421821521785304
  0
LINE
  8
0
  6
CONTINUOUS
 62
               3
  5
217
 10
-572.28416147400412
 20
272.75000000000051
 30
0.0
 11
-572.28416147400412
 21
255.7500000000008
 31
0.0
  0
LINE
  8
0
  6
CONTINUOUS
 62
               3
  5
218
 10
-590.0
 20
44.750000000001265
 30
0.0
 11
-410.0
 21
44.749999999999986
 31
0.0
  0
LINE
  8
0
  6
CONTINUOUS
 62
               3
  5
219
 10
-409.99999999999955
 20
26.750000000000014
 30
0.0
 11
-409.99999999999955
 21
44.749999999999986
 31
0.0
  0
LINE
  8
0
  6
CONTINUOUS
 62
               3
  5
21A
 10
-589.99999999999955
 20
26.750000000000014
 30
0.0
 11
-589.99999999999955
 21
44.749999999999986
 31
0.0
  0
LINE
  8
0
  6
CONTINUOUS
 62
               3
  5
21B
 10
-409.99999999999955
 20
26.750000000000014
 30
0.0
 11
-589.99999999999955
 21
26.750000000000014
 31
0.0
  0
LINE
  8
0
  6
CONTINUOUS
 62
               3
  5
21C
 10
-413.99999999999955
 20
26.750000000000014
 30
0.0
 11
-413.99999999999955
 21
21.750000000000014
 31
0.0
  0
LINE
  8
0
  6
CONTINUOUS
 62
               3
  5
21D
 10
-590.00000000000045
 20
21.750000000000014
 30
0.0
 11
-409.99999999999955
 21
21.750000000000014
 31
0.0
  0
LINE
  8
0
  6
CONTINUOUS
 62
               3
  5
21E
 10
-586.00000000000045
 20
26.750000000000014
 30
0.0
 11
-586.00000000000045
 21
21.750000000000014
 31
0.0
  0
LINE
  8
0
  6
CONTINUOUS
 62
               3
  5
21F
 10
-136.99999999999977
 20
469.14999999999992
 30
0.0
 11
-136.99999999999977
 21
584.34999999999991
 31
0.0
  0
LINE
  8
0
  6
CONTINUOUS
 62
               3
  5
220
 10
-136.99999999999977
 20
584.34999999999991
 30
0.0
 11
-139.99999999999989
 21
581.35000000000036
 31
0.0
  0
LINE
  8
0
  6
CONTINUOUS
 62
               3
  5
221
 10
-136.99999999999977
 20
469.14999999999992
 30
0.0
 11
-139.99999999999989
 21
472.14999999999992
 31
0.0
  0
LINE
  8
0
  6
CONTINUOUS
 62
               3
  5
222
 10
-144.99999999999989
 20
581.85000000000014
 30
0.0
 11
-144.99999999999989
 21
471.64999999999992
 31
0.0
  0
LINE
  8
0
  6
CONTINUOUS
 62
               3
  5
223
 10
-139.99999999999989
 20
469.14999999999992
 30
0.0
 11
-139.99999999999989
 21
584.35000000000014
 31
0.0
  0
LINE
  8
0
  6
CONTINUOUS
 62
               3
  5
224
 10
-139.99999999999989
 20
584.35000000000014
 30
0.0
 11
-142.49999999999989
 21
584.35000000000014
 31
0.0
  0
LINE
  8
0
  6
CONTINUOUS
 62
               3
  5
225
 10
-139.99999999999989
 20
469.14999999999992
 30
0.0
 11
-142.49999999999989
 21
469.14999999999992
 31
0.0
  0
ARC
  8
0
  6
CONTINUOUS
 62
               3
  5
226
 10
-142.49999999999989
 20
471.64999999999992
 30
0.0
 40
2.5
 50
179.99999999996572
 51
269.99999999994793
  0
ARC
  8
0
  6
CONTINUOUS
 62
               3
  5
227
 10
-142.49999999999989
 20
581.85000000000014
 30
0.0
 40
2.5
 50
89.999999999982862
 51
179.99999999996572
  0
LINE
  8
0
  6
CONTINUOUS
 62
               3
  5
228
 10
-82.679667302908598
 20
467.27547229953717
 30
0.0
 11
-136.99999999999977
 21
469.14999999999992
 31
0.0
  0
LINE
  8
0
  6
CONTINUOUS
 62
               3
  5
229
 10
-82.676580270046799
 20
586.24701561839356
 30
0.0
 11
-136.99999999999977
 21
584.34999999999991
 31
0.0
  0
LINE
  8
0
  6
CONTINUOUS
 62
               3
  5
22A
 10
-136.99999999999989
 20
-110.84999999999982
 30
0.0
 11
-140.0
 21
-107.85000000000076
 31
0.0
  0
LINE
  8
0
  6
CONTINUOUS
 62
               3
  5
22B
 10
-136.99999999999989
 20
-110.84999999999982
 30
0.0
 11
-94.676329086442024
 21
-112.32797515601723
 31
0.0
  0
LINE
  8
0
  6
CONTINUOUS
 62
               3
  5
22C
 10
-136.99999999999989
 20
4.350000000000172
 30
0.0
 11
-140.0
 21
1.3500000000000796
 31
0.0
  0
LINE
  8
0
  6
CONTINUOUS
 62
               3
  5
22D
 10
-136.99999999999989
 20
-110.84999999999982
 30
0.0
 11
-136.99999999999989
 21
4.350000000000172
 31
0.0
  0
LINE
  8
0
  6
CONTINUOUS
 62
               3
  5
22E
 10
-140.0
 20
-110.85000000000034
 30
0.0
 11
-140.0
 21
4.3500000000000583
 31
0.0
  0
LINE
  8
0
  6
CONTINUOUS
 62
               3
  5
22F
 10
-140.0
 20
4.3500000000000583
 30
0.0
 11
-142.5
 21
4.3500000000000583
 31
0.0
  0
ARC
  8
0
  6
CONTINUOUS
 62
               3
  5
230
 10
-142.5
 20
1.8500000000000583
 30
0.0
 40
2.5
 50
89.999999999982862
 51
179.99999999996524
  0
LINE
  8
0
  6
CONTINUOUS
 62
               3
  5
231
 10
-145.0
 20
1.8500000000000583
 30
0.0
 11
-145.0
 21
-108.35000000000034
 31
0.0
  0
LINE
  8
0
  6
CONTINUOUS
 62
               3
  5
232
 10
-140.0
 20
-110.85000000000034
 30
0.0
 11
-142.5
 21
-110.85000000000034
 31
0.0
  0
ARC
  8
0
  6
CONTINUOUS
 62
               3
  5
233
 10
-142.5
 20
-108.35000000000034
 30
0.0
 40
2.5
 50
179.99999999996507
 51
269.99999999994793
  0
LINE
  8
0
  6
CONTINUOUS
 62
               3
  5
234
 10
-136.99999999999989
 20
4.350000000000172
 30
0.0
 11
-92.895301509893216
 21
5.8901700094761864
 31
0.0
  0
ARC
  8
0
  6
CONTINUOUS
 62
               3
  5
235
 10
-93.000000000000682
 20
8.8883424905334678
 30
0.0
 40
3.0
 50
271.99999999994657
 51
359.99999999993042
  0
ARC
  8
0
  6
CONTINUOUS
 62
               3
  5
236
 10
-94.850826569954506
 20
-117.32492929111274
 30
0.0
 40
5.0
 50
44.999999999992419
 51
87.99999999998262
  0
LINE
  8
0
  6
CONTINUOUS
 62
               3
  5
237
 10
-76.464466094067348
 20
-128.64022195513408
 30
0.0
 11
-91.315292664021854
 21
-113.78939538517992
 31
0.0
  0
ARC
  8
0
  6
CONTINUOUS
 62
               3
  5
238
 10
-80.0
 20
-132.17575586106685
 30
0.0
 40
5.0
 50
0.0
 51
44.99999999999207
  0
LINE
  8
0
  6
CONTINUOUS
 62
               3
  5
239
 10
-473.21264290752038
 20
-25.250000000000171
 30
0.0
 11
-526.7873570924794
 21
-25.250000000000171
 31
0.0
  0
CIRCLE
  8
0
  6
CONTINUOUS
 62
               3
  5
23A
 10
-500.0
 20
-53.250000000000057
 30
0.0
 40
38.75
  0
CIRCLE
  8
0
  6
CONTINUOUS
 62
               3
  5
23B
 10
-500.0
 20
-53.250000000000057
 30
0.0
 40
47.299999999999997
  0
LINE
  8
0
  6
CONTINUOUS
 62
               3
  5
23C
 10
-531.81980515339455
 20
-85.069805153394384
 30
0.0
 11
-533.44615075012371
 21
-86.696150750123763
 31
0.0
  0
LINE
  8
0
  6
CONTINUOUS
 62
               3
  5
23D
 10
-468.18019484660522
 20
-85.069805153394384
 30
0.0
 11
-466.55384924987629
 21
-86.696150750123763
 31
0.0
  0
ARC
  8
0
  6
CONTINUOUS
 62
               3
  5
23E
 10
-500.0
 20
-53.250000000000057
 30
0.0
 40
45.0
 50
224.99999999995646
 51
314.99999999993918
  0
CIRCLE
  8
0
  6
CONTINUOUS
 62
               3
  5
23F
 10
-500.0
 20
-53.250000000000057
 30
0.0
 40
57.5
  0
LINE
  8
0
  6
CONTINUOUS
 62
               3
  5
240
 10
-519.75474626513801
 20
0.7500000000000817
 30
0.0
 11
-589.99999999999955
 21
0.7500000000000711
 31
0.0
  0
LINE
  8
0
  6
CONTINUOUS
 62
               3
  5
241
 10
-409.99999999999955
 20
0.7500000000000711
 30
0.0
 11
-480.24525373486199
 21
0.7500000000000817
 31
0.0
  0
LINE
  8
0
  6
CONTINUOUS
 62
               3
  5
242
 10
57.600000000000023
 20
389.75000000000017
 30
0.0
 11
-57.600000000000023
 21
389.75000000000017
 31
0.0
  0
LINE
  8
0
  6
CONTINUOUS
 62
               3
  5
243
 10
-57.600000000000023
 20
389.75000000000017
 30
0.0
 11
-54.600000000000477
 21
386.75000000000006
 31
0.0
  0
LINE
  8
0
  6
CONTINUOUS
 62
               3
  5
244
 10
57.600000000000023
 20
389.75000000000017
 30
0.0
 11
54.600000000000023
 21
386.75000000000006
 31
0.0
  0
LINE
  8
0
  6
CONTINUOUS
 62
               3
  5
245
 10
-55.100000000000136
 20
381.75000000000006
 30
0.0
 11
55.100000000000023
 21
381.75000000000006
 31
0.0
  0
LINE
  8
0
  6
CONTINUOUS
 62
               3
  5
246
 10
57.600000000000023
 20
386.75000000000006
 30
0.0
 11
-57.600000000000136
 21
386.75000000000006
 31
0.0
  0
LINE
  8
0
  6
CONTINUOUS
 62
               3
  5
247
 10
-57.600000000000136
 20
386.75000000000006
 30
0.0
 11
-57.600000000000136
 21
384.25000000000006
 31
0.0
  0
LINE
  8
0
  6
CONTINUOUS
 62
               3
  5
248
 10
57.600000000000023
 20
386.75000000000006
 30
0.0
 11
57.600000000000023
 21
384.25000000000006
 31
0.0
  0
ARC
  8
0
  6
CONTINUOUS
 62
               3
  5
249
 10
55.100000000000023
 20
384.25000000000006
 30
0.0
 40
2.5
 50
269.99999999994782
 51
359.99999999993014
  0
ARC
  8
0
  6
CONTINUOUS
 62
               3
  5
24A
 10
-55.100000000000136
 20
384.25000000000006
 30
0.0
 40
2.5
 50
179.99999999996572
 51
269.99999999994782
  0
LINE
  8
0
  6
CONTINUOUS
 62
               3
  5
24B
 10
59.474527700462772
 20
444.07033269709132
 30
0.0
 11
57.600000000000023
 21
389.75000000000017
 31
0.0
  0
LINE
  8
0
  6
CONTINUOUS
 62
               3
  5
24C
 10
-59.497015618393561
 20
444.07341972995312
 30
0.0
 11
-57.600000000000023
 21
389.75000000000017
 31
0.0
  0
CIRCLE
  8
0
  6
CONTINUOUS
 62
               3
  5
24D
 10
0.0
 20
-53.250000000000128
 30
0.0
 40
57.5
  0
CIRCLE
  8
0
  6
CONTINUOUS
 62
               3
  5
24E
 10
0.0
 20
-53.250000000000128
 30
0.0
 40
47.299999999999997
  0
LINE
  8
0
  6
CONTINUOUS
 62
               3
  5
24F
 10
26.787357092479624
 20
-25.250000000000242
 30
0.0
 11
-26.787357092479397
 21
-25.250000000000242
 31
0.0
  0
LINE
  8
0
  6
CONTINUOUS
 62
               3
  5
250
 10
-31.819805153394555
 20
-85.069805153394455
 30
0.0
 11
-33.446150750123707
 21
-86.696150750123834
 31
0.0
  0
LINE
  8
0
  6
CONTINUOUS
 62
               3
  5
251
 10
31.819805153394782
 20
-85.069805153394455
 30
0.0
 11
33.446150750123707
 21
-86.696150750123834
 31
0.0
  0
ARC
  8
0
  6
CONTINUOUS
 62
               3
  5
252
 10
0.0
 20
-53.250000000000128
 30
0.0
 40
45.0
 50
224.99999999995646
 51
314.99999999993918
  0
CIRCLE
  8
0
  6
CONTINUOUS
 62
               3
  5
253
 10
0.0
 20
-53.250000000000128
 30
0.0
 40
38.75
  0
LINE
  8
0
  6
CONTINUOUS
 62
               3
  5
254
 10
-19.75474626513801
 20
0.7500000000000107
 30
0.0
 11
-89.999999999999545
 21
0.75
 31
0.0
  0
LINE
  8
0
  6
CONTINUOUS
 62
               3
  5
255
 10
90.000000000000455
 20
0.75
 30
0.0
 11
19.75474626513801
 21
0.7500000000000107
 31
0.0
  0
ARC
  8
0
  6
CONTINUOUS
 62
               3
  5
256
 10
-22.499999999999545
 20
-115.75000000000006
 30
0.0
 40
2.4999999999999996
 50
269.99999999994782
 51
449.99999999991297
  0
ARC
  8
0
  6
CONTINUOUS
 62
               3
  5
257
 10
22.500000000000455
 20
-115.75000000000006
 30
0.0
 40
2.4999999999999996
 50
89.99999999998262
 51
269.99999999994782
  0
LINE
  8
0
  6
CONTINUOUS
 62
               3
  5
258
 10
22.500000000000455
 20
-118.24999999999991
 30
0.0
 11
75.0
 21
-118.24999999999991
 31
0.0
  0
LINE
  8
0
  6
CONTINUOUS
 62
               3
  5
259
 10
22.500000000000455
 20
-113.24999999999991
 30
0.0
 11
75.0
 21
-113.24999999999991
 31
0.0
  0
LINE
  8
0
  6
CONTINUOUS
 62
               3
  5
25A
 10
-65.0
 20
-118.24999999999991
 30
0.0
 11
-22.499999999999545
 21
-118.24999999999991
 31
0.0
  0
LINE
  8
0
  6
CONTINUOUS
 62
               3
  5
25B
 10
-65.0
 20
-113.24999999999991
 30
0.0
 11
-22.499999999999545
 21
-113.24999999999991
 31
0.0
  0
LINE
  8
0
  6
CONTINUOUS
 62
               3
  5
25C
 10
-363.00000000000011
 20
-110.84999999999982
 30
0.0
 11
-360.0
 21
-107.85000000000076
 31
0.0
  0
LINE
  8
0
  6
CONTINUOUS
 62
               3
  5
25D
 10
-363.00000000000011
 20
4.350000000000172
 30
0.0
 11
-360.0
 21
1.3500000000000796
 31
0.0
  0
LINE
  8
0
  6
CONTINUOUS
 62
               3
  5
25E
 10
-363.00000000000011
 20
-110.84999999999982
 30
0.0
 11
-363.00000000000011
 21
4.350000000000172
 31
0.0
  0
LINE
  8
0
  6
CONTINUOUS
 62
               3
  5
25F
 10
-360.0
 20
-110.85000000000034
 30
0.0
 11
-360.0
 21
4.3500000000000583
 31
0.0
  0
LINE
  8
0
  6
CONTINUOUS
 62
               3
  5
260
 10
-360.0
 20
4.3500000000000583
 30
0.0
 11
-357.5
 21
4.3500000000000583
 31
0.0
  0
ARC
  8
0
  6
CONTINUOUS
 62
               3
  5
261
 10
-357.5
 20
1.8500000000000583
 30
0.0
 40
2.5
 50
0.0
 51
89.999999999982862
  0
LINE
  8
0
  6
CONTINUOUS
 62
               3
  5
262
 10
-355.0
 20
1.8500000000000583
 30
0.0
 11
-355.0
 21
-108.35000000000034
 31
0.0
  0
LINE
  8
0
  6
CONTINUOUS
 62
               3
  5
263
 10
-360.0
 20
-110.85000000000034
 30
0.0
 11
-357.5
 21
-110.85000000000034
 31
0.0
  0
ARC
  8
0
  6
CONTINUOUS
 62
               3
  5
264
 10
-357.5
 20
-108.35000000000034
 30
0.0
 40
2.5
 50
269.99999999994731
 51
359.99999999993014
  0
ARC
  8
0
  6
CONTINUOUS
 62
               3
  5
265
 10
-435.0
 20
-115.74999999999991
 30
0.0
 40
2.4999999999999996
 50
269.99999999994731
 51
449.99999999991297
  0
ARC
  8
0
  6
CONTINUOUS
 62
               3
  5
266
 10
-405.14917343004549
 20
-117.32492929111274
 30
0.0
 40
5.0
 50
91.999999999982577
 51
134.99999999997274
  0
LINE
  8
0
  6
CONTINUOUS
 62
               3
  5
267
 10
-423.53553390593265
 20
-128.64022195513408
 30
0.0
 11
-408.68470733597815
 21
-113.78939538517992
 31
0.0
  0
ARC
  8
0
  6
CONTINUOUS
 62
               3
  5
268
 10
-420.0
 20
-132.17575586106685
 30
0.0
 40
5.0
 50
134.9999999999732
 51
179.99999999996507
  0
LINE
  8
0
  6
CONTINUOUS
 62
               3
  5
269
 10
-363.00000000000011
 20
-110.84999999999982
 30
0.0
 11
-405.32367091355798
 21
-112.32797515601723
 31
0.0
  0
LINE
  8
0
  6
CONTINUOUS
 62
               3
  5
26A
 10
-363.00000000000011
 20
4.350000000000172
 30
0.0
 11
-407.10469849010678
 21
5.8901700094761864
 31
0.0
  0
LINE
  8
0
  6
CONTINUOUS
 62
               3
  5
26B
 10
-424.99999999999943
 20
-132.17575586106679
 30
0.0
 11
-425.00000000000045
 21
-231.25000000000006
 31
0.0
  0
LINE
  8
0
  6
CONTINUOUS
 62
               3
  5
26C
 10
-435.0
 20
-118.24999999999991
 30
0.0
 11
-477.50000000000045
 21
-118.24999999999991
 31
0.0
  0
LINE
  8
0
  6
CONTINUOUS
 62
               3
  5
26D
 10
-435.0
 20
-113.24999999999991
 30
0.0
 11
-477.50000000000045
 21
-113.24999999999991
 31
0.0
  0
ARC
  8
0
  6
CONTINUOUS
 62
               3
  5
26E
 10
-406.99999999999932
 20
8.8883424905334678
 30
0.0
 40
3.0
 50
179.99999999996518
 51
267.99999999994907
  0
LINE
  8
0
  6
CONTINUOUS
 62
               3
  5
26F
 10
363.00000000000011
 20
-110.84999999999982
 30
0.0
 11
360.0
 21
-107.85000000000076
 31
0.0
  0
LINE
  8
0
  6
CONTINUOUS
 62
               3
  5
270
 10
363.00000000000011
 20
4.350000000000172
 30
0.0
 11
360.0
 21
1.3500000000000796
 31
0.0
  0
LINE
  8
0
  6
CONTINUOUS
 62
               3
  5
271
 10
363.00000000000011
 20
-110.84999999999982
 30
0.0
 11
363.00000000000011
 21
4.350000000000172
 31
0.0
  0
LINE
  8
0
  6
CONTINUOUS
 62
               3
  5
272
 10
360.0
 20
-110.85000000000034
 30
0.0
 11
360.0
 21
4.3500000000000583
 31
0.0
  0
LINE
  8
0
  6
CONTINUOUS
 62
               3
  5
273
 10
360.0
 20
4.3500000000000583
 30
0.0
 11
357.5
 21
4.3500000000000583
 31
0.0
  0
ARC
  8
0
  6
CONTINUOUS
 62
               3
  5
274
 10
357.5
 20
1.8500000000000583
 30
0.0
 40
2.5
 50
89.999999999982862
 51
179.99999999996524
  0
LINE
  8
0
  6
CONTINUOUS
 62
               3
  5
275
 10
355.0
 20
1.8500000000000583
 30
0.0
 11
355.0
 21
-108.35000000000034
 31
0.0
  0
LINE
  8
0
  6
CONTINUOUS
 62
               3
  5
276
 10
360.0
 20
-110.85000000000034
 30
0.0
 11
357.5
 21
-110.85000000000034
 31
0.0
  0
ARC
  8
0
  6
CONTINUOUS
 62
               3
  5
277
 10
357.5
 20
-108.35000000000034
 30
0.0
 40
2.5
 50
179.99999999996507
 51
269.99999999994731
  0
ARC
  8
0
  6
CONTINUOUS
 62
               3
  5
278
 10
435.0
 20
-115.74999999999991
 30
0.0
 40
2.4999999999999996
 50
89.999999999982862
 51
269.99999999994731
  0
ARC
  8
0
  6
CONTINUOUS
 62
               3
  5
279
 10
405.14917343004549
 20
-117.32492929111274
 30
0.0
 40
5.0
 50
44.999999999992305
 51
87.999999999982478
  0
LINE
  8
0
  6
CONTINUOUS
 62
               3
  5
27A
 10
423.53553390593265
 20
-128.64022195513408
 30
0.0
 11
408.68470733597815
 21
-113.78939538517992
 31
0.0
  0
ARC
  8
0
  6
CONTINUOUS
 62
               3
  5
27B
 10
420.0
 20
-132.17575586106685
 30
0.0
 40
5.0
 50
0.0
 51
44.99999999999207
  0
LINE
  8
0
  6
CONTINUOUS
 62
               3
  5
27C
 10
363.00000000000011
 20
-110.84999999999982
 30
0.0
 11
405.32367091355798
 21
-112.32797515601723
 31
0.0
  0
LINE
  8
0
  6
CONTINUOUS
 62
               3
  5
27D
 10
363.00000000000011
 20
4.350000000000172
 30
0.0
 11
407.10469849010678
 21
5.8901700094761864
 31
0.0
  0
LINE
  8
0
  6
CONTINUOUS
 62
               3
  5
27E
 10
424.99999999999943
 20
-132.17575586106679
 30
0.0
 11
425.00000000000045
 21
-231.25000000000006
 31
0.0
  0
LINE
  8
0
  6
CONTINUOUS
 62
               3
  5
27F
 10
435.0
 20
-118.24999999999991
 30
0.0
 11
575.0
 21
-118.24999999999991
 31
0.0
  0
LINE
  8
0
  6
CONTINUOUS
 62
               3
  5
280
 10
435.0
 20
-113.24999999999991
 30
0.0
 11
575.0
 21
-113.24999999999991
 31
0.0
  0
ARC
  8
0
  6
CONTINUOUS
 62
               3
  5
281
 10
406.99999999999932
 20
8.8883424905334678
 30
0.0
 40
3.0
 50
271.99999999994657
 51
359.99999999993042
  0
LINE
  8
0
  6
CONTINUOUS
 62
               3
  5
282
 10
-441.99999999999955
 20
-491.24999999999903
 30
0.0
 11
-441.99999999999955
 21
-380.45708506678932
 31
0.0
  0
LINE
  8
0
  6
CONTINUOUS
 62
               3
  5
283
 10
-557.99999999999955
 20
-380.45708506678932
 30
0.0
 11
-557.99999999999955
 21
-491.24999999999903
 31
0.0
  0
LINE
  8
0
  6
CONTINUOUS
 62
               3
  5
284
 10
-557.99999999999955
 20
-380.45708506678892
 30
0.0
 11
-441.99999999999955
 21
-380.45708506678932
 31
0.0
  0
LINE
  8
0
  6
CONTINUOUS
 62
               3
  5
285
 10
-560.27871216603239
 20
-360.45708506678903
 30
0.0
 11
-439.7212878339667
 21
-360.45708506678903
 31
0.0
  0
LINE
  8
0
  6
CONTINUOUS
 62
               3
  5
286
 10
-557.0
 20
-592.24999999999955
 30
0.0
 11
-443.0
 21
-592.24999999999955
 31
0.0
  0
LINE
  8
0
  6
CONTINUOUS
 62
               3
  5
287
 10
-443.0
 20
-592.24999999999955
 30
0.0
 11
-443.0
 21
-492.24999999999949
 31
0.0
  0
LINE
  8
0
  6
CONTINUOUS
 62
               3
  5
288
 10
-557.0
 20
-592.24999999999955
 30
0.0
 11
-557.0
 21
-492.24999999999949
 31
0.0
  0
LINE
  8
0
  6
CONTINUOUS
 62
               3
  5
289
 10
-557.0
 20
-492.24999999999949
 30
0.0
 11
-443.0
 21
-492.24999999999949
 31
0.0
  0
LINE
  8
0
  6
CONTINUOUS
 62
               3
  5
28A
 10
-443.0
 20
-492.24999999999949
 30
0.0
 11
-441.99999999999955
 21
-491.24999999999903
 31
0.0
  0
LINE
  8
0
  6
CONTINUOUS
 62
               3
  5
28B
 10
-557.0
 20
-492.24999999999949
 30
0.0
 11
-557.99999999999955
 21
-491.24999999999903
 31
0.0
  0
LINE
  8
0
  6
CONTINUOUS
 62
               3
  5
28C
 10
58.000000000000455
 20
-491.24999999999903
 30
0.0
 11
58.000000000000455
 21
-380.45708506678932
 31
0.0
  0
LINE
  8
0
  6
CONTINUOUS
 62
               3
  5
28D
 10
-57.999999999999545
 20
-380.45708506678932
 30
0.0
 11
-57.999999999999545
 21
-491.24999999999903
 31
0.0
  0
LINE
  8
0
  6
CONTINUOUS
 62
               3
  5
28E
 10
-57.999999999999545
 20
-380.45708506678892
 30
0.0
 11
58.000000000000455
 21
-380.45708506678932
 31
0.0
  0
LINE
  8
0
  6
CONTINUOUS
 62
               3
  5
28F
 10
-60.278712166032392
 20
-360.45708506678903
 30
0.0
 11
60.278712166033301
 21
-360.45708506678903
 31
0.0
  0
LINE
  8
0
  6
CONTINUOUS
 62
               3
  5
290
 10
-57.0
 20
-592.24999999999955
 30
0.0
 11
57.0
 21
-592.24999999999955
 31
0.0
  0
LINE
  8
0
  6
CONTINUOUS
 62
               3
  5
291
 10
57.0
 20
-592.24999999999955
 30
0.0
 11
57.0
 21
-492.24999999999949
 31
0.0
  0
LINE
  8
0
  6
CONTINUOUS
 62
               3
  5
292
 10
-57.0
 20
-592.24999999999955
 30
0.0
 11
-57.0
 21
-492.24999999999949
 31
0.0
  0
LINE
  8
0
  6
CONTINUOUS
 62
               3
  5
293
 10
-57.0
 20
-492.24999999999949
 30
0.0
 11
57.0
 21
-492.24999999999949
 31
0.0
  0
LINE
  8
0
  6
CONTINUOUS
 62
               3
  5
294
 10
57.0
 20
-492.24999999999949
 30
0.0
 11
58.000000000000455
 21
-491.24999999999903
 31
0.0
  0
LINE
  8
0
  6
CONTINUOUS
 62
               3
  5
295
 10
-57.0
 20
-492.24999999999949
 30
0.0
 11
-57.999999999999545
 21
-491.24999999999903
 31
0.0
  0
LINE
  8
0
  6
CONTINUOUS
 62
               3
  5
296
 10
558.00000000000045
 20
-491.24999999999903
 30
0.0
 11
558.00000000000045
 21
-380.45708506678932
 31
0.0
  0
LINE
  8
0
  6
CONTINUOUS
 62
               3
  5
297
 10
442.00000000000045
 20
-380.45708506678932
 30
0.0
 11
442.00000000000045
 21
-491.24999999999903
 31
0.0
  0
LINE
  8
0
  6
CONTINUOUS
 62
               3
  5
298
 10
442.00000000000045
 20
-380.45708506678892
 30
0.0
 11
558.00000000000045
 21
-380.45708506678932
 31
0.0
  0
LINE
  8
0
  6
CONTINUOUS
 62
               3
  5
299
 10
439.72128783396761
 20
-360.45708506678903
 30
0.0
 11
560.2787121660333
 21
-360.45708506678903
 31
0.0
  0
LINE
  8
0
  6
CONTINUOUS
 62
               3
  5
29A
 10
443.0
 20
-592.24999999999955
 30
0.0
 11
557.0
 21
-592.24999999999955
 31
0.0
  0
LINE
  8
0
  6
CONTINUOUS
 62
               3
  5
29B
 10
557.0
 20
-592.24999999999955
 30
0.0
 11
557.0
 21
-492.24999999999949
 31
0.0
  0
LINE
  8
0
  6
CONTINUOUS
 62
               3
  5
29C
 10
443.0
 20
-592.24999999999955
 30
0.0
 11
443.0
 21
-492.24999999999949
 31
0.0
  0
LINE
  8
0
  6
CONTINUOUS
 62
               3
  5
29D
 10
443.0
 20
-492.24999999999949
 30
0.0
 11
557.0
 21
-492.24999999999949
 31
0.0
  0
LINE
  8
0
  6
CONTINUOUS
 62
               3
  5
29E
 10
557.0
 20
-492.24999999999949
 30
0.0
 11
558.00000000000045
 21
-491.24999999999903
 31
0.0
  0
LINE
  8
0
  6
CONTINUOUS
 62
               3
  5
29F
 10
443.0
 20
-492.24999999999949
 30
0.0
 11
442.00000000000045
 21
-491.24999999999903
 31
0.0
  0
CIRCLE
  8
0
  6
CONTINUOUS
 62
               3
  5
2A0
 10
0.0
 20
526.75
 30
0.0
 40
59.0
  0
CIRCLE
  8
0
  6
CONTINUOUS
 62
               3
  5
2A1
 10
0.0
 20
526.75
 30
0.0
 40
50.0
  0
LINE
  8
0
  6
CONTINUOUS
 62
               3
  5
2A2
 10
-30.000000000000011
 20
566.75
 30
0.0
 11
30.000000000000288
 21
566.74999999999977
 31
0.0
  0
LINE
  8
0
  6
CONTINUOUS
 62
               3
  5
2A3
 10
-22.000000000000568
 20
526.75
 30
0.0
 11
-22.000000000000568
 21
481.85011135871292
 31
0.0
  0
LINE
  8
0
  6
CONTINUOUS
 62
               3
  5
2A4
 10
-22.000000000000568
 20
526.75
 30
0.0
 11
-43.168820844042649
 21
551.97801829187051
 31
0.0
  0
LINE
  8
0
  6
CONTINUOUS
 62
               3
  5
2A5
 10
-22.000000000000568
 20
504.74999999999949
 30
0.0
 11
44.89988864128707
 21
504.74999999999949
 31
0.0
  0
ARC
  8
0
  6
CONTINUOUS
 62
               3
  5
2A6
 10
579.99999999999955
 20
-4.2499999999999289
 30
0.0
 40
5.0
 50
89.999999999982862
 51
179.99999999996518
  0
ARC
  8
0
  6
CONTINUOUS
 62
               3
  5
2A7
 10
80.0
 20
-4.2499999999999964
 30
0.0
 40
5.0
 50
89.999999999982535
 51
179.99999999996518
  0
CIRCLE
  8
0
  6
CONTINUOUS
 62
               3
  5
2A8
 10
609.28652321630784
 20
-956.21375990939896
 30
0.0
 40
75.0
  0
CIRCLE
  8
0
  6
CONTINUOUS
 62
               3
  5
2A9
 10
609.28652321630784
 20
-956.21375990939896
 30
0.0
 40
52.5
  0
LINE
  8
0
  6
CONTINUOUS
 62
               3
  5
2AA
 10
523.0760250156826
 20
-936.21375990939896
 30
0.0
 11
537.00236174230247
 21
-936.21375990939896
 31
0.0
  0
LINE
  8
0
  6
CONTINUOUS
 62
               3
  5
2AB
 10
537.00236174230247
 20
-976.21375990939896
 30
0.0
 11
523.0760250156826
 21
-976.21375990939896
 31
0.0
  0
ARC
  8
0
  6
CONTINUOUS
 62
               3
  5
2AC
 10
609.28652321630784
 20
-956.21375990939896
 30
0.0
 40
88.5
 50
166.93897588513528
 51
193.06102411472631
  0
LINE
  8
0
  6
CONTINUOUS
 62
               3
  5
2AD
 10
589.28652321630784
 20
-1042.4242581100239
 30
0.0
 11
589.28652321630784
 21
-1028.497921383404
 31
0.0
  0
LINE
  8
0
  6
CONTINUOUS
 62
               3
  5
2AE
 10
629.28652321630784
 20
-1028.497921383404
 30
0.0
 11
629.28652321630784
 21
-1042.4242581100239
 31
0.0
  0
ARC
  8
0
  6
CONTINUOUS
 62
               3
  5
2AF
 10
609.28652321630784
 20
-956.21375990939896
 30
0.0
 40
88.5
 50
256.93897588510077
 51
283.06102411469175
  0
LINE
  8
0
  6
CONTINUOUS
 62
               3
  5
2B0
 10
695.49702141693251
 20
-976.21375990939896
 30
0.0
 11
681.57068469031208
 21
-976.21375990939896
 31
0.0
  0
LINE
  8
0
  6
CONTINUOUS
 62
               3
  5
2B1
 10
681.57068469031208
 20
-936.21375990939896
 30
0.0
 11
695.49702141693251
 21
-936.21375990939896
 31
0.0
  0
ARC
  8
0
  6
CONTINUOUS
 62
               3
  5
2B2
 10
609.28652321630784
 20
-956.21375990939896
 30
0.0
 40
88.5
 50
346.9389758850661
 51
373.06102411465713
  0
LINE
  8
0
  6
CONTINUOUS
 62
               3
  5
2B3
 10
629.28652321630784
 20
-870.00326170877338
 30
0.0
 11
629.28652321630784
 21
-883.92959843539393
 31
0.0
  0
LINE
  8
0
  6
CONTINUOUS
 62
               3
  5
2B4
 10
589.28652321630784
 20
-883.92959843539393
 30
0.0
 11
589.28652321630784
 21
-870.00326170877338
 31
0.0
  0
ARC
  8
0
  6
CONTINUOUS
 62
               3
  5
2B5
 10
609.28652321630784
 20
-956.21375990939896
 30
0.0
 40
88.5
 50
76.938975885169896
 51
103.06102411476094
  0
LINE
  8
0
  6
CONTINUOUS
 62
               3
  5
2B6
 10
561.61839969544678
 20
-978.21375990939941
 30
0.0
 11
656.95464673716776
 21
-978.21375990939941
 31
0.0
  0
ARC
  8
0
  6
CONTINUOUS
 62
               3
  5
2B7
 10
621.79013486568897
 20
-947.50736228177993
 30
0.0
 40
54.763804151667173
 50
141.3859176367836
 51
145.15009542089808
  0
ARC
  8
0
  6
CONTINUOUS
 62
               3
  5
2B8
 10
609.28652321630784
 20
-956.21375990939896
 30
0.0
 40
51.5
 50
334.71098847332905
 51
410.9593273634826
  0
ARC
  8
0
  6
CONTINUOUS
 62
               3
  5
2B9
 10
609.28652321630784
 20
-956.21375990939896
 30
0.0
 40
51.5
 50
129.04067263631032
 51
205.28901152646336
  0
ARC
  8
0
  6
CONTINUOUS
 62
               3
  5
2BA
 10
609.28652321630784
 20
-956.21375990939896
 30
0.0
 40
77.5
 50
104.955248316603
 51
128.57288309098388
  0
ARC
  8
0
  6
CONTINUOUS
 62
               3
  5
2BB
 10
609.28652321630784
 20
-956.21375990939896
 30
0.0
 40
77.5
 50
14.955248316637585
 51
75.044751683327831
  0
ARC
  8
0
  6
CONTINUOUS
 62
               3
  5
2BC
 10
609.28652321630784
 20
-956.21375990939896
 30
0.0
 40
77.5
 50
321.42711690884255
 51
345.04475168322404
  0
LINE
  8
0
  6
CONTINUOUS
 62
               3
  5
2BD
 10
469.28652321630784
 20
-1011.213759909399
 30
0.0
 11
469.95807934227207
 21
-1011.213759909399
 31
0.0
  0
LINE
  8
0
  6
CONTINUOUS
 62
               3
  5
2BE
 10
472.45807934227253
 20
-1013.713759909399
 30
0.0
 11
469.95807934227207
 21
-1011.213759909399
 31
0.0
  0
LINE
  8
0
  6
CONTINUOUS
 62
               3
  5
2BF
 10
469.28652321630784
 20
-901.21375990939896
 30
0.0
 11
469.95807934227207
 21
-901.21375990939896
 31
0.0
  0
LINE
  8
0
  6
CONTINUOUS
 62
               3
  5
2C0
 10
472.45807934227207
 20
-898.71375990939896
 30
0.0
 11
469.95807934227207
 21
-901.21375990939896
 31
0.0
  0
LINE
  8
0
  6
CONTINUOUS
 62
               3
  5
2C1
 10
469.95807934227207
 20
-901.21375990939896
 30
0.0
 11
469.95807934227207
 21
-1011.213759909399
 31
0.0
  0
LINE
  8
0
  6
CONTINUOUS
 62
               3
  5
2C2
 10
563.79618742992989
 20
-895.52416289105736
 30
0.0
 11
472.45807934227207
 21
-898.71375990939896
 31
0.0
  0
LINE
  8
0
  6
CONTINUOUS
 62
               3
  5
2C3
 10
544.4500514997568
 20
-1016.2277749743666
 30
0.0
 11
472.45807934227264
 21
-1013.713759909399
 31
0.0
  0
LINE
  8
0
  6
CONTINUOUS
 62
               3
  5
2C4
 10
464.28652321630784
 20
-901.38531603536308
 30
0.0
 11
464.28652321630784
 21
-1011.313759909399
 31
0.0
  0
LINE
  8
0
  6
CONTINUOUS
 62
               3
  5
2C5
 10
469.28652321630784
 20
-1013.813759909399
 30
0.0
 11
469.28652321630784
 21
-898.61375990939894
 31
0.0
  0
LINE
  8
0
  6
CONTINUOUS
 62
               3
  5
2C6
 10
469.28652321630784
 20
-898.61375990939894
 30
0.0
 11
466.78652321630784
 21
-898.61375990939894
 31
0.0
  0
LINE
  8
0
  6
CONTINUOUS
 62
               3
  5
2C7
 10
469.28652321630784
 20
-1013.813759909399
 30
0.0
 11
466.78652321630784
 21
-1013.813759909399
 31
0.0
  0
ARC
  8
0
  6
CONTINUOUS
 62
               3
  5
2C8
 10
466.78652321630784
 20
-1011.313759909399
 30
0.0
 40
2.5
 50
179.99999999993088
 51
269.99999999989649
  0
ARC
  8
0
  6
CONTINUOUS
 62
               3
  5
2C9
 10
466.78652321630784
 20
-901.11375990939894
 30
0.0
 40
2.5
 50
89.999999999965596
 51
179.99999999993088
  0
LINE
  8
0
  6
CONTINUOUS
 62
               3
  5
2CA
 10
576.84812004969024
 20
-916.21375990939919
 30
0.0
 11
609.28652321630784
 21
-916.21375990939919
 31
0.0
  0
LINE
  8
0
  6
CONTINUOUS
 62
               3
  5
2CB
 10
609.28652321630784
 20
-916.21375990939919
 30
0.0
 11
643.29019948814653
 21
-916.21375990939919
 31
0.0
  0
LINE
  8
0
  6
CONTINUOUS
 62
               3
  5
2CC
 10
472.45807934227253
 20
-1013.713759909399
 30
0.0
 11
472.45807934227207
 21
-898.71375990939896
 31
0.0
  0
ARC
  8
0
  6
CONTINUOUS
 62
               3
  5
2CD
 10
563.6216899464174
 20
-890.52720875596185
 30
0.0
 40
5.0
 50
271.99999999989558
 51
304.80675787031049
  0
LINE
  8
0
  6
CONTINUOUS
 62
               3
  5
2CE
 10
664.28652321630773
 20
-1096.213759909399
 30
0.0
 11
664.28652321630773
 21
-1095.5422037834346
 31
0.0
  0
LINE
  8
0
  6
CONTINUOUS
 62
               3
  5
2CF
 10
666.78652321630773
 20
-1093.0422037834342
 30
0.0
 11
664.28652321630773
 21
-1095.5422037834346
 31
0.0
  0
LINE
  8
0
  6
CONTINUOUS
 62
               3
  5
2D0
 10
554.28652321630773
 20
-1096.213759909399
 30
0.0
 11
554.28652321630773
 21
-1095.5422037834346
 31
0.0
  0
LINE
  8
0
  6
CONTINUOUS
 62
               3
  5
2D1
 10
551.78652321630773
 20
-1093.0422037834346
 30
0.0
 11
554.28652321630773
 21
-1095.5422037834346
 31
0.0
  0
LINE
  8
0
  6
CONTINUOUS
 62
               3
  5
2D2
 10
554.28652321630773
 20
-1095.5422037834346
 30
0.0
 11
664.28652321630773
 21
-1095.5422037834346
 31
0.0
  0
LINE
  8
0
  6
CONTINUOUS
 62
               3
  5
2D3
 10
554.45807934227184
 20
-1101.213759909399
 30
0.0
 11
664.38652321630775
 21
-1101.213759909399
 31
0.0
  0
LINE
  8
0
  6
CONTINUOUS
 62
               3
  5
2D4
 10
666.88652321630775
 20
-1096.213759909399
 30
0.0
 11
551.68652321630771
 21
-1096.213759909399
 31
0.0
  0
LINE
  8
0
  6
CONTINUOUS
 62
               3
  5
2D5
 10
551.68652321630771
 20
-1096.213759909399
 30
0.0
 11
551.68652321630771
 21
-1098.713759909399
 31
0.0
  0
LINE
  8
0
  6
CONTINUOUS
 62
               3
  5
2D6
 10
666.88652321630775
 20
-1096.213759909399
 30
0.0
 11
666.88652321630775
 21
-1098.713759909399
 31
0.0
  0
ARC
  8
0
  6
CONTINUOUS
 62
               3
  5
2D7
 10
664.38652321630775
 20
-1098.713759909399
 30
0.0
 40
2.5
 50
269.99999999989615
 51
359.99999999986142
  0
ARC
  8
0
  6
CONTINUOUS
 62
               3
  5
2D8
 10
554.18652321630771
 20
-1098.713759909399
 30
0.0
 40
2.5
 50
179.99999999993057
 51
269.99999999989626
  0
LINE
  8
0
  6
CONTINUOUS
 62
               3
  5
2D9
 10
666.78652321630773
 20
-1093.0422037834342
 30
0.0
 11
551.78652321630773
 21
-1093.0422037834346
 31
0.0
  0
LINE
  8
0
  6
CONTINUOUS
 62
               3
  5
2DA
 10
669.97612023464887
 20
-1001.7040956957775
 30
0.0
 11
666.78652321630773
 21
-1093.0422037834342
 31
0.0
  0
ARC
  8
0
  6
CONTINUOUS
 62
               3
  5
2DB
 10
674.97307436974438
 20
-1001.87859317929
 30
0.0
 40
5.0
 50
145.19324212951597
 51
177.9999999999317
  0
LINE
  8
0
  6
CONTINUOUS
 62
               3
  5
2DC
 10
549.27250815133971
 20
-1021.0502316259499
 30
0.0
 11
551.78652321630773
 21
-1093.0422037834346
 31
0.0
  0
ARC
  8
0
  6
CONTINUOUS
 62
               3
  5
2DD
 10
544.27555401624431
 20
-1021.2247291094621
 30
0.0
 40
5.0
 50
1.9999999999967224
 51
87.999999999966334
  0
LINE
  8
0
  6
CONTINUOUS
 62
               3
  5
2DE
 10
534.28652321630784
 20
-1264.7131936579833
 30
0.0
 11
684.28652321630784
 21
-1264.7131936579833
 31
0.0
  0
LINE
  8
0
  6
CONTINUOUS
 62
               3
  5
2DF
 10
520.78652321630761
 20
-1274.7131936579833
 30
0.0
 11
520.78652321630761
 21
-1281.7131936579829
 31
0.0
  0
LINE
  8
0
  6
CONTINUOUS
 62
               3
  5
2E0
 10
520.78652321630761
 20
-1274.7131936579833
 30
0.0
 11
534.28652321630784
 21
-1264.7131936579833
 31
0.0
  0
ARC
  8
0
  6
CONTINUOUS
 62
               3
  5
2E1
 10
532.28652321630796
 20
-1286.2957693529386
 30
0.0
 40
4.9999999999999991
 50
0.0
 51
66.4218215217725
  0
LINE
  8
0
  6
CONTINUOUS
 62
               3
  5
2E2
 10
520.78652321630761
 20
-1281.7131936579829
 30
0.0
 11
697.7865232163075
 21
-1281.7131936579829
 31
0.0
  0
ARC
  8
0
  6
CONTINUOUS
 62
               3
  5
2E3
 10
554.28652321630784
 20
-1371.7131936579833
 30
0.0
 40
19.999999999999996
 50
148.21166938289122
 51
167.2698198616232
  0
LINE
  8
0
  6
CONTINUOUS
 62
               3
  5
2E4
 10
537.28652321630796
 20
-1286.2957693529386
 30
0.0
 11
537.28652321630796
 21
-1361.1775399051305
 31
0.0
  0
LINE
  8
0
  6
CONTINUOUS
 62
               3
  5
2E5
 10
681.28652321630773
 20
-1356.1775399051301
 30
0.0
 11
681.28652321630773
 21
-1286.2957693529386
 31
0.0
  0
LINE
  8
0
  6
CONTINUOUS
 62
               3
  5
2E6
 10
537.28652321630796
 20
-1361.1775399051305
 30
0.0
 11
680.78652321630818
 21
-1361.1775399051305
 31
0.0
  0
LINE
  8
0
  6
CONTINUOUS
 62
               3
  5
2E7
 10
589.28652321630784
 20
-1281.7131936579829
 30
0.0
 11
589.28652321630784
 21
-1264.7131936579833
 31
0.0
  0
LINE
  8
0
  6
CONTINUOUS
 62
               3
  5
2E8
 10
629.28652321630784
 20
-1264.7131936579833
 30
0.0
 11
629.28652321630784
 21
-1281.7131936579829
 31
0.0
  0
LINE
  8
0
  6
CONTINUOUS
 62
               3
  5
2E9
 10
589.28652321630784
 20
-1274.7131936579833
 30
0.0
 11
629.28652321630784
 21
-1274.7131936579833
 31
0.0
  0
LINE
  8
0
  6
CONTINUOUS
 62
               3
  5
2EA
 10
537.00236174230247
 20
-1264.7131936579833
 30
0.0
 11
537.00236174230247
 21
-1281.7131936579829
 31
0.0
  0
LINE
  8
0
  6
CONTINUOUS
 62
               3
  5
2EB
 10
523.0760250156826
 20
-1274.7131936579833
 30
0.0
 11
523.0760250156826
 21
-1281.7131936579829
 31
0.0
  0
LINE
  8
0
  6
CONTINUOUS
 62
               3
  5
2EC
 10
520.78652321630761
 20
-1274.7131936579833
 30
0.0
 11
523.0760250156826
 21
-1274.7131936579833
 31
0.0
  0
LINE
  8
0
  6
CONTINUOUS
 62
               3
  5
2ED
 10
523.0760250156826
 20
-1274.7131936579833
 30
0.0
 11
537.00236174230247
 21
-1264.7131936579833
 31
0.0
  0
LINE
  8
0
  6
CONTINUOUS
 62
               3
  5
2EE
 10
697.7865232163075
 20
-1274.7131936579833
 30
0.0
 11
697.7865232163075
 21
-1281.7131936579829
 31
0.0
  0
LINE
  8
0
  6
CONTINUOUS
 62
               3
  5
2EF
 10
697.7865232163075
 20
-1274.7131936579833
 30
0.0
 11
684.28652321630784
 21
-1264.7131936579833
 31
0.0
  0
ARC
  8
0
  6
CONTINUOUS
 62
               3
  5
2F0
 10
686.28652321630773
 20
-1286.2957693529386
 30
0.0
 40
4.9999999999999991
 50
113.57817847815815
 51
179.99999999993057
  0
LINE
  8
0
  6
CONTINUOUS
 62
               3
  5
2F1
 10
681.57068469031208
 20
-1264.7131936579833
 30
0.0
 11
681.57068469031208
 21
-1281.7131936579829
 31
0.0
  0
LINE
  8
0
  6
CONTINUOUS
 62
               3
  5
2F2
 10
695.49702141693308
 20
-1274.7131936579833
 30
0.0
 11
695.49702141693308
 21
-1281.7131936579829
 31
0.0
  0
LINE
  8
0
  6
CONTINUOUS
 62
               3
  5
2F3
 10
697.7865232163075
 20
-1274.7131936579833
 30
0.0
 11
695.49702141693308
 21
-1274.7131936579833
 31
0.0
  0
LINE
  8
0
  6
CONTINUOUS
 62
               3
  5
2F4
 10
695.49702141693308
 20
-1274.7131936579833
 30
0.0
 11
681.57068469031208
 21
-1264.7131936579833
 31
0.0
  0
ARC
  8
0
  6
CONTINUOUS
 62
               3
  5
2F5
 10
544.28652321630784
 20
-1493.2131936579833
 30
0.0
 40
2.4999999999999996
 50
89.999999999965354
 51
269.99999999989632
  0
ARC
  8
0
  6
CONTINUOUS
 62
               3
  5
2F6
 10
684.28652321630784
 20
-1493.2131936579833
 30
0.0
 40
2.4999999999999996
 50
269.99999999989649
 51
449.99999999982703
  0
LINE
  8
0
  6
CONTINUOUS
 62
               3
  5
2F7
 10
469.28652321630784
 20
-1485.7131936579833
 30
0.0
 11
469.95807934227219
 21
-1485.7131936579833
 31
0.0
  0
LINE
  8
0
  6
CONTINUOUS
 62
               3
  5
2F8
 10
472.4580793422723
 20
-1488.2131936579826
 30
0.0
 11
469.95807934227219
 21
-1485.7131936579833
 31
0.0
  0
LINE
  8
0
  6
CONTINUOUS
 62
               3
  5
2F9
 10
472.45807934227309
 20
-1488.2131936579833
 30
0.0
 11
514.62318959855043
 21
-1489.6856317538375
 31
0.0
  0
LINE
  8
0
  6
CONTINUOUS
 62
               3
  5
2FA
 10
532.82205712224038
 20
-1505.9848830842693
 30
0.0
 11
517.9842260209706
 21
-1491.147051983
 31
0.0
  0
ARC
  8
0
  6
CONTINUOUS
 62
               3
  5
2FB
 10
529.28652321630784
 20
-1509.5204169902024
 30
0.0
 40
4.9999999999999991
 50
0.0
 51
44.99999999998176
  0
LINE
  8
0
  6
CONTINUOUS
 62
               3
  5
2FC
 10
469.28652321630784
 20
-1375.7131936579833
 30
0.0
 11
469.95807934227219
 21
-1375.7131936579833
 31
0.0
  0
LINE
  8
0
  6
CONTINUOUS
 62
               3
  5
2FD
 10
472.4580793422723
 20
-1373.2131936579833
 30
0.0
 11
469.95807934227219
 21
-1375.7131936579833
 31
0.0
  0
LINE
  8
0
  6
CONTINUOUS
 62
               3
  5
2FE
 10
472.45807934227219
 20
-1373.2131936579833
 30
0.0
 11
530.0755555444465
 21
-1371.2011470528309
 31
0.0
  0
LINE
  8
0
  6
CONTINUOUS
 62
               3
  5
2FF
 10
469.95807934227219
 20
-1375.7131936579833
 30
0.0
 11
469.95807934227219
 21
-1485.7131936579833
 31
0.0
  0
LINE
  8
0
  6
CONTINUOUS
 62
               3
  5
300
 10
469.28652321630784
 20
-1488.3131936579832
 30
0.0
 11
469.28652321630784
 21
-1373.1131936579834
 31
0.0
  0
LINE
  8
0
  6
CONTINUOUS
 62
               3
  5
301
 10
469.28652321630784
 20
-1373.1131936579834
 30
0.0
 11
466.78652321630784
 21
-1373.1131936579834
 31
0.0
  0
ARC
  8
0
  6
CONTINUOUS
 62
               3
  5
302
 10
466.78652321630784
 20
-1375.6131936579834
 30
0.0
 40
2.5
 50
89.999999999965596
 51
179.99999999993057
  0
LINE
  8
0
  6
CONTINUOUS
 62
               3
  5
303
 10
464.28652321630784
 20
-1375.6131936579834
 30
0.0
 11
464.28652321630784
 21
-1485.8131936579832
 31
0.0
  0
LINE
  8
0
  6
CONTINUOUS
 62
               3
  5
304
 10
469.28652321630784
 20
-1488.3131936579832
 30
0.0
 11
466.78652321630784
 21
-1488.3131936579832
 31
0.0
  0
ARC
  8
0
  6
CONTINUOUS
 62
               3
  5
305
 10
466.78652321630784
 20
-1485.8131936579832
 30
0.0
 40
2.5
 50
179.99999999993057
 51
269.99999999989649
  0
LINE
  8
0
  6
CONTINUOUS
 62
               3
  5
306
 10
472.4580793422723
 20
-1373.2131936579833
 30
0.0
 11
472.45807934227309
 21
-1488.2131936579833
 31
0.0
  0
ARC
  8
0
  6
CONTINUOUS
 62
               3
  5
307
 10
514.44869211503794
 20
-1494.6825858889329
 30
0.0
 40
5.0
 50
44.999999999983494
 51
87.999999999965766
  0
ARC
  8
0
  6
CONTINUOUS
 62
               3
  5
308
 10
529.90105806093402
 20
-1366.2041929177356
 30
0.0
 40
5.0
 50
271.99999999989535
 51
347.26981986155278
  0
CIRCLE
  8
0
  6
CONTINUOUS
 62
               3
  5
309
 10
609.28652321630784
 20
-1430.7131936579833
 30
0.0
 40
48.5
  0
CIRCLE
  8
0
  6
CONTINUOUS
 62
               3
  5
30A
 10
609.28652321630784
 20
-1430.7131936579833
 30
0.0
 40
47.299999999999997
  0
LINE
  8
0
  6
CONTINUOUS
 62
               3
  5
30B
 10
577.46671806291329
 20
-1462.5329988113779
 30
0.0
 11
575.84037246618414
 21
-1464.159344408107
 31
0.0
  0
LINE
  8
0
  6
CONTINUOUS
 62
               3
  5
30C
 10
641.10632836970251
 20
-1462.5329988113779
 30
0.0
 11
642.73267396643155
 21
-1464.159344408107
 31
0.0
  0
ARC
  8
0
  6
CONTINUOUS
 62
               3
  5
30D
 10
609.28652321630784
 20
-1430.7131936579833
 30
0.0
 40
45.0
 50
224.99999999991346
 51
314.99999999987898
  0
CIRCLE
  8
0
  6
CONTINUOUS
 62
               3
  5
30E
 10
609.28652321630784
 20
-1430.7131936579833
 30
0.0
 40
57.600000000000001
  0
ARC
  8
0
  6
CONTINUOUS
 62
               3
  5
30F
 10
586.78652321630841
 20
-1493.2131936579833
 30
0.0
 40
2.4999999999999996
 50
269.99999999989626
 51
449.99999999982697
  0
ARC
  8
0
  6
CONTINUOUS
 62
               3
  5
310
 10
631.78652321630841
 20
-1493.2131936579833
 30
0.0
 40
2.4999999999999996
 50
89.999999999965439
 51
269.99999999989615
  0
LINE
  8
0
  6
CONTINUOUS
 62
               3
  5
311
 10
544.28652321630784
 20
-1495.7131936579833
 30
0.0
 11
586.78652321630841
 21
-1495.7131936579833
 31
0.0
  0
LINE
  8
0
  6
CONTINUOUS
 62
               3
  5
312
 10
544.28652321630784
 20
-1490.7131936579833
 30
0.0
 11
586.78652321630841
 21
-1490.7131936579833
 31
0.0
  0
LINE
  8
0
  6
CONTINUOUS
 62
               3
  5
313
 10
631.78652321630841
 20
-1490.7131936579833
 30
0.0
 11
684.28652321630784
 21
-1490.7131936579833
 31
0.0
  0
LINE
  8
0
  6
CONTINUOUS
 62
               3
  5
314
 10
631.78652321630841
 20
-1495.7131936579833
 30
0.0
 11
684.28652321630784
 21
-1495.7131936579833
 31
0.0
  0
CIRCLE
  8
0
  6
CONTINUOUS
 62
               3
  5
315
 10
609.28652321630784
 20
-956.21375990939896
 30
0.0
 40
59.0
  0
LINE
  8
0
  6
DASHDOT
 62
               4
  5
316
 10
0.0
 20
635.25
 30
0.0
 11
0.0000000000000168
 21
360.74325309471391
 31
0.0
  0
LINE
  8
0
  6
DASHDOT
 62
               4
  5
317
 10
-176.39662295670917
 20
526.75
 30
0.0
 11
108.5
 21
526.75
 31
0.0
  0
LINE
  8
0
  6
DASHDOT
 62
               4
  5
318
 10
0.0
 20
292.75000000000045
 30
0.0
 11
0.0
 21
-635.25
 31
0.0
  0
LINE
  8
0
  6
DASHDOT
 62
               4
  5
319
 10
500.0
 20
292.75000000000051
 30
0.0
 11
500.0
 21
-635.25
 31
0.0
  0
LINE
  8
0
  6
DASHDOT
 62
               4
  5
31A
 10
-500.0
 20
292.75000000000051
 30
0.0
 11
-500.0
 21
-635.25
 31
0.0
  0
LINE
  8
0
  6
DASHDOT
 62
               4
  5
31B
 10
-81.474775224775271
 20
-53.249999999999829
 30
0.0
 11
-170.00000000000045
 21
-53.249999999999829
 31
0.0
  0
LINE
  8
0
  6
DASHDOT
 62
               4
  5
31C
 10
-431.47477522477516
 20
-53.250000000000057
 30
0.0
 11
-568.17557442557427
 21
-53.250000000000057
 31
0.0
  0
LINE
  8
0
  6
DASHDOT
 62
               4
  5
31D
 10
68.525224775224842
 20
-53.250000000000128
 30
0.0
 11
-68.175574425574268
 21
-53.250000000000128
 31
0.0
  0
LINE
  8
0
  6
DASHDOT
 62
               4
  5
31E
 10
-418.52522477522473
 20
-53.249999999999829
 30
0.0
 11
-329.99999999999955
 21
-53.249999999999829
 31
0.0
  0
LINE
  8
0
  6
DASHDOT
 62
               4
  5
31F
 10
418.52522477522473
 20
-53.249999999999829
 30
0.0
 11
329.99999999999955
 21
-53.249999999999829
 31
0.0
  0
LINE
  8
0
  6
DASHDOT
 62
               4
  5
320
 10
-392.13776905046871
 20
-1078.39819548119
 30
0.0
 11
-392.13776905046859
 21
-949.39819548118999
 31
0.0
  0
LINE
  8
0
  6
DASHDOT
 62
               4
  5
321
 10
-450.13776905046871
 20
-1020.39819548119
 30
0.0
 11
-334.13776905046871
 21
-1020.39819548119
 31
0.0
  0
LINE
  8
0
  6
DASHDOT
 62
               4
  5
322
 10
-461.94094753457614
 20
-1013.89819548119
 30
0.0
 11
-327.63776905046871
 21
-1013.89819548119
 31
0.0
  0
LINE
  8
0
  6
DASHDOT
 62
               4
  5
323
 10
-268.23776905046861
 20
-1013.89819548119
 30
0.0
 11
-169.63776905046871
 21
-1013.89819548119
 31
0.0
  0
LINE
  8
0
  6
DASHDOT
 62
               4
  5
324
 10
-302.63776905046871
 20
-1020.39819548119
 30
0.0
 11
-228.23776905046873
 21
-1020.39819548119
 31
0.0
  0
LINE
  8
0
  6
DASHDOT
 62
               4
  5
325
 10
-516.03776905046857
 20
-1013.8981954811898
 30
0.0
 11
-614.63776905046871
 21
-1013.8981954811895
 31
0.0
  0
LINE
  8
0
  6
DASHDOT
 62
               4
  5
326
 10
-481.63776905046871
 20
-1020.3981954811898
 30
0.0
 11
-556.03776905046857
 21
-1020.3981954811898
 31
0.0
  0
LINE
  8
0
  6
DASHDOT
 62
               4
  5
327
 10
-394.08372644623523
 20
-916.93031141215488
 30
0.0
 11
-394.08372644623523
 21
-783.93031141215488
 31
0.0
  0
LINE
  8
0
  6
DASHDOT
 62
               4
  5
328
 10
221.63392368588097
 20
-1013.89819548119
 30
0.0
 11
320.23392368588111
 21
-1013.89819548119
 31
0.0
  0
LINE
  8
0
  6
DASHDOT
 62
               4
  5
329
 10
196.63392368588097
 20
-1028.39819548119
 30
0.0
 11
261.63392368588097
 21
-1028.39819548119
 31
0.0
  0
LINE
  8
0
  6
DASHDOT
 62
               4
  5
32A
 10
70.877907460637971
 20
-1028.39819548119
 30
0.0
 11
170.8779074606382
 21
-1028.39819548119
 31
0.0
  0
LINE
  8
0
  6
DASHDOT
 62
               4
  5
32B
 10
120.87790746063797
 20
-1078.39819548119
 30
0.0
 11
120.8779074606382
 21
-949.39819548118999
 31
0.0
  0
LINE
  8
0
  6
DASHDOT
 62
               4
  5
32C
 10
56.377907460637971
 20
-1013.89819548119
 30
0.0
 11
190.92191724058921
 21
-1013.89819548119
 31
0.0
  0
LINE
  8
0
  6
DASHDOT
 62
               4
  5
32D
 10
20.121891235395196
 20
-1013.89819548119
 30
0.0
 11
-78.478108764604826
 21
-1013.89819548119
 31
0.0
  0
LINE
  8
0
  6
DASHDOT
 62
               4
  5
32E
 10
45.121891235395196
 20
-1028.39819548119
 30
0.0
 11
-19.878108764604804
 21
-1028.39819548119
 31
0.0
  0
LINE
  8
0
  6
DASHDOT
 62
               4
  5
32F
 10
120.8779074606382
 20
-927.64217925594721
 30
0.0
 11
120.8779074606382
 21
-804.04217925594708
 31
0.0
  0
LINE
  8
0
  6
DASHDOT
 62
               4
  5
330
 10
609.28652321630784
 20
-847.71375990939896
 30
0.0
 11
609.28652321630784
 21
-1118.2605467092253
 31
0.0
  0
LINE
  8
0
  6
DASHDOT
 62
               4
  5
331
 10
447.28652321630796
 20
-956.21375990939896
 30
0.0
 11
717.78652321630807
 21
-956.21375990939896
 31
0.0
  0
LINE
  8
0
  6
DASHDOT
 62
               4
  5
332
 10
677.81174799153257
 20
-1430.7131936579833
 30
0.0
 11
447.55790992287962
 21
-1430.7131936579833
 31
0.0
  0
LINE
  8
0
  6
DASHDOT
 62
               4
  5
333
 10
609.28652321630784
 20
-1244.7131936579833
 30
0.0
 11
609.28652321630784
 21
-1495.7131936579833
 31
0.0
  0
LINE
  8
0
  6
DASHDOT
 62
               4
  5
334
 10
559.28652321630784
 20
-1445.2131936579833
 30
0.0
 11
659.28652321630807
 21
-1445.2131936579833
 31
0.0
  0
LINE
  8
0
  6
DASHDOT
 62
               4
  5
335
 10
609.28652321630784
 20
-1146.8137599093991
 30
0.0
 11
609.28652321630784
 21
-1023.2137599093988
 31
0.0
  0
LINE
  8
0
  6
DASHDOT
 62
               4
  5
336
 10
409.28652321630784
 20
-1437.2131936579833
 30
0.0
 11
483.68652321630782
 21
-1437.2131936579833
 31
0.0
  0
LINE
  8
0
  6
DASHDOT
 62
               4
  5
337
 10
409.28652321630807
 20
-956.21375990939873
 30
0.0
 11
542.28652321630807
 21
-956.21375990939873
 31
0.0
  0
CIRCLE
  8
0
  6
CONTINUOUS
 62
               4
  5
338
 10
-64.346717087976231
 20
462.40328291202428
 30
0.0
 40
13.0
  0
CIRCLE
  8
0
  6
CONTINUOUS
 62
               4
  5
339
 10
-64.346717087976231
 20
591.09671708797555
 30
0.0
 40
13.0
  0
CIRCLE
  8
0
  6
CONTINUOUS
 62
               4
  5
33A
 10
64.346717087976344
 20
591.09671708797555
 30
0.0
 40
13.0
  0
CIRCLE
  8
0
  6
CONTINUOUS
 62
               4
  5
33B
 10
64.346717087976344
 20
462.40328291202428
 30
0.0
 40
13.0
  0
ARC
  8
0
  6
CONTINUOUS
 62
               4
  5
33C
 10
25.783965811966141
 20
165.75000000000051
 30
0.0
 40
17.566965811965957
 50
143.14855134074139
 51
179.99999999996521
  0
LINE
  8
0
  6
CONTINUOUS
 62
               4
  5
33D
 10
-11.727000000000203
 20
181.28565375285325
 30
0.0
 11
11.727000000000203
 21
181.28565375285325
 31
0.0
  0
ARC
  8
0
  6
CONTINUOUS
 62
               4
  5
33E
 10
-25.783965811965572
 20
165.75000000000051
 30
0.0
 40
17.566965811965957
 50
0.0
 51
36.851448659223813
  0
LINE
  8
0
  6
CONTINUOUS
 62
               4
  5
33F
 10
11.727000000000203
 20
176.28565375285325
 30
0.0
 11
11.727000000000203
 21
181.28565375285325
 31
0.0
  0
LINE
  8
0
  6
CONTINUOUS
 62
               4
  5
340
 10
-11.727000000000203
 20
176.28565375285325
 30
0.0
 11
-11.727000000000203
 21
181.28565375285325
 31
0.0
  0
LINE
  8
0
  6
CONTINUOUS
 62
               4
  5
341
 10
11.727000000000203
 20
181.28565375285325
 30
0.0
 11
6.0000000000002274
 21
176.28565375285325
 31
0.0
  0
LINE
  8
0
  6
CONTINUOUS
 62
               4
  5
342
 10
-5.9999999999996589
 20
176.28565375285325
 30
0.0
 11
-11.727000000000203
 21
181.28565375285325
 31
0.0
  0
LINE
  8
0
  6
CONTINUOUS
 62
               4
  5
343
 10
6.0000000000002274
 20
176.28565375285325
 30
0.0
 11
-5.9999999999996589
 21
176.28565375285325
 31
0.0
  0
LINE
  8
0
  6
CONTINUOUS
 62
               4
  5
344
 10
-5.9999999999996589
 20
44.750000000000519
 30
0.0
 11
-5.9999999999996589
 21
176.28565375285325
 31
0.0
  0
LINE
  8
0
  6
CONTINUOUS
 62
               4
  5
345
 10
6.0000000000002274
 20
176.28565375285325
 30
0.0
 11
6.0000000000002274
 21
44.75000000000059
 31
0.0
  0
LINE
  8
0
  6
CONTINUOUS
 62
               4
  5
346
 10
8.2170000000002119
 20
165.75000000000051
 30
0.0
 11
8.2170000000002119
 21
44.750000000000611
 31
0.0
  0
LINE
  8
0
  6
CONTINUOUS
 62
               4
  5
347
 10
-8.2169999999996435
 20
165.75000000000051
 30
0.0
 11
-8.2169999999996435
 21
44.750000000000497
 31
0.0
  0
LINE
  8
0
  6
CONTINUOUS
 62
               4
  5
348
 10
-51.349999999999909
 20
47.049999999999955
 30
0.0
 11
-51.349999999999909
 21
44.750000000000057
 31
0.0
  0
LINE
  8
0
  6
CONTINUOUS
 62
               4
  5
349
 10
-51.349999999999909
 20
44.750000000000057
 30
0.0
 11
-77.349999999999909
 21
44.750000000000057
 31
0.0
  0
LINE
  8
0
  6
CONTINUOUS
 62
               4
  5
34A
 10
-77.349999999999909
 20
44.750000000000057
 30
0.0
 11
-77.349999999999909
 21
47.049999999999955
 31
0.0
  0
LINE
  8
0
  6
CONTINUOUS
 62
               4
  5
34B
 10
-77.349999999999909
 20
47.049999999999955
 30
0.0
 11
-51.349999999999909
 21
47.049999999999955
 31
0.0
  0
LINE
  8
0
  6
CONTINUOUS
 62
               4
  5
34C
 10
-58.350000000000136
 20
57.049999999999955
 30
0.0
 11
-58.350000000000136
 21
65.750000000000142
 31
0.0
  0
LINE
  8
0
  6
CONTINUOUS
 62
               4
  5
34D
 10
-70.350000000000136
 20
65.750000000000142
 30
0.0
 11
-70.350000000000136
 21
57.049999999999955
 31
0.0
  0
LINE
  8
0
  6
CONTINUOUS
 62
               4
  5
34E
 10
-70.350000000000136
 20
65.750000000000142
 30
0.0
 11
-58.350000000000136
 21
65.750000000000142
 31
0.0
  0
LINE
  8
0
  6
CONTINUOUS
 62
               4
  5
34F
 10
51.349999999999909
 20
47.049999999999955
 30
0.0
 11
51.349999999999909
 21
44.750000000000057
 31
0.0
  0
LINE
  8
0
  6
CONTINUOUS
 62
               4
  5
350
 10
51.349999999999909
 20
44.750000000000057
 30
0.0
 11
77.349999999999909
 21
44.750000000000064
 31
0.0
  0
LINE
  8
0
  6
CONTINUOUS
 62
               4
  5
351
 10
77.349999999999909
 20
44.750000000000064
 30
0.0
 11
77.349999999999909
 21
47.049999999999962
 31
0.0
  0
LINE
  8
0
  6
CONTINUOUS
 62
               4
  5
352
 10
77.349999999999909
 20
47.049999999999962
 30
0.0
 11
51.349999999999909
 21
47.049999999999955
 31
0.0
  0
LINE
  8
0
  6
CONTINUOUS
 62
               4
  5
353
 10
58.350000000000136
 20
57.049999999999962
 30
0.0
 11
58.350000000000136
 21
65.750000000000142
 31
0.0
  0
LINE
  8
0
  6
CONTINUOUS
 62
               4
  5
354
 10
70.350000000000136
 20
65.750000000000142
 30
0.0
 11
70.350000000000136
 21
57.049999999999962
 31
0.0
  0
LINE
  8
0
  6
CONTINUOUS
 62
               4
  5
355
 10
70.350000000000136
 20
65.750000000000142
 30
0.0
 11
58.350000000000136
 21
65.750000000000142
 31
0.0
  0
LINE
  8
0
  6
CONTINUOUS
 62
               4
  5
356
 10
423.0
 20
176.28565375285325
 30
0.0
 11
428.0
 21
181.28565375285325
 31
0.0
  0
ARC
  8
0
  6
CONTINUOUS
 62
               4
  5
357
 10
445.5
 20
165.75000000000051
 30
0.0
 40
19.999999999999996
 50
148.21166938291961
 51
179.99999999996524
  0
LINE
  8
0
  6
CONTINUOUS
 62
               4
  5
358
 10
428.49999999999955
 20
176.28565375285325
 30
0.0
 11
428.49999999999955
 21
181.28565375285393
 31
0.0
  0
LINE
  8
0
  6
CONTINUOUS
 62
               4
  5
359
 10
428.0
 20
181.28565375285325
 30
0.0
 11
428.49999999999955
 21
181.28565375285325
 31
0.0
  0
ARC
  8
0
  6
CONTINUOUS
 62
               4
  5
35A
 10
418.0
 20
49.749999999999986
 30
0.0
 40
5.0
 50
269.99999999994793
 51
359.99999999993042
  0
LINE
  8
0
  6
CONTINUOUS
 62
               4
  5
35B
 10
425.5
 20
165.75000000000051
 30
0.0
 11
425.5
 21
57.050000000000026
 31
0.0
  0
LINE
  8
0
  6
CONTINUOUS
 62
               4
  5
35C
 10
423.0
 20
176.28565375285325
 30
0.0
 11
423.0
 21
49.749999999999986
 31
0.0
  0
LINE
  8
0
  6
CONTINUOUS
 62
               4
  5
35D
 10
448.65000000000009
 20
47.050000000000026
 30
0.0
 11
448.65000000000009
 21
44.750000000000128
 31
0.0
  0
LINE
  8
0
  6
CONTINUOUS
 62
               4
  5
35E
 10
448.65000000000009
 20
44.750000000000128
 30
0.0
 11
422.65000000000009
 21
44.750000000000128
 31
0.0
  0
LINE
  8
0
  6
CONTINUOUS
 62
               4
  5
35F
 10
422.65000000000009
 20
44.750000000000128
 30
0.0
 11
422.65000000000009
 21
47.050000000000026
 31
0.0
  0
LINE
  8
0
  6
CONTINUOUS
 62
               4
  5
360
 10
422.65000000000009
 20
47.050000000000026
 30
0.0
 11
448.65000000000009
 21
47.050000000000026
 31
0.0
  0
LINE
  8
0
  6
CONTINUOUS
 62
               4
  5
361
 10
441.64999999999986
 20
57.050000000000026
 30
0.0
 11
441.64999999999986
 21
65.750000000000213
 31
0.0
  0
LINE
  8
0
  6
CONTINUOUS
 62
               4
  5
362
 10
429.64999999999986
 20
65.750000000000213
 30
0.0
 11
429.64999999999986
 21
57.050000000000026
 31
0.0
  0
LINE
  8
0
  6
CONTINUOUS
 62
               4
  5
363
 10
429.64999999999986
 20
65.750000000000213
 30
0.0
 11
441.64999999999986
 21
65.750000000000213
 31
0.0
  0
LINE
  8
0
  6
CONTINUOUS
 62
               4
  5
364
 10
577.0
 20
176.28565375285325
 30
0.0
 11
572.0
 21
181.28565375285325
 31
0.0
  0
ARC
  8
0
  6
CONTINUOUS
 62
               4
  5
365
 10
554.5
 20
165.75000000000051
 30
0.0
 40
19.999999999999996
 50
0.0
 51
31.788330617045538
  0
LINE
  8
0
  6
CONTINUOUS
 62
               4
  5
366
 10
571.50000000000045
 20
176.28565375285325
 30
0.0
 11
571.50000000000045
 21
181.28565375285393
 31
0.0
  0
LINE
  8
0
  6
CONTINUOUS
 62
               4
  5
367
 10
572.0
 20
181.28565375285325
 30
0.0
 11
571.50000000000045
 21
181.28565375285325
 31
0.0
  0
ARC
  8
0
  6
CONTINUOUS
 62
               4
  5
368
 10
582.0
 20
49.749999999999986
 30
0.0
 40
5.0
 50
179.99999999996518
 51
269.99999999994731
  0
LINE
  8
0
  6
CONTINUOUS
 62
               4
  5
369
 10
574.5
 20
165.75000000000051
 30
0.0
 11
574.5
 21
56.532332308330282
 31
0.0
  0
LINE
  8
0
  6
CONTINUOUS
 62
               4
  5
36A
 10
577.0
 20
176.28565375285325
 30
0.0
 11
577.0
 21
49.749999999999986
 31
0.0
  0
LINE
  8
0
  6
CONTINUOUS
 62
               4
  5
36B
 10
551.34999999999991
 20
47.050000000000026
 30
0.0
 11
551.34999999999991
 21
44.750000000000128
 31
0.0
  0
LINE
  8
0
  6
CONTINUOUS
 62
               4
  5
36C
 10
551.34999999999991
 20
44.750000000000128
 30
0.0
 11
577.34999999999991
 21
44.750000000000128
 31
0.0
  0
LINE
  8
0
  6
CONTINUOUS
 62
               4
  5
36D
 10
577.34999999999991
 20
44.750000000000128
 30
0.0
 11
577.34999999999991
 21
47.050000000000026
 31
0.0
  0
LINE
  8
0
  6
CONTINUOUS
 62
               4
  5
36E
 10
577.34999999999991
 20
47.050000000000026
 30
0.0
 11
551.34999999999991
 21
47.050000000000026
 31
0.0
  0
LINE
  8
0
  6
CONTINUOUS
 62
               4
  5
36F
 10
558.35000000000014
 20
57.050000000000026
 30
0.0
 11
558.35000000000014
 21
65.750000000000213
 31
0.0
  0
LINE
  8
0
  6
CONTINUOUS
 62
               4
  5
370
 10
570.35000000000014
 20
65.750000000000213
 30
0.0
 11
570.35000000000014
 21
57.050000000000026
 31
0.0
  0
LINE
  8
0
  6
CONTINUOUS
 62
               4
  5
371
 10
570.35000000000014
 20
65.750000000000213
 30
0.0
 11
558.35000000000014
 21
65.750000000000213
 31
0.0
  0
LINE
  8
0
  6
CONTINUOUS
 62
               4
  5
372
 10
-577.0
 20
176.28565375285325
 30
0.0
 11
-572.0
 21
181.28565375285325
 31
0.0
  0
ARC
  8
0
  6
CONTINUOUS
 62
               4
  5
373
 10
-554.5
 20
165.75000000000051
 30
0.0
 40
19.999999999999996
 50
148.21166938291961
 51
179.99999999996524
  0
LINE
  8
0
  6
CONTINUOUS
 62
               4
  5
374
 10
-571.50000000000045
 20
176.28565375285325
 30
0.0
 11
-571.50000000000045
 21
181.28565375285393
 31
0.0
  0
LINE
  8
0
  6
CONTINUOUS
 62
               4
  5
375
 10
-572.0
 20
181.28565375285325
 30
0.0
 11
-571.50000000000045
 21
181.28565375285325
 31
0.0
  0
ARC
  8
0
  6
CONTINUOUS
 62
               4
  5
376
 10
-582.0
 20
49.749999999999986
 30
0.0
 40
5.0
 50
269.99999999994731
 51
359.99999999993042
  0
LINE
  8
0
  6
CONTINUOUS
 62
               4
  5
377
 10
-574.5
 20
165.75000000000051
 30
0.0
 11
-574.5
 21
57.050000000000026
 31
0.0
  0
LINE
  8
0
  6
CONTINUOUS
 62
               4
  5
378
 10
-577.0
 20
176.28565375285325
 30
0.0
 11
-577.0
 21
49.749999999999986
 31
0.0
  0
LINE
  8
0
  6
CONTINUOUS
 62
               4
  5
379
 10
-551.34999999999991
 20
47.050000000000026
 30
0.0
 11
-551.34999999999991
 21
44.750000000000128
 31
0.0
  0
LINE
  8
0
  6
CONTINUOUS
 62
               4
  5
37A
 10
-551.34999999999991
 20
44.750000000000128
 30
0.0
 11
-577.34999999999991
 21
44.750000000000128
 31
0.0
  0
LINE
  8
0
  6
CONTINUOUS
 62
               4
  5
37B
 10
-577.34999999999991
 20
44.750000000000128
 30
0.0
 11
-577.34999999999991
 21
47.050000000000026
 31
0.0
  0
LINE
  8
0
  6
CONTINUOUS
 62
               4
  5
37C
 10
-577.34999999999991
 20
47.050000000000026
 30
0.0
 11
-551.34999999999991
 21
47.050000000000026
 31
0.0
  0
LINE
  8
0
  6
CONTINUOUS
 62
               4
  5
37D
 10
-558.35000000000014
 20
57.050000000000026
 30
0.0
 11
-558.35000000000014
 21
65.750000000000213
 31
0.0
  0
LINE
  8
0
  6
CONTINUOUS
 62
               4
  5
37E
 10
-570.35000000000014
 20
65.750000000000213
 30
0.0
 11
-570.35000000000014
 21
57.050000000000026
 31
0.0
  0
LINE
  8
0
  6
CONTINUOUS
 62
               4
  5
37F
 10
-570.35000000000014
 20
65.750000000000213
 30
0.0
 11
-558.35000000000014
 21
65.750000000000213
 31
0.0
  0
LINE
  8
0
  6
CONTINUOUS
 62
               4
  5
380
 10
-423.0
 20
176.28565375285325
 30
0.0
 11
-428.0
 21
181.28565375285325
 31
0.0
  0
ARC
  8
0
  6
CONTINUOUS
 62
               4
  5
381
 10
-445.5
 20
165.75000000000051
 30
0.0
 40
19.999999999999996
 50
0.0
 51
31.788330617045627
  0
LINE
  8
0
  6
CONTINUOUS
 62
               4
  5
382
 10
-428.49999999999955
 20
176.28565375285325
 30
0.0
 11
-428.49999999999955
 21
181.28565375285393
 31
0.0
  0
LINE
  8
0
  6
CONTINUOUS
 62
               4
  5
383
 10
-428.0
 20
181.28565375285325
 30
0.0
 11
-428.49999999999955
 21
181.28565375285325
 31
0.0
  0
ARC
  8
0
  6
CONTINUOUS
 62
               4
  5
384
 10
-418.0
 20
49.749999999999986
 30
0.0
 40
5.0
 50
179.99999999996518
 51
269.99999999994793
  0
LINE
  8
0
  6
CONTINUOUS
 62
               4
  5
385
 10
-425.5
 20
165.75000000000051
 30
0.0
 11
-425.5
 21
56.532332308330282
 31
0.0
  0
LINE
  8
0
  6
CONTINUOUS
 62
               4
  5
386
 10
-423.0
 20
176.28565375285325
 30
0.0
 11
-423.0
 21
49.749999999999986
 31
0.0
  0
LINE
  8
0
  6
CONTINUOUS
 62
               4
  5
387
 10
-448.65000000000009
 20
47.050000000000026
 30
0.0
 11
-448.65000000000009
 21
44.750000000000128
 31
0.0
  0
LINE
  8
0
  6
CONTINUOUS
 62
               4
  5
388
 10
-448.65000000000009
 20
44.750000000000128
 30
0.0
 11
-422.65000000000009
 21
44.750000000000128
 31
0.0
  0
LINE
  8
0
  6
CONTINUOUS
 62
               4
  5
389
 10
-422.65000000000009
 20
44.750000000000128
 30
0.0
 11
-422.65000000000009
 21
47.050000000000026
 31
0.0
  0
LINE
  8
0
  6
CONTINUOUS
 62
               4
  5
38A
 10
-422.65000000000009
 20
47.050000000000026
 30
0.0
 11
-448.65000000000009
 21
47.050000000000026
 31
0.0
  0
LINE
  8
0
  6
CONTINUOUS
 62
               4
  5
38B
 10
-441.64999999999986
 20
57.050000000000026
 30
0.0
 11
-441.64999999999986
 21
65.750000000000213
 31
0.0
  0
LINE
  8
0
  6
CONTINUOUS
 62
               4
  5
38C
 10
-429.64999999999986
 20
65.750000000000213
 30
0.0
 11
-429.64999999999986
 21
57.050000000000026
 31
0.0
  0
LINE
  8
0
  6
CONTINUOUS
 62
               4
  5
38D
 10
-429.64999999999986
 20
65.750000000000213
 30
0.0
 11
-441.64999999999986
 21
65.750000000000213
 31
0.0
  0
LINE
  8
0
  6
CONTINUOUS
 62
               4
  5
38E
 10
-578.22647400135997
 20
-2.8499999999998948
 30
0.0
 11
-572.3499999999982
 21
-6.2499999999999858
 31
0.0
  0
LINE
  8
0
  6
CONTINUOUS
 62
               4
  5
38F
 10
-555.84999999999809
 20
-6.2499999999999858
 30
0.0
 11
-555.84999999999809
 21
0.7500000000000746
 31
0.0
  0
LINE
  8
0
  6
CONTINUOUS
 62
               4
  5
390
 10
-555.84999999999809
 20
-6.2499999999999858
 30
0.0
 11
-572.3499999999982
 21
-6.2499999999999858
 31
0.0
  0
LINE
  8
0
  6
CONTINUOUS
 62
               4
  5
391
 10
-581.17706146647583
 20
-2.8499999999998948
 30
0.0
 11
-578.22647400135997
 21
-2.8499999999998948
 31
0.0
  0
LINE
  8
0
  6
CONTINUOUS
 62
               4
  5
392
 10
-581.17706146647583
 20
0.7500000000000711
 30
0.0
 11
-581.17706146647583
 21
-2.8499999999998948
 31
0.0
  0
LINE
  8
0
  6
CONTINUOUS
 62
               4
  5
393
 10
-555.84999999999809
 20
0.7500000000000746
 30
0.0
 11
-581.17706146647583
 21
0.7500000000000711
 31
0.0
  0
LINE
  8
0
  6
CONTINUOUS
 62
               4
  5
394
 10
-452.47706146647545
 20
0.7500000000000817
 30
0.0
 11
-452.47706146647545
 21
-2.8499999999998842
 31
0.0
  0
LINE
  8
0
  6
CONTINUOUS
 62
               4
  5
395
 10
-452.47706146647545
 20
-2.8499999999998842
 30
0.0
 11
-437.5056587211883
 21
-2.8499999999998806
 31
0.0
  0
LINE
  8
0
  6
CONTINUOUS
 62
               4
  5
396
 10
-449.52647400135959
 20
-2.8499999999998842
 30
0.0
 11
-443.64999999999782
 21
-6.2499999999999716
 31
0.0
  0
LINE
  8
0
  6
CONTINUOUS
 62
               4
  5
397
 10
-440.45624618630416
 20
0.7500000000000817
 30
0.0
 11
-440.45624618630416
 21
-2.8499999999998842
 31
0.0
  0
LINE
  8
0
  6
CONTINUOUS
 62
               4
  5
398
 10
-429.99314575050551
 20
-6.2499999999999716
 30
0.0
 11
-437.5056587211883
 21
-2.8499999999998806
 31
0.0
  0
LINE
  8
0
  6
CONTINUOUS
 62
               4
  5
399
 10
-427.14999999999782
 20
-6.2499999999999716
 30
0.0
 11
-443.64999999999782
 21
-6.2499999999999716
 31
0.0
  0
LINE
  8
0
  6
CONTINUOUS
 62
               4
  5
39A
 10
-427.14999999999782
 20
-6.2499999999999716
 30
0.0
 11
-427.14999999999782
 21
0.7500000000000853
 31
0.0
  0
LINE
  8
0
  6
CONTINUOUS
 62
               4
  5
39B
 10
-427.14999999999782
 20
0.7500000000000853
 30
0.0
 11
-452.47706146647545
 21
0.7500000000000817
 31
0.0
  0
LINE
  8
0
  6
CONTINUOUS
 62
               4
  5
39C
 10
-78.226474001359975
 20
-2.8499999999998948
 30
0.0
 11
-72.349999999998204
 21
-6.2499999999999858
 31
0.0
  0
LINE
  8
0
  6
CONTINUOUS
 62
               4
  5
39D
 10
-55.84999999999809
 20
-6.2499999999999858
 30
0.0
 11
-55.84999999999809
 21
0.7500000000000746
 31
0.0
  0
LINE
  8
0
  6
CONTINUOUS
 62
               4
  5
39E
 10
-55.84999999999809
 20
-6.2499999999999858
 30
0.0
 11
-72.349999999998204
 21
-6.2499999999999858
 31
0.0
  0
LINE
  8
0
  6
CONTINUOUS
 62
               4
  5
39F
 10
-81.177061466475834
 20
-2.8499999999998948
 30
0.0
 11
-78.226474001359975
 21
-2.8499999999998948
 31
0.0
  0
LINE
  8
0
  6
CONTINUOUS
 62
               4
  5
3A0
 10
-81.177061466475834
 20
0.7500000000000711
 30
0.0
 11
-81.177061466475834
 21
-2.8499999999998948
 31
0.0
  0
LINE
  8
0
  6
CONTINUOUS
 62
               4
  5
3A1
 10
-55.84999999999809
 20
0.7500000000000746
 30
0.0
 11
-81.177061466475834
 21
0.7500000000000711
 31
0.0
  0
LINE
  8
0
  6
CONTINUOUS
 62
               4
  5
3A2
 10
47.522938533524552
 20
0.7500000000000817
 30
0.0
 11
47.522938533524552
 21
-2.8499999999998842
 31
0.0
  0
LINE
  8
0
  6
CONTINUOUS
 62
               4
  5
3A3
 10
47.522938533524552
 20
-2.8499999999998842
 30
0.0
 11
62.494341278811703
 21
-2.8499999999998806
 31
0.0
  0
LINE
  8
0
  6
CONTINUOUS
 62
               4
  5
3A4
 10
50.473525998640412
 20
-2.8499999999998842
 30
0.0
 11
56.350000000002183
 21
-6.2499999999999716
 31
0.0
  0
LINE
  8
0
  6
CONTINUOUS
 62
               4
  5
3A5
 10
59.543753813695844
 20
0.7500000000000817
 30
0.0
 11
59.543753813695844
 21
-2.8499999999998842
 31
0.0
  0
LINE
  8
0
  6
CONTINUOUS
 62
               4
  5
3A6
 10
70.006854249494495
 20
-6.2499999999999716
 30
0.0
 11
62.494341278811703
 21
-2.8499999999998806
 31
0.0
  0
LINE
  8
0
  6
CONTINUOUS
 62
               4
  5
3A7
 10
72.850000000002183
 20
-6.2499999999999716
 30
0.0
 11
56.350000000002183
 21
-6.2499999999999716
 31
0.0
  0
LINE
  8
0
  6
CONTINUOUS
 62
               4
  5
3A8
 10
72.850000000002183
 20
-6.2499999999999716
 30
0.0
 11
72.850000000002183
 21
0.7500000000000853
 31
0.0
  0
LINE
  8
0
  6
CONTINUOUS
 62
               4
  5
3A9
 10
72.850000000002183
 20
0.7500000000000853
 30
0.0
 11
47.522938533524552
 21
0.7500000000000817
 31
0.0
  0
LINE
  8
0
  6
CONTINUOUS
 62
               4
  5
3AA
 10
421.77352599864003
 20
-2.8499999999998948
 30
0.0
 11
427.6500000000018
 21
-6.2499999999999858
 31
0.0
  0
LINE
  8
0
  6
CONTINUOUS
 62
               4
  5
3AB
 10
444.15000000000191
 20
-6.2499999999999858
 30
0.0
 11
444.15000000000191
 21
0.7500000000000746
 31
0.0
  0
LINE
  8
0
  6
CONTINUOUS
 62
               4
  5
3AC
 10
444.15000000000191
 20
-6.2499999999999858
 30
0.0
 11
427.6500000000018
 21
-6.2499999999999858
 31
0.0
  0
LINE
  8
0
  6
CONTINUOUS
 62
               4
  5
3AD
 10
418.82293853352417
 20
-2.8499999999998948
 30
0.0
 11
421.77352599864003
 21
-2.8499999999998948
 31
0.0
  0
LINE
  8
0
  6
CONTINUOUS
 62
               4
  5
3AE
 10
418.82293853352417
 20
0.7500000000000711
 30
0.0
 11
418.82293853352417
 21
-2.8499999999998948
 31
0.0
  0
LINE
  8
0
  6
CONTINUOUS
 62
               4
  5
3AF
 10
444.15000000000191
 20
0.7500000000000746
 30
0.0
 11
418.82293853352417
 21
0.7500000000000711
 31
0.0
  0
LINE
  8
0
  6
CONTINUOUS
 62
               4
  5
3B0
 10
547.52293853352455
 20
0.7500000000000817
 30
0.0
 11
547.52293853352455
 21
-2.8499999999998842
 31
0.0
  0
LINE
  8
0
  6
CONTINUOUS
 62
               4
  5
3B1
 10
547.52293853352455
 20
-2.8499999999998842
 30
0.0
 11
562.4943412788117
 21
-2.8499999999998806
 31
0.0
  0
LINE
  8
0
  6
CONTINUOUS
 62
               4
  5
3B2
 10
550.47352599864041
 20
-2.8499999999998842
 30
0.0
 11
556.35000000000218
 21
-6.2499999999999716
 31
0.0
  0
LINE
  8
0
  6
CONTINUOUS
 62
               4
  5
3B3
 10
559.54375381369584
 20
0.7500000000000817
 30
0.0
 11
559.54375381369584
 21
-2.8499999999998842
 31
0.0
  0
LINE
  8
0
  6
CONTINUOUS
 62
               4
  5
3B4
 10
570.00685424949449
 20
-6.2499999999999716
 30
0.0
 11
562.4943412788117
 21
-2.8499999999998806
 31
0.0
  0
LINE
  8
0
  6
CONTINUOUS
 62
               4
  5
3B5
 10
572.85000000000218
 20
-6.2499999999999716
 30
0.0
 11
556.35000000000218
 21
-6.2499999999999716
 31
0.0
  0
LINE
  8
0
  6
CONTINUOUS
 62
               4
  5
3B6
 10
572.85000000000218
 20
-6.2499999999999716
 30
0.0
 11
572.85000000000218
 21
0.7500000000000853
 31
0.0
  0
LINE
  8
0
  6
CONTINUOUS
 62
               4
  5
3B7
 10
572.85000000000218
 20
0.7500000000000853
 30
0.0
 11
547.52293853352455
 21
0.7500000000000817
 31
0.0
  0
POINT
  8
0
  6
CONTINUOUS
 62
               4
  5
3B8
 10
-247.03776905046868
 20
-969.39819548118999
 30
0.0
  0
POINT
  8
0
  6
CONTINUOUS
 62
               4
  5
3B9
 10
-537.23776905046861
 20
-969.39819548118976
 30
0.0
  0
POINT
  8
0
  6
CONTINUOUS
 62
               4
  5
3BA
 10
-349.58372644623523
 20
-861.33031141215497
 30
0.0
  0
POINT
  8
0
  6
CONTINUOUS
 62
               4
  5
3BB
 10
242.83392368588102
 20
-969.39819548118999
 30
0.0
  0
POINT
  8
0
  6
CONTINUOUS
 62
               4
  5
3BC
 10
-1.0781087646048491
 20
-969.39819548118999
 30
0.0
  0
POINT
  8
0
  6
CONTINUOUS
 62
               4
  5
3BD
 10
165.3779074606382
 20
-881.44217925594717
 30
0.0
  0
LINE
  8
0
  6
CONTINUOUS
 62
               4
  5
3BE
 10
686.28652321630773
 20
-1361.1775399051305
 30
0.0
 11
681.28652321630773
 21
-1356.1775399051305
 31
0.0
  0
ARC
  8
0
  6
CONTINUOUS
 62
               4
  5
3BF
 10
663.78652321630773
 20
-1371.7131936579833
 30
0.0
 40
19.999999999999996
 50
0.0
 51
31.788330617039573
  0
LINE
  8
0
  6
CONTINUOUS
 62
               4
  5
3C0
 10
680.78652321630818
 20
-1361.1775399051305
 30
0.0
 11
680.78652321630818
 21
-1356.1775399051301
 31
0.0
  0
LINE
  8
0
  6
CONTINUOUS
 62
               4
  5
3C1
 10
681.28652321630773
 20
-1356.1775399051305
 30
0.0
 11
680.78652321630818
 21
-1356.1775399051305
 31
0.0
  0
LINE
  8
0
  6
CONTINUOUS
 62
               4
  5
3C2
 10
686.03652321630796
 20
-1361.4275399051305
 30
0.0
 11
680.78652321630818
 21
-1356.1775399051305
 31
0.0
  0
LINE
  8
0
  6
CONTINUOUS
 62
               4
  5
3C3
 10
686.03652321630796
 20
-1361.4275399051305
 30
0.0
 11
686.28652321630773
 21
-1361.1775399051305
 31
0.0
  0
LINE
  8
0
  6
CONTINUOUS
 62
               4
  5
3C4
 10
686.28652321630773
 20
-1361.1775399051305
 30
0.0
 11
686.28652321630773
 21
-1491.8662172551003
 31
0.0
  0
LINE
  8
0
  6
CONTINUOUS
 62
               4
  5
3C5
 10
686.03652321630796
 20
-1361.4275399051305
 30
0.0
 11
686.03652321630796
 21
-1491.5808601479648
 31
0.0
  0
LINE
  8
0
  6
CONTINUOUS
 62
               4
  5
3C6
 10
683.78652321630773
 20
-1371.5601700608661
 30
0.0
 11
683.78652321630773
 21
-1490.7131936579833
 31
0.0
  0
POINT
  8
0
  6
CONTINUOUS
 62
               4
  5
3C7
 10
653.78652321630784
 20
-1100.6137599093991
 30
0.0
  0
POINT
  8
0
  6
CONTINUOUS
 62
               4
  5
3C8
 10
464.88652321630786
 20
-1386.2131936579833
 30
0.0
  0
POINT
  8
0
  6
CONTINUOUS
 62
               4
  5
3C9
 10
464.88652321630798
 20
-1000.7137599093987
 30
0.0
  0
LINE
  8
0
  6
DASHED2
 62
               4
  5
3CA
 10
-57.0
 20
207.75000000000051
 30
0.0
 11
57.0
 21
207.75000000000051
 31
0.0
  0
LINE
  8
0
  6
DASHED2
 62
               4
  5
3CB
 10
443.0
 20
207.75000000000051
 30
0.0
 11
557.0
 21
207.75000000000051
 31
0.0
  0
LINE
  8
0
  6
DASHED2
 62
               4
  5
3CC
 10
-557.0
 20
207.75000000000051
 30
0.0
 11
-443.0
 21
207.75000000000051
 31
0.0
  0
LINE
  8
0
  6
DASHED2
 62
               4
  5
3CD
 10
552.28652321630796
 20
-1329.7131936579833
 30
0.0
 11
666.28652321630773
 21
-1329.7131936579833
 31
0.0
  0
INSERT
  8
0
  6
CONTINUOUS
  5
3CE
  2
GROUP_1
 10
0.0
 20
0.0
 30
0.0
  0
INSERT
  8
0
  6
CONTINUOUS
  5
3CF
  2
GROUP_2
 10
0.0
 20
0.0
 30
0.0
  0
INSERT
  8
0
  6
CONTINUOUS
  5
3D0
  2
GROUP_3
 10
0.0
 20
0.0
 30
0.0
  0
INSERT
  8
0
  6
CONTINUOUS
  5
3D1
  2
GROUP_4
 10
0.0
 20
0.0
 30
0.0
  0
INSERT
  8
0
  6
CONTINUOUS
  5
3D2
  2
GROUP_5
 10
0.0
 20
0.0
 30
0.0
  0
INSERT
  8
0
  6
CONTINUOUS
  5
3D3
  2
GROUP_6
 10
0.0
 20
0.0
 30
0.0
  0
INSERT
  8
0
  6
CONTINUOUS
  5
3D4
  2
GROUP_7
 10
0.0
 20
0.0
 30
0.0
  0
INSERT
  8
0
  6
CONTINUOUS
  5
3D5
  2
GROUP_8
 10
0.0
 20
0.0
 30
0.0
  0
INSERT
  8
0
  6
CONTINUOUS
  5
3D6
  2
GROUP_9
 10
0.0
 20
0.0
 30
0.0
  0
INSERT
  8
0
  6
CONTINUOUS
  5
3D7
  2
GROUP_10
 10
0.0
 20
0.0
 30
0.0
  0
POINT
  8
0
  6
CONTINUOUS
 62
               5
  5
3D8
 10
-392.13776905046871
 20
-1013.89819548119
 30
0.0
  0
POINT
  8
0
  6
CONTINUOUS
 62
               5
  5
3D9
 10
-218.90769754050837
 20
-1015.1889895560789
 30
0.0
  0
POINT
  8
0
  6
CONTINUOUS
 62
               5
  5
3DA
 10
-565.36784056042893
 20
-1015.1889895560787
 30
0.0
  0
POINT
  8
0
  6
CONTINUOUS
 62
               5
  5
3DB
 10
-395.37452052112428
 20
-833.20023990219465
 30
0.0
  0
POINT
  8
0
  6
CONTINUOUS
 62
               5
  5
3DC
 10
493.01659472626818
 20
-1432.0039877328722
 30
0.0
  0
POINT
  8
0
  6
CONTINUOUS
 62
               5
  5
3DD
 10
493.01659472626829
 20
-954.9229658345098
 30
0.0
  0
CIRCLE
  8
0
  6
CONTINUOUS
 62
               7
  5
3DE
 10
-392.13776905046871
 20
-1020.39819548119
 30
0.0
 40
38.0
  0
CIRCLE
  8
0
  6
CONTINUOUS
 62
               7
  5
3DF
 10
-392.13776905046871
 20
-1020.39819548119
 30
0.0
 40
33.5
  0
LINE
  8
0
  6
CONTINUOUS
 62
               7
  5
3E0
 10
-247.63776905046871
 20
-969.39819548118999
 30
0.0
 11
-247.63776905046871
 21
-1058.3929593605155
 31
0.0
  0
LINE
  8
0
  6
CONTINUOUS
 62
               7
  5
3E1
 10
-247.03776905046868
 20
-969.39819548118999
 30
0.0
 11
-247.63776905046871
 21
-969.39819548118999
 31
0.0
  0
LINE
  8
0
  6
CONTINUOUS
 62
               7
  5
3E2
 10
-282.63776905046871
 20
-1057.39819548119
 30
0.0
 11
-282.63776905046871
 21
-983.39819548118999
 31
0.0
  0
LINE
  8
0
  6
CONTINUOUS
 62
               7
  5
3E3
 10
-189.63776905046871
 20
-1057.39819548119
 30
0.0
 11
-189.63776905046871
 21
-970.39819548118999
 31
0.0
  0
LINE
  8
0
  6
CONTINUOUS
 62
               7
  5
3E4
 10
-247.63776905046871
 20
-969.39819548118999
 30
0.0
 11
-190.63776905046871
 21
-969.39819548118999
 31
0.0
  0
LINE
  8
0
  6
CONTINUOUS
 62
               7
  5
3E5
 10
-281.63776905046871
 20
-1058.39819548119
 30
0.0
 11
-190.63776905046871
 21
-1058.39819548119
 31
0.0
  0
LINE
  8
0
  6
CONTINUOUS
 62
               7
  5
3E6
 10
-190.63776905046871
 20
-969.39819548118999
 30
0.0
 11
-189.63776905046871
 21
-970.39819548118999
 31
0.0
  0
LINE
  8
0
  6
CONTINUOUS
 62
               7
  5
3E7
 10
-189.63776905046871
 20
-1057.39819548119
 30
0.0
 11
-190.63776905046871
 21
-1058.39819548119
 31
0.0
  0
LINE
  8
0
  6
CONTINUOUS
 62
               7
  5
3E8
 10
-281.63776905046871
 20
-982.39819548118999
 30
0.0
 11
-247.63776905046871
 21
-982.39819548118999
 31
0.0
  0
CIRCLE
  8
0
  6
CONTINUOUS
 62
               7
  5
3E9
 10
-392.13776905046871
 20
-1013.89819548119
 30
0.0
 40
44.5
  0
LINE
  8
0
  6
CONTINUOUS
 62
               7
  5
3EA
 10
-281.63776905046871
 20
-982.39819548118999
 30
0.0
 11
-282.63776905046871
 21
-983.39819548118999
 31
0.0
  0
LINE
  8
0
  6
CONTINUOUS
 62
               7
  5
3EB
 10
-282.63776905046871
 20
-1057.39819548119
 30
0.0
 11
-281.63776905046871
 21
-1058.39819548119
 31
0.0
  0
LINE
  8
0
  6
CONTINUOUS
 62
               7
  5
3EC
 10
-536.63776905046859
 20
-969.39819548118976
 30
0.0
 11
-536.63776905046871
 21
-1058.3929593605153
 31
0.0
  0
LINE
  8
0
  6
CONTINUOUS
 62
               7
  5
3ED
 10
-537.23776905046861
 20
-969.39819548118976
 30
0.0
 11
-536.63776905046859
 21
-969.39819548118976
 31
0.0
  0
LINE
  8
0
  6
CONTINUOUS
 62
               7
  5
3EE
 10
-501.63776905046871
 20
-1057.3981954811898
 30
0.0
 11
-501.63776905046859
 21
-983.39819548118976
 31
0.0
  0
LINE
  8
0
  6
CONTINUOUS
 62
               7
  5
3EF
 10
-594.63776905046871
 20
-1057.3981954811898
 30
0.0
 11
-594.63776905046859
 21
-970.39819548118976
 31
0.0
  0
LINE
  8
0
  6
CONTINUOUS
 62
               7
  5
3F0
 10
-536.63776905046859
 20
-969.39819548118976
 30
0.0
 11
-593.63776905046859
 21
-969.39819548118976
 31
0.0
  0
LINE
  8
0
  6
CONTINUOUS
 62
               7
  5
3F1
 10
-502.63776905046871
 20
-1058.3981954811898
 30
0.0
 11
-593.63776905046871
 21
-1058.3981954811898
 31
0.0
  0
LINE
  8
0
  6
CONTINUOUS
 62
               7
  5
3F2
 10
-593.63776905046859
 20
-969.39819548118976
 30
0.0
 11
-594.63776905046859
 21
-970.39819548118976
 31
0.0
  0
LINE
  8
0
  6
CONTINUOUS
 62
               7
  5
3F3
 10
-594.63776905046871
 20
-1057.3981954811898
 30
0.0
 11
-593.63776905046871
 21
-1058.3981954811898
 31
0.0
  0
LINE
  8
0
  6
CONTINUOUS
 62
               7
  5
3F4
 10
-502.63776905046859
 20
-982.39819548118976
 30
0.0
 11
-536.63776905046859
 21
-982.39819548118976
 31
0.0
  0
LINE
  8
0
  6
CONTINUOUS
 62
               7
  5
3F5
 10
-502.63776905046859
 20
-982.39819548118976
 30
0.0
 11
-501.63776905046859
 21
-983.39819548118976
 31
0.0
  0
LINE
  8
0
  6
CONTINUOUS
 62
               7
  5
3F6
 10
-501.63776905046871
 20
-1057.3981954811898
 30
0.0
 11
-502.63776905046871
 21
-1058.3981954811898
 31
0.0
  0
LINE
  8
0
  6
CONTINUOUS
 62
               7
  5
3F7
 10
-349.58372644623523
 20
-861.93031141215511
 30
0.0
 11
-438.57849032556078
 21
-861.93031141215488
 31
0.0
  0
LINE
  8
0
  6
CONTINUOUS
 62
               7
  5
3F8
 10
-349.58372644623523
 20
-861.33031141215497
 30
0.0
 11
-349.58372644623523
 21
-861.93031141215511
 31
0.0
  0
LINE
  8
0
  6
CONTINUOUS
 62
               7
  5
3F9
 10
-431.08372644623523
 20
-896.93031141215488
 30
0.0
 11
-357.08372644623523
 21
-896.93031141215511
 31
0.0
  0
LINE
  8
0
  6
CONTINUOUS
 62
               7
  5
3FA
 10
-437.58372644623512
 20
-803.93031141215488
 30
0.0
 11
-350.58372644623523
 21
-803.93031141215511
 31
0.0
  0
LINE
  8
0
  6
CONTINUOUS
 62
               7
  5
3FB
 10
-349.58372644623523
 20
-861.93031141215511
 30
0.0
 11
-349.58372644623523
 21
-804.93031141215511
 31
0.0
  0
LINE
  8
0
  6
CONTINUOUS
 62
               7
  5
3FC
 10
-432.08372644623523
 20
-895.93031141215488
 30
0.0
 11
-432.08372644623523
 21
-861.93031141215488
 31
0.0
  0
LINE
  8
0
  6
CONTINUOUS
 62
               7
  5
3FD
 10
-349.58372644623523
 20
-804.93031141215511
 30
0.0
 11
-350.58372644623523
 21
-803.93031141215511
 31
0.0
  0
LINE
  8
0
  6
CONTINUOUS
 62
               7
  5
3FE
 10
-437.58372644623512
 20
-803.93031141215488
 30
0.0
 11
-438.58372644623512
 21
-804.93031141215488
 31
0.0
  0
LINE
  8
0
  6
CONTINUOUS
 62
               7
  5
3FF
 10
-356.08372644623523
 20
-895.93031141215511
 30
0.0
 11
-356.08372644623523
 21
-861.93031141215488
 31
0.0
  0
LINE
  8
0
  6
CONTINUOUS
 62
               7
  5
400
 10
-356.08372644623523
 20
-895.93031141215511
 30
0.0
 11
-357.08372644623523
 21
-896.93031141215511
 31
0.0
  0
LINE
  8
0
  6
CONTINUOUS
 62
               7
  5
401
 10
-431.08372644623523
 20
-896.93031141215488
 30
0.0
 11
-432.08372644623523
 21
-895.93031141215488
 31
0.0
  0
LINE
  8
0
  6
CONTINUOUS
 62
               7
  5
402
 10
-438.58372644623523
 20
-861.93031141215488
 30
0.0
 11
-438.58372644623523
 21
-804.93031141215488
 31
0.0
  0
LINE
  8
0
  6
CONTINUOUS
 62
               7
  5
403
 10
216.63392368588097
 20
-1057.39819548119
 30
0.0
 11
216.63392368588097
 21
-999.39819548118999
 31
0.0
  0
LINE
  8
0
  6
CONTINUOUS
 62
               7
  5
404
 10
242.23392368588088
 20
-969.39819548118999
 30
0.0
 11
242.23392368588088
 21
-1058.39819548119
 31
0.0
  0
LINE
  8
0
  6
CONTINUOUS
 62
               7
  5
405
 10
242.83392368588102
 20
-969.39819548118999
 30
0.0
 11
242.23392368588088
 21
-969.39819548118999
 31
0.0
  0
LINE
  8
0
  6
CONTINUOUS
 62
               7
  5
406
 10
300.23392368588111
 20
-1057.39819548119
 30
0.0
 11
300.23392368588111
 21
-970.39819548118999
 31
0.0
  0
CIRCLE
  8
0
  6
CONTINUOUS
 62
               7
  5
407
 10
120.87790746063797
 20
-1028.39819548119
 30
0.0
 40
30.0
  0
CIRCLE
  8
0
  6
CONTINUOUS
 62
               7
  5
408
 10
120.87790746063797
 20
-1028.39819548119
 30
0.0
 40
25.5
  0
CIRCLE
  8
0
  6
CONTINUOUS
 62
               7
  5
409
 10
120.87790746063797
 20
-1013.89819548119
 30
0.0
 40
44.5
  0
LINE
  8
0
  6
CONTINUOUS
 62
               7
  5
40A
 10
242.3683754313613
 20
-969.39819548118999
 30
0.0
 11
299.23392368588111
 21
-969.39819548118999
 31
0.0
  0
LINE
  8
0
  6
CONTINUOUS
 62
               7
  5
40B
 10
217.63392368588097
 20
-1058.39819548119
 30
0.0
 11
299.23392368588111
 21
-1058.39819548119
 31
0.0
  0
LINE
  8
0
  6
CONTINUOUS
 62
               7
  5
40C
 10
217.63392368588097
 20
-998.39819548118999
 30
0.0
 11
242.23392368588088
 21
-998.39819548118999
 31
0.0
  0
LINE
  8
0
  6
CONTINUOUS
 62
               7
  5
40D
 10
217.63392368588097
 20
-998.39819548118999
 30
0.0
 11
216.63392368588097
 21
-999.39819548118999
 31
0.0
  0
LINE
  8
0
  6
CONTINUOUS
 62
               7
  5
40E
 10
299.23392368588111
 20
-969.39819548118999
 30
0.0
 11
300.23392368588111
 21
-970.39819548118999
 31
0.0
  0
LINE
  8
0
  6
CONTINUOUS
 62
               7
  5
40F
 10
216.63392368588097
 20
-1057.39819548119
 30
0.0
 11
217.63392368588097
 21
-1058.39819548119
 31
0.0
  0
LINE
  8
0
  6
CONTINUOUS
 62
               7
  5
410
 10
300.23392368588111
 20
-1057.39819548119
 30
0.0
 11
299.23392368588111
 21
-1058.39819548119
 31
0.0
  0
LINE
  8
0
  6
CONTINUOUS
 62
               7
  5
411
 10
25.121891235395196
 20
-1057.39819548119
 30
0.0
 11
25.121891235395196
 21
-999.39819548118999
 31
0.0
  0
LINE
  8
0
  6
CONTINUOUS
 62
               7
  5
412
 10
-0.4781087646048263
 20
-969.39819548118999
 30
0.0
 11
-0.4781087646048263
 21
-1058.39819548119
 31
0.0
  0
LINE
  8
0
  6
CONTINUOUS
 62
               7
  5
413
 10
-1.0781087646048491
 20
-969.39819548118999
 30
0.0
 11
-0.4781087646048263
 21
-969.39819548118999
 31
0.0
  0
LINE
  8
0
  6
CONTINUOUS
 62
               7
  5
414
 10
-58.478108764604826
 20
-1057.39819548119
 30
0.0
 11
-58.478108764604826
 21
-970.39819548118999
 31
0.0
  0
LINE
  8
0
  6
CONTINUOUS
 62
               7
  5
415
 10
-0.6125605100851317
 20
-969.39819548118999
 30
0.0
 11
-57.478108764604826
 21
-969.39819548118999
 31
0.0
  0
LINE
  8
0
  6
CONTINUOUS
 62
               7
  5
416
 10
24.121891235395196
 20
-1058.39819548119
 30
0.0
 11
-57.478108764604826
 21
-1058.39819548119
 31
0.0
  0
LINE
  8
0
  6
CONTINUOUS
 62
               7
  5
417
 10
24.121891235395196
 20
-998.39819548118999
 30
0.0
 11
-0.4781087646048263
 21
-998.39819548118999
 31
0.0
  0
LINE
  8
0
  6
CONTINUOUS
 62
               7
  5
418
 10
24.121891235395196
 20
-998.39819548118999
 30
0.0
 11
25.121891235395196
 21
-999.39819548118999
 31
0.0
  0
LINE
  8
0
  6
CONTINUOUS
 62
               7
  5
419
 10
-57.478108764604826
 20
-969.39819548118999
 30
0.0
 11
-58.478108764604826
 21
-970.39819548118999
 31
0.0
  0
LINE
  8
0
  6
CONTINUOUS
 62
               7
  5
41A
 10
25.121891235395196
 20
-1057.39819548119
 30
0.0
 11
24.121891235395196
 21
-1058.39819548119
 31
0.0
  0
LINE
  8
0
  6
CONTINUOUS
 62
               7
  5
41B
 10
-58.478108764604826
 20
-1057.39819548119
 30
0.0
 11
-57.478108764604826
 21
-1058.39819548119
 31
0.0
  0
LINE
  8
0
  6
CONTINUOUS
 62
               7
  5
41C
 10
91.877907460638198
 20
-907.64217925594721
 30
0.0
 11
149.8779074606382
 21
-907.64217925594721
 31
0.0
  0
LINE
  8
0
  6
CONTINUOUS
 62
               7
  5
41D
 10
165.3779074606382
 20
-882.04217925594708
 30
0.0
 11
76.377907460638198
 21
-882.04217925594708
 31
0.0
  0
LINE
  8
0
  6
CONTINUOUS
 62
               7
  5
41E
 10
165.3779074606382
 20
-881.44217925594717
 30
0.0
 11
165.3779074606382
 21
-882.04217925594708
 31
0.0
  0
LINE
  8
0
  6
CONTINUOUS
 62
               7
  5
41F
 10
77.377907460638198
 20
-824.04217925594708
 30
0.0
 11
164.3779074606382
 21
-824.04217925594708
 31
0.0
  0
LINE
  8
0
  6
CONTINUOUS
 62
               7
  5
420
 10
165.3779074606382
 20
-881.90772751046688
 30
0.0
 11
165.3779074606382
 21
-825.04217925594708
 31
0.0
  0
LINE
  8
0
  6
CONTINUOUS
 62
               7
  5
421
 10
90.877907460638198
 20
-906.64217925594721
 30
0.0
 11
90.877907460638198
 21
-882.04217925594708
 31
0.0
  0
LINE
  8
0
  6
CONTINUOUS
 62
               7
  5
422
 10
150.8779074606382
 20
-906.64217925594721
 30
0.0
 11
150.8779074606382
 21
-882.04217925594708
 31
0.0
  0
LINE
  8
0
  6
CONTINUOUS
 62
               7
  5
423
 10
150.8779074606382
 20
-906.64217925594721
 30
0.0
 11
149.8779074606382
 21
-907.64217925594721
 31
0.0
  0
LINE
  8
0
  6
CONTINUOUS
 62
               7
  5
424
 10
165.3779074606382
 20
-825.04217925594708
 30
0.0
 11
164.3779074606382
 21
-824.04217925594708
 31
0.0
  0
LINE
  8
0
  6
CONTINUOUS
 62
               7
  5
425
 10
91.877907460638198
 20
-907.64217925594721
 30
0.0
 11
90.877907460638198
 21
-906.64217925594721
 31
0.0
  0
LINE
  8
0
  6
CONTINUOUS
 62
               7
  5
426
 10
77.377907460638198
 20
-824.04217925594708
 30
0.0
 11
76.377907460638198
 21
-825.04217925594708
 31
0.0
  0
LINE
  8
0
  6
CONTINUOUS
 62
               7
  5
427
 10
76.377907460638198
 20
-881.90772751046666
 30
0.0
 11
76.377907460638198
 21
-825.04217925594708
 31
0.0
  0
CIRCLE
  8
0
  6
CONTINUOUS
 62
               7
  5
428
 10
609.28652321630784
 20
-1445.2131936579833
 30
0.0
 40
25.5
  0
CIRCLE
  8
0
  6
CONTINUOUS
 62
               7
  5
429
 10
609.28652321630784
 20
-1430.7131936579833
 30
0.0
 40
44.5
  0
CIRCLE
  8
0
  6
CONTINUOUS
 62
               7
  5
42A
 10
609.28652321630784
 20
-1445.2131936579833
 30
0.0
 40
30.0
  0
LINE
  8
0
  6
CONTINUOUS
 62
               7
  5
42B
 10
580.28652321630784
 20
-1126.8137599093989
 30
0.0
 11
638.28652321630784
 21
-1126.8137599093989
 31
0.0
  0
LINE
  8
0
  6
CONTINUOUS
 62
               7
  5
42C
 10
653.78652321630784
 20
-1101.213759909399
 30
0.0
 11
564.78652321630784
 21
-1101.213759909399
 31
0.0
  0
LINE
  8
0
  6
CONTINUOUS
 62
               7
  5
42D
 10
653.78652321630784
 20
-1100.6137599093991
 30
0.0
 11
653.78652321630784
 21
-1101.213759909399
 31
0.0
  0
LINE
  8
0
  6
CONTINUOUS
 62
               7
  5
42E
 10
565.78652321630784
 20
-1043.213759909399
 30
0.0
 11
652.78652321630784
 21
-1043.213759909399
 31
0.0
  0
LINE
  8
0
  6
CONTINUOUS
 62
               7
  5
42F
 10
653.78652321630784
 20
-1101.0793081639185
 30
0.0
 11
653.78652321630784
 21
-1044.213759909399
 31
0.0
  0
LINE
  8
0
  6
CONTINUOUS
 62
               7
  5
430
 10
579.28652321630784
 20
-1125.8137599093989
 30
0.0
 11
579.28652321630784
 21
-1101.213759909399
 31
0.0
  0
LINE
  8
0
  6
CONTINUOUS
 62
               7
  5
431
 10
639.28652321630784
 20
-1125.8137599093989
 30
0.0
 11
639.28652321630784
 21
-1101.213759909399
 31
0.0
  0
LINE
  8
0
  6
CONTINUOUS
 62
               7
  5
432
 10
639.28652321630784
 20
-1125.8137599093989
 30
0.0
 11
638.28652321630784
 21
-1126.8137599093989
 31
0.0
  0
LINE
  8
0
  6
CONTINUOUS
 62
               7
  5
433
 10
653.78652321630784
 20
-1044.213759909399
 30
0.0
 11
652.78652321630784
 21
-1043.213759909399
 31
0.0
  0
LINE
  8
0
  6
CONTINUOUS
 62
               7
  5
434
 10
580.28652321630784
 20
-1126.8137599093989
 30
0.0
 11
579.28652321630784
 21
-1125.8137599093989
 31
0.0
  0
LINE
  8
0
  6
CONTINUOUS
 62
               7
  5
435
 10
565.78652321630784
 20
-1043.213759909399
 30
0.0
 11
564.78652321630784
 21
-1044.213759909399
 31
0.0
  0
LINE
  8
0
  6
CONTINUOUS
 62
               7
  5
436
 10
564.78652321630784
 20
-1101.0793081639185
 30
0.0
 11
564.78652321630784
 21
-1044.213759909399
 31
0.0
  0
LINE
  8
0
  6
CONTINUOUS
 62
               7
  5
437
 10
464.28652321630784
 20
-1386.2131936579833
 30
0.0
 11
464.28652321630784
 21
-1475.2079575373089
 31
0.0
  0
LINE
  8
0
  6
CONTINUOUS
 62
               7
  5
438
 10
464.88652321630786
 20
-1386.2131936579833
 30
0.0
 11
464.28652321630784
 21
-1386.2131936579833
 31
0.0
  0
LINE
  8
0
  6
CONTINUOUS
 62
               7
  5
439
 10
429.28652321630784
 20
-1474.2131936579833
 30
0.0
 11
429.28652321630784
 21
-1400.2131936579833
 31
0.0
  0
LINE
  8
0
  6
CONTINUOUS
 62
               7
  5
43A
 10
522.28652321630784
 20
-1474.2131936579833
 30
0.0
 11
522.28652321630784
 21
-1387.2131936579833
 31
0.0
  0
LINE
  8
0
  6
CONTINUOUS
 62
               7
  5
43B
 10
464.28652321630784
 20
-1386.2131936579833
 30
0.0
 11
521.28652321630784
 21
-1386.2131936579833
 31
0.0
  0
LINE
  8
0
  6
CONTINUOUS
 62
               7
  5
43C
 10
430.28652321630784
 20
-1475.2131936579833
 30
0.0
 11
521.28652321630784
 21
-1475.2131936579833
 31
0.0
  0
LINE
  8
0
  6
CONTINUOUS
 62
               7
  5
43D
 10
521.28652321630784
 20
-1386.2131936579833
 30
0.0
 11
522.28652321630784
 21
-1387.2131936579833
 31
0.0
  0
LINE
  8
0
  6
CONTINUOUS
 62
               7
  5
43E
 10
522.28652321630784
 20
-1474.2131936579833
 30
0.0
 11
521.28652321630784
 21
-1475.2131936579833
 31
0.0
  0
LINE
  8
0
  6
CONTINUOUS
 62
               7
  5
43F
 10
430.28652321630784
 20
-1399.2131936579833
 30
0.0
 11
464.28652321630784
 21
-1399.2131936579833
 31
0.0
  0
LINE
  8
0
  6
CONTINUOUS
 62
               7
  5
440
 10
430.28652321630784
 20
-1399.2131936579833
 30
0.0
 11
429.28652321630784
 21
-1400.2131936579833
 31
0.0
  0
LINE
  8
0
  6
CONTINUOUS
 62
               7
  5
441
 10
429.28652321630784
 20
-1474.2131936579833
 30
0.0
 11
430.28652321630784
 21
-1475.2131936579833
 31
0.0
  0
LINE
  8
0
  6
CONTINUOUS
 62
               7
  5
442
 10
464.28652321630784
 20
-1000.7137599093987
 30
0.0
 11
464.28652321630807
 21
-911.71899603007319
 31
0.0
  0
LINE
  8
0
  6
CONTINUOUS
 62
               7
  5
443
 10
464.88652321630798
 20
-1000.7137599093987
 30
0.0
 11
464.28652321630784
 21
-1000.7137599093987
 31
0.0
  0
LINE
  8
0
  6
CONTINUOUS
 62
               7
  5
444
 10
429.28652321630807
 20
-919.21375990939873
 30
0.0
 11
429.28652321630784
 21
-993.21375990939873
 31
0.0
  0
LINE
  8
0
  6
CONTINUOUS
 62
               7
  5
445
 10
522.28652321630807
 20
-912.71375990939896
 30
0.0
 11
522.28652321630784
 21
-999.71375990939873
 31
0.0
  0
LINE
  8
0
  6
CONTINUOUS
 62
               7
  5
446
 10
464.28652321630784
 20
-1000.7137599093987
 30
0.0
 11
521.28652321630784
 21
-1000.7137599093987
 31
0.0
  0
LINE
  8
0
  6
CONTINUOUS
 62
               7
  5
447
 10
430.28652321630807
 20
-918.21375990939873
 30
0.0
 11
464.28652321630807
 21
-918.21375990939873
 31
0.0
  0
LINE
  8
0
  6
CONTINUOUS
 62
               7
  5
448
 10
521.28652321630784
 20
-1000.7137599093987
 30
0.0
 11
522.28652321630784
 21
-999.71375990939873
 31
0.0
  0
LINE
  8
0
  6
CONTINUOUS
 62
               7
  5
449
 10
522.28652321630807
 20
-912.71375990939896
 30
0.0
 11
521.28652321630807
 21
-911.71375990939896
 31
0.0
  0
LINE
  8
0
  6
CONTINUOUS
 62
               7
  5
44A
 10
430.28652321630784
 20
-994.21375990939873
 30
0.0
 11
464.28652321630807
 21
-994.21375990939873
 31
0.0
  0
LINE
  8
0
  6
CONTINUOUS
 62
               7
  5
44B
 10
430.28652321630784
 20
-994.21375990939873
 30
0.0
 11
429.28652321630784
 21
-993.21375990939873
 31
0.0
  0
LINE
  8
0
  6
CONTINUOUS
 62
               7
  5
44C
 10
429.28652321630807
 20
-919.21375990939873
 30
0.0
 11
430.28652321630807
 21
-918.21375990939873
 31
0.0
  0
LINE
  8
0
  6
CONTINUOUS
 62
               7
  5
44D
 10
464.28652321630807
 20
-911.71375990939873
 30
0.0
 11
521.28652321630807
 21
-911.71375990939873
 31
0.0
  0
CIRCLE
  8
0
  6
DASHED
 62
               7
  5
44E
 10
-392.13776905046871
 20
-1013.89819548119
 30
0.0
 40
40.0
  0
CIRCLE
  8
0
  6
DASHED
 62
               7
  5
44F
 10
120.87790746063797
 20
-1013.89819548119
 30
0.0
 40
40.0
  0
CIRCLE
  8
0
  6
DASHED
 62
               7
  5
450
 10
609.28652321630784
 20
-1430.7131936579833
 30
0.0
 40
40.0
  0
TEXT
  8
0
 62
               3
  5
451
 10
-392.13776905046871
 20
-1098.3981954811898
 30
0.0
 40
40.0
  1
EMB_80×65
 41
0.8
 72
               1
 11
-392.13776905046871
 21
-1098.3981954811898
 31
0.0
 73
               3
  0
TEXT
  8
0
 62
               3
  5
452
 10
120.87790746063797
 20
-1098.39819548119
 30
0.0
 40
40.0
  1
EMB_80×50
 41
0.8
 72
               1
 11
120.87790746063797
 21
-1098.39819548119
 31
0.0
 73
               3
  0
TEXT
  8
0
 62
               3
  5
453
 10
605.58911923866754
 20
-776.76739140417965
 30
0.0
 40
40.0
  1
EMB使用例
 41
0.8
 72
               1
 11
605.58911923866754
 21
-776.76739140417965
 31
0.0
 73
               3
  0
TEXT
  8
0
 62
               3
  5
454
 10
-123.7427040908909
 20
-722.40725550384013
 30
0.0
 40
35.0
  1
横枝管に呼び６５、５０の管を接続するときは、EMBをご使用ください。
 41
0.8
 72
               1
 11
-123.7427040908909
 21
-722.40725550384013
 31
0.0
 73
               3
  0
ENDSEC
  0
EOF
