  0
SECTION
  2
HEADER
  9
$ACADVER
  1
AC1009
  9
$INSBASE
 10
0.0
 20
0.0
 30
0.0
  9
$EXTMIN
 10
-641.28625489580429
 20
-1437.725825330007
 30
0.0
  9
$EXTMAX
 10
744.43500906164365
 20
535.95540833980363
 30
0.0
  9
$LIMMIN
 10
-684.59004439447449
 20
-1499.4033638821886
  9
$LIMMAX
 10
787.73879856031385
 20
597.63294689198517
  9
$ORTHOMODE
 70
               0
  9
$REGENMODE
 70
               1
  9
$FILLMODE
 70
               1
  9
$QTEXTMODE
 70
               0
  9
$MIRRTEXT
 70
               1
  9
$DRAGMODE
 70
               2
  9
$LTSCALE
 40
1.0
  9
$OSMODE
 70
               0
  9
$ATTMODE
 70
               1
  9
$TEXTSIZE
 40
0.2
  9
$TRACEWID
 40
0.05
  9
$TEXTSTYLE
  7
STANDARD
  9
$CLAYER
  8
0
  9
$CELTYPE
  6
CONTINUOUS
  9
$CECOLOR
 62
             256
  9
$DIMSCALE
 40
1.0
  9
$DIMASZ
 40
0.18
  9
$DIMEXO
 40
0.0625
  9
$DIMDLI
 40
0.38
  9
$DIMRND
 40
0.0
  9
$DIMDLE
 40
0.0
  9
$DIMEXE
 40
0.18
  9
$DIMTP
 40
0.0
  9
$DIMTM
 40
0.0
  9
$DIMTXT
 40
0.18
  9
$DIMCEN
 40
0.09
  9
$DIMTSZ
 40
0.0
  9
$DIMTOL
 70
               0
  9
$DIMLIM
 70
               0
  9
$DIMTIH
 70
               1
  9
$DIMTOH
 70
               1
  9
$DIMSE1
 70
               0
  9
$DIMSE2
 70
               0
  9
$DIMTAD
 70
               0
  9
$DIMZIN
 70
               0
  9
$DIMBLK
  1

  9
$DIMASO
 70
               1
  9
$DIMSHO
 70
               1
  9
$DIMPOST
  1

  9
$DIMAPOST
  1

  9
$DIMALT
 70
               0
  9
$DIMALTD
 70
               2
  9
$DIMALTF
 40
25.399999999999999
  9
$DIMLFAC
 40
1.0
  9
$DIMTOFL
 70
               0
  9
$DIMTVP
 40
0.0
  9
$DIMTIX
 70
               0
  9
$DIMSOXD
 70
               0
  9
$DIMSAH
 70
               0
  9
$DIMBLK1
  1

  9
$DIMBLK2
  1

  9
$DIMSTYLE
  2
STANDARD
  9
$DIMCLRD
 70
               0
  9
$DIMCLRE
 70
               0
  9
$DIMCLRT
 70
               0
  9
$DIMTFAC
 40
1.0
  9
$DIMGAP
 40
0.09
  9
$LUNITS
 70
               2
  9
$LUPREC
 70
               4
  9
$AXISMODE
 70
               0
  9
$AXISUNIT
 10
0.0
 20
0.0
  9
$SKETCHINC
 40
0.1
  9
$FILLETRAD
 40
0.0
  9
$AUNITS
 70
               0
  9
$AUPREC
 70
               0
  9
$MENU
  1
acad
  9
$ELEVATION
 40
0.0
  9
$PELEVATION
 40
0.0
  9
$THICKNESS
 40
0.0
  9
$LIMCHECK
 70
               0
  9
$BLIPMODE
 70
               1
  9
$CHAMFERA
 40
0.0
  9
$CHAMFERB
 40
0.0
  9
$SKPOLY
 70
               0
  9
$TDCREATE
 40
0.000000000
  9
$TDUPDATE
 40
0.000000000
  9
$TDINDWG
 40
0.0000000000
  9
$TDUSRTIMER
 40
0.0000000000
  9
$USRTIMER
 70
               1
  9
$ANGBASE
 50
0.0
  9
$ANGDIR
 70
               0
  9
$PDMODE
 70
               0
  9
$PDSIZE
 40
1.0
  9
$PLINEWID
 40
0.0
  9
$COORDS
 70
               1
  9
$SPLFRAME
 70
               0
  9
$SPLINETYPE
 70
               6
  9
$SPLINESEGS
 70
               8
  9
$ATTDIA
 70
               0
  9
$ATTREQ
 70
               1
  9
$HANDLING
 70
               1
  9
$HANDSEED
  5
2F2
  9
$SURFTAB1
 70
               6
  9
$SURFTAB2
 70
               6
  9
$SURFTYPE
 70
               6
  9
$SURFU
 70
               6
  9
$SURFV
 70
               6
  9
$UCSNAME
  2

  9
$UCSORG
 10
0.0
 20
0.0
 30
0.0
  9
$UCSXDIR
 10
1.0
 20
0.0
 30
0.0
  9
$UCSYDIR
 10
0.0
 20
1.0
 30
0.0
  9
$PUCSNAME
  2

  9
$PUCSORG
 10
0.0
 20
0.0
 30
0.0
  9
$PUCSXDIR
 10
1.0
 20
0.0
 30
0.0
  9
$PUCSYDIR
 10
0.0
 20
1.0
 30
0.0
  9
$USERI1
 70
               0
  9
$USERI2
 70
               0
  9
$USERI3
 70
               0
  9
$USERI4
 70
               0
  9
$USERI5
 70
               0
  9
$USERR1
 40
0.0
  9
$USERR2
 40
0.0
  9
$USERR3
 40
0.0
  9
$USERR4
 40
0.0
  9
$USERR5
 40
0.0
  9
$WORLDVIEW
 70
               1
  9
$SHADEDGE
 70
               3
  9
$SHADEDIF
 70
              70
  9
$TILEMODE
 70
               1
  9
$MAXACTVP
 70
              16
  9
$PINSBASE
 10
0.0
 20
0.0
 30
0.0
  9
$PLIMCHECK
 70
               0
  9
$PEXTMIN
 10
1.0000000000000000E+20
 20
1.0000000000000000E+20
 30
1.0000000000000000E+20
  9
$PEXTMAX
 10
-1.0000000000000000E+20
 20
-1.0000000000000000E+20
 30
-1.0000000000000000E+20
  9
$PLIMMIN
 10
0.0
 20
0.0
  9
$PLIMMAX
 10
12.0
 20
9.0
  9
$UNITMODE
 70
               0
  9
$VISRETAIN
 70
               0
  9
$PLINEGEN
 70
               1
  9
$PSLTSCALE
 70
               0
  9
$TREEDEPTH
 70
            3020
  9
$DWGCODEPAGE
  3
dos932
  0
ENDSEC
  0
SECTION
  2
TABLES
  0
TABLE
  2
VPORT
 70
               1
  0
VPORT
  2
*ACTIVE
 70
               0
 10
0.0
 20
0.0
 11
1.0
 21
1.0
 12
51.574377082919682
 22
-450.88520849510172
 13
0.0
 23
0.0
 14
1.0
 24
1.0
 15
0.0
 25
0.0
 16
0.0
 26
0.0
 36
1.0
 17
0.0
 27
0.0
 37
0.0
 40
2097.0363107741737
 41
0.7020998326973371
 42
50.0
 43
0.0
 44
0.0
 50
0.0
 51
0.0
 71
               0
 72
             100
 73
               1
 74
               1
 75
               0
 76
               0
 77
               0
 78
               0
  0
ENDTAB
  0
TABLE
  2
LTYPE
 70
              26
  0
LTYPE
  2
CONTINUOUS
 70
               0
  3
Solid line
 72
              65
 73
               0
 40
0.0
  0
LTYPE
  2
HIDDENX2
 70
               0
  3
CADPAC FUSION LINETYPE
 72
              65
 73
               2
 40
80.0
 49
60.0
 49
-20.0
  0
LTYPE
  2
HIDDEN
 70
               0
  3
CADPAC FUSION LINETYPE
 72
              65
 73
               2
 40
60.0
 49
40.0
 49
-20.0
  0
LTYPE
  2
HIDDEN2
 70
               0
  3
CADPAC FUSION LINETYPE
 72
              65
 73
               2
 40
50.0
 49
30.0
 49
-20.0
  0
LTYPE
  2
DASHED
 70
               0
  3
CADPAC FUSION LINETYPE
 72
              65
 73
               2
 40
60.0
 49
40.0
 49
-20.0
  0
LTYPE
  2
DASHED2
 70
               0
  3
CADPAC FUSION LINETYPE
 72
              65
 73
               2
 40
45.0
 49
30.0
 49
-15.0
  0
LTYPE
  2
DASHEDX2
 70
               0
  3
CADPAC FUSION LINETYPE
 72
              65
 73
               2
 40
90.0
 49
60.0
 49
-30.0
  0
LTYPE
  2
DOTX2
 70
               0
  3
CADPAC FUSION LINETYPE
 72
              65
 73
               2
 40
25.0
 49
0.0
 49
-25.0
  0
LTYPE
  2
DOT
 70
               0
  3
CADPAC FUSION LINETYPE
 72
              65
 73
               2
 40
20.0
 49
0.0
 49
-20.0
  0
LTYPE
  2
DOTS
 70
               0
  3
CADPAC FUSION LINETYPE
 72
              65
 73
               2
 40
20.0
 49
0.0
 49
-20.0
  0
LTYPE
  2
DOT2
 70
               0
  3
CADPAC FUSION LINETYPE
 72
              65
 73
               2
 40
15.0
 49
0.0
 49
-15.0
  0
LTYPE
  2
CENTERX2
 70
               0
  3
CADPAC FUSION LINETYPE
 72
              65
 73
               4
 40
120.0
 49
50.0
 49
-25.0
 49
20.0
 49
-25.0
  0
LTYPE
  2
CENTER
 70
               0
  3
CADPAC FUSION LINETYPE
 72
              65
 73
               4
 40
92.0
 49
40.0
 49
-20.0
 49
12.0
 49
-20.0
  0
LTYPE
  2
CENTER2
 70
               0
  3
CADPAC FUSION LINETYPE
 72
              65
 73
               4
 40
64.0
 49
30.0
 49
-15.0
 49
4.0
 49
-15.0
  0
LTYPE
  2
DASHDOTX2
 70
               0
  3
CADPAC FUSION LINETYPE
 72
              65
 73
               4
 40
100.0
 49
50.0
 49
-25.0
 49
0.0
 49
-25.0
  0
LTYPE
  2
DASHDOT
 70
               0
  3
CADPAC FUSION LINETYPE
 72
              65
 73
               4
 40
80.0
 49
40.0
 49
-20.0
 49
0.0
 49
-20.0
  0
LTYPE
  2
DASHDOT2
 70
               0
  3
CADPAC FUSION LINETYPE
 72
              65
 73
               4
 40
60.0
 49
30.0
 49
-15.0
 49
0.0
 49
-15.0
  0
LTYPE
  2
DIVIDEX2
 70
               0
  3
CADPAC FUSION LINETYPE
 72
              65
 73
               6
 40
125.0
 49
50.0
 49
-25.0
 49
0.0
 49
-25.0
 49
0.0
 49
-25.0
  0
LTYPE
  2
DIVIDE
 70
               0
  3
CADPAC FUSION LINETYPE
 72
              65
 73
               6
 40
100.0
 49
40.0
 49
-20.0
 49
0.0
 49
-20.0
 49
0.0
 49
-20.0
  0
LTYPE
  2
DIVIDE2
 70
               0
  3
CADPAC FUSION LINETYPE
 72
              65
 73
               6
 40
75.0
 49
30.0
 49
-15.0
 49
0.0
 49
-15.0
 49
0.0
 49
-15.0
  0
LTYPE
  2
BORDERX2
 70
               0
  3
CADPAC FUSION LINETYPE
 72
              65
 73
               6
 40
175.0
 49
50.0
 49
-25.0
 49
50.0
 49
-25.0
 49
0.0
 49
-25.0
  0
LTYPE
  2
BORDER
 70
               0
  3
CADPAC FUSION LINETYPE
 72
              65
 73
               6
 40
140.0
 49
40.0
 49
-20.0
 49
40.0
 49
-20.0
 49
0.0
 49
-20.0
  0
LTYPE
  2
BORDER2
 70
               0
  3
CADPAC FUSION LINETYPE
 72
              65
 73
               6
 40
105.0
 49
30.0
 49
-15.0
 49
30.0
 49
-15.0
 49
0.0
 49
-15.0
  0
LTYPE
  2
PHANTOMX2
 70
               0
  3
CADPAC FUSION LINETYPE
 72
              65
 73
               6
 40
150.0
 49
50.0
 49
-20.0
 49
20.0
 49
-20.0
 49
20.0
 49
-20.0
  0
LTYPE
  2
PHANTOM
 70
               0
  3
CADPAC FUSION LINETYPE
 72
              65
 73
               6
 40
124.0
 49
40.0
 49
-20.0
 49
12.0
 49
-20.0
 49
12.0
 49
-20.0
  0
LTYPE
  2
PHANTOM2
 70
               0
  3
CADPAC FUSION LINETYPE
 72
              65
 73
               6
 40
106.0
 49
30.0
 49
-20.0
 49
8.0
 49
-20.0
 49
8.0
 49
-20.0
  0
ENDTAB
  0
TABLE
  2
LAYER
 70
             256
  0
LAYER
  2
0
 70
               0
 62
               7
  6
CONTINUOUS
  0
LAYER
  2
LAYER001
 70
               0
 62
               7
  6
CONTINUOUS
  0
LAYER
  2
LAYER002
 70
               0
 62
               7
  6
CONTINUOUS
  0
LAYER
  2
LAYER003
 70
               0
 62
               7
  6
CONTINUOUS
  0
LAYER
  2
LAYER004
 70
               0
 62
               7
  6
CONTINUOUS
  0
LAYER
  2
LAYER005
 70
               0
 62
               7
  6
CONTINUOUS
  0
LAYER
  2
LAYER006
 70
               0
 62
               7
  6
CONTINUOUS
  0
LAYER
  2
LAYER007
 70
               0
 62
               7
  6
CONTINUOUS
  0
LAYER
  2
LAYER008
 70
               0
 62
               7
  6
CONTINUOUS
  0
LAYER
  2
LAYER009
 70
               0
 62
               7
  6
CONTINUOUS
  0
LAYER
  2
LAYER010
 70
               0
 62
               7
  6
CONTINUOUS
  0
LAYER
  2
LAYER011
 70
               0
 62
               7
  6
CONTINUOUS
  0
LAYER
  2
LAYER012
 70
               0
 62
               7
  6
CONTINUOUS
  0
LAYER
  2
LAYER013
 70
               0
 62
               7
  6
CONTINUOUS
  0
LAYER
  2
LAYER014
 70
               0
 62
               7
  6
CONTINUOUS
  0
LAYER
  2
LAYER015
 70
               0
 62
               7
  6
CONTINUOUS
  0
LAYER
  2
LAYER016
 70
               0
 62
               7
  6
CONTINUOUS
  0
LAYER
  2
LAYER017
 70
               0
 62
               7
  6
CONTINUOUS
  0
LAYER
  2
LAYER018
 70
               0
 62
               7
  6
CONTINUOUS
  0
LAYER
  2
LAYER019
 70
               0
 62
               7
  6
CONTINUOUS
  0
LAYER
  2
LAYER020
 70
               0
 62
               7
  6
CONTINUOUS
  0
LAYER
  2
LAYER021
 70
               0
 62
               7
  6
CONTINUOUS
  0
LAYER
  2
LAYER022
 70
               0
 62
               7
  6
CONTINUOUS
  0
LAYER
  2
LAYER023
 70
               0
 62
               7
  6
CONTINUOUS
  0
LAYER
  2
LAYER024
 70
               0
 62
               7
  6
CONTINUOUS
  0
LAYER
  2
LAYER025
 70
               0
 62
               7
  6
CONTINUOUS
  0
LAYER
  2
LAYER026
 70
               0
 62
               7
  6
CONTINUOUS
  0
LAYER
  2
LAYER027
 70
               0
 62
               7
  6
CONTINUOUS
  0
LAYER
  2
LAYER028
 70
               0
 62
               7
  6
CONTINUOUS
  0
LAYER
  2
LAYER029
 70
               0
 62
               7
  6
CONTINUOUS
  0
LAYER
  2
LAYER030
 70
               0
 62
               7
  6
CONTINUOUS
  0
LAYER
  2
LAYER031
 70
               0
 62
               7
  6
CONTINUOUS
  0
LAYER
  2
LAYER032
 70
               0
 62
               7
  6
CONTINUOUS
  0
LAYER
  2
LAYER033
 70
               0
 62
               7
  6
CONTINUOUS
  0
LAYER
  2
LAYER034
 70
               0
 62
               7
  6
CONTINUOUS
  0
LAYER
  2
LAYER035
 70
               0
 62
               7
  6
CONTINUOUS
  0
LAYER
  2
LAYER036
 70
               0
 62
               7
  6
CONTINUOUS
  0
LAYER
  2
LAYER037
 70
               0
 62
               7
  6
CONTINUOUS
  0
LAYER
  2
LAYER038
 70
               0
 62
               7
  6
CONTINUOUS
  0
LAYER
  2
LAYER039
 70
               0
 62
               7
  6
CONTINUOUS
  0
LAYER
  2
LAYER040
 70
               0
 62
               7
  6
CONTINUOUS
  0
LAYER
  2
LAYER041
 70
               0
 62
               7
  6
CONTINUOUS
  0
LAYER
  2
LAYER042
 70
               0
 62
               7
  6
CONTINUOUS
  0
LAYER
  2
LAYER043
 70
               0
 62
               7
  6
CONTINUOUS
  0
LAYER
  2
LAYER044
 70
               0
 62
               7
  6
CONTINUOUS
  0
LAYER
  2
LAYER045
 70
               0
 62
               7
  6
CONTINUOUS
  0
LAYER
  2
LAYER046
 70
               0
 62
               7
  6
CONTINUOUS
  0
LAYER
  2
LAYER047
 70
               0
 62
               7
  6
CONTINUOUS
  0
LAYER
  2
LAYER048
 70
               0
 62
               7
  6
CONTINUOUS
  0
LAYER
  2
LAYER049
 70
               0
 62
               7
  6
CONTINUOUS
  0
LAYER
  2
LAYER050
 70
               0
 62
               7
  6
CONTINUOUS
  0
LAYER
  2
LAYER051
 70
               0
 62
               7
  6
CONTINUOUS
  0
LAYER
  2
LAYER052
 70
               0
 62
               7
  6
CONTINUOUS
  0
LAYER
  2
LAYER053
 70
               0
 62
               7
  6
CONTINUOUS
  0
LAYER
  2
LAYER054
 70
               0
 62
               7
  6
CONTINUOUS
  0
LAYER
  2
LAYER055
 70
               0
 62
               7
  6
CONTINUOUS
  0
LAYER
  2
LAYER056
 70
               0
 62
               7
  6
CONTINUOUS
  0
LAYER
  2
LAYER057
 70
               0
 62
               7
  6
CONTINUOUS
  0
LAYER
  2
LAYER058
 70
               0
 62
               7
  6
CONTINUOUS
  0
LAYER
  2
LAYER059
 70
               0
 62
               7
  6
CONTINUOUS
  0
LAYER
  2
LAYER060
 70
               0
 62
               7
  6
CONTINUOUS
  0
LAYER
  2
LAYER061
 70
               0
 62
               7
  6
CONTINUOUS
  0
LAYER
  2
LAYER062
 70
               0
 62
               7
  6
CONTINUOUS
  0
LAYER
  2
LAYER063
 70
               0
 62
               7
  6
CONTINUOUS
  0
LAYER
  2
LAYER064
 70
               0
 62
               7
  6
CONTINUOUS
  0
LAYER
  2
LAYER065
 70
               0
 62
               7
  6
CONTINUOUS
  0
LAYER
  2
LAYER066
 70
               0
 62
               7
  6
CONTINUOUS
  0
LAYER
  2
LAYER067
 70
               0
 62
               7
  6
CONTINUOUS
  0
LAYER
  2
LAYER068
 70
               0
 62
               7
  6
CONTINUOUS
  0
LAYER
  2
LAYER069
 70
               0
 62
               7
  6
CONTINUOUS
  0
LAYER
  2
LAYER070
 70
               0
 62
               7
  6
CONTINUOUS
  0
LAYER
  2
LAYER071
 70
               0
 62
               7
  6
CONTINUOUS
  0
LAYER
  2
LAYER072
 70
               0
 62
               7
  6
CONTINUOUS
  0
LAYER
  2
LAYER073
 70
               0
 62
               7
  6
CONTINUOUS
  0
LAYER
  2
LAYER074
 70
               0
 62
               7
  6
CONTINUOUS
  0
LAYER
  2
LAYER075
 70
               0
 62
               7
  6
CONTINUOUS
  0
LAYER
  2
LAYER076
 70
               0
 62
               7
  6
CONTINUOUS
  0
LAYER
  2
LAYER077
 70
               0
 62
               7
  6
CONTINUOUS
  0
LAYER
  2
LAYER078
 70
               0
 62
               7
  6
CONTINUOUS
  0
LAYER
  2
LAYER079
 70
               0
 62
               7
  6
CONTINUOUS
  0
LAYER
  2
LAYER080
 70
               0
 62
               7
  6
CONTINUOUS
  0
LAYER
  2
LAYER081
 70
               0
 62
               7
  6
CONTINUOUS
  0
LAYER
  2
LAYER082
 70
               0
 62
               7
  6
CONTINUOUS
  0
LAYER
  2
LAYER083
 70
               0
 62
               7
  6
CONTINUOUS
  0
LAYER
  2
LAYER084
 70
               0
 62
               7
  6
CONTINUOUS
  0
LAYER
  2
LAYER085
 70
               0
 62
               7
  6
CONTINUOUS
  0
LAYER
  2
LAYER086
 70
               0
 62
               7
  6
CONTINUOUS
  0
LAYER
  2
LAYER087
 70
               0
 62
               7
  6
CONTINUOUS
  0
LAYER
  2
LAYER088
 70
               0
 62
               7
  6
CONTINUOUS
  0
LAYER
  2
LAYER089
 70
               0
 62
               7
  6
CONTINUOUS
  0
LAYER
  2
LAYER090
 70
               0
 62
               7
  6
CONTINUOUS
  0
LAYER
  2
LAYER091
 70
               0
 62
               7
  6
CONTINUOUS
  0
LAYER
  2
LAYER092
 70
               0
 62
               7
  6
CONTINUOUS
  0
LAYER
  2
LAYER093
 70
               0
 62
               7
  6
CONTINUOUS
  0
LAYER
  2
LAYER094
 70
               0
 62
               7
  6
CONTINUOUS
  0
LAYER
  2
LAYER095
 70
               0
 62
               7
  6
CONTINUOUS
  0
LAYER
  2
LAYER096
 70
               0
 62
               7
  6
CONTINUOUS
  0
LAYER
  2
LAYER097
 70
               0
 62
               7
  6
CONTINUOUS
  0
LAYER
  2
LAYER098
 70
               0
 62
               7
  6
CONTINUOUS
  0
LAYER
  2
LAYER099
 70
               0
 62
               7
  6
CONTINUOUS
  0
LAYER
  2
LAYER100
 70
               0
 62
               7
  6
CONTINUOUS
  0
LAYER
  2
LAYER101
 70
               0
 62
               7
  6
CONTINUOUS
  0
LAYER
  2
LAYER102
 70
               0
 62
               7
  6
CONTINUOUS
  0
LAYER
  2
LAYER103
 70
               0
 62
               7
  6
CONTINUOUS
  0
LAYER
  2
LAYER104
 70
               0
 62
               7
  6
CONTINUOUS
  0
LAYER
  2
LAYER105
 70
               0
 62
               7
  6
CONTINUOUS
  0
LAYER
  2
LAYER106
 70
               0
 62
               7
  6
CONTINUOUS
  0
LAYER
  2
LAYER107
 70
               0
 62
               7
  6
CONTINUOUS
  0
LAYER
  2
LAYER108
 70
               0
 62
               7
  6
CONTINUOUS
  0
LAYER
  2
LAYER109
 70
               0
 62
               7
  6
CONTINUOUS
  0
LAYER
  2
LAYER110
 70
               0
 62
               7
  6
CONTINUOUS
  0
LAYER
  2
LAYER111
 70
               0
 62
               7
  6
CONTINUOUS
  0
LAYER
  2
LAYER112
 70
               0
 62
               7
  6
CONTINUOUS
  0
LAYER
  2
LAYER113
 70
               0
 62
               7
  6
CONTINUOUS
  0
LAYER
  2
LAYER114
 70
               0
 62
               7
  6
CONTINUOUS
  0
LAYER
  2
LAYER115
 70
               0
 62
               7
  6
CONTINUOUS
  0
LAYER
  2
LAYER116
 70
               0
 62
               7
  6
CONTINUOUS
  0
LAYER
  2
LAYER117
 70
               0
 62
               7
  6
CONTINUOUS
  0
LAYER
  2
LAYER118
 70
               0
 62
               7
  6
CONTINUOUS
  0
LAYER
  2
LAYER119
 70
               0
 62
               7
  6
CONTINUOUS
  0
LAYER
  2
LAYER120
 70
               0
 62
               7
  6
CONTINUOUS
  0
LAYER
  2
LAYER121
 70
               0
 62
               7
  6
CONTINUOUS
  0
LAYER
  2
LAYER122
 70
               0
 62
               7
  6
CONTINUOUS
  0
LAYER
  2
LAYER123
 70
               0
 62
               7
  6
CONTINUOUS
  0
LAYER
  2
LAYER124
 70
               0
 62
               7
  6
CONTINUOUS
  0
LAYER
  2
LAYER125
 70
               0
 62
               7
  6
CONTINUOUS
  0
LAYER
  2
LAYER126
 70
               0
 62
               7
  6
CONTINUOUS
  0
LAYER
  2
LAYER127
 70
               0
 62
               7
  6
CONTINUOUS
  0
LAYER
  2
LAYER128
 70
               0
 62
               7
  6
CONTINUOUS
  0
LAYER
  2
LAYER129
 70
               0
 62
               7
  6
CONTINUOUS
  0
LAYER
  2
LAYER130
 70
               0
 62
               7
  6
CONTINUOUS
  0
LAYER
  2
LAYER131
 70
               0
 62
               7
  6
CONTINUOUS
  0
LAYER
  2
LAYER132
 70
               0
 62
               7
  6
CONTINUOUS
  0
LAYER
  2
LAYER133
 70
               0
 62
               7
  6
CONTINUOUS
  0
LAYER
  2
LAYER134
 70
               0
 62
               7
  6
CONTINUOUS
  0
LAYER
  2
LAYER135
 70
               0
 62
               7
  6
CONTINUOUS
  0
LAYER
  2
LAYER136
 70
               0
 62
               7
  6
CONTINUOUS
  0
LAYER
  2
LAYER137
 70
               0
 62
               7
  6
CONTINUOUS
  0
LAYER
  2
LAYER138
 70
               0
 62
               7
  6
CONTINUOUS
  0
LAYER
  2
LAYER139
 70
               0
 62
               7
  6
CONTINUOUS
  0
LAYER
  2
LAYER140
 70
               0
 62
               7
  6
CONTINUOUS
  0
LAYER
  2
LAYER141
 70
               0
 62
               7
  6
CONTINUOUS
  0
LAYER
  2
LAYER142
 70
               0
 62
               7
  6
CONTINUOUS
  0
LAYER
  2
LAYER143
 70
               0
 62
               7
  6
CONTINUOUS
  0
LAYER
  2
LAYER144
 70
               0
 62
               7
  6
CONTINUOUS
  0
LAYER
  2
LAYER145
 70
               0
 62
               7
  6
CONTINUOUS
  0
LAYER
  2
LAYER146
 70
               0
 62
               7
  6
CONTINUOUS
  0
LAYER
  2
LAYER147
 70
               0
 62
               7
  6
CONTINUOUS
  0
LAYER
  2
LAYER148
 70
               0
 62
               7
  6
CONTINUOUS
  0
LAYER
  2
LAYER149
 70
               0
 62
               7
  6
CONTINUOUS
  0
LAYER
  2
LAYER150
 70
               0
 62
               7
  6
CONTINUOUS
  0
LAYER
  2
LAYER151
 70
               0
 62
               7
  6
CONTINUOUS
  0
LAYER
  2
LAYER152
 70
               0
 62
               7
  6
CONTINUOUS
  0
LAYER
  2
LAYER153
 70
               0
 62
               7
  6
CONTINUOUS
  0
LAYER
  2
LAYER154
 70
               0
 62
               7
  6
CONTINUOUS
  0
LAYER
  2
LAYER155
 70
               0
 62
               7
  6
CONTINUOUS
  0
LAYER
  2
LAYER156
 70
               0
 62
               7
  6
CONTINUOUS
  0
LAYER
  2
LAYER157
 70
               0
 62
               7
  6
CONTINUOUS
  0
LAYER
  2
LAYER158
 70
               0
 62
               7
  6
CONTINUOUS
  0
LAYER
  2
LAYER159
 70
               0
 62
               7
  6
CONTINUOUS
  0
LAYER
  2
LAYER160
 70
               0
 62
               7
  6
CONTINUOUS
  0
LAYER
  2
LAYER161
 70
               0
 62
               7
  6
CONTINUOUS
  0
LAYER
  2
LAYER162
 70
               0
 62
               7
  6
CONTINUOUS
  0
LAYER
  2
LAYER163
 70
               0
 62
               7
  6
CONTINUOUS
  0
LAYER
  2
LAYER164
 70
               0
 62
               7
  6
CONTINUOUS
  0
LAYER
  2
LAYER165
 70
               0
 62
               7
  6
CONTINUOUS
  0
LAYER
  2
LAYER166
 70
               0
 62
               7
  6
CONTINUOUS
  0
LAYER
  2
LAYER167
 70
               0
 62
               7
  6
CONTINUOUS
  0
LAYER
  2
LAYER168
 70
               0
 62
               7
  6
CONTINUOUS
  0
LAYER
  2
LAYER169
 70
               0
 62
               7
  6
CONTINUOUS
  0
LAYER
  2
LAYER170
 70
               0
 62
               7
  6
CONTINUOUS
  0
LAYER
  2
LAYER171
 70
               0
 62
               7
  6
CONTINUOUS
  0
LAYER
  2
LAYER172
 70
               0
 62
               7
  6
CONTINUOUS
  0
LAYER
  2
LAYER173
 70
               0
 62
               7
  6
CONTINUOUS
  0
LAYER
  2
LAYER174
 70
               0
 62
               7
  6
CONTINUOUS
  0
LAYER
  2
LAYER175
 70
               0
 62
               7
  6
CONTINUOUS
  0
LAYER
  2
LAYER176
 70
               0
 62
               7
  6
CONTINUOUS
  0
LAYER
  2
LAYER177
 70
               0
 62
               7
  6
CONTINUOUS
  0
LAYER
  2
LAYER178
 70
               0
 62
               7
  6
CONTINUOUS
  0
LAYER
  2
LAYER179
 70
               0
 62
               7
  6
CONTINUOUS
  0
LAYER
  2
LAYER180
 70
               0
 62
               7
  6
CONTINUOUS
  0
LAYER
  2
LAYER181
 70
               0
 62
               7
  6
CONTINUOUS
  0
LAYER
  2
LAYER182
 70
               0
 62
               7
  6
CONTINUOUS
  0
LAYER
  2
LAYER183
 70
               0
 62
               7
  6
CONTINUOUS
  0
LAYER
  2
LAYER184
 70
               0
 62
               7
  6
CONTINUOUS
  0
LAYER
  2
LAYER185
 70
               0
 62
               7
  6
CONTINUOUS
  0
LAYER
  2
LAYER186
 70
               0
 62
               7
  6
CONTINUOUS
  0
LAYER
  2
LAYER187
 70
               0
 62
               7
  6
CONTINUOUS
  0
LAYER
  2
LAYER188
 70
               0
 62
               7
  6
CONTINUOUS
  0
LAYER
  2
LAYER189
 70
               0
 62
               7
  6
CONTINUOUS
  0
LAYER
  2
LAYER190
 70
               0
 62
               7
  6
CONTINUOUS
  0
LAYER
  2
LAYER191
 70
               0
 62
               7
  6
CONTINUOUS
  0
LAYER
  2
LAYER192
 70
               0
 62
               7
  6
CONTINUOUS
  0
LAYER
  2
LAYER193
 70
               0
 62
               7
  6
CONTINUOUS
  0
LAYER
  2
LAYER194
 70
               0
 62
               7
  6
CONTINUOUS
  0
LAYER
  2
LAYER195
 70
               0
 62
               7
  6
CONTINUOUS
  0
LAYER
  2
LAYER196
 70
               0
 62
               7
  6
CONTINUOUS
  0
LAYER
  2
LAYER197
 70
               0
 62
               7
  6
CONTINUOUS
  0
LAYER
  2
LAYER198
 70
               0
 62
               7
  6
CONTINUOUS
  0
LAYER
  2
LAYER199
 70
               0
 62
               7
  6
CONTINUOUS
  0
LAYER
  2
LAYER200
 70
               0
 62
               7
  6
CONTINUOUS
  0
LAYER
  2
LAYER201
 70
               0
 62
               7
  6
CONTINUOUS
  0
LAYER
  2
LAYER202
 70
               0
 62
               7
  6
CONTINUOUS
  0
LAYER
  2
LAYER203
 70
               0
 62
               7
  6
CONTINUOUS
  0
LAYER
  2
LAYER204
 70
               0
 62
               7
  6
CONTINUOUS
  0
LAYER
  2
LAYER205
 70
               0
 62
               7
  6
CONTINUOUS
  0
LAYER
  2
LAYER206
 70
               0
 62
               7
  6
CONTINUOUS
  0
LAYER
  2
LAYER207
 70
               0
 62
               7
  6
CONTINUOUS
  0
LAYER
  2
LAYER208
 70
               0
 62
               7
  6
CONTINUOUS
  0
LAYER
  2
LAYER209
 70
               0
 62
               7
  6
CONTINUOUS
  0
LAYER
  2
LAYER210
 70
               0
 62
               7
  6
CONTINUOUS
  0
LAYER
  2
LAYER211
 70
               0
 62
               7
  6
CONTINUOUS
  0
LAYER
  2
LAYER212
 70
               0
 62
               7
  6
CONTINUOUS
  0
LAYER
  2
LAYER213
 70
               0
 62
               7
  6
CONTINUOUS
  0
LAYER
  2
LAYER214
 70
               0
 62
               7
  6
CONTINUOUS
  0
LAYER
  2
LAYER215
 70
               0
 62
               7
  6
CONTINUOUS
  0
LAYER
  2
LAYER216
 70
               0
 62
               7
  6
CONTINUOUS
  0
LAYER
  2
LAYER217
 70
               0
 62
               7
  6
CONTINUOUS
  0
LAYER
  2
LAYER218
 70
               0
 62
               7
  6
CONTINUOUS
  0
LAYER
  2
LAYER219
 70
               0
 62
               7
  6
CONTINUOUS
  0
LAYER
  2
LAYER220
 70
               0
 62
               7
  6
CONTINUOUS
  0
LAYER
  2
LAYER221
 70
               0
 62
               7
  6
CONTINUOUS
  0
LAYER
  2
LAYER222
 70
               0
 62
               7
  6
CONTINUOUS
  0
LAYER
  2
LAYER223
 70
               0
 62
               7
  6
CONTINUOUS
  0
LAYER
  2
LAYER224
 70
               0
 62
               7
  6
CONTINUOUS
  0
LAYER
  2
LAYER225
 70
               0
 62
               7
  6
CONTINUOUS
  0
LAYER
  2
LAYER226
 70
               0
 62
               7
  6
CONTINUOUS
  0
LAYER
  2
LAYER227
 70
               0
 62
               7
  6
CONTINUOUS
  0
LAYER
  2
LAYER228
 70
               0
 62
               7
  6
CONTINUOUS
  0
LAYER
  2
LAYER229
 70
               0
 62
               7
  6
CONTINUOUS
  0
LAYER
  2
LAYER230
 70
               0
 62
               7
  6
CONTINUOUS
  0
LAYER
  2
LAYER231
 70
               0
 62
               7
  6
CONTINUOUS
  0
LAYER
  2
LAYER232
 70
               0
 62
               7
  6
CONTINUOUS
  0
LAYER
  2
LAYER233
 70
               0
 62
               7
  6
CONTINUOUS
  0
LAYER
  2
LAYER234
 70
               0
 62
               7
  6
CONTINUOUS
  0
LAYER
  2
LAYER235
 70
               0
 62
               7
  6
CONTINUOUS
  0
LAYER
  2
LAYER236
 70
               0
 62
               7
  6
CONTINUOUS
  0
LAYER
  2
LAYER237
 70
               0
 62
               7
  6
CONTINUOUS
  0
LAYER
  2
LAYER238
 70
               0
 62
               7
  6
CONTINUOUS
  0
LAYER
  2
LAYER239
 70
               0
 62
               7
  6
CONTINUOUS
  0
LAYER
  2
LAYER240
 70
               0
 62
               7
  6
CONTINUOUS
  0
LAYER
  2
LAYER241
 70
               0
 62
               7
  6
CONTINUOUS
  0
LAYER
  2
LAYER242
 70
               0
 62
               7
  6
CONTINUOUS
  0
LAYER
  2
LAYER243
 70
               0
 62
               7
  6
CONTINUOUS
  0
LAYER
  2
LAYER244
 70
               0
 62
               7
  6
CONTINUOUS
  0
LAYER
  2
LAYER245
 70
               0
 62
               7
  6
CONTINUOUS
  0
LAYER
  2
LAYER246
 70
               0
 62
               7
  6
CONTINUOUS
  0
LAYER
  2
LAYER247
 70
               0
 62
               7
  6
CONTINUOUS
  0
LAYER
  2
LAYER248
 70
               0
 62
               7
  6
CONTINUOUS
  0
LAYER
  2
LAYER249
 70
               0
 62
               7
  6
CONTINUOUS
  0
LAYER
  2
LAYER250
 70
               0
 62
               7
  6
CONTINUOUS
  0
LAYER
  2
LAYER251
 70
               0
 62
               7
  6
CONTINUOUS
  0
LAYER
  2
LAYER252
 70
               0
 62
               7
  6
CONTINUOUS
  0
LAYER
  2
LAYER253
 70
               0
 62
               7
  6
CONTINUOUS
  0
LAYER
  2
LAYER254
 70
               0
 62
               7
  6
CONTINUOUS
  0
LAYER
  2
LAYER255
 70
               0
 62
               7
  6
CONTINUOUS
  0
ENDTAB
  0
TABLE
  2
STYLE
 70
               1
  0
STYLE
  2
STANDARD
 70
               0
 40
0.0
 41
0.8
 50
0.0
 71
               0
 42
40.0
  3
MS PGothic.ttf
  4

  0
ENDTAB
  0
TABLE
  2
VIEW
 70
               0
  0
VIEW
  2
QQQQ
 70
               0
 40
2097.0363107741737
 10
51.574377082919682
 20
-450.88520849510172
 41
1472.3288429547883
 11
0.0
 21
0.0
 31
1.0
 12
100.0
 22
100.0
 32
0.0
 42
50.0
 43
0.0
 44
0.0
 50
0.0
 71
               0
  0
ENDTAB
  0
TABLE
  2
UCS
 70
               0
  0
ENDTAB
  0
TABLE
  2
APPID
 70
               1
  0
APPID
  2
ACAD
 70
               0
  0
ENDTAB
  0
TABLE
  2
DIMSTYLE
 70
               1
  0
DIMSTYLE
  2
STANDARD
 70
               0
  3

  4

  5

  6

  7

 40
1.0
 41
0.18
 42
0.0625
 43
0.38
 44
0.18
 45
0.0
 46
0.0
 47
0.0
 48
0.0
140
0.18
141
0.09
142
0.0
143
25.399999999999999
144
1.0
145
0.0
146
1.0
147
0.09
 71
               0
 72
               0
 73
               1
 74
               1
 75
               0
 76
               0
 77
               0
 78
               0
170
               0
171
               2
172
               0
173
               0
174
               0
175
               0
176
               0
177
               0
178
               0
  0
ENDTAB
  0
ENDSEC
  0
SECTION
  2
BLOCKS
  0
ENDSEC
  0
SECTION
  2
ENTITIES
  0
ARC
  8
0
  6
CONTINUOUS
 62
               3
  5
136
 10
0.0000000000002936
 20
403.00000000000006
 30
0.0
 40
51.5
 50
247.14815970712681
 51
510.93845082065758
  0
LINE
  8
0
  6
CONTINUOUS
 62
               3
  5
137
 10
-20.000000000003183
 20
403.00000000000006
 30
0.0
 11
-52.50000000000022
 21
403.00000000000006
 31
0.0
  0
LINE
  8
0
  6
CONTINUOUS
 62
               3
  5
138
 10
-19.999999999999719
 20
354.45878040263091
 30
0.0
 11
-19.999999999999702
 21
398.85786437626967
 31
0.0
  0
ARC
  8
0
  6
CONTINUOUS
 62
               3
  5
139
 10
-29.999999999999702
 20
398.85786437626967
 30
0.0
 40
10.0
 50
359.9999999999992
 51
404.99999999999909
  0
LINE
  8
0
  6
CONTINUOUS
 62
               3
  5
13A
 10
-22.928932188134205
 20
405.92893218813521
 30
0.0
 11
-45.75087411518907
 21
428.75087411518598
 31
0.0
  0
CIRCLE
  8
0
  6
CONTINUOUS
 62
               3
  5
13B
 10
-0.000000000000218
 20
403.00000000000006
 30
0.0
 40
52.5
  0
CIRCLE
  8
0
  6
CONTINUOUS
 62
               3
  5
13C
 10
-0.000000000000218
 20
403.00000000000006
 30
0.0
 40
74.999999999999488
  0
LINE
  8
0
  6
CONTINUOUS
 62
               3
  5
13D
 10
-126.99999999999976
 20
458.00000000000045
 30
0.0
 11
-126.32844387403553
 21
458.00000000000045
 31
0.0
  0
LINE
  8
0
  6
CONTINUOUS
 62
               3
  5
13E
 10
-123.99999999999964
 20
460.32844387403543
 30
0.0
 11
-126.32844387403553
 21
458.00000000000045
 31
0.0
  0
LINE
  8
0
  6
CONTINUOUS
 62
               3
  5
13F
 10
-126.99999999999964
 20
348.0000000000004
 30
0.0
 11
-126.32844387403541
 21
348.0000000000004
 31
0.0
  0
LINE
  8
0
  6
CONTINUOUS
 62
               3
  5
140
 10
-123.99999999999953
 20
345.67155612596451
 30
0.0
 11
-126.32844387403541
 21
348.0000000000004
 31
0.0
  0
LINE
  8
0
  6
CONTINUOUS
 62
               3
  5
141
 10
-126.32844387403541
 20
348.0000000000004
 30
0.0
 11
-126.32844387403553
 21
458.00000000000045
 31
0.0
  0
LINE
  8
0
  6
CONTINUOUS
 62
               3
  5
142
 10
-123.99999999999964
 20
460.32844387403543
 30
0.0
 11
-123.99999999999953
 21
345.67155612596451
 31
0.0
  0
LINE
  8
0
  6
CONTINUOUS
 62
               3
  5
143
 10
-131.99999999999963
 20
348.17155612596451
 30
0.0
 11
-131.99999999999974
 21
457.82844387403543
 31
0.0
  0
LINE
  8
0
  6
CONTINUOUS
 62
               3
  5
144
 10
-126.99999999999976
 20
460.32844387403543
 30
0.0
 11
-126.99999999999964
 21
345.67155612596451
 31
0.0
  0
LINE
  8
0
  6
CONTINUOUS
 62
               3
  5
145
 10
-126.99999999999964
 20
345.67155612596451
 30
0.0
 11
-129.49999999999963
 21
345.67155612596451
 31
0.0
  0
LINE
  8
0
  6
CONTINUOUS
 62
               3
  5
146
 10
-126.99999999999976
 20
460.32844387403543
 30
0.0
 11
-129.49999999999974
 21
460.32844387403543
 31
0.0
  0
ARC
  8
0
  6
CONTINUOUS
 62
               3
  5
147
 10
-129.49999999999974
 20
457.82844387403543
 30
0.0
 40
2.5
 50
89.999999999999801
 51
179.9999999999996
  0
ARC
  8
0
  6
CONTINUOUS
 62
               3
  5
148
 10
-129.49999999999963
 20
348.17155612596451
 30
0.0
 40
2.5
 50
179.9999999999996
 51
269.99999999999937
  0
LINE
  8
0
  6
CONTINUOUS
 62
               3
  5
149
 10
-44.877805444974165
 20
463.09145179177267
 30
0.0
 11
-123.99999999999964
 21
460.32844387403543
 31
0.0
  0
LINE
  8
0
  6
CONTINUOUS
 62
               3
  5
14A
 10
-44.877805444973525
 20
342.90854820822693
 30
0.0
 11
-123.99999999999953
 21
345.67155612596451
 31
0.0
  0
LINE
  8
0
  6
CONTINUOUS
 62
               3
  5
14B
 10
-445.49878165403675
 20
-482.5
 30
0.0
 11
-443.5
 21
-480.5697989934049
 31
0.0
  0
LINE
  8
0
  6
CONTINUOUS
 62
               3
  5
14C
 10
-554.50121834596325
 20
-482.5
 30
0.0
 11
-556.5
 21
-480.5697989934049
 31
0.0
  0
LINE
  8
0
  6
CONTINUOUS
 62
               3
  5
14D
 10
-445.49878165403675
 20
-482.5
 30
0.0
 11
-554.50121834596325
 21
-482.5
 31
0.0
  0
LINE
  8
0
  6
CONTINUOUS
 62
               3
  5
14E
 10
-556.5
 20
-182.5
 30
0.0
 11
-443.5
 21
-182.5
 31
0.0
  0
LINE
  8
0
  6
CONTINUOUS
 62
               3
  5
14F
 10
-556.5
 20
-182.5
 30
0.0
 11
-556.5
 21
-480.5697989934049
 31
0.0
  0
LINE
  8
0
  6
CONTINUOUS
 62
               3
  5
150
 10
-443.5
 20
-182.5
 30
0.0
 11
-443.5
 21
-480.5697989934049
 31
0.0
  0
LINE
  8
0
  6
CONTINUOUS
 62
               3
  5
151
 10
-443.49999978031531
 20
-182.50000021968458
 30
0.0
 11
-443.99999978031542
 21
-182.00000021968458
 31
0.0
  0
LINE
  8
0
  6
CONTINUOUS
 62
               3
  5
152
 10
-556.50000021968469
 20
-182.50000021968458
 30
0.0
 11
-556.00000021968458
 21
-182.00000021968458
 31
0.0
  0
LINE
  8
0
  6
CONTINUOUS
 62
               3
  5
153
 10
-556.0
 20
-76.300734413377711
 30
0.0
 11
-556.0
 21
-181.99999999999994
 31
0.0
  0
LINE
  8
0
  6
CONTINUOUS
 62
               3
  5
154
 10
-444.0
 20
-76.300734413377711
 30
0.0
 11
-444.0
 21
-181.99999999999994
 31
0.0
  0
LINE
  8
0
  6
CONTINUOUS
 62
               3
  5
155
 10
-443.99999978031542
 20
-182.00000021968458
 30
0.0
 11
-556.0
 21
-182.00000021968458
 31
0.0
  0
LINE
  8
0
  6
CONTINUOUS
 62
               3
  5
156
 10
-575.0
 20
182.49999999999994
 30
0.0
 11
-425.0
 21
182.49999999999994
 31
0.0
  0
LINE
  8
0
  6
CONTINUOUS
 62
               3
  5
157
 10
-425.0
 20
165.49999999999983
 30
0.0
 11
-425.0
 21
182.49999999999994
 31
0.0
  0
LINE
  8
0
  6
CONTINUOUS
 62
               3
  5
158
 10
-425.0
 20
165.49999999999983
 30
0.0
 11
-575.0
 21
165.49999999999983
 31
0.0
  0
LINE
  8
0
  6
CONTINUOUS
 62
               3
  5
159
 10
-575.0
 20
165.49999999999983
 30
0.0
 11
-575.0
 21
182.49999999999994
 31
0.0
  0
LINE
  8
0
  6
CONTINUOUS
 62
               3
  5
15A
 10
-428.0
 20
160.91742430504411
 30
0.0
 11
-428.00000000000045
 21
101.46629794778804
 31
0.0
  0
LINE
  8
0
  6
CONTINUOUS
 62
               3
  5
15B
 10
-571.99999999999955
 20
101.46629794778804
 30
0.0
 11
-572.0
 21
160.91742430504411
 31
0.0
  0
ARC
  8
0
  6
CONTINUOUS
 62
               3
  5
15C
 10
-423.0
 20
160.91742430504411
 30
0.0
 40
5.0
 50
113.57817847820284
 51
179.9999999999996
  0
ARC
  8
0
  6
CONTINUOUS
 62
               3
  5
15D
 10
-577.0
 20
160.91742430504411
 30
0.0
 40
5.0
 50
0.0
 51
66.421821521796758
  0
LINE
  8
0
  6
CONTINUOUS
 62
               3
  5
15E
 10
-433.0
 20
-21.000000000000142
 30
0.0
 11
-433.00000000000136
 21
87.864827439051311
 31
0.0
  0
LINE
  8
0
  6
CONTINUOUS
 62
               3
  5
15F
 10
-566.99999999999864
 20
87.864827439051311
 30
0.0
 11
-567.0
 21
-21.000000000000142
 31
0.0
  0
ARC
  8
0
  6
CONTINUOUS
 62
               3
  5
160
 10
-439.00000000000045
 20
101.46629794778804
 30
0.0
 40
11.0
 50
319.63240645580953
 51
359.9999999999992
  0
ARC
  8
0
  6
CONTINUOUS
 62
               3
  5
161
 10
-423.00000000000136
 20
87.864827439051311
 30
0.0
 40
10.0
 50
139.63240645581024
 51
179.9999999999996
  0
ARC
  8
0
  6
CONTINUOUS
 62
               3
  5
162
 10
-560.99999999999955
 20
101.46629794778804
 30
0.0
 40
11.0
 50
179.9999999999996
 51
220.36759354418928
  0
ARC
  8
0
  6
CONTINUOUS
 62
               3
  5
163
 10
-576.99999999999864
 20
87.864827439051311
 30
0.0
 40
10.0
 50
359.9999999999992
 51
400.36759354418854
  0
ARC
  8
0
  6
CONTINUOUS
 62
               3
  5
164
 10
-502.73886467040404
 20
-21.431899790090455
 30
0.0
 40
75.238995147991176
 50
66.251709401210945
 51
99.116170731728488
  0
ARC
  8
0
  6
CONTINUOUS
 62
               3
  5
165
 10
-515.29323283998565
 20
56.806237917334357
 30
0.0
 40
4.0
 50
151.46651938402164
 51
279.116170731728
  0
ARC
  8
0
  6
CONTINUOUS
 62
               3
  5
166
 10
-470.82778554144193
 20
51.097414151849506
 30
0.0
 40
4.0
 50
246.25170940120867
 51
395.78778983851345
  0
ARC
  8
0
  6
CONTINUOUS
 62
               3
  5
167
 10
-497.47715094279351
 20
63.864990185787718
 30
0.0
 40
15.395931900744419
 50
47.914158101635444
 51
144.58600371307961
  0
ARC
  8
0
  6
CONTINUOUS
 62
               3
  5
168
 10
-397.39489900960189
 20
-7.2965661465032952
 30
0.0
 40
138.19831075251042
 50
144.58600371307966
 51
151.46651938402184
  0
ARC
  8
0
  6
CONTINUOUS
 62
               3
  5
169
 10
-580.24450729219802
 20
-27.780973428112333
 30
0.0
 40
138.88446547285218
 50
35.787789838514875
 51
47.914158101635635
  0
LINE
  8
0
  6
CONTINUOUS
 62
               3
  5
16A
 10
-500.0
 20
64.197326219101939
 30
0.0
 11
-475.17262784409672
 21
49.404485740601643
 31
0.0
  0
LINE
  8
0
  6
CONTINUOUS
 62
               3
  5
16B
 10
-500.0
 20
64.197326148398844
 30
0.0
 11
-516.23122525712733
 21
54.826223876918874
 31
0.0
  0
LINE
  8
0
  6
CONTINUOUS
 62
               3
  5
16C
 10
-500.06237579684421
 20
64.197326219101939
 30
0.0
 11
-500.06237579684421
 21
77.686158168955416
 31
0.0
  0
LINE
  8
0
  6
CONTINUOUS
 62
               3
  5
16D
 10
-473.2126429075206
 20
17.499999999999801
 30
0.0
 11
-526.7873570924794
 21
17.499999999999801
 31
0.0
  0
CIRCLE
  8
0
  6
CONTINUOUS
 62
               3
  5
16E
 10
-500.0
 20
-10.500000000000085
 30
0.0
 40
48.500000000000007
  0
CIRCLE
  8
0
  6
CONTINUOUS
 62
               3
  5
16F
 10
-500.0
 20
-10.500000000000085
 30
0.0
 40
38.75
  0
CIRCLE
  8
0
  6
CONTINUOUS
 62
               3
  5
170
 10
-500.0
 20
-10.500000000000085
 30
0.0
 40
47.299999999999997
  0
LINE
  8
0
  6
CONTINUOUS
 62
               3
  5
171
 10
-531.81980515339455
 20
-42.319805153394697
 30
0.0
 11
-533.44615075012371
 21
-43.946150750123792
 31
0.0
  0
LINE
  8
0
  6
CONTINUOUS
 62
               3
  5
172
 10
-468.18019484660545
 20
-42.319805153394697
 30
0.0
 11
-466.55384924987629
 21
-43.946150750123735
 31
0.0
  0
ARC
  8
0
  6
CONTINUOUS
 62
               3
  5
173
 10
-500.0
 20
-10.500000000000085
 30
0.0
 40
45.0
 50
224.99999999999949
 51
314.99999999999937
  0
CIRCLE
  8
0
  6
CONTINUOUS
 62
               3
  5
174
 10
-500.0
 20
-10.500000000000085
 30
0.0
 40
43.0
  0
CIRCLE
  8
0
  6
CONTINUOUS
 62
               3
  5
175
 10
-500.0
 20
-10.500000000000085
 30
0.0
 40
57.5
  0
LINE
  8
0
  6
CONTINUOUS
 62
               3
  5
176
 10
-54.501218345963196
 20
-482.49999999999994
 30
0.0
 11
-56.499999999999943
 21
-480.56979899340485
 31
0.0
  0
LINE
  8
0
  6
CONTINUOUS
 62
               3
  5
177
 10
54.501218345963366
 20
-482.49999999999994
 30
0.0
 11
56.500000000000114
 21
-480.56979899340485
 31
0.0
  0
LINE
  8
0
  6
CONTINUOUS
 62
               3
  5
178
 10
-54.501218345963196
 20
-482.49999999999994
 30
0.0
 11
54.501218345963366
 21
-482.49999999999994
 31
0.0
  0
LINE
  8
0
  6
CONTINUOUS
 62
               3
  5
179
 10
56.5
 20
-182.49999999999994
 30
0.0
 11
-56.5
 21
-182.49999999999994
 31
0.0
  0
LINE
  8
0
  6
CONTINUOUS
 62
               3
  5
17A
 10
56.5
 20
-182.49999999999994
 30
0.0
 11
56.500000000000114
 21
-480.56979899340485
 31
0.0
  0
LINE
  8
0
  6
CONTINUOUS
 62
               3
  5
17B
 10
-56.5
 20
-182.49999999999994
 30
0.0
 11
-56.499999999999943
 21
-480.56979899340485
 31
0.0
  0
LINE
  8
0
  6
CONTINUOUS
 62
               3
  5
17C
 10
-56.500000219684694
 20
-182.50000021968452
 30
0.0
 11
-56.00000021968458
 21
-182.00000021968452
 31
0.0
  0
LINE
  8
0
  6
CONTINUOUS
 62
               3
  5
17D
 10
56.500000219684694
 20
-182.50000021968452
 30
0.0
 11
56.00000021968458
 21
-182.00000021968452
 31
0.0
  0
LINE
  8
0
  6
CONTINUOUS
 62
               3
  5
17E
 10
56.0
 20
-76.793190325741875
 30
0.0
 11
56.0
 21
-181.99999999999989
 31
0.0
  0
LINE
  8
0
  6
CONTINUOUS
 62
               3
  5
17F
 10
-56.000000000000028
 20
-75.031500073510074
 30
0.0
 11
-56.0
 21
-181.99999999999989
 31
0.0
  0
LINE
  8
0
  6
CONTINUOUS
 62
               3
  5
180
 10
-56.00000021968458
 20
-182.00000021968452
 30
0.0
 11
56.0
 21
-182.00000021968452
 31
0.0
  0
LINE
  8
0
  6
CONTINUOUS
 62
               3
  5
181
 10
75.0
 20
182.5
 30
0.0
 11
-75.0
 21
182.5
 31
0.0
  0
LINE
  8
0
  6
CONTINUOUS
 62
               3
  5
182
 10
-75.0
 20
165.49999999999989
 30
0.0
 11
-75.0
 21
182.5
 31
0.0
  0
LINE
  8
0
  6
CONTINUOUS
 62
               3
  5
183
 10
-75.0
 20
165.49999999999989
 30
0.0
 11
75.0
 21
165.49999999999989
 31
0.0
  0
LINE
  8
0
  6
CONTINUOUS
 62
               3
  5
184
 10
75.0
 20
165.49999999999989
 30
0.0
 11
75.0
 21
182.5
 31
0.0
  0
LINE
  8
0
  6
CONTINUOUS
 62
               3
  5
185
 10
-72.0
 20
160.91742430504416
 30
0.0
 11
-71.999999999999545
 21
101.46629794778809
 31
0.0
  0
LINE
  8
0
  6
CONTINUOUS
 62
               3
  5
186
 10
71.999999999999545
 20
101.46629794778811
 30
0.0
 11
72.0
 21
160.91742430504416
 31
0.0
  0
ARC
  8
0
  6
CONTINUOUS
 62
               3
  5
187
 10
-77.0
 20
160.91742430504416
 30
0.0
 40
5.0
 50
0.000000000000007
 51
66.421821521796772
  0
ARC
  8
0
  6
CONTINUOUS
 62
               3
  5
188
 10
77.0
 20
160.91742430504416
 30
0.0
 40
5.0
 50
113.57817847820286
 51
179.9999999999996
  0
LINE
  8
0
  6
CONTINUOUS
 62
               3
  5
189
 10
66.999999999998636
 20
87.864827439051382
 30
0.0
 11
66.999999999998636
 21
-21.492457016793708
 31
0.0
  0
ARC
  8
0
  6
CONTINUOUS
 62
               3
  5
18A
 10
60.999999999999545
 20
101.46629794778811
 30
0.0
 40
11.0
 50
319.63240645580953
 51
359.9999999999992
  0
ARC
  8
0
  6
CONTINUOUS
 62
               3
  5
18B
 10
76.999999999998636
 20
87.864827439051382
 30
0.0
 40
10.0
 50
139.63240645581024
 51
179.9999999999996
  0
ARC
  8
0
  6
CONTINUOUS
 62
               3
  5
18C
 10
-69.633184991464304
 20
53.730022610443257
 30
0.0
 40
5.0
 50
319.7576293518394
 51
354.52634157409415
  0
ARC
  8
0
  6
CONTINUOUS
 62
               3
  5
18D
 10
-61.500372908288682
 20
52.031617333354916
 30
0.0
 40
5.0
 50
242.2178093170989
 51
335.43172396398262
  0
ARC
  8
0
  6
CONTINUOUS
 62
               3
  5
18E
 10
-68.492047844730337
 20
38.760728833220242
 30
0.0
 40
10.0
 50
62.217809317099025
 51
80.342813712519273
  0
ARC
  8
0
  6
CONTINUOUS
 62
               3
  5
18F
 10
-61.999999999998693
 20
47.269799171113505
 30
0.0
 40
5.0
 50
139.75762935184071
 51
164.34500844836893
  0
LINE
  8
0
  6
CONTINUOUS
 62
               3
  5
190
 10
-127.00000000000011
 20
44.500000000000341
 30
0.0
 11
-126.32844387403588
 21
44.500000000000341
 31
0.0
  0
LINE
  8
0
  6
CONTINUOUS
 62
               3
  5
191
 10
-124.0
 20
46.828443874035656
 30
0.0
 11
-126.32844387403588
 21
44.500000000000341
 31
0.0
  0
LINE
  8
0
  6
CONTINUOUS
 62
               3
  5
192
 10
-126.99999999999999
 20
-65.499999999999659
 30
0.0
 11
-126.32844387403576
 21
-65.499999999999659
 31
0.0
  0
LINE
  8
0
  6
CONTINUOUS
 62
               3
  5
193
 10
-123.99999999999987
 20
-67.828443874035543
 30
0.0
 11
-126.32844387403576
 21
-65.499999999999659
 31
0.0
  0
LINE
  8
0
  6
CONTINUOUS
 62
               3
  5
194
 10
-126.32844387403576
 20
-65.499999999999659
 30
0.0
 11
-126.32844387403588
 21
44.500000000000341
 31
0.0
  0
LINE
  8
0
  6
CONTINUOUS
 62
               3
  5
195
 10
-124.0
 20
46.828443874035656
 30
0.0
 11
-123.99999999999987
 21
-67.828443874035543
 31
0.0
  0
LINE
  8
0
  6
CONTINUOUS
 62
               3
  5
196
 10
-132.0
 20
-65.328443874035543
 30
0.0
 11
-132.00000000000011
 21
44.328443874035656
 31
0.0
  0
LINE
  8
0
  6
CONTINUOUS
 62
               3
  5
197
 10
-127.00000000000011
 20
46.828443874035656
 30
0.0
 11
-126.99999999999999
 21
-67.828443874035543
 31
0.0
  0
LINE
  8
0
  6
CONTINUOUS
 62
               3
  5
198
 10
-126.99999999999999
 20
-67.828443874035543
 30
0.0
 11
-129.5
 21
-67.828443874035543
 31
0.0
  0
LINE
  8
0
  6
CONTINUOUS
 62
               3
  5
199
 10
-127.00000000000011
 20
46.828443874035656
 30
0.0
 11
-129.50000000000011
 21
46.828443874035656
 31
0.0
  0
ARC
  8
0
  6
CONTINUOUS
 62
               3
  5
19A
 10
-129.50000000000011
 20
44.328443874035656
 30
0.0
 40
2.5
 50
89.999999999999801
 51
179.9999999999996
  0
ARC
  8
0
  6
CONTINUOUS
 62
               3
  5
19B
 10
-129.5
 20
-65.328443874035543
 30
0.0
 40
2.5
 50
179.9999999999996
 51
269.99999999999937
  0
LINE
  8
0
  6
CONTINUOUS
 62
               3
  5
19C
 10
-60.825502516487497
 20
-70.034545938414567
 30
0.0
 11
-123.99999999999987
 21
-67.828443874035543
 31
0.0
  0
LINE
  8
0
  6
CONTINUOUS
 62
               3
  5
19D
 10
-68.841042811755528
 20
48.754637103411255
 30
0.0
 11
-124.0
 21
46.828443874035656
 31
0.0
  0
ARC
  8
0
  6
CONTINUOUS
 62
               3
  5
19E
 10
-68.492047844730337
 20
38.760728833220355
 30
0.0
 40
10.0
 50
62.217809317099025
 51
92.000000000000838
  0
ARC
  8
0
  6
CONTINUOUS
 62
               3
  5
19F
 10
-60.999999999999531
 20
106.46629794778823
 30
0.0
 40
11.0
 50
179.9999999999996
 51
220.36759354418928
  0
LINE
  8
0
  6
CONTINUOUS
 62
               3
  5
1A0
 10
-66.999999999998693
 20
87.452793457731104
 30
0.0
 11
-66.999999999998607
 21
92.864827439051282
 31
0.0
  0
ARC
  8
0
  6
CONTINUOUS
 62
               3
  5
1A1
 10
-57.000000000001478
 20
87.452793457730991
 30
0.0
 40
10.0
 50
179.9999999999996
 51
239.99999999999969
  0
ARC
  8
0
  6
CONTINUOUS
 62
               3
  5
1A2
 10
-164.20000000000152
 20
62.79189323085393
 30
0.0
 40
100.0
 50
354.52634157409398
 51
373.59049396680496
  0
ARC
  8
0
  6
CONTINUOUS
 62
               3
  5
1A3
 10
-80.4619203427211
 20
60.700195305505531
 30
0.0
 40
25.849089312664582
 50
335.43172396398251
 51
404.4207396332767
  0
ARC
  8
0
  6
CONTINUOUS
 62
               3
  5
1A4
 10
-76.999999999998622
 20
92.864827439051396
 30
0.0
 40
10.0
 50
359.99999999999881
 51
400.36759354418905
  0
LINE
  8
0
  6
CONTINUOUS
 62
               3
  5
1A5
 10
-27.364609066744393
 20
-21.492457016793765
 30
0.0
 11
66.999999999998636
 21
-21.492457016793765
 31
0.0
  0
ARC
  8
0
  6
CONTINUOUS
 62
               3
  5
1A6
 10
-61.000000000000028
 20
-75.031500073510074
 30
0.0
 40
5.0
 50
0.0
 51
87.999999999999488
  0
LINE
  8
0
  6
CONTINUOUS
 62
               3
  5
1A7
 10
66.999999999998636
 20
-21.492457016793765
 30
0.0
 11
56.000000219684651
 21
-76.793190325741875
 31
0.0
  0
LINE
  8
0
  6
CONTINUOUS
 62
               3
  5
1A8
 10
56.000000219684651
 20
-76.793190325741875
 30
0.0
 11
-55.999999999999986
 21
-76.793190325741875
 31
0.0
  0
LINE
  8
0
  6
CONTINUOUS
 62
               3
  5
1A9
 10
-433.00000000000006
 20
-20.999999999993179
 30
0.0
 11
-444.0
 21
-76.300734413377711
 31
0.0
  0
LINE
  8
0
  6
CONTINUOUS
 62
               3
  5
1AA
 10
-567.0
 20
-20.999999999993179
 30
0.0
 11
-556.0
 21
-76.300734413377711
 31
0.0
  0
LINE
  8
0
  6
CONTINUOUS
 62
               3
  5
1AB
 10
-556.0
 20
-76.300734413377711
 30
0.0
 11
-444.0
 21
-76.300734413377711
 31
0.0
  0
LINE
  8
0
  6
CONTINUOUS
 62
               3
  5
1AC
 10
445.49878165403686
 20
-482.49999999999994
 30
0.0
 11
443.50000000000011
 21
-480.56979899340485
 31
0.0
  0
LINE
  8
0
  6
CONTINUOUS
 62
               3
  5
1AD
 10
554.50121834596337
 20
-482.49999999999989
 30
0.0
 11
556.50000000000011
 21
-480.56979899340479
 31
0.0
  0
LINE
  8
0
  6
CONTINUOUS
 62
               3
  5
1AE
 10
445.49878165403686
 20
-482.49999999999994
 30
0.0
 11
554.50121834596337
 21
-482.49999999999989
 31
0.0
  0
LINE
  8
0
  6
CONTINUOUS
 62
               3
  5
1AF
 10
556.5
 20
-182.49999999999991
 30
0.0
 11
443.50000000000011
 21
-182.49999999999991
 31
0.0
  0
LINE
  8
0
  6
CONTINUOUS
 62
               3
  5
1B0
 10
556.5
 20
-182.49999999999991
 30
0.0
 11
556.50000000000011
 21
-480.56979899340479
 31
0.0
  0
LINE
  8
0
  6
CONTINUOUS
 62
               3
  5
1B1
 10
443.50000000000011
 20
-182.49999999999991
 30
0.0
 11
443.50000000000011
 21
-480.56979899340485
 31
0.0
  0
LINE
  8
0
  6
CONTINUOUS
 62
               3
  5
1B2
 10
443.49999978031542
 20
-182.50000021968449
 30
0.0
 11
443.99999978031553
 21
-182.00000021968449
 31
0.0
  0
LINE
  8
0
  6
CONTINUOUS
 62
               3
  5
1B3
 10
556.50000021968469
 20
-182.50000021968449
 30
0.0
 11
556.00000021968458
 21
-182.00000021968449
 31
0.0
  0
LINE
  8
0
  6
CONTINUOUS
 62
               3
  5
1B4
 10
556.0
 20
-76.300734413377626
 30
0.0
 11
556.0
 21
-181.99999999999986
 31
0.0
  0
LINE
  8
0
  6
CONTINUOUS
 62
               3
  5
1B5
 10
444.00000000000006
 20
-76.30073441337764
 30
0.0
 11
444.00000000000011
 21
-181.99999999999986
 31
0.0
  0
LINE
  8
0
  6
CONTINUOUS
 62
               3
  5
1B6
 10
443.99999978031553
 20
-182.00000021968449
 30
0.0
 11
556.0
 21
-182.00000021968449
 31
0.0
  0
LINE
  8
0
  6
CONTINUOUS
 62
               3
  5
1B7
 10
575.0
 20
182.50000000000003
 30
0.0
 11
425.0
 21
182.5
 31
0.0
  0
LINE
  8
0
  6
CONTINUOUS
 62
               3
  5
1B8
 10
425.00000000000006
 20
165.49999999999989
 30
0.0
 11
425.0
 21
182.5
 31
0.0
  0
LINE
  8
0
  6
CONTINUOUS
 62
               3
  5
1B9
 10
425.00000000000006
 20
165.49999999999989
 30
0.0
 11
575.0
 21
165.49999999999991
 31
0.0
  0
LINE
  8
0
  6
CONTINUOUS
 62
               3
  5
1BA
 10
575.0
 20
165.49999999999991
 30
0.0
 11
575.0
 21
182.50000000000003
 31
0.0
  0
LINE
  8
0
  6
CONTINUOUS
 62
               3
  5
1BB
 10
428.00000000000006
 20
160.91742430504416
 30
0.0
 11
428.00000000000051
 21
101.46629794778811
 31
0.0
  0
LINE
  8
0
  6
CONTINUOUS
 62
               3
  5
1BC
 10
571.99999999999955
 20
101.46629794778812
 30
0.0
 11
572.0
 21
160.91742430504419
 31
0.0
  0
ARC
  8
0
  6
CONTINUOUS
 62
               3
  5
1BD
 10
423.00000000000006
 20
160.91742430504416
 30
0.0
 40
5.0
 50
0.0000000000000092
 51
66.421821521796772
  0
ARC
  8
0
  6
CONTINUOUS
 62
               3
  5
1BE
 10
577.0
 20
160.91742430504419
 30
0.0
 40
5.0
 50
113.57817847820286
 51
179.9999999999996
  0
LINE
  8
0
  6
CONTINUOUS
 62
               3
  5
1BF
 10
433.00000000000006
 20
-21.000000000000071
 30
0.0
 11
433.00000000000142
 21
87.864827439051382
 31
0.0
  0
LINE
  8
0
  6
CONTINUOUS
 62
               3
  5
1C0
 10
566.99999999999864
 20
87.864827439051396
 30
0.0
 11
567.0
 21
-21.00000000000005
 31
0.0
  0
ARC
  8
0
  6
CONTINUOUS
 62
               3
  5
1C1
 10
439.00000000000051
 20
101.46629794778811
 30
0.0
 40
11.0
 50
179.9999999999996
 51
220.36759354418928
  0
ARC
  8
0
  6
CONTINUOUS
 62
               3
  5
1C2
 10
423.00000000000142
 20
87.864827439051382
 30
0.0
 40
10.0
 50
359.9999999999992
 51
400.36759354418854
  0
ARC
  8
0
  6
CONTINUOUS
 62
               3
  5
1C3
 10
560.99999999999955
 20
101.46629794778812
 30
0.0
 40
11.0
 50
319.63240645580953
 51
359.9999999999992
  0
ARC
  8
0
  6
CONTINUOUS
 62
               3
  5
1C4
 10
576.99999999999864
 20
87.86482743905141
 30
0.0
 40
10.0
 50
139.63240645581024
 51
179.99999999999963
  0
LINE
  8
0
  6
CONTINUOUS
 62
               3
  5
1C5
 10
433.00000000000011
 20
-20.999999999993108
 30
0.0
 11
444.00000000000006
 21
-76.30073441337764
 31
0.0
  0
LINE
  8
0
  6
CONTINUOUS
 62
               3
  5
1C6
 10
567.0
 20
-20.999999999993086
 30
0.0
 11
556.0
 21
-76.300734413377626
 31
0.0
  0
LINE
  8
0
  6
CONTINUOUS
 62
               3
  5
1C7
 10
556.0
 20
-76.300734413377626
 30
0.0
 11
444.00000000000006
 21
-76.30073441337764
 31
0.0
  0
CIRCLE
  8
0
  6
CONTINUOUS
 62
               3
  5
1C8
 10
0.0000000000002936
 20
403.00000000000006
 30
0.0
 40
59.0
  0
CIRCLE
  8
0
  6
CONTINUOUS
 62
               3
  5
1C9
 10
609.28652321630784
 20
-846.46375990939941
 30
0.0
 40
75.0
  0
CIRCLE
  8
0
  6
CONTINUOUS
 62
               3
  5
1CA
 10
609.28652321630784
 20
-846.46375990939941
 30
0.0
 40
52.5
  0
LINE
  8
0
  6
CONTINUOUS
 62
               3
  5
1CB
 10
523.0760250156826
 20
-826.46375990939941
 30
0.0
 11
537.00236174230247
 21
-826.46375990939941
 31
0.0
  0
LINE
  8
0
  6
CONTINUOUS
 62
               3
  5
1CC
 10
537.00236174230247
 20
-866.46375990939941
 30
0.0
 11
523.0760250156826
 21
-866.46375990939941
 31
0.0
  0
ARC
  8
0
  6
CONTINUOUS
 62
               3
  5
1CD
 10
609.28652321630784
 20
-846.46375990939941
 30
0.0
 40
88.5
 50
166.93897588513528
 51
193.06102411472631
  0
LINE
  8
0
  6
CONTINUOUS
 62
               3
  5
1CE
 10
589.28652321630784
 20
-932.67425811002431
 30
0.0
 11
589.28652321630784
 21
-918.74792138340445
 31
0.0
  0
LINE
  8
0
  6
CONTINUOUS
 62
               3
  5
1CF
 10
629.28652321630784
 20
-918.74792138340445
 30
0.0
 11
629.28652321630784
 21
-932.67425811002431
 31
0.0
  0
ARC
  8
0
  6
CONTINUOUS
 62
               3
  5
1D0
 10
609.28652321630784
 20
-846.46375990939941
 30
0.0
 40
88.5
 50
256.93897588510077
 51
283.06102411469175
  0
LINE
  8
0
  6
CONTINUOUS
 62
               3
  5
1D1
 10
695.49702141693251
 20
-866.46375990939941
 30
0.0
 11
681.57068469031208
 21
-866.46375990939941
 31
0.0
  0
LINE
  8
0
  6
CONTINUOUS
 62
               3
  5
1D2
 10
681.57068469031208
 20
-826.46375990939941
 30
0.0
 11
695.49702141693251
 21
-826.46375990939941
 31
0.0
  0
ARC
  8
0
  6
CONTINUOUS
 62
               3
  5
1D3
 10
609.28652321630784
 20
-846.46375990939941
 30
0.0
 40
88.5
 50
346.9389758850661
 51
373.06102411465713
  0
LINE
  8
0
  6
CONTINUOUS
 62
               3
  5
1D4
 10
629.28652321630784
 20
-760.25326170877383
 30
0.0
 11
629.28652321630784
 21
-774.17959843539438
 31
0.0
  0
LINE
  8
0
  6
CONTINUOUS
 62
               3
  5
1D5
 10
589.28652321630784
 20
-774.17959843539438
 30
0.0
 11
589.28652321630784
 21
-760.25326170877383
 31
0.0
  0
ARC
  8
0
  6
CONTINUOUS
 62
               3
  5
1D6
 10
609.28652321630784
 20
-846.46375990939941
 30
0.0
 40
88.5
 50
76.938975885169896
 51
103.06102411476094
  0
LINE
  8
0
  6
CONTINUOUS
 62
               3
  5
1D7
 10
561.61839969544678
 20
-868.46375990939987
 30
0.0
 11
656.95464673716776
 21
-868.46375990939987
 31
0.0
  0
ARC
  8
0
  6
CONTINUOUS
 62
               3
  5
1D8
 10
621.79013486568897
 20
-837.75736228178039
 30
0.0
 40
54.763804151667173
 50
141.3859176367836
 51
145.15009542089808
  0
ARC
  8
0
  6
CONTINUOUS
 62
               3
  5
1D9
 10
609.28652321630784
 20
-846.46375990939941
 30
0.0
 40
51.5
 50
334.71098847332905
 51
410.9593273634826
  0
ARC
  8
0
  6
CONTINUOUS
 62
               3
  5
1DA
 10
609.28652321630784
 20
-846.46375990939941
 30
0.0
 40
51.5
 50
129.04067263631032
 51
205.28901152646336
  0
ARC
  8
0
  6
CONTINUOUS
 62
               3
  5
1DB
 10
609.28652321630784
 20
-846.46375990939941
 30
0.0
 40
77.5
 50
104.955248316603
 51
128.57288309098388
  0
ARC
  8
0
  6
CONTINUOUS
 62
               3
  5
1DC
 10
609.28652321630784
 20
-846.46375990939941
 30
0.0
 40
77.5
 50
14.955248316637585
 51
75.044751683327831
  0
ARC
  8
0
  6
CONTINUOUS
 62
               3
  5
1DD
 10
609.28652321630784
 20
-846.46375990939941
 30
0.0
 40
77.5
 50
321.42711690884255
 51
345.04475168322404
  0
LINE
  8
0
  6
CONTINUOUS
 62
               3
  5
1DE
 10
469.28652321630784
 20
-901.46375990939941
 30
0.0
 11
469.95807934227207
 21
-901.46375990939941
 31
0.0
  0
LINE
  8
0
  6
CONTINUOUS
 62
               3
  5
1DF
 10
472.45807934227253
 20
-903.96375990939941
 30
0.0
 11
469.95807934227207
 21
-901.46375990939941
 31
0.0
  0
LINE
  8
0
  6
CONTINUOUS
 62
               3
  5
1E0
 10
469.28652321630784
 20
-791.46375990939941
 30
0.0
 11
469.95807934227207
 21
-791.46375990939941
 31
0.0
  0
LINE
  8
0
  6
CONTINUOUS
 62
               3
  5
1E1
 10
472.45807934227207
 20
-788.96375990939941
 30
0.0
 11
469.95807934227207
 21
-791.46375990939941
 31
0.0
  0
LINE
  8
0
  6
CONTINUOUS
 62
               3
  5
1E2
 10
469.95807934227207
 20
-791.46375990939941
 30
0.0
 11
469.95807934227207
 21
-901.46375990939941
 31
0.0
  0
LINE
  8
0
  6
CONTINUOUS
 62
               3
  5
1E3
 10
563.79618742992989
 20
-785.77416289105781
 30
0.0
 11
472.45807934227207
 21
-788.96375990939941
 31
0.0
  0
LINE
  8
0
  6
CONTINUOUS
 62
               3
  5
1E4
 10
544.4500514997568
 20
-906.47777497436709
 30
0.0
 11
472.45807934227264
 21
-903.96375990939941
 31
0.0
  0
LINE
  8
0
  6
CONTINUOUS
 62
               3
  5
1E5
 10
464.28652321630784
 20
-791.63531603536353
 30
0.0
 11
464.28652321630784
 21
-901.56375990939932
 31
0.0
  0
LINE
  8
0
  6
CONTINUOUS
 62
               3
  5
1E6
 10
469.28652321630784
 20
-904.06375990939932
 30
0.0
 11
469.28652321630784
 21
-788.86375990939928
 31
0.0
  0
LINE
  8
0
  6
CONTINUOUS
 62
               3
  5
1E7
 10
469.28652321630784
 20
-788.86375990939928
 30
0.0
 11
466.78652321630784
 21
-788.86375990939928
 31
0.0
  0
LINE
  8
0
  6
CONTINUOUS
 62
               3
  5
1E8
 10
469.28652321630784
 20
-904.06375990939932
 30
0.0
 11
466.78652321630784
 21
-904.06375990939932
 31
0.0
  0
ARC
  8
0
  6
CONTINUOUS
 62
               3
  5
1E9
 10
466.78652321630784
 20
-901.56375990939932
 30
0.0
 40
2.5
 50
179.99999999993088
 51
269.99999999989649
  0
ARC
  8
0
  6
CONTINUOUS
 62
               3
  5
1EA
 10
466.78652321630784
 20
-791.36375990939928
 30
0.0
 40
2.5
 50
89.999999999965596
 51
179.99999999993088
  0
LINE
  8
0
  6
CONTINUOUS
 62
               3
  5
1EB
 10
576.84812004969024
 20
-806.46375990939964
 30
0.0
 11
609.28652321630784
 21
-806.46375990939964
 31
0.0
  0
LINE
  8
0
  6
CONTINUOUS
 62
               3
  5
1EC
 10
609.28652321630784
 20
-806.46375990939964
 30
0.0
 11
643.29019948814653
 21
-806.46375990939964
 31
0.0
  0
LINE
  8
0
  6
CONTINUOUS
 62
               3
  5
1ED
 10
472.45807934227253
 20
-903.96375990939941
 30
0.0
 11
472.45807934227207
 21
-788.96375990939941
 31
0.0
  0
ARC
  8
0
  6
CONTINUOUS
 62
               3
  5
1EE
 10
563.6216899464174
 20
-780.77720875596219
 30
0.0
 40
5.0
 50
271.99999999989558
 51
304.80675787031049
  0
LINE
  8
0
  6
CONTINUOUS
 62
               3
  5
1EF
 10
664.28652321630773
 20
-986.46375990939941
 30
0.0
 11
664.28652321630773
 21
-985.79220378343507
 31
0.0
  0
LINE
  8
0
  6
CONTINUOUS
 62
               3
  5
1F0
 10
666.78652321630773
 20
-983.29220378343462
 30
0.0
 11
664.28652321630773
 21
-985.79220378343507
 31
0.0
  0
LINE
  8
0
  6
CONTINUOUS
 62
               3
  5
1F1
 10
554.28652321630773
 20
-986.46375990939941
 30
0.0
 11
554.28652321630773
 21
-985.79220378343507
 31
0.0
  0
LINE
  8
0
  6
CONTINUOUS
 62
               3
  5
1F2
 10
551.78652321630773
 20
-983.29220378343507
 30
0.0
 11
554.28652321630773
 21
-985.79220378343507
 31
0.0
  0
LINE
  8
0
  6
CONTINUOUS
 62
               3
  5
1F3
 10
554.28652321630773
 20
-985.79220378343507
 30
0.0
 11
664.28652321630773
 21
-985.79220378343507
 31
0.0
  0
LINE
  8
0
  6
CONTINUOUS
 62
               3
  5
1F4
 10
554.45807934227184
 20
-991.46375990939941
 30
0.0
 11
664.38652321630775
 21
-991.46375990939941
 31
0.0
  0
LINE
  8
0
  6
CONTINUOUS
 62
               3
  5
1F5
 10
666.88652321630775
 20
-986.46375990939941
 30
0.0
 11
551.68652321630771
 21
-986.46375990939941
 31
0.0
  0
LINE
  8
0
  6
CONTINUOUS
 62
               3
  5
1F6
 10
551.68652321630771
 20
-986.46375990939941
 30
0.0
 11
551.68652321630771
 21
-988.96375990939941
 31
0.0
  0
LINE
  8
0
  6
CONTINUOUS
 62
               3
  5
1F7
 10
666.88652321630775
 20
-986.46375990939941
 30
0.0
 11
666.88652321630775
 21
-988.96375990939941
 31
0.0
  0
ARC
  8
0
  6
CONTINUOUS
 62
               3
  5
1F8
 10
664.38652321630775
 20
-988.96375990939941
 30
0.0
 40
2.5
 50
269.99999999989615
 51
359.99999999986142
  0
ARC
  8
0
  6
CONTINUOUS
 62
               3
  5
1F9
 10
554.18652321630771
 20
-988.96375990939941
 30
0.0
 40
2.5
 50
179.99999999993057
 51
269.99999999989626
  0
LINE
  8
0
  6
CONTINUOUS
 62
               3
  5
1FA
 10
666.78652321630773
 20
-983.29220378343462
 30
0.0
 11
551.78652321630773
 21
-983.29220378343507
 31
0.0
  0
LINE
  8
0
  6
CONTINUOUS
 62
               3
  5
1FB
 10
669.97612023464887
 20
-891.95409569577782
 30
0.0
 11
666.78652321630773
 21
-983.29220378343462
 31
0.0
  0
ARC
  8
0
  6
CONTINUOUS
 62
               3
  5
1FC
 10
674.97307436974438
 20
-892.12859317929042
 30
0.0
 40
5.0
 50
145.19324212951597
 51
177.9999999999317
  0
LINE
  8
0
  6
CONTINUOUS
 62
               3
  5
1FD
 10
549.27250815133971
 20
-911.30023162595035
 30
0.0
 11
551.78652321630773
 21
-983.29220378343507
 31
0.0
  0
ARC
  8
0
  6
CONTINUOUS
 62
               3
  5
1FE
 10
544.27555401624431
 20
-911.47472910946249
 30
0.0
 40
5.0
 50
1.9999999999967224
 51
87.999999999966334
  0
LINE
  8
0
  6
CONTINUOUS
 62
               3
  5
1FF
 10
534.28652321630784
 20
-1154.9631936579838
 30
0.0
 11
684.28652321630784
 21
-1154.9631936579838
 31
0.0
  0
LINE
  8
0
  6
CONTINUOUS
 62
               3
  5
200
 10
520.78652321630761
 20
-1164.9631936579838
 30
0.0
 11
520.78652321630761
 21
-1171.9631936579833
 31
0.0
  0
LINE
  8
0
  6
CONTINUOUS
 62
               3
  5
201
 10
520.78652321630761
 20
-1164.9631936579838
 30
0.0
 11
534.28652321630784
 21
-1154.9631936579838
 31
0.0
  0
ARC
  8
0
  6
CONTINUOUS
 62
               3
  5
202
 10
532.28652321630796
 20
-1176.545769352939
 30
0.0
 40
4.9999999999999991
 50
0.0
 51
66.4218215217725
  0
LINE
  8
0
  6
CONTINUOUS
 62
               3
  5
203
 10
520.78652321630761
 20
-1171.9631936579833
 30
0.0
 11
697.7865232163075
 21
-1171.9631936579833
 31
0.0
  0
ARC
  8
0
  6
CONTINUOUS
 62
               3
  5
204
 10
554.28652321630784
 20
-1261.9631936579838
 30
0.0
 40
19.999999999999996
 50
148.21166938289122
 51
167.2698198616232
  0
LINE
  8
0
  6
CONTINUOUS
 62
               3
  5
205
 10
537.28652321630796
 20
-1176.545769352939
 30
0.0
 11
537.28652321630796
 21
-1251.427539905131
 31
0.0
  0
LINE
  8
0
  6
CONTINUOUS
 62
               3
  5
206
 10
681.28652321630773
 20
-1246.4275399051305
 30
0.0
 11
681.28652321630773
 21
-1176.545769352939
 31
0.0
  0
LINE
  8
0
  6
CONTINUOUS
 62
               3
  5
207
 10
537.28652321630796
 20
-1251.427539905131
 30
0.0
 11
680.78652321630818
 21
-1251.427539905131
 31
0.0
  0
LINE
  8
0
  6
CONTINUOUS
 62
               3
  5
208
 10
589.28652321630784
 20
-1171.9631936579833
 30
0.0
 11
589.28652321630784
 21
-1154.9631936579838
 31
0.0
  0
LINE
  8
0
  6
CONTINUOUS
 62
               3
  5
209
 10
629.28652321630784
 20
-1154.9631936579838
 30
0.0
 11
629.28652321630784
 21
-1171.9631936579833
 31
0.0
  0
LINE
  8
0
  6
CONTINUOUS
 62
               3
  5
20A
 10
589.28652321630784
 20
-1164.9631936579838
 30
0.0
 11
629.28652321630784
 21
-1164.9631936579838
 31
0.0
  0
LINE
  8
0
  6
CONTINUOUS
 62
               3
  5
20B
 10
537.00236174230247
 20
-1154.9631936579838
 30
0.0
 11
537.00236174230247
 21
-1171.9631936579833
 31
0.0
  0
LINE
  8
0
  6
CONTINUOUS
 62
               3
  5
20C
 10
523.0760250156826
 20
-1164.9631936579838
 30
0.0
 11
523.0760250156826
 21
-1171.9631936579833
 31
0.0
  0
LINE
  8
0
  6
CONTINUOUS
 62
               3
  5
20D
 10
520.78652321630761
 20
-1164.9631936579838
 30
0.0
 11
523.0760250156826
 21
-1164.9631936579838
 31
0.0
  0
LINE
  8
0
  6
CONTINUOUS
 62
               3
  5
20E
 10
523.0760250156826
 20
-1164.9631936579838
 30
0.0
 11
537.00236174230247
 21
-1154.9631936579838
 31
0.0
  0
LINE
  8
0
  6
CONTINUOUS
 62
               3
  5
20F
 10
697.7865232163075
 20
-1164.9631936579838
 30
0.0
 11
697.7865232163075
 21
-1171.9631936579833
 31
0.0
  0
LINE
  8
0
  6
CONTINUOUS
 62
               3
  5
210
 10
697.7865232163075
 20
-1164.9631936579838
 30
0.0
 11
684.28652321630784
 21
-1154.9631936579838
 31
0.0
  0
ARC
  8
0
  6
CONTINUOUS
 62
               3
  5
211
 10
686.28652321630773
 20
-1176.545769352939
 30
0.0
 40
4.9999999999999991
 50
113.57817847815815
 51
179.99999999993057
  0
LINE
  8
0
  6
CONTINUOUS
 62
               3
  5
212
 10
681.57068469031208
 20
-1154.9631936579838
 30
0.0
 11
681.57068469031208
 21
-1171.9631936579833
 31
0.0
  0
LINE
  8
0
  6
CONTINUOUS
 62
               3
  5
213
 10
695.49702141693308
 20
-1164.9631936579838
 30
0.0
 11
695.49702141693308
 21
-1171.9631936579833
 31
0.0
  0
LINE
  8
0
  6
CONTINUOUS
 62
               3
  5
214
 10
697.7865232163075
 20
-1164.9631936579838
 30
0.0
 11
695.49702141693308
 21
-1164.9631936579838
 31
0.0
  0
LINE
  8
0
  6
CONTINUOUS
 62
               3
  5
215
 10
695.49702141693308
 20
-1164.9631936579838
 30
0.0
 11
681.57068469031208
 21
-1154.9631936579838
 31
0.0
  0
ARC
  8
0
  6
CONTINUOUS
 62
               3
  5
216
 10
544.28652321630784
 20
-1383.4631936579838
 30
0.0
 40
2.4999999999999996
 50
89.999999999965354
 51
269.99999999989632
  0
ARC
  8
0
  6
CONTINUOUS
 62
               3
  5
217
 10
684.28652321630784
 20
-1383.4631936579838
 30
0.0
 40
2.4999999999999996
 50
269.99999999989649
 51
449.99999999982703
  0
LINE
  8
0
  6
CONTINUOUS
 62
               3
  5
218
 10
469.28652321630784
 20
-1375.9631936579838
 30
0.0
 11
469.95807934227219
 21
-1375.9631936579838
 31
0.0
  0
LINE
  8
0
  6
CONTINUOUS
 62
               3
  5
219
 10
472.4580793422723
 20
-1378.4631936579831
 30
0.0
 11
469.95807934227219
 21
-1375.9631936579838
 31
0.0
  0
LINE
  8
0
  6
CONTINUOUS
 62
               3
  5
21A
 10
472.45807934227309
 20
-1378.4631936579838
 30
0.0
 11
514.62318959855043
 21
-1379.9356317538379
 31
0.0
  0
LINE
  8
0
  6
CONTINUOUS
 62
               3
  5
21B
 10
532.82205712224038
 20
-1396.2348830842698
 30
0.0
 11
517.9842260209706
 21
-1381.3970519830004
 31
0.0
  0
ARC
  8
0
  6
CONTINUOUS
 62
               3
  5
21C
 10
529.28652321630784
 20
-1399.7704169902029
 30
0.0
 40
4.9999999999999991
 50
0.0
 51
44.99999999998176
  0
LINE
  8
0
  6
CONTINUOUS
 62
               3
  5
21D
 10
469.28652321630784
 20
-1265.9631936579838
 30
0.0
 11
469.95807934227219
 21
-1265.9631936579838
 31
0.0
  0
LINE
  8
0
  6
CONTINUOUS
 62
               3
  5
21E
 10
472.4580793422723
 20
-1263.4631936579838
 30
0.0
 11
469.95807934227219
 21
-1265.9631936579838
 31
0.0
  0
LINE
  8
0
  6
CONTINUOUS
 62
               3
  5
21F
 10
472.45807934227219
 20
-1263.4631936579838
 30
0.0
 11
530.0755555444465
 21
-1261.4511470528314
 31
0.0
  0
LINE
  8
0
  6
CONTINUOUS
 62
               3
  5
220
 10
469.95807934227219
 20
-1265.9631936579838
 30
0.0
 11
469.95807934227219
 21
-1375.9631936579838
 31
0.0
  0
LINE
  8
0
  6
CONTINUOUS
 62
               3
  5
221
 10
469.28652321630784
 20
-1378.5631936579837
 30
0.0
 11
469.28652321630784
 21
-1263.3631936579839
 31
0.0
  0
LINE
  8
0
  6
CONTINUOUS
 62
               3
  5
222
 10
469.28652321630784
 20
-1263.3631936579839
 30
0.0
 11
466.78652321630784
 21
-1263.3631936579839
 31
0.0
  0
ARC
  8
0
  6
CONTINUOUS
 62
               3
  5
223
 10
466.78652321630784
 20
-1265.8631936579839
 30
0.0
 40
2.5
 50
89.999999999965596
 51
179.99999999993057
  0
LINE
  8
0
  6
CONTINUOUS
 62
               3
  5
224
 10
464.28652321630784
 20
-1265.8631936579839
 30
0.0
 11
464.28652321630784
 21
-1376.0631936579837
 31
0.0
  0
LINE
  8
0
  6
CONTINUOUS
 62
               3
  5
225
 10
469.28652321630784
 20
-1378.5631936579837
 30
0.0
 11
466.78652321630784
 21
-1378.5631936579837
 31
0.0
  0
ARC
  8
0
  6
CONTINUOUS
 62
               3
  5
226
 10
466.78652321630784
 20
-1376.0631936579837
 30
0.0
 40
2.5
 50
179.99999999993057
 51
269.99999999989649
  0
LINE
  8
0
  6
CONTINUOUS
 62
               3
  5
227
 10
472.4580793422723
 20
-1263.4631936579838
 30
0.0
 11
472.45807934227309
 21
-1378.4631936579838
 31
0.0
  0
ARC
  8
0
  6
CONTINUOUS
 62
               3
  5
228
 10
514.44869211503794
 20
-1384.9325858889333
 30
0.0
 40
5.0
 50
44.999999999983494
 51
87.999999999965766
  0
ARC
  8
0
  6
CONTINUOUS
 62
               3
  5
229
 10
529.90105806093402
 20
-1256.454192917736
 30
0.0
 40
5.0
 50
271.99999999989535
 51
347.26981986155278
  0
CIRCLE
  8
0
  6
CONTINUOUS
 62
               3
  5
22A
 10
609.28652321630784
 20
-1320.9631936579838
 30
0.0
 40
48.5
  0
CIRCLE
  8
0
  6
CONTINUOUS
 62
               3
  5
22B
 10
609.28652321630784
 20
-1320.9631936579838
 30
0.0
 40
47.299999999999997
  0
LINE
  8
0
  6
CONTINUOUS
 62
               3
  5
22C
 10
577.46671806291329
 20
-1352.7829988113783
 30
0.0
 11
575.84037246618414
 21
-1354.4093444081075
 31
0.0
  0
LINE
  8
0
  6
CONTINUOUS
 62
               3
  5
22D
 10
641.10632836970251
 20
-1352.7829988113783
 30
0.0
 11
642.73267396643155
 21
-1354.4093444081075
 31
0.0
  0
ARC
  8
0
  6
CONTINUOUS
 62
               3
  5
22E
 10
609.28652321630784
 20
-1320.9631936579838
 30
0.0
 40
45.0
 50
224.99999999991346
 51
314.99999999987898
  0
CIRCLE
  8
0
  6
CONTINUOUS
 62
               3
  5
22F
 10
609.28652321630784
 20
-1320.9631936579838
 30
0.0
 40
57.600000000000001
  0
ARC
  8
0
  6
CONTINUOUS
 62
               3
  5
230
 10
586.78652321630841
 20
-1383.4631936579838
 30
0.0
 40
2.4999999999999996
 50
269.99999999989626
 51
449.99999999982697
  0
ARC
  8
0
  6
CONTINUOUS
 62
               3
  5
231
 10
631.78652321630841
 20
-1383.4631936579838
 30
0.0
 40
2.4999999999999996
 50
89.999999999965439
 51
269.99999999989615
  0
LINE
  8
0
  6
CONTINUOUS
 62
               3
  5
232
 10
544.28652321630784
 20
-1385.9631936579838
 30
0.0
 11
586.78652321630841
 21
-1385.9631936579838
 31
0.0
  0
LINE
  8
0
  6
CONTINUOUS
 62
               3
  5
233
 10
544.28652321630784
 20
-1380.9631936579838
 30
0.0
 11
586.78652321630841
 21
-1380.9631936579838
 31
0.0
  0
LINE
  8
0
  6
CONTINUOUS
 62
               3
  5
234
 10
631.78652321630841
 20
-1380.9631936579838
 30
0.0
 11
684.28652321630784
 21
-1380.9631936579838
 31
0.0
  0
LINE
  8
0
  6
CONTINUOUS
 62
               3
  5
235
 10
631.78652321630841
 20
-1385.9631936579838
 30
0.0
 11
684.28652321630784
 21
-1385.9631936579838
 31
0.0
  0
CIRCLE
  8
0
  6
CONTINUOUS
 62
               3
  5
236
 10
609.28652321630784
 20
-846.46375990939941
 30
0.0
 40
59.0
  0
POINT
  8
0
  6
CONTINUOUS
 62
               5
  5
237
 10
0.0000000000003647
 20
403.00000000000006
 30
0.0
  0
POINT
  8
0
  6
CONTINUOUS
 62
               5
  5
238
 10
-392.13776905046871
 20
-904.14819548119044
 30
0.0
  0
POINT
  8
0
  6
CONTINUOUS
 62
               5
  5
239
 10
-218.90769754050837
 20
-905.43898955607938
 30
0.0
  0
POINT
  8
0
  6
CONTINUOUS
 62
               5
  5
23A
 10
-565.36784056042893
 20
-905.43898955607915
 30
0.0
  0
POINT
  8
0
  6
CONTINUOUS
 62
               5
  5
23B
 10
-395.37452052112428
 20
-723.45023990219511
 30
0.0
  0
POINT
  8
0
  6
CONTINUOUS
 62
               5
  5
23C
 10
493.01659472626818
 20
-1322.2539877328727
 30
0.0
  0
POINT
  8
0
  6
CONTINUOUS
 62
               5
  5
23D
 10
493.01659472626829
 20
-845.17296583451025
 30
0.0
  0
LINE
  8
0
  6
DASHED2
 62
               4
  5
23E
 10
-448.5
 20
-482.5
 30
0.0
 11
-448.5
 21
-82.411436813412365
 31
0.0
  0
LINE
  8
0
  6
DASHED2
 62
               4
  5
23F
 10
-551.5
 20
-482.5
 30
0.0
 11
-551.5
 21
-82.411436813412365
 31
0.0
  0
LINE
  8
0
  6
DASHED2
 62
               4
  5
240
 10
-557.0
 20
117.49999999999991
 30
0.0
 11
-443.0
 21
117.49999999999991
 31
0.0
  0
LINE
  8
0
  6
DASHED2
 62
               4
  5
241
 10
-51.499999999999943
 20
-482.49999999999994
 30
0.0
 11
-51.5
 21
-82.411436813412308
 31
0.0
  0
LINE
  8
0
  6
DASHED2
 62
               4
  5
242
 10
51.500000000000114
 20
-482.49999999999994
 30
0.0
 11
51.5
 21
-82.411436813412294
 31
0.0
  0
LINE
  8
0
  6
DASHED2
 62
               4
  5
243
 10
57.0
 20
117.49999999999999
 30
0.0
 11
-57.0
 21
117.49999999999997
 31
0.0
  0
LINE
  8
0
  6
DASHED2
 62
               4
  5
244
 10
448.50000000000011
 20
-482.49999999999994
 30
0.0
 11
448.50000000000006
 21
-82.411436813412294
 31
0.0
  0
LINE
  8
0
  6
DASHED2
 62
               4
  5
245
 10
551.50000000000011
 20
-482.49999999999989
 30
0.0
 11
551.5
 21
-82.41143681341228
 31
0.0
  0
LINE
  8
0
  6
DASHED2
 62
               4
  5
246
 10
557.0
 20
117.5
 30
0.0
 11
443.00000000000006
 21
117.49999999999999
 31
0.0
  0
LINE
  8
0
  6
DASHED2
 62
               4
  5
247
 10
552.28652321630796
 20
-1219.9631936579838
 30
0.0
 11
666.28652321630773
 21
-1219.9631936579838
 31
0.0
  0
LINE
  8
0
  6
DASHDOT
 62
               4
  5
248
 10
-500.0
 20
202.5
 30
0.0
 11
-500.0
 21
-502.5
 31
0.0
  0
LINE
  8
0
  6
DASHDOT
 62
               4
  5
249
 10
-432.5
 20
-10.500000000000085
 30
0.0
 11
-567.5
 21
-10.500000000000083
 31
0.0
  0
LINE
  8
0
  6
DASHDOT
 62
               4
  5
24A
 10
0.0
 20
202.50000000000006
 30
0.0
 11
0.0000000000000568
 21
-502.49999999999994
 31
0.0
  0
LINE
  8
0
  6
DASHDOT
 62
               4
  5
24B
 10
-52.0
 20
-10.5
 30
0.0
 11
-152.0
 21
-10.499999999999998
 31
0.0
  0
LINE
  8
0
  6
DASHDOT
 62
               4
  5
24C
 10
500.0
 20
202.50000000000009
 30
0.0
 11
500.00000000000011
 21
-502.49999999999994
 31
0.0
  0
LINE
  8
0
  6
DASHDOT
 62
               4
  5
24D
 10
-0.0000000000005534
 20
308.00000000000057
 30
0.0
 11
0.0000000000003374
 21
497.99999999999955
 31
0.0
  0
LINE
  8
0
  6
DASHDOT
 62
               4
  5
24E
 10
94.999999999999275
 20
403.00000000000006
 30
0.0
 11
-151.99999999999963
 21
403.00000000000006
 31
0.0
  0
LINE
  8
0
  6
DASHDOT
 62
               4
  5
24F
 10
-392.13776905046871
 20
-968.64819548119044
 30
0.0
 11
-392.13776905046859
 21
-839.64819548119044
 31
0.0
  0
LINE
  8
0
  6
DASHDOT
 62
               4
  5
250
 10
-450.13776905046871
 20
-910.64819548119044
 30
0.0
 11
-334.13776905046871
 21
-910.64819548119044
 31
0.0
  0
LINE
  8
0
  6
DASHDOT
 62
               4
  5
251
 10
-461.94094753457614
 20
-904.14819548119044
 30
0.0
 11
-327.63776905046871
 21
-904.14819548119044
 31
0.0
  0
LINE
  8
0
  6
DASHDOT
 62
               4
  5
252
 10
-268.23776905046861
 20
-904.14819548119044
 30
0.0
 11
-169.63776905046871
 21
-904.14819548119044
 31
0.0
  0
LINE
  8
0
  6
DASHDOT
 62
               4
  5
253
 10
-302.63776905046871
 20
-910.64819548119044
 30
0.0
 11
-228.23776905046873
 21
-910.64819548119044
 31
0.0
  0
LINE
  8
0
  6
DASHDOT
 62
               4
  5
254
 10
-516.03776905046857
 20
-904.14819548119021
 30
0.0
 11
-614.63776905046871
 21
-904.14819548118999
 31
0.0
  0
LINE
  8
0
  6
DASHDOT
 62
               4
  5
255
 10
-481.63776905046871
 20
-910.64819548119021
 30
0.0
 11
-556.03776905046857
 21
-910.64819548119021
 31
0.0
  0
LINE
  8
0
  6
DASHDOT
 62
               4
  5
256
 10
-394.08372644623523
 20
-807.18031141215533
 30
0.0
 11
-394.08372644623523
 21
-674.18031141215533
 31
0.0
  0
LINE
  8
0
  6
DASHDOT
 62
               4
  5
257
 10
221.63392368588097
 20
-904.14819548119044
 30
0.0
 11
320.23392368588111
 21
-904.14819548119044
 31
0.0
  0
LINE
  8
0
  6
DASHDOT
 62
               4
  5
258
 10
196.63392368588097
 20
-918.64819548119044
 30
0.0
 11
261.63392368588097
 21
-918.64819548119044
 31
0.0
  0
LINE
  8
0
  6
DASHDOT
 62
               4
  5
259
 10
70.877907460637971
 20
-918.64819548119044
 30
0.0
 11
170.8779074606382
 21
-918.64819548119044
 31
0.0
  0
LINE
  8
0
  6
DASHDOT
 62
               4
  5
25A
 10
120.87790746063797
 20
-968.64819548119044
 30
0.0
 11
120.8779074606382
 21
-839.64819548119044
 31
0.0
  0
LINE
  8
0
  6
DASHDOT
 62
               4
  5
25B
 10
56.377907460637971
 20
-904.14819548119044
 30
0.0
 11
190.92191724058921
 21
-904.14819548119044
 31
0.0
  0
LINE
  8
0
  6
DASHDOT
 62
               4
  5
25C
 10
20.121891235395196
 20
-904.14819548119044
 30
0.0
 11
-78.478108764604826
 21
-904.14819548119044
 31
0.0
  0
LINE
  8
0
  6
DASHDOT
 62
               4
  5
25D
 10
45.121891235395196
 20
-918.64819548119044
 30
0.0
 11
-19.878108764604804
 21
-918.64819548119044
 31
0.0
  0
LINE
  8
0
  6
DASHDOT
 62
               4
  5
25E
 10
120.8779074606382
 20
-817.89217925594767
 30
0.0
 11
120.8779074606382
 21
-694.29217925594753
 31
0.0
  0
LINE
  8
0
  6
DASHDOT
 62
               4
  5
25F
 10
609.28652321630784
 20
-737.96375990939941
 30
0.0
 11
609.28652321630784
 21
-1008.5105467092258
 31
0.0
  0
LINE
  8
0
  6
DASHDOT
 62
               4
  5
260
 10
447.28652321630796
 20
-846.46375990939941
 30
0.0
 11
717.78652321630807
 21
-846.46375990939941
 31
0.0
  0
LINE
  8
0
  6
DASHDOT
 62
               4
  5
261
 10
677.81174799153257
 20
-1320.9631936579838
 30
0.0
 11
447.55790992287962
 21
-1320.9631936579838
 31
0.0
  0
LINE
  8
0
  6
DASHDOT
 62
               4
  5
262
 10
609.28652321630784
 20
-1134.9631936579838
 30
0.0
 11
609.28652321630784
 21
-1385.9631936579838
 31
0.0
  0
LINE
  8
0
  6
DASHDOT
 62
               4
  5
263
 10
559.28652321630784
 20
-1335.4631936579838
 30
0.0
 11
659.28652321630807
 21
-1335.4631936579838
 31
0.0
  0
LINE
  8
0
  6
DASHDOT
 62
               4
  5
264
 10
609.28652321630784
 20
-1037.0637599093996
 30
0.0
 11
609.28652321630784
 21
-913.46375990939919
 31
0.0
  0
LINE
  8
0
  6
DASHDOT
 62
               4
  5
265
 10
409.28652321630784
 20
-1327.4631936579838
 30
0.0
 11
483.68652321630782
 21
-1327.4631936579838
 31
0.0
  0
LINE
  8
0
  6
DASHDOT
 62
               4
  5
266
 10
409.28652321630807
 20
-846.46375990939919
 30
0.0
 11
542.28652321630807
 21
-846.46375990939919
 31
0.0
  0
POINT
  8
0
  6
CONTINUOUS
 62
               4
  5
267
 10
-247.03776905046868
 20
-859.64819548119044
 30
0.0
  0
POINT
  8
0
  6
CONTINUOUS
 62
               4
  5
268
 10
-537.23776905046861
 20
-859.64819548119021
 30
0.0
  0
POINT
  8
0
  6
CONTINUOUS
 62
               4
  5
269
 10
-349.58372644623523
 20
-751.58031141215542
 30
0.0
  0
POINT
  8
0
  6
CONTINUOUS
 62
               4
  5
26A
 10
242.83392368588102
 20
-859.64819548119044
 30
0.0
  0
POINT
  8
0
  6
CONTINUOUS
 62
               4
  5
26B
 10
-1.0781087646048491
 20
-859.64819548119044
 30
0.0
  0
POINT
  8
0
  6
CONTINUOUS
 62
               4
  5
26C
 10
165.3779074606382
 20
-771.69217925594762
 30
0.0
  0
LINE
  8
0
  6
CONTINUOUS
 62
               4
  5
26D
 10
686.28652321630773
 20
-1251.427539905131
 30
0.0
 11
681.28652321630773
 21
-1246.427539905131
 31
0.0
  0
ARC
  8
0
  6
CONTINUOUS
 62
               4
  5
26E
 10
663.78652321630773
 20
-1261.9631936579838
 30
0.0
 40
19.999999999999996
 50
0.0
 51
31.788330617039573
  0
LINE
  8
0
  6
CONTINUOUS
 62
               4
  5
26F
 10
680.78652321630818
 20
-1251.427539905131
 30
0.0
 11
680.78652321630818
 21
-1246.4275399051305
 31
0.0
  0
LINE
  8
0
  6
CONTINUOUS
 62
               4
  5
270
 10
681.28652321630773
 20
-1246.427539905131
 30
0.0
 11
680.78652321630818
 21
-1246.427539905131
 31
0.0
  0
LINE
  8
0
  6
CONTINUOUS
 62
               4
  5
271
 10
686.03652321630796
 20
-1251.677539905131
 30
0.0
 11
680.78652321630818
 21
-1246.427539905131
 31
0.0
  0
LINE
  8
0
  6
CONTINUOUS
 62
               4
  5
272
 10
686.03652321630796
 20
-1251.677539905131
 30
0.0
 11
686.28652321630773
 21
-1251.427539905131
 31
0.0
  0
LINE
  8
0
  6
CONTINUOUS
 62
               4
  5
273
 10
686.28652321630773
 20
-1251.427539905131
 30
0.0
 11
686.28652321630773
 21
-1382.1162172551008
 31
0.0
  0
LINE
  8
0
  6
CONTINUOUS
 62
               4
  5
274
 10
686.03652321630796
 20
-1251.677539905131
 30
0.0
 11
686.03652321630796
 21
-1381.8308601479653
 31
0.0
  0
LINE
  8
0
  6
CONTINUOUS
 62
               4
  5
275
 10
683.78652321630773
 20
-1261.8101700608665
 30
0.0
 11
683.78652321630773
 21
-1380.9631936579838
 31
0.0
  0
POINT
  8
0
  6
CONTINUOUS
 62
               4
  5
276
 10
653.78652321630784
 20
-990.8637599093995
 30
0.0
  0
POINT
  8
0
  6
CONTINUOUS
 62
               4
  5
277
 10
464.88652321630786
 20
-1276.4631936579838
 30
0.0
  0
POINT
  8
0
  6
CONTINUOUS
 62
               4
  5
278
 10
464.88652321630798
 20
-890.96375990939919
 30
0.0
  0
CIRCLE
  8
0
  6
CONTINUOUS
 62
               7
  5
279
 10
-392.13776905046871
 20
-910.64819548119044
 30
0.0
 40
38.0
  0
CIRCLE
  8
0
  6
CONTINUOUS
 62
               7
  5
27A
 10
-392.13776905046871
 20
-910.64819548119044
 30
0.0
 40
33.5
  0
LINE
  8
0
  6
CONTINUOUS
 62
               7
  5
27B
 10
-247.63776905046871
 20
-859.64819548119044
 30
0.0
 11
-247.63776905046871
 21
-948.64295936051599
 31
0.0
  0
LINE
  8
0
  6
CONTINUOUS
 62
               7
  5
27C
 10
-247.03776905046868
 20
-859.64819548119044
 30
0.0
 11
-247.63776905046871
 21
-859.64819548119044
 31
0.0
  0
LINE
  8
0
  6
CONTINUOUS
 62
               7
  5
27D
 10
-282.63776905046871
 20
-947.64819548119044
 30
0.0
 11
-282.63776905046871
 21
-873.64819548119044
 31
0.0
  0
LINE
  8
0
  6
CONTINUOUS
 62
               7
  5
27E
 10
-189.63776905046871
 20
-947.64819548119044
 30
0.0
 11
-189.63776905046871
 21
-860.64819548119044
 31
0.0
  0
LINE
  8
0
  6
CONTINUOUS
 62
               7
  5
27F
 10
-247.63776905046871
 20
-859.64819548119044
 30
0.0
 11
-190.63776905046871
 21
-859.64819548119044
 31
0.0
  0
LINE
  8
0
  6
CONTINUOUS
 62
               7
  5
280
 10
-281.63776905046871
 20
-948.64819548119044
 30
0.0
 11
-190.63776905046871
 21
-948.64819548119044
 31
0.0
  0
LINE
  8
0
  6
CONTINUOUS
 62
               7
  5
281
 10
-190.63776905046871
 20
-859.64819548119044
 30
0.0
 11
-189.63776905046871
 21
-860.64819548119044
 31
0.0
  0
LINE
  8
0
  6
CONTINUOUS
 62
               7
  5
282
 10
-189.63776905046871
 20
-947.64819548119044
 30
0.0
 11
-190.63776905046871
 21
-948.64819548119044
 31
0.0
  0
LINE
  8
0
  6
CONTINUOUS
 62
               7
  5
283
 10
-281.63776905046871
 20
-872.64819548119044
 30
0.0
 11
-247.63776905046871
 21
-872.64819548119044
 31
0.0
  0
CIRCLE
  8
0
  6
CONTINUOUS
 62
               7
  5
284
 10
-392.13776905046871
 20
-904.14819548119044
 30
0.0
 40
44.5
  0
LINE
  8
0
  6
CONTINUOUS
 62
               7
  5
285
 10
-281.63776905046871
 20
-872.64819548119044
 30
0.0
 11
-282.63776905046871
 21
-873.64819548119044
 31
0.0
  0
LINE
  8
0
  6
CONTINUOUS
 62
               7
  5
286
 10
-282.63776905046871
 20
-947.64819548119044
 30
0.0
 11
-281.63776905046871
 21
-948.64819548119044
 31
0.0
  0
LINE
  8
0
  6
CONTINUOUS
 62
               7
  5
287
 10
-536.63776905046859
 20
-859.64819548119021
 30
0.0
 11
-536.63776905046871
 21
-948.64295936051576
 31
0.0
  0
LINE
  8
0
  6
CONTINUOUS
 62
               7
  5
288
 10
-537.23776905046861
 20
-859.64819548119021
 30
0.0
 11
-536.63776905046859
 21
-859.64819548119021
 31
0.0
  0
LINE
  8
0
  6
CONTINUOUS
 62
               7
  5
289
 10
-501.63776905046871
 20
-947.64819548119021
 30
0.0
 11
-501.63776905046859
 21
-873.64819548119021
 31
0.0
  0
LINE
  8
0
  6
CONTINUOUS
 62
               7
  5
28A
 10
-594.63776905046871
 20
-947.64819548119021
 30
0.0
 11
-594.63776905046859
 21
-860.64819548119021
 31
0.0
  0
LINE
  8
0
  6
CONTINUOUS
 62
               7
  5
28B
 10
-536.63776905046859
 20
-859.64819548119021
 30
0.0
 11
-593.63776905046859
 21
-859.64819548119021
 31
0.0
  0
LINE
  8
0
  6
CONTINUOUS
 62
               7
  5
28C
 10
-502.63776905046871
 20
-948.64819548119021
 30
0.0
 11
-593.63776905046871
 21
-948.64819548119021
 31
0.0
  0
LINE
  8
0
  6
CONTINUOUS
 62
               7
  5
28D
 10
-593.63776905046859
 20
-859.64819548119021
 30
0.0
 11
-594.63776905046859
 21
-860.64819548119021
 31
0.0
  0
LINE
  8
0
  6
CONTINUOUS
 62
               7
  5
28E
 10
-594.63776905046871
 20
-947.64819548119021
 30
0.0
 11
-593.63776905046871
 21
-948.64819548119021
 31
0.0
  0
LINE
  8
0
  6
CONTINUOUS
 62
               7
  5
28F
 10
-502.63776905046859
 20
-872.64819548119021
 30
0.0
 11
-536.63776905046859
 21
-872.64819548119021
 31
0.0
  0
LINE
  8
0
  6
CONTINUOUS
 62
               7
  5
290
 10
-502.63776905046859
 20
-872.64819548119021
 30
0.0
 11
-501.63776905046859
 21
-873.64819548119021
 31
0.0
  0
LINE
  8
0
  6
CONTINUOUS
 62
               7
  5
291
 10
-501.63776905046871
 20
-947.64819548119021
 30
0.0
 11
-502.63776905046871
 21
-948.64819548119021
 31
0.0
  0
LINE
  8
0
  6
CONTINUOUS
 62
               7
  5
292
 10
-349.58372644623523
 20
-752.18031141215556
 30
0.0
 11
-438.57849032556078
 21
-752.18031141215533
 31
0.0
  0
LINE
  8
0
  6
CONTINUOUS
 62
               7
  5
293
 10
-349.58372644623523
 20
-751.58031141215542
 30
0.0
 11
-349.58372644623523
 21
-752.18031141215556
 31
0.0
  0
LINE
  8
0
  6
CONTINUOUS
 62
               7
  5
294
 10
-431.08372644623523
 20
-787.18031141215533
 30
0.0
 11
-357.08372644623523
 21
-787.18031141215556
 31
0.0
  0
LINE
  8
0
  6
CONTINUOUS
 62
               7
  5
295
 10
-437.58372644623512
 20
-694.18031141215533
 30
0.0
 11
-350.58372644623523
 21
-694.18031141215556
 31
0.0
  0
LINE
  8
0
  6
CONTINUOUS
 62
               7
  5
296
 10
-349.58372644623523
 20
-752.18031141215556
 30
0.0
 11
-349.58372644623523
 21
-695.18031141215556
 31
0.0
  0
LINE
  8
0
  6
CONTINUOUS
 62
               7
  5
297
 10
-432.08372644623523
 20
-786.18031141215533
 30
0.0
 11
-432.08372644623523
 21
-752.18031141215533
 31
0.0
  0
LINE
  8
0
  6
CONTINUOUS
 62
               7
  5
298
 10
-349.58372644623523
 20
-695.18031141215556
 30
0.0
 11
-350.58372644623523
 21
-694.18031141215556
 31
0.0
  0
LINE
  8
0
  6
CONTINUOUS
 62
               7
  5
299
 10
-437.58372644623512
 20
-694.18031141215533
 30
0.0
 11
-438.58372644623512
 21
-695.18031141215533
 31
0.0
  0
LINE
  8
0
  6
CONTINUOUS
 62
               7
  5
29A
 10
-356.08372644623523
 20
-786.18031141215556
 30
0.0
 11
-356.08372644623523
 21
-752.18031141215533
 31
0.0
  0
LINE
  8
0
  6
CONTINUOUS
 62
               7
  5
29B
 10
-356.08372644623523
 20
-786.18031141215556
 30
0.0
 11
-357.08372644623523
 21
-787.18031141215556
 31
0.0
  0
LINE
  8
0
  6
CONTINUOUS
 62
               7
  5
29C
 10
-431.08372644623523
 20
-787.18031141215533
 30
0.0
 11
-432.08372644623523
 21
-786.18031141215533
 31
0.0
  0
LINE
  8
0
  6
CONTINUOUS
 62
               7
  5
29D
 10
-438.58372644623523
 20
-752.18031141215533
 30
0.0
 11
-438.58372644623523
 21
-695.18031141215533
 31
0.0
  0
LINE
  8
0
  6
CONTINUOUS
 62
               7
  5
29E
 10
216.63392368588097
 20
-947.64819548119044
 30
0.0
 11
216.63392368588097
 21
-889.64819548119044
 31
0.0
  0
LINE
  8
0
  6
CONTINUOUS
 62
               7
  5
29F
 10
242.23392368588088
 20
-859.64819548119044
 30
0.0
 11
242.23392368588088
 21
-948.64819548119044
 31
0.0
  0
LINE
  8
0
  6
CONTINUOUS
 62
               7
  5
2A0
 10
242.83392368588102
 20
-859.64819548119044
 30
0.0
 11
242.23392368588088
 21
-859.64819548119044
 31
0.0
  0
LINE
  8
0
  6
CONTINUOUS
 62
               7
  5
2A1
 10
300.23392368588111
 20
-947.64819548119044
 30
0.0
 11
300.23392368588111
 21
-860.64819548119044
 31
0.0
  0
CIRCLE
  8
0
  6
CONTINUOUS
 62
               7
  5
2A2
 10
120.87790746063797
 20
-918.64819548119044
 30
0.0
 40
30.0
  0
CIRCLE
  8
0
  6
CONTINUOUS
 62
               7
  5
2A3
 10
120.87790746063797
 20
-918.64819548119044
 30
0.0
 40
25.5
  0
CIRCLE
  8
0
  6
CONTINUOUS
 62
               7
  5
2A4
 10
120.87790746063797
 20
-904.14819548119044
 30
0.0
 40
44.5
  0
LINE
  8
0
  6
CONTINUOUS
 62
               7
  5
2A5
 10
242.3683754313613
 20
-859.64819548119044
 30
0.0
 11
299.23392368588111
 21
-859.64819548119044
 31
0.0
  0
LINE
  8
0
  6
CONTINUOUS
 62
               7
  5
2A6
 10
217.63392368588097
 20
-948.64819548119044
 30
0.0
 11
299.23392368588111
 21
-948.64819548119044
 31
0.0
  0
LINE
  8
0
  6
CONTINUOUS
 62
               7
  5
2A7
 10
217.63392368588097
 20
-888.64819548119044
 30
0.0
 11
242.23392368588088
 21
-888.64819548119044
 31
0.0
  0
LINE
  8
0
  6
CONTINUOUS
 62
               7
  5
2A8
 10
217.63392368588097
 20
-888.64819548119044
 30
0.0
 11
216.63392368588097
 21
-889.64819548119044
 31
0.0
  0
LINE
  8
0
  6
CONTINUOUS
 62
               7
  5
2A9
 10
299.23392368588111
 20
-859.64819548119044
 30
0.0
 11
300.23392368588111
 21
-860.64819548119044
 31
0.0
  0
LINE
  8
0
  6
CONTINUOUS
 62
               7
  5
2AA
 10
216.63392368588097
 20
-947.64819548119044
 30
0.0
 11
217.63392368588097
 21
-948.64819548119044
 31
0.0
  0
LINE
  8
0
  6
CONTINUOUS
 62
               7
  5
2AB
 10
300.23392368588111
 20
-947.64819548119044
 30
0.0
 11
299.23392368588111
 21
-948.64819548119044
 31
0.0
  0
LINE
  8
0
  6
CONTINUOUS
 62
               7
  5
2AC
 10
25.121891235395196
 20
-947.64819548119044
 30
0.0
 11
25.121891235395196
 21
-889.64819548119044
 31
0.0
  0
LINE
  8
0
  6
CONTINUOUS
 62
               7
  5
2AD
 10
-0.4781087646048263
 20
-859.64819548119044
 30
0.0
 11
-0.4781087646048263
 21
-948.64819548119044
 31
0.0
  0
LINE
  8
0
  6
CONTINUOUS
 62
               7
  5
2AE
 10
-1.0781087646048491
 20
-859.64819548119044
 30
0.0
 11
-0.4781087646048263
 21
-859.64819548119044
 31
0.0
  0
LINE
  8
0
  6
CONTINUOUS
 62
               7
  5
2AF
 10
-58.478108764604826
 20
-947.64819548119044
 30
0.0
 11
-58.478108764604826
 21
-860.64819548119044
 31
0.0
  0
LINE
  8
0
  6
CONTINUOUS
 62
               7
  5
2B0
 10
-0.6125605100851317
 20
-859.64819548119044
 30
0.0
 11
-57.478108764604826
 21
-859.64819548119044
 31
0.0
  0
LINE
  8
0
  6
CONTINUOUS
 62
               7
  5
2B1
 10
24.121891235395196
 20
-948.64819548119044
 30
0.0
 11
-57.478108764604826
 21
-948.64819548119044
 31
0.0
  0
LINE
  8
0
  6
CONTINUOUS
 62
               7
  5
2B2
 10
24.121891235395196
 20
-888.64819548119044
 30
0.0
 11
-0.4781087646048263
 21
-888.64819548119044
 31
0.0
  0
LINE
  8
0
  6
CONTINUOUS
 62
               7
  5
2B3
 10
24.121891235395196
 20
-888.64819548119044
 30
0.0
 11
25.121891235395196
 21
-889.64819548119044
 31
0.0
  0
LINE
  8
0
  6
CONTINUOUS
 62
               7
  5
2B4
 10
-57.478108764604826
 20
-859.64819548119044
 30
0.0
 11
-58.478108764604826
 21
-860.64819548119044
 31
0.0
  0
LINE
  8
0
  6
CONTINUOUS
 62
               7
  5
2B5
 10
25.121891235395196
 20
-947.64819548119044
 30
0.0
 11
24.121891235395196
 21
-948.64819548119044
 31
0.0
  0
LINE
  8
0
  6
CONTINUOUS
 62
               7
  5
2B6
 10
-58.478108764604826
 20
-947.64819548119044
 30
0.0
 11
-57.478108764604826
 21
-948.64819548119044
 31
0.0
  0
LINE
  8
0
  6
CONTINUOUS
 62
               7
  5
2B7
 10
91.877907460638198
 20
-797.89217925594767
 30
0.0
 11
149.8779074606382
 21
-797.89217925594767
 31
0.0
  0
LINE
  8
0
  6
CONTINUOUS
 62
               7
  5
2B8
 10
165.3779074606382
 20
-772.29217925594753
 30
0.0
 11
76.377907460638198
 21
-772.29217925594753
 31
0.0
  0
LINE
  8
0
  6
CONTINUOUS
 62
               7
  5
2B9
 10
165.3779074606382
 20
-771.69217925594762
 30
0.0
 11
165.3779074606382
 21
-772.29217925594753
 31
0.0
  0
LINE
  8
0
  6
CONTINUOUS
 62
               7
  5
2BA
 10
77.377907460638198
 20
-714.29217925594753
 30
0.0
 11
164.3779074606382
 21
-714.29217925594753
 31
0.0
  0
LINE
  8
0
  6
CONTINUOUS
 62
               7
  5
2BB
 10
165.3779074606382
 20
-772.15772751046734
 30
0.0
 11
165.3779074606382
 21
-715.29217925594753
 31
0.0
  0
LINE
  8
0
  6
CONTINUOUS
 62
               7
  5
2BC
 10
90.877907460638198
 20
-796.89217925594767
 30
0.0
 11
90.877907460638198
 21
-772.29217925594753
 31
0.0
  0
LINE
  8
0
  6
CONTINUOUS
 62
               7
  5
2BD
 10
150.8779074606382
 20
-796.89217925594767
 30
0.0
 11
150.8779074606382
 21
-772.29217925594753
 31
0.0
  0
LINE
  8
0
  6
CONTINUOUS
 62
               7
  5
2BE
 10
150.8779074606382
 20
-796.89217925594767
 30
0.0
 11
149.8779074606382
 21
-797.89217925594767
 31
0.0
  0
LINE
  8
0
  6
CONTINUOUS
 62
               7
  5
2BF
 10
165.3779074606382
 20
-715.29217925594753
 30
0.0
 11
164.3779074606382
 21
-714.29217925594753
 31
0.0
  0
LINE
  8
0
  6
CONTINUOUS
 62
               7
  5
2C0
 10
91.877907460638198
 20
-797.89217925594767
 30
0.0
 11
90.877907460638198
 21
-796.89217925594767
 31
0.0
  0
LINE
  8
0
  6
CONTINUOUS
 62
               7
  5
2C1
 10
77.377907460638198
 20
-714.29217925594753
 30
0.0
 11
76.377907460638198
 21
-715.29217925594753
 31
0.0
  0
LINE
  8
0
  6
CONTINUOUS
 62
               7
  5
2C2
 10
76.377907460638198
 20
-772.15772751046711
 30
0.0
 11
76.377907460638198
 21
-715.29217925594753
 31
0.0
  0
CIRCLE
  8
0
  6
CONTINUOUS
 62
               7
  5
2C3
 10
609.28652321630784
 20
-1335.4631936579838
 30
0.0
 40
25.5
  0
CIRCLE
  8
0
  6
CONTINUOUS
 62
               7
  5
2C4
 10
609.28652321630784
 20
-1320.9631936579838
 30
0.0
 40
44.5
  0
CIRCLE
  8
0
  6
CONTINUOUS
 62
               7
  5
2C5
 10
609.28652321630784
 20
-1335.4631936579838
 30
0.0
 40
30.0
  0
LINE
  8
0
  6
CONTINUOUS
 62
               7
  5
2C6
 10
580.28652321630784
 20
-1017.0637599093993
 30
0.0
 11
638.28652321630784
 21
-1017.0637599093993
 31
0.0
  0
LINE
  8
0
  6
CONTINUOUS
 62
               7
  5
2C7
 10
653.78652321630784
 20
-991.46375990939941
 30
0.0
 11
564.78652321630784
 21
-991.46375990939941
 31
0.0
  0
LINE
  8
0
  6
CONTINUOUS
 62
               7
  5
2C8
 10
653.78652321630784
 20
-990.8637599093995
 30
0.0
 11
653.78652321630784
 21
-991.46375990939941
 31
0.0
  0
LINE
  8
0
  6
CONTINUOUS
 62
               7
  5
2C9
 10
565.78652321630784
 20
-933.46375990939919
 30
0.0
 11
652.78652321630784
 21
-933.46375990939919
 31
0.0
  0
LINE
  8
0
  6
CONTINUOUS
 62
               7
  5
2CA
 10
653.78652321630784
 20
-991.32930816391899
 30
0.0
 11
653.78652321630784
 21
-934.46375990939919
 31
0.0
  0
LINE
  8
0
  6
CONTINUOUS
 62
               7
  5
2CB
 10
579.28652321630784
 20
-1016.0637599093993
 30
0.0
 11
579.28652321630784
 21
-991.46375990939941
 31
0.0
  0
LINE
  8
0
  6
CONTINUOUS
 62
               7
  5
2CC
 10
639.28652321630784
 20
-1016.0637599093993
 30
0.0
 11
639.28652321630784
 21
-991.46375990939941
 31
0.0
  0
LINE
  8
0
  6
CONTINUOUS
 62
               7
  5
2CD
 10
639.28652321630784
 20
-1016.0637599093993
 30
0.0
 11
638.28652321630784
 21
-1017.0637599093993
 31
0.0
  0
LINE
  8
0
  6
CONTINUOUS
 62
               7
  5
2CE
 10
653.78652321630784
 20
-934.46375990939919
 30
0.0
 11
652.78652321630784
 21
-933.46375990939919
 31
0.0
  0
LINE
  8
0
  6
CONTINUOUS
 62
               7
  5
2CF
 10
580.28652321630784
 20
-1017.0637599093993
 30
0.0
 11
579.28652321630784
 21
-1016.0637599093993
 31
0.0
  0
LINE
  8
0
  6
CONTINUOUS
 62
               7
  5
2D0
 10
565.78652321630784
 20
-933.46375990939919
 30
0.0
 11
564.78652321630784
 21
-934.46375990939919
 31
0.0
  0
LINE
  8
0
  6
CONTINUOUS
 62
               7
  5
2D1
 10
564.78652321630784
 20
-991.32930816391899
 30
0.0
 11
564.78652321630784
 21
-934.46375990939919
 31
0.0
  0
LINE
  8
0
  6
CONTINUOUS
 62
               7
  5
2D2
 10
464.28652321630784
 20
-1276.4631936579838
 30
0.0
 11
464.28652321630784
 21
-1365.4579575373093
 31
0.0
  0
LINE
  8
0
  6
CONTINUOUS
 62
               7
  5
2D3
 10
464.88652321630786
 20
-1276.4631936579838
 30
0.0
 11
464.28652321630784
 21
-1276.4631936579838
 31
0.0
  0
LINE
  8
0
  6
CONTINUOUS
 62
               7
  5
2D4
 10
429.28652321630784
 20
-1364.4631936579838
 30
0.0
 11
429.28652321630784
 21
-1290.4631936579838
 31
0.0
  0
LINE
  8
0
  6
CONTINUOUS
 62
               7
  5
2D5
 10
522.28652321630784
 20
-1364.4631936579838
 30
0.0
 11
522.28652321630784
 21
-1277.4631936579838
 31
0.0
  0
LINE
  8
0
  6
CONTINUOUS
 62
               7
  5
2D6
 10
464.28652321630784
 20
-1276.4631936579838
 30
0.0
 11
521.28652321630784
 21
-1276.4631936579838
 31
0.0
  0
LINE
  8
0
  6
CONTINUOUS
 62
               7
  5
2D7
 10
430.28652321630784
 20
-1365.4631936579838
 30
0.0
 11
521.28652321630784
 21
-1365.4631936579838
 31
0.0
  0
LINE
  8
0
  6
CONTINUOUS
 62
               7
  5
2D8
 10
521.28652321630784
 20
-1276.4631936579838
 30
0.0
 11
522.28652321630784
 21
-1277.4631936579838
 31
0.0
  0
LINE
  8
0
  6
CONTINUOUS
 62
               7
  5
2D9
 10
522.28652321630784
 20
-1364.4631936579838
 30
0.0
 11
521.28652321630784
 21
-1365.4631936579838
 31
0.0
  0
LINE
  8
0
  6
CONTINUOUS
 62
               7
  5
2DA
 10
430.28652321630784
 20
-1289.4631936579838
 30
0.0
 11
464.28652321630784
 21
-1289.4631936579838
 31
0.0
  0
LINE
  8
0
  6
CONTINUOUS
 62
               7
  5
2DB
 10
430.28652321630784
 20
-1289.4631936579838
 30
0.0
 11
429.28652321630784
 21
-1290.4631936579838
 31
0.0
  0
LINE
  8
0
  6
CONTINUOUS
 62
               7
  5
2DC
 10
429.28652321630784
 20
-1364.4631936579838
 30
0.0
 11
430.28652321630784
 21
-1365.4631936579838
 31
0.0
  0
LINE
  8
0
  6
CONTINUOUS
 62
               7
  5
2DD
 10
464.28652321630784
 20
-890.96375990939919
 30
0.0
 11
464.28652321630807
 21
-801.96899603007364
 31
0.0
  0
LINE
  8
0
  6
CONTINUOUS
 62
               7
  5
2DE
 10
464.88652321630798
 20
-890.96375990939919
 30
0.0
 11
464.28652321630784
 21
-890.96375990939919
 31
0.0
  0
LINE
  8
0
  6
CONTINUOUS
 62
               7
  5
2DF
 10
429.28652321630807
 20
-809.46375990939919
 30
0.0
 11
429.28652321630784
 21
-883.46375990939919
 31
0.0
  0
LINE
  8
0
  6
CONTINUOUS
 62
               7
  5
2E0
 10
522.28652321630807
 20
-802.96375990939941
 30
0.0
 11
522.28652321630784
 21
-889.96375990939919
 31
0.0
  0
LINE
  8
0
  6
CONTINUOUS
 62
               7
  5
2E1
 10
464.28652321630784
 20
-890.96375990939919
 30
0.0
 11
521.28652321630784
 21
-890.96375990939919
 31
0.0
  0
LINE
  8
0
  6
CONTINUOUS
 62
               7
  5
2E2
 10
430.28652321630807
 20
-808.46375990939919
 30
0.0
 11
464.28652321630807
 21
-808.46375990939919
 31
0.0
  0
LINE
  8
0
  6
CONTINUOUS
 62
               7
  5
2E3
 10
521.28652321630784
 20
-890.96375990939919
 30
0.0
 11
522.28652321630784
 21
-889.96375990939919
 31
0.0
  0
LINE
  8
0
  6
CONTINUOUS
 62
               7
  5
2E4
 10
522.28652321630807
 20
-802.96375990939941
 30
0.0
 11
521.28652321630807
 21
-801.96375990939941
 31
0.0
  0
LINE
  8
0
  6
CONTINUOUS
 62
               7
  5
2E5
 10
430.28652321630784
 20
-884.46375990939919
 30
0.0
 11
464.28652321630807
 21
-884.46375990939919
 31
0.0
  0
LINE
  8
0
  6
CONTINUOUS
 62
               7
  5
2E6
 10
430.28652321630784
 20
-884.46375990939919
 30
0.0
 11
429.28652321630784
 21
-883.46375990939919
 31
0.0
  0
LINE
  8
0
  6
CONTINUOUS
 62
               7
  5
2E7
 10
429.28652321630807
 20
-809.46375990939919
 30
0.0
 11
430.28652321630807
 21
-808.46375990939919
 31
0.0
  0
LINE
  8
0
  6
CONTINUOUS
 62
               7
  5
2E8
 10
464.28652321630807
 20
-801.96375990939919
 30
0.0
 11
521.28652321630807
 21
-801.96375990939919
 31
0.0
  0
CIRCLE
  8
0
  6
DASHED
 62
               7
  5
2E9
 10
-392.13776905046871
 20
-904.14819548119044
 30
0.0
 40
40.0
  0
CIRCLE
  8
0
  6
DASHED
 62
               7
  5
2EA
 10
120.87790746063797
 20
-904.14819548119044
 30
0.0
 40
40.0
  0
CIRCLE
  8
0
  6
DASHED
 62
               7
  5
2EB
 10
609.28652321630784
 20
-1320.9631936579838
 30
0.0
 40
40.0
  0
TEXT
  8
0
 62
               3
  5
2EC
 10
-392.13776905046871
 20
-988.64819548119021
 30
0.0
 40
40.0
  1
EMB_80×65
 41
0.8
 72
               1
 11
-392.13776905046871
 21
-988.64819548119021
 31
0.0
 73
               3
  0
TEXT
  8
0
 62
               3
  5
2ED
 10
120.87790746063797
 20
-988.64819548119044
 30
0.0
 40
40.0
  1
EMB_80×50
 41
0.8
 72
               1
 11
120.87790746063797
 21
-988.64819548119044
 31
0.0
 73
               3
  0
TEXT
  8
0
 62
               3
  5
2EE
 10
605.58911923866754
 20
-667.01739140417999
 30
0.0
 40
40.0
  1
EMB使用例
 41
0.8
 72
               1
 11
605.58911923866754
 21
-667.01739140417999
 31
0.0
 73
               3
  0
TEXT
  8
0
 62
               3
  5
2EF
 10
-123.7427040908909
 20
-612.65725550384059
 30
0.0
 40
35.0
  1
横枝管に呼び６５、５０の管を接続するときは、EMBをご使用ください。
 41
0.8
 72
               1
 11
-123.7427040908909
 21
-612.65725550384059
 31
0.0
 73
               3
  0
ENDSEC
  0
EOF
