  0
SECTION
  2
HEADER
  9
$ACADVER
  1
AC1009
  9
$INSBASE
 10
0.0
 20
0.0
 30
0.0
  9
$EXTMIN
 10
-375.44000000000017
 20
-246.1471525096841
 30
0.0
  9
$EXTMAX
 10
375.44000000000176
 20
342.8225789771455
 30
0.0
  9
$LIMMIN
 10
-398.9050000000002
 20
-264.55245661864751
  9
$LIMMAX
 10
398.90500000000179
 20
361.22788308610893
  9
$ORTHOMODE
 70
               0
  9
$REGENMODE
 70
               1
  9
$FILLMODE
 70
               1
  9
$QTEXTMODE
 70
               0
  9
$MIRRTEXT
 70
               1
  9
$DRAGMODE
 70
               2
  9
$LTSCALE
 40
1.0
  9
$OSMODE
 70
               0
  9
$ATTMODE
 70
               1
  9
$TEXTSIZE
 40
0.2
  9
$TRACEWID
 40
0.05
  9
$TEXTSTYLE
  7
STANDARD
  9
$CLAYER
  8
0
  9
$CELTYPE
  6
CONTINUOUS
  9
$CECOLOR
 62
             256
  9
$DIMSCALE
 40
1.0
  9
$DIMASZ
 40
0.18
  9
$DIMEXO
 40
0.0625
  9
$DIMDLI
 40
0.38
  9
$DIMRND
 40
0.0
  9
$DIMDLE
 40
0.0
  9
$DIMEXE
 40
0.18
  9
$DIMTP
 40
0.0
  9
$DIMTM
 40
0.0
  9
$DIMTXT
 40
0.18
  9
$DIMCEN
 40
0.09
  9
$DIMTSZ
 40
0.0
  9
$DIMTOL
 70
               0
  9
$DIMLIM
 70
               0
  9
$DIMTIH
 70
               1
  9
$DIMTOH
 70
               1
  9
$DIMSE1
 70
               0
  9
$DIMSE2
 70
               0
  9
$DIMTAD
 70
               0
  9
$DIMZIN
 70
               0
  9
$DIMBLK
  1

  9
$DIMASO
 70
               1
  9
$DIMSHO
 70
               1
  9
$DIMPOST
  1

  9
$DIMAPOST
  1

  9
$DIMALT
 70
               0
  9
$DIMALTD
 70
               2
  9
$DIMALTF
 40
25.399999999999999
  9
$DIMLFAC
 40
1.0
  9
$DIMTOFL
 70
               0
  9
$DIMTVP
 40
0.0
  9
$DIMTIX
 70
               0
  9
$DIMSOXD
 70
               0
  9
$DIMSAH
 70
               0
  9
$DIMBLK1
  1

  9
$DIMBLK2
  1

  9
$DIMSTYLE
  2
STANDARD
  9
$DIMCLRD
 70
               0
  9
$DIMCLRE
 70
               0
  9
$DIMCLRT
 70
               0
  9
$DIMTFAC
 40
1.0
  9
$DIMGAP
 40
0.09
  9
$LUNITS
 70
               2
  9
$LUPREC
 70
               4
  9
$AXISMODE
 70
               0
  9
$AXISUNIT
 10
0.0
 20
0.0
  9
$SKETCHINC
 40
0.1
  9
$FILLETRAD
 40
0.0
  9
$AUNITS
 70
               0
  9
$AUPREC
 70
               0
  9
$MENU
  1
acad
  9
$ELEVATION
 40
0.0
  9
$PELEVATION
 40
0.0
  9
$THICKNESS
 40
0.0
  9
$LIMCHECK
 70
               0
  9
$BLIPMODE
 70
               1
  9
$CHAMFERA
 40
0.0
  9
$CHAMFERB
 40
0.0
  9
$SKPOLY
 70
               0
  9
$TDCREATE
 40
0.000000000
  9
$TDUPDATE
 40
0.000000000
  9
$TDINDWG
 40
0.0000000000
  9
$TDUSRTIMER
 40
0.0000000000
  9
$USRTIMER
 70
               1
  9
$ANGBASE
 50
0.0
  9
$ANGDIR
 70
               0
  9
$PDMODE
 70
               0
  9
$PDSIZE
 40
1.0
  9
$PLINEWID
 40
0.0
  9
$COORDS
 70
               1
  9
$SPLFRAME
 70
               0
  9
$SPLINETYPE
 70
               6
  9
$SPLINESEGS
 70
               8
  9
$ATTDIA
 70
               0
  9
$ATTREQ
 70
               1
  9
$HANDLING
 70
               1
  9
$HANDSEED
  5
2E4
  9
$SURFTAB1
 70
               6
  9
$SURFTAB2
 70
               6
  9
$SURFTYPE
 70
               6
  9
$SURFU
 70
               6
  9
$SURFV
 70
               6
  9
$UCSNAME
  2

  9
$UCSORG
 10
0.0
 20
0.0
 30
0.0
  9
$UCSXDIR
 10
1.0
 20
0.0
 30
0.0
  9
$UCSYDIR
 10
0.0
 20
1.0
 30
0.0
  9
$PUCSNAME
  2

  9
$PUCSORG
 10
0.0
 20
0.0
 30
0.0
  9
$PUCSXDIR
 10
1.0
 20
0.0
 30
0.0
  9
$PUCSYDIR
 10
0.0
 20
1.0
 30
0.0
  9
$USERI1
 70
               0
  9
$USERI2
 70
               0
  9
$USERI3
 70
               0
  9
$USERI4
 70
               0
  9
$USERI5
 70
               0
  9
$USERR1
 40
0.0
  9
$USERR2
 40
0.0
  9
$USERR3
 40
0.0
  9
$USERR4
 40
0.0
  9
$USERR5
 40
0.0
  9
$WORLDVIEW
 70
               1
  9
$SHADEDGE
 70
               3
  9
$SHADEDIF
 70
              70
  9
$TILEMODE
 70
               1
  9
$MAXACTVP
 70
              16
  9
$PINSBASE
 10
0.0
 20
0.0
 30
0.0
  9
$PLIMCHECK
 70
               0
  9
$PEXTMIN
 10
1.0000000000000000E+20
 20
1.0000000000000000E+20
 30
1.0000000000000000E+20
  9
$PEXTMAX
 10
-1.0000000000000000E+20
 20
-1.0000000000000000E+20
 30
-1.0000000000000000E+20
  9
$PLIMMIN
 10
0.0
 20
0.0
  9
$PLIMMAX
 10
12.0
 20
9.0
  9
$UNITMODE
 70
               0
  9
$VISRETAIN
 70
               0
  9
$PLINEGEN
 70
               1
  9
$PSLTSCALE
 70
               0
  9
$TREEDEPTH
 70
            3020
  9
$DWGCODEPAGE
  3
dos932
  0
ENDSEC
  0
SECTION
  2
TABLES
  0
TABLE
  2
VPORT
 70
               1
  0
VPORT
  2
*ACTIVE
 70
               0
 10
0.0
 20
0.0
 11
1.0
 21
1.0
 12
0.0000000000007958
 22
48.33771323373071
 13
0.0
 23
0.0
 14
1.0
 24
1.0
 15
0.0
 25
0.0
 16
0.0
 26
0.0
 36
1.0
 17
0.0
 27
0.0
 37
0.0
 40
625.78033970475644
 41
1.2749042265795842
 42
50.0
 43
0.0
 44
0.0
 50
0.0
 51
0.0
 71
               0
 72
             100
 73
               1
 74
               1
 75
               0
 76
               0
 77
               0
 78
               0
  0
ENDTAB
  0
TABLE
  2
LTYPE
 70
              26
  0
LTYPE
  2
CONTINUOUS
 70
               0
  3
Solid line
 72
              65
 73
               0
 40
0.0
  0
LTYPE
  2
HIDDENX2
 70
               0
  3
CADPAC FUSION LINETYPE
 72
              65
 73
               2
 40
47.560000000000002
 49
35.670000000000002
 49
-11.890000000000001
  0
LTYPE
  2
HIDDEN
 70
               0
  3
CADPAC FUSION LINETYPE
 72
              65
 73
               2
 40
35.670000000000002
 49
23.780000000000001
 49
-11.890000000000001
  0
LTYPE
  2
HIDDEN2
 70
               0
  3
CADPAC FUSION LINETYPE
 72
              65
 73
               2
 40
29.725000000000001
 49
17.835000000000001
 49
-11.890000000000001
  0
LTYPE
  2
DASHED
 70
               0
  3
CADPAC FUSION LINETYPE
 72
              65
 73
               2
 40
35.670000000000002
 49
23.780000000000001
 49
-11.890000000000001
  0
LTYPE
  2
DASHED2
 70
               0
  3
CADPAC FUSION LINETYPE
 72
              65
 73
               2
 40
26.752500000000001
 49
17.835000000000001
 49
-8.9175000000000004
  0
LTYPE
  2
DASHEDX2
 70
               0
  3
CADPAC FUSION LINETYPE
 72
              65
 73
               2
 40
53.505000000000003
 49
35.670000000000002
 49
-17.835000000000001
  0
LTYPE
  2
DOTX2
 70
               0
  3
CADPAC FUSION LINETYPE
 72
              65
 73
               2
 40
14.862500000000001
 49
0.0
 49
-14.862500000000001
  0
LTYPE
  2
DOT
 70
               0
  3
CADPAC FUSION LINETYPE
 72
              65
 73
               2
 40
11.890000000000001
 49
0.0
 49
-11.890000000000001
  0
LTYPE
  2
DOTS
 70
               0
  3
CADPAC FUSION LINETYPE
 72
              65
 73
               2
 40
11.890000000000001
 49
0.0
 49
-11.890000000000001
  0
LTYPE
  2
DOT2
 70
               0
  3
CADPAC FUSION LINETYPE
 72
              65
 73
               2
 40
8.9175000000000004
 49
0.0
 49
-8.9175000000000004
  0
LTYPE
  2
CENTERX2
 70
               0
  3
CADPAC FUSION LINETYPE
 72
              65
 73
               4
 40
71.340000000000003
 49
29.725000000000001
 49
-14.862500000000001
 49
11.890000000000001
 49
-14.862500000000001
  0
LTYPE
  2
CENTER
 70
               0
  3
CADPAC FUSION LINETYPE
 72
              65
 73
               4
 40
54.694000000000003
 49
23.780000000000001
 49
-11.890000000000001
 49
7.1340000000000003
 49
-11.890000000000001
  0
LTYPE
  2
CENTER2
 70
               0
  3
CADPAC FUSION LINETYPE
 72
              65
 73
               4
 40
38.048000000000002
 49
17.835000000000001
 49
-8.9175000000000004
 49
2.3780000000000001
 49
-8.9175000000000004
  0
LTYPE
  2
DASHDOTX2
 70
               0
  3
CADPAC FUSION LINETYPE
 72
              65
 73
               4
 40
59.450000000000003
 49
29.725000000000001
 49
-14.862500000000001
 49
0.0
 49
-14.862500000000001
  0
LTYPE
  2
DASHDOT
 70
               0
  3
CADPAC FUSION LINETYPE
 72
              65
 73
               4
 40
47.560000000000002
 49
23.780000000000001
 49
-11.890000000000001
 49
0.0
 49
-11.890000000000001
  0
LTYPE
  2
DASHDOT2
 70
               0
  3
CADPAC FUSION LINETYPE
 72
              65
 73
               4
 40
35.670000000000002
 49
17.835000000000001
 49
-8.9175000000000004
 49
0.0
 49
-8.9175000000000004
  0
LTYPE
  2
DIVIDEX2
 70
               0
  3
CADPAC FUSION LINETYPE
 72
              65
 73
               6
 40
74.3125
 49
29.725000000000001
 49
-14.862500000000001
 49
0.0
 49
-14.862500000000001
 49
0.0
 49
-14.862500000000001
  0
LTYPE
  2
DIVIDE
 70
               0
  3
CADPAC FUSION LINETYPE
 72
              65
 73
               6
 40
59.450000000000003
 49
23.780000000000001
 49
-11.890000000000001
 49
0.0
 49
-11.890000000000001
 49
0.0
 49
-11.890000000000001
  0
LTYPE
  2
DIVIDE2
 70
               0
  3
CADPAC FUSION LINETYPE
 72
              65
 73
               6
 40
44.587500000000006
 49
17.835000000000001
 49
-8.9175000000000004
 49
0.0
 49
-8.9175000000000004
 49
0.0
 49
-8.9175000000000004
  0
LTYPE
  2
BORDERX2
 70
               0
  3
CADPAC FUSION LINETYPE
 72
              65
 73
               6
 40
104.03750000000001
 49
29.725000000000001
 49
-14.862500000000001
 49
29.725000000000001
 49
-14.862500000000001
 49
0.0
 49
-14.862500000000001
  0
LTYPE
  2
BORDER
 70
               0
  3
CADPAC FUSION LINETYPE
 72
              65
 73
               6
 40
83.230000000000004
 49
23.780000000000001
 49
-11.890000000000001
 49
23.780000000000001
 49
-11.890000000000001
 49
0.0
 49
-11.890000000000001
  0
LTYPE
  2
BORDER2
 70
               0
  3
CADPAC FUSION LINETYPE
 72
              65
 73
               6
 40
62.422499999999999
 49
17.835000000000001
 49
-8.9175000000000004
 49
17.835000000000001
 49
-8.9175000000000004
 49
0.0
 49
-8.9175000000000004
  0
LTYPE
  2
PHANTOMX2
 70
               0
  3
CADPAC FUSION LINETYPE
 72
              65
 73
               6
 40
89.175000000000011
 49
29.725000000000001
 49
-11.890000000000001
 49
11.890000000000001
 49
-11.890000000000001
 49
11.890000000000001
 49
-11.890000000000001
  0
LTYPE
  2
PHANTOM
 70
               0
  3
CADPAC FUSION LINETYPE
 72
              65
 73
               6
 40
73.718000000000004
 49
23.780000000000001
 49
-11.890000000000001
 49
7.1340000000000003
 49
-11.890000000000001
 49
7.1340000000000003
 49
-11.890000000000001
  0
LTYPE
  2
PHANTOM2
 70
               0
  3
CADPAC FUSION LINETYPE
 72
              65
 73
               6
 40
63.017000000000003
 49
17.835000000000001
 49
-11.890000000000001
 49
4.7560000000000002
 49
-11.890000000000001
 49
4.7560000000000002
 49
-11.890000000000001
  0
ENDTAB
  0
TABLE
  2
LAYER
 70
             256
  0
LAYER
  2
0
 70
               0
 62
               7
  6
CONTINUOUS
  0
LAYER
  2
LAYER001
 70
               0
 62
               7
  6
CONTINUOUS
  0
LAYER
  2
LAYER002
 70
               0
 62
               7
  6
CONTINUOUS
  0
LAYER
  2
LAYER003
 70
               0
 62
               7
  6
CONTINUOUS
  0
LAYER
  2
LAYER004
 70
               0
 62
               7
  6
CONTINUOUS
  0
LAYER
  2
LAYER005
 70
               0
 62
               7
  6
CONTINUOUS
  0
LAYER
  2
LAYER006
 70
               0
 62
               7
  6
CONTINUOUS
  0
LAYER
  2
LAYER007
 70
               0
 62
               7
  6
CONTINUOUS
  0
LAYER
  2
LAYER008
 70
               0
 62
               7
  6
CONTINUOUS
  0
LAYER
  2
LAYER009
 70
               0
 62
               7
  6
CONTINUOUS
  0
LAYER
  2
LAYER010
 70
               0
 62
               7
  6
CONTINUOUS
  0
LAYER
  2
LAYER011
 70
               0
 62
               7
  6
CONTINUOUS
  0
LAYER
  2
LAYER012
 70
               0
 62
               7
  6
CONTINUOUS
  0
LAYER
  2
LAYER013
 70
               0
 62
               7
  6
CONTINUOUS
  0
LAYER
  2
LAYER014
 70
               0
 62
               7
  6
CONTINUOUS
  0
LAYER
  2
LAYER015
 70
               0
 62
               7
  6
CONTINUOUS
  0
LAYER
  2
LAYER016
 70
               0
 62
               7
  6
CONTINUOUS
  0
LAYER
  2
LAYER017
 70
               0
 62
               7
  6
CONTINUOUS
  0
LAYER
  2
LAYER018
 70
               0
 62
               7
  6
CONTINUOUS
  0
LAYER
  2
LAYER019
 70
               0
 62
               7
  6
CONTINUOUS
  0
LAYER
  2
LAYER020
 70
               0
 62
               7
  6
CONTINUOUS
  0
LAYER
  2
LAYER021
 70
               0
 62
               7
  6
CONTINUOUS
  0
LAYER
  2
LAYER022
 70
               0
 62
               7
  6
CONTINUOUS
  0
LAYER
  2
LAYER023
 70
               0
 62
               7
  6
CONTINUOUS
  0
LAYER
  2
LAYER024
 70
               0
 62
               7
  6
CONTINUOUS
  0
LAYER
  2
LAYER025
 70
               0
 62
               7
  6
CONTINUOUS
  0
LAYER
  2
LAYER026
 70
               0
 62
               7
  6
CONTINUOUS
  0
LAYER
  2
LAYER027
 70
               0
 62
               7
  6
CONTINUOUS
  0
LAYER
  2
LAYER028
 70
               0
 62
               7
  6
CONTINUOUS
  0
LAYER
  2
LAYER029
 70
               0
 62
               7
  6
CONTINUOUS
  0
LAYER
  2
LAYER030
 70
               0
 62
               7
  6
CONTINUOUS
  0
LAYER
  2
LAYER031
 70
               0
 62
               7
  6
CONTINUOUS
  0
LAYER
  2
LAYER032
 70
               0
 62
               7
  6
CONTINUOUS
  0
LAYER
  2
LAYER033
 70
               0
 62
               7
  6
CONTINUOUS
  0
LAYER
  2
LAYER034
 70
               0
 62
               7
  6
CONTINUOUS
  0
LAYER
  2
LAYER035
 70
               0
 62
               7
  6
CONTINUOUS
  0
LAYER
  2
LAYER036
 70
               0
 62
               7
  6
CONTINUOUS
  0
LAYER
  2
LAYER037
 70
               0
 62
               7
  6
CONTINUOUS
  0
LAYER
  2
LAYER038
 70
               0
 62
               7
  6
CONTINUOUS
  0
LAYER
  2
LAYER039
 70
               0
 62
               7
  6
CONTINUOUS
  0
LAYER
  2
LAYER040
 70
               0
 62
               7
  6
CONTINUOUS
  0
LAYER
  2
LAYER041
 70
               0
 62
               7
  6
CONTINUOUS
  0
LAYER
  2
LAYER042
 70
               0
 62
               7
  6
CONTINUOUS
  0
LAYER
  2
LAYER043
 70
               0
 62
               7
  6
CONTINUOUS
  0
LAYER
  2
LAYER044
 70
               0
 62
               7
  6
CONTINUOUS
  0
LAYER
  2
LAYER045
 70
               0
 62
               7
  6
CONTINUOUS
  0
LAYER
  2
LAYER046
 70
               0
 62
               7
  6
CONTINUOUS
  0
LAYER
  2
LAYER047
 70
               0
 62
               7
  6
CONTINUOUS
  0
LAYER
  2
LAYER048
 70
               0
 62
               7
  6
CONTINUOUS
  0
LAYER
  2
LAYER049
 70
               0
 62
               7
  6
CONTINUOUS
  0
LAYER
  2
LAYER050
 70
               0
 62
               7
  6
CONTINUOUS
  0
LAYER
  2
LAYER051
 70
               0
 62
               7
  6
CONTINUOUS
  0
LAYER
  2
LAYER052
 70
               0
 62
               7
  6
CONTINUOUS
  0
LAYER
  2
LAYER053
 70
               0
 62
               7
  6
CONTINUOUS
  0
LAYER
  2
LAYER054
 70
               0
 62
               7
  6
CONTINUOUS
  0
LAYER
  2
LAYER055
 70
               0
 62
               7
  6
CONTINUOUS
  0
LAYER
  2
LAYER056
 70
               0
 62
               7
  6
CONTINUOUS
  0
LAYER
  2
LAYER057
 70
               0
 62
               7
  6
CONTINUOUS
  0
LAYER
  2
LAYER058
 70
               0
 62
               7
  6
CONTINUOUS
  0
LAYER
  2
LAYER059
 70
               0
 62
               7
  6
CONTINUOUS
  0
LAYER
  2
LAYER060
 70
               0
 62
               7
  6
CONTINUOUS
  0
LAYER
  2
LAYER061
 70
               0
 62
               7
  6
CONTINUOUS
  0
LAYER
  2
LAYER062
 70
               0
 62
               7
  6
CONTINUOUS
  0
LAYER
  2
LAYER063
 70
               0
 62
               7
  6
CONTINUOUS
  0
LAYER
  2
LAYER064
 70
               0
 62
               7
  6
CONTINUOUS
  0
LAYER
  2
LAYER065
 70
               0
 62
               7
  6
CONTINUOUS
  0
LAYER
  2
LAYER066
 70
               0
 62
               7
  6
CONTINUOUS
  0
LAYER
  2
LAYER067
 70
               0
 62
               7
  6
CONTINUOUS
  0
LAYER
  2
LAYER068
 70
               0
 62
               7
  6
CONTINUOUS
  0
LAYER
  2
LAYER069
 70
               0
 62
               7
  6
CONTINUOUS
  0
LAYER
  2
LAYER070
 70
               0
 62
               7
  6
CONTINUOUS
  0
LAYER
  2
LAYER071
 70
               0
 62
               7
  6
CONTINUOUS
  0
LAYER
  2
LAYER072
 70
               0
 62
               7
  6
CONTINUOUS
  0
LAYER
  2
LAYER073
 70
               0
 62
               7
  6
CONTINUOUS
  0
LAYER
  2
LAYER074
 70
               0
 62
               7
  6
CONTINUOUS
  0
LAYER
  2
LAYER075
 70
               0
 62
               7
  6
CONTINUOUS
  0
LAYER
  2
LAYER076
 70
               0
 62
               7
  6
CONTINUOUS
  0
LAYER
  2
LAYER077
 70
               0
 62
               7
  6
CONTINUOUS
  0
LAYER
  2
LAYER078
 70
               0
 62
               7
  6
CONTINUOUS
  0
LAYER
  2
LAYER079
 70
               0
 62
               7
  6
CONTINUOUS
  0
LAYER
  2
LAYER080
 70
               0
 62
               7
  6
CONTINUOUS
  0
LAYER
  2
LAYER081
 70
               0
 62
               7
  6
CONTINUOUS
  0
LAYER
  2
LAYER082
 70
               0
 62
               7
  6
CONTINUOUS
  0
LAYER
  2
LAYER083
 70
               0
 62
               7
  6
CONTINUOUS
  0
LAYER
  2
LAYER084
 70
               0
 62
               7
  6
CONTINUOUS
  0
LAYER
  2
LAYER085
 70
               0
 62
               7
  6
CONTINUOUS
  0
LAYER
  2
LAYER086
 70
               0
 62
               7
  6
CONTINUOUS
  0
LAYER
  2
LAYER087
 70
               0
 62
               7
  6
CONTINUOUS
  0
LAYER
  2
LAYER088
 70
               0
 62
               7
  6
CONTINUOUS
  0
LAYER
  2
LAYER089
 70
               0
 62
               7
  6
CONTINUOUS
  0
LAYER
  2
LAYER090
 70
               0
 62
               7
  6
CONTINUOUS
  0
LAYER
  2
LAYER091
 70
               0
 62
               7
  6
CONTINUOUS
  0
LAYER
  2
LAYER092
 70
               0
 62
               7
  6
CONTINUOUS
  0
LAYER
  2
LAYER093
 70
               0
 62
               7
  6
CONTINUOUS
  0
LAYER
  2
LAYER094
 70
               0
 62
               7
  6
CONTINUOUS
  0
LAYER
  2
LAYER095
 70
               0
 62
               7
  6
CONTINUOUS
  0
LAYER
  2
LAYER096
 70
               0
 62
               7
  6
CONTINUOUS
  0
LAYER
  2
LAYER097
 70
               0
 62
               7
  6
CONTINUOUS
  0
LAYER
  2
LAYER098
 70
               0
 62
               7
  6
CONTINUOUS
  0
LAYER
  2
LAYER099
 70
               0
 62
               7
  6
CONTINUOUS
  0
LAYER
  2
LAYER100
 70
               0
 62
               7
  6
CONTINUOUS
  0
LAYER
  2
LAYER101
 70
               0
 62
               7
  6
CONTINUOUS
  0
LAYER
  2
LAYER102
 70
               0
 62
               7
  6
CONTINUOUS
  0
LAYER
  2
LAYER103
 70
               0
 62
               7
  6
CONTINUOUS
  0
LAYER
  2
LAYER104
 70
               0
 62
               7
  6
CONTINUOUS
  0
LAYER
  2
LAYER105
 70
               0
 62
               7
  6
CONTINUOUS
  0
LAYER
  2
LAYER106
 70
               0
 62
               7
  6
CONTINUOUS
  0
LAYER
  2
LAYER107
 70
               0
 62
               7
  6
CONTINUOUS
  0
LAYER
  2
LAYER108
 70
               0
 62
               7
  6
CONTINUOUS
  0
LAYER
  2
LAYER109
 70
               0
 62
               7
  6
CONTINUOUS
  0
LAYER
  2
LAYER110
 70
               0
 62
               7
  6
CONTINUOUS
  0
LAYER
  2
LAYER111
 70
               0
 62
               7
  6
CONTINUOUS
  0
LAYER
  2
LAYER112
 70
               0
 62
               7
  6
CONTINUOUS
  0
LAYER
  2
LAYER113
 70
               0
 62
               7
  6
CONTINUOUS
  0
LAYER
  2
LAYER114
 70
               0
 62
               7
  6
CONTINUOUS
  0
LAYER
  2
LAYER115
 70
               0
 62
               7
  6
CONTINUOUS
  0
LAYER
  2
LAYER116
 70
               0
 62
               7
  6
CONTINUOUS
  0
LAYER
  2
LAYER117
 70
               0
 62
               7
  6
CONTINUOUS
  0
LAYER
  2
LAYER118
 70
               0
 62
               7
  6
CONTINUOUS
  0
LAYER
  2
LAYER119
 70
               0
 62
               7
  6
CONTINUOUS
  0
LAYER
  2
LAYER120
 70
               0
 62
               7
  6
CONTINUOUS
  0
LAYER
  2
LAYER121
 70
               0
 62
               7
  6
CONTINUOUS
  0
LAYER
  2
LAYER122
 70
               0
 62
               7
  6
CONTINUOUS
  0
LAYER
  2
LAYER123
 70
               0
 62
               7
  6
CONTINUOUS
  0
LAYER
  2
LAYER124
 70
               0
 62
               7
  6
CONTINUOUS
  0
LAYER
  2
LAYER125
 70
               0
 62
               7
  6
CONTINUOUS
  0
LAYER
  2
LAYER126
 70
               0
 62
               7
  6
CONTINUOUS
  0
LAYER
  2
LAYER127
 70
               0
 62
               7
  6
CONTINUOUS
  0
LAYER
  2
LAYER128
 70
               0
 62
               7
  6
CONTINUOUS
  0
LAYER
  2
LAYER129
 70
               0
 62
               7
  6
CONTINUOUS
  0
LAYER
  2
LAYER130
 70
               0
 62
               7
  6
CONTINUOUS
  0
LAYER
  2
LAYER131
 70
               0
 62
               7
  6
CONTINUOUS
  0
LAYER
  2
LAYER132
 70
               0
 62
               7
  6
CONTINUOUS
  0
LAYER
  2
LAYER133
 70
               0
 62
               7
  6
CONTINUOUS
  0
LAYER
  2
LAYER134
 70
               0
 62
               7
  6
CONTINUOUS
  0
LAYER
  2
LAYER135
 70
               0
 62
               7
  6
CONTINUOUS
  0
LAYER
  2
LAYER136
 70
               0
 62
               7
  6
CONTINUOUS
  0
LAYER
  2
LAYER137
 70
               0
 62
               7
  6
CONTINUOUS
  0
LAYER
  2
LAYER138
 70
               0
 62
               7
  6
CONTINUOUS
  0
LAYER
  2
LAYER139
 70
               0
 62
               7
  6
CONTINUOUS
  0
LAYER
  2
LAYER140
 70
               0
 62
               7
  6
CONTINUOUS
  0
LAYER
  2
LAYER141
 70
               0
 62
               7
  6
CONTINUOUS
  0
LAYER
  2
LAYER142
 70
               0
 62
               7
  6
CONTINUOUS
  0
LAYER
  2
LAYER143
 70
               0
 62
               7
  6
CONTINUOUS
  0
LAYER
  2
LAYER144
 70
               0
 62
               7
  6
CONTINUOUS
  0
LAYER
  2
LAYER145
 70
               0
 62
               7
  6
CONTINUOUS
  0
LAYER
  2
LAYER146
 70
               0
 62
               7
  6
CONTINUOUS
  0
LAYER
  2
LAYER147
 70
               0
 62
               7
  6
CONTINUOUS
  0
LAYER
  2
LAYER148
 70
               0
 62
               7
  6
CONTINUOUS
  0
LAYER
  2
LAYER149
 70
               0
 62
               7
  6
CONTINUOUS
  0
LAYER
  2
LAYER150
 70
               0
 62
               7
  6
CONTINUOUS
  0
LAYER
  2
LAYER151
 70
               0
 62
               7
  6
CONTINUOUS
  0
LAYER
  2
LAYER152
 70
               0
 62
               7
  6
CONTINUOUS
  0
LAYER
  2
LAYER153
 70
               0
 62
               7
  6
CONTINUOUS
  0
LAYER
  2
LAYER154
 70
               0
 62
               7
  6
CONTINUOUS
  0
LAYER
  2
LAYER155
 70
               0
 62
               7
  6
CONTINUOUS
  0
LAYER
  2
LAYER156
 70
               0
 62
               7
  6
CONTINUOUS
  0
LAYER
  2
LAYER157
 70
               0
 62
               7
  6
CONTINUOUS
  0
LAYER
  2
LAYER158
 70
               0
 62
               7
  6
CONTINUOUS
  0
LAYER
  2
LAYER159
 70
               0
 62
               7
  6
CONTINUOUS
  0
LAYER
  2
LAYER160
 70
               0
 62
               7
  6
CONTINUOUS
  0
LAYER
  2
LAYER161
 70
               0
 62
               7
  6
CONTINUOUS
  0
LAYER
  2
LAYER162
 70
               0
 62
               7
  6
CONTINUOUS
  0
LAYER
  2
LAYER163
 70
               0
 62
               7
  6
CONTINUOUS
  0
LAYER
  2
LAYER164
 70
               0
 62
               7
  6
CONTINUOUS
  0
LAYER
  2
LAYER165
 70
               0
 62
               7
  6
CONTINUOUS
  0
LAYER
  2
LAYER166
 70
               0
 62
               7
  6
CONTINUOUS
  0
LAYER
  2
LAYER167
 70
               0
 62
               7
  6
CONTINUOUS
  0
LAYER
  2
LAYER168
 70
               0
 62
               7
  6
CONTINUOUS
  0
LAYER
  2
LAYER169
 70
               0
 62
               7
  6
CONTINUOUS
  0
LAYER
  2
LAYER170
 70
               0
 62
               7
  6
CONTINUOUS
  0
LAYER
  2
LAYER171
 70
               0
 62
               7
  6
CONTINUOUS
  0
LAYER
  2
LAYER172
 70
               0
 62
               7
  6
CONTINUOUS
  0
LAYER
  2
LAYER173
 70
               0
 62
               7
  6
CONTINUOUS
  0
LAYER
  2
LAYER174
 70
               0
 62
               7
  6
CONTINUOUS
  0
LAYER
  2
LAYER175
 70
               0
 62
               7
  6
CONTINUOUS
  0
LAYER
  2
LAYER176
 70
               0
 62
               7
  6
CONTINUOUS
  0
LAYER
  2
LAYER177
 70
               0
 62
               7
  6
CONTINUOUS
  0
LAYER
  2
LAYER178
 70
               0
 62
               7
  6
CONTINUOUS
  0
LAYER
  2
LAYER179
 70
               0
 62
               7
  6
CONTINUOUS
  0
LAYER
  2
LAYER180
 70
               0
 62
               7
  6
CONTINUOUS
  0
LAYER
  2
LAYER181
 70
               0
 62
               7
  6
CONTINUOUS
  0
LAYER
  2
LAYER182
 70
               0
 62
               7
  6
CONTINUOUS
  0
LAYER
  2
LAYER183
 70
               0
 62
               7
  6
CONTINUOUS
  0
LAYER
  2
LAYER184
 70
               0
 62
               7
  6
CONTINUOUS
  0
LAYER
  2
LAYER185
 70
               0
 62
               7
  6
CONTINUOUS
  0
LAYER
  2
LAYER186
 70
               0
 62
               7
  6
CONTINUOUS
  0
LAYER
  2
LAYER187
 70
               0
 62
               7
  6
CONTINUOUS
  0
LAYER
  2
LAYER188
 70
               0
 62
               7
  6
CONTINUOUS
  0
LAYER
  2
LAYER189
 70
               0
 62
               7
  6
CONTINUOUS
  0
LAYER
  2
LAYER190
 70
               0
 62
               7
  6
CONTINUOUS
  0
LAYER
  2
LAYER191
 70
               0
 62
               7
  6
CONTINUOUS
  0
LAYER
  2
LAYER192
 70
               0
 62
               7
  6
CONTINUOUS
  0
LAYER
  2
LAYER193
 70
               0
 62
               7
  6
CONTINUOUS
  0
LAYER
  2
LAYER194
 70
               0
 62
               7
  6
CONTINUOUS
  0
LAYER
  2
LAYER195
 70
               0
 62
               7
  6
CONTINUOUS
  0
LAYER
  2
LAYER196
 70
               0
 62
               7
  6
CONTINUOUS
  0
LAYER
  2
LAYER197
 70
               0
 62
               7
  6
CONTINUOUS
  0
LAYER
  2
LAYER198
 70
               0
 62
               7
  6
CONTINUOUS
  0
LAYER
  2
LAYER199
 70
               0
 62
               7
  6
CONTINUOUS
  0
LAYER
  2
LAYER200
 70
               0
 62
               7
  6
CONTINUOUS
  0
LAYER
  2
LAYER201
 70
               0
 62
               7
  6
CONTINUOUS
  0
LAYER
  2
LAYER202
 70
               0
 62
               7
  6
CONTINUOUS
  0
LAYER
  2
LAYER203
 70
               0
 62
               7
  6
CONTINUOUS
  0
LAYER
  2
LAYER204
 70
               0
 62
               7
  6
CONTINUOUS
  0
LAYER
  2
LAYER205
 70
               0
 62
               7
  6
CONTINUOUS
  0
LAYER
  2
LAYER206
 70
               0
 62
               7
  6
CONTINUOUS
  0
LAYER
  2
LAYER207
 70
               0
 62
               7
  6
CONTINUOUS
  0
LAYER
  2
LAYER208
 70
               0
 62
               7
  6
CONTINUOUS
  0
LAYER
  2
LAYER209
 70
               0
 62
               7
  6
CONTINUOUS
  0
LAYER
  2
LAYER210
 70
               0
 62
               7
  6
CONTINUOUS
  0
LAYER
  2
LAYER211
 70
               0
 62
               7
  6
CONTINUOUS
  0
LAYER
  2
LAYER212
 70
               0
 62
               7
  6
CONTINUOUS
  0
LAYER
  2
LAYER213
 70
               0
 62
               7
  6
CONTINUOUS
  0
LAYER
  2
LAYER214
 70
               0
 62
               7
  6
CONTINUOUS
  0
LAYER
  2
LAYER215
 70
               0
 62
               7
  6
CONTINUOUS
  0
LAYER
  2
LAYER216
 70
               0
 62
               7
  6
CONTINUOUS
  0
LAYER
  2
LAYER217
 70
               0
 62
               7
  6
CONTINUOUS
  0
LAYER
  2
LAYER218
 70
               0
 62
               7
  6
CONTINUOUS
  0
LAYER
  2
LAYER219
 70
               0
 62
               7
  6
CONTINUOUS
  0
LAYER
  2
LAYER220
 70
               0
 62
               7
  6
CONTINUOUS
  0
LAYER
  2
LAYER221
 70
               0
 62
               7
  6
CONTINUOUS
  0
LAYER
  2
LAYER222
 70
               0
 62
               7
  6
CONTINUOUS
  0
LAYER
  2
LAYER223
 70
               0
 62
               7
  6
CONTINUOUS
  0
LAYER
  2
LAYER224
 70
               0
 62
               7
  6
CONTINUOUS
  0
LAYER
  2
LAYER225
 70
               0
 62
               7
  6
CONTINUOUS
  0
LAYER
  2
LAYER226
 70
               0
 62
               7
  6
CONTINUOUS
  0
LAYER
  2
LAYER227
 70
               0
 62
               7
  6
CONTINUOUS
  0
LAYER
  2
LAYER228
 70
               0
 62
               7
  6
CONTINUOUS
  0
LAYER
  2
LAYER229
 70
               0
 62
               7
  6
CONTINUOUS
  0
LAYER
  2
LAYER230
 70
               0
 62
               7
  6
CONTINUOUS
  0
LAYER
  2
LAYER231
 70
               0
 62
               7
  6
CONTINUOUS
  0
LAYER
  2
LAYER232
 70
               0
 62
               7
  6
CONTINUOUS
  0
LAYER
  2
LAYER233
 70
               0
 62
               7
  6
CONTINUOUS
  0
LAYER
  2
LAYER234
 70
               0
 62
               7
  6
CONTINUOUS
  0
LAYER
  2
LAYER235
 70
               0
 62
               7
  6
CONTINUOUS
  0
LAYER
  2
LAYER236
 70
               0
 62
               7
  6
CONTINUOUS
  0
LAYER
  2
LAYER237
 70
               0
 62
               7
  6
CONTINUOUS
  0
LAYER
  2
LAYER238
 70
               0
 62
               7
  6
CONTINUOUS
  0
LAYER
  2
LAYER239
 70
               0
 62
               7
  6
CONTINUOUS
  0
LAYER
  2
LAYER240
 70
               0
 62
               7
  6
CONTINUOUS
  0
LAYER
  2
LAYER241
 70
               0
 62
               7
  6
CONTINUOUS
  0
LAYER
  2
LAYER242
 70
               0
 62
               7
  6
CONTINUOUS
  0
LAYER
  2
LAYER243
 70
               0
 62
               7
  6
CONTINUOUS
  0
LAYER
  2
LAYER244
 70
               0
 62
               7
  6
CONTINUOUS
  0
LAYER
  2
LAYER245
 70
               0
 62
               7
  6
CONTINUOUS
  0
LAYER
  2
LAYER246
 70
               0
 62
               7
  6
CONTINUOUS
  0
LAYER
  2
LAYER247
 70
               0
 62
               7
  6
CONTINUOUS
  0
LAYER
  2
LAYER248
 70
               0
 62
               7
  6
CONTINUOUS
  0
LAYER
  2
LAYER249
 70
               0
 62
               7
  6
CONTINUOUS
  0
LAYER
  2
LAYER250
 70
               0
 62
               7
  6
CONTINUOUS
  0
LAYER
  2
LAYER251
 70
               0
 62
               7
  6
CONTINUOUS
  0
LAYER
  2
LAYER252
 70
               0
 62
               7
  6
CONTINUOUS
  0
LAYER
  2
LAYER253
 70
               0
 62
               7
  6
CONTINUOUS
  0
LAYER
  2
LAYER254
 70
               0
 62
               7
  6
CONTINUOUS
  0
LAYER
  2
LAYER255
 70
               0
 62
               7
  6
CONTINUOUS
  0
ENDTAB
  0
TABLE
  2
STYLE
 70
               1
  0
STYLE
  2
STANDARD
 70
               0
 40
0.0
 41
1.0
 50
0.0
 71
               0
 42
0.0
  3
txt
  4

  0
ENDTAB
  0
TABLE
  2
VIEW
 70
               0
  0
VIEW
  2
QQQQ
 70
               0
 40
625.78033970475644
 10
0.0000000000007958
 20
48.33771323373071
 41
797.81000000000199
 11
0.0
 21
0.0
 31
1.0
 12
100.0
 22
100.0
 32
0.0
 42
50.0
 43
0.0
 44
0.0
 50
0.0
 71
               0
  0
ENDTAB
  0
TABLE
  2
UCS
 70
               0
  0
ENDTAB
  0
TABLE
  2
APPID
 70
               1
  0
APPID
  2
ACAD
 70
               0
  0
ENDTAB
  0
TABLE
  2
DIMSTYLE
 70
               1
  0
DIMSTYLE
  2
STANDARD
 70
               0
  3

  4

  5

  6

  7

 40
1.0
 41
0.18
 42
0.0625
 43
0.38
 44
0.18
 45
0.0
 46
0.0
 47
0.0
 48
0.0
140
0.18
141
0.09
142
0.0
143
25.399999999999999
144
1.0
145
0.0
146
1.0
147
0.09
 71
               0
 72
               0
 73
               1
 74
               1
 75
               0
 76
               0
 77
               0
 78
               0
170
               0
171
               2
172
               0
173
               0
174
               0
175
               0
176
               0
177
               0
178
               0
  0
ENDTAB
  0
ENDSEC
  0
SECTION
  2
BLOCKS
  0
BLOCK
  8
0
  5
138
  2
GROUP_1
 70
               0
 10
0.0
 20
0.0
 30
0.0
  3
GROUP_1
  0
LINE
  8
0
  6
CONTINUOUS
 62
               3
  5
139
 10
-43.373363266045615
 20
-56.090689290526186
 30
0.0
 11
-43.387202968440377
 21
-55.994299364442782
 31
0.0
  0
LINE
  8
0
  6
CONTINUOUS
 62
               3
  5
13A
 10
-43.387202968440377
 20
-55.994299364442782
 30
0.0
 11
-43.401398810432916
 21
-55.897963309325363
 31
0.0
  0
LINE
  8
0
  6
CONTINUOUS
 62
               3
  5
13B
 10
-43.401398810432916
 20
-55.897963309325363
 30
0.0
 11
-43.415950590397756
 21
-55.801682493447913
 31
0.0
  0
LINE
  8
0
  6
CONTINUOUS
 62
               3
  5
13C
 10
-43.415950590397756
 20
-55.801682493447913
 30
0.0
 11
-43.430858101654003
 21
-55.70545828429988
 31
0.0
  0
LINE
  8
0
  6
CONTINUOUS
 62
               3
  5
13D
 10
-43.430858101654003
 20
-55.70545828429988
 30
0.0
 11
-43.446121132468264
 21
-55.609292048566701
 31
0.0
  0
LINE
  8
0
  6
CONTINUOUS
 62
               3
  5
13E
 10
-43.446121132468264
 20
-55.609292048566701
 30
0.0
 11
-43.461739466057644
 21
-55.51318515211041
 31
0.0
  0
LINE
  8
0
  6
CONTINUOUS
 62
               3
  5
13F
 10
-43.461739466057644
 20
-55.51318515211041
 30
0.0
 11
-43.477712880592847
 21
-55.417138959950229
 31
0.0
  0
LINE
  8
0
  6
CONTINUOUS
 62
               3
  5
140
 10
-43.477712880592847
 20
-55.417138959950229
 30
0.0
 11
-43.494041149201308
 21
-55.32115483624321
 31
0.0
  0
LINE
  8
0
  6
CONTINUOUS
 62
               3
  5
141
 10
-43.494041149201308
 20
-55.32115483624321
 30
0.0
 11
-43.51072403997042
 21
-55.225234144264832
 31
0.0
  0
LINE
  8
0
  6
CONTINUOUS
 62
               3
  5
142
 10
-43.51072403997042
 20
-55.225234144264832
 30
0.0
 11
-43.527761315950841
 21
-55.129378246389628
 31
0.0
  0
LINE
  8
0
  6
CONTINUOUS
 62
               3
  5
143
 10
-43.527761315950841
 20
-55.129378246389628
 30
0.0
 11
-43.545152735159817
 21
-55.033588504071865
 31
0.0
  0
LINE
  8
0
  6
CONTINUOUS
 62
               3
  5
144
 10
-43.545152735159817
 20
-55.033588504071865
 30
0.0
 11
-43.5628980505847
 21
-54.937866277826195
 31
0.0
  0
LINE
  8
0
  6
CONTINUOUS
 62
               3
  5
145
 10
-43.5628980505847
 20
-54.937866277826195
 30
0.0
 11
-43.580997010186366
 21
-54.842212927208323
 31
0.0
  0
LINE
  8
0
  6
CONTINUOUS
 62
               3
  5
146
 10
-43.580997010186366
 20
-54.842212927208323
 30
0.0
 11
-43.599449356902838
 21
-54.74662981079571
 31
0.0
  0
LINE
  8
0
  6
CONTINUOUS
 62
               3
  5
147
 10
-43.599449356902838
 20
-54.74662981079571
 30
0.0
 11
-43.618254828652951
 21
-54.65111828616827
 31
0.0
  0
LINE
  8
0
  6
CONTINUOUS
 62
               3
  5
148
 10
-43.618254828652951
 20
-54.65111828616827
 30
0.0
 11
-43.637413158340053
 21
-54.555679709889091
 31
0.0
  0
LINE
  8
0
  6
CONTINUOUS
 62
               3
  5
149
 10
-43.637413158340053
 20
-54.555679709889091
 30
0.0
 11
-43.656924073855798
 21
-54.460315437485157
 31
0.0
  0
LINE
  8
0
  6
CONTINUOUS
 62
               3
  5
14A
 10
-43.656924073855798
 20
-54.460315437485157
 30
0.0
 11
-43.676787298084008
 21
-54.36502682342811
 31
0.0
  0
LINE
  8
0
  6
CONTINUOUS
 62
               3
  5
14B
 10
-43.676787298084008
 20
-54.36502682342811
 30
0.0
 11
-43.697002548904649
 21
-54.26981522111501
 31
0.0
  0
LINE
  8
0
  6
CONTINUOUS
 62
               3
  5
14C
 10
-43.697002548904649
 20
-54.26981522111501
 30
0.0
 11
-43.717569539197754
 21
-54.174681982849108
 31
0.0
  0
LINE
  8
0
  6
CONTINUOUS
 62
               3
  5
14D
 10
-43.717569539197754
 20
-54.174681982849108
 30
0.0
 11
-43.738487976847608
 21
-54.079628459820626
 31
0.0
  0
LINE
  8
0
  6
CONTINUOUS
 62
               3
  5
14E
 10
-43.738487976847608
 20
-54.079628459820626
 30
0.0
 11
-43.759757564746792
 21
-53.984656002087604
 31
0.0
  0
LINE
  8
0
  6
CONTINUOUS
 62
               3
  5
14F
 10
-43.759757564746792
 20
-53.984656002087604
 30
0.0
 11
-43.781378000800501
 21
-53.889765958556673
 31
0.0
  0
LINE
  8
0
  6
CONTINUOUS
 62
               3
  5
150
 10
-43.781378000800501
 20
-53.889765958556673
 30
0.0
 11
-43.803348977930739
 21
-53.794959676963956
 31
0.0
  0
LINE
  8
0
  6
CONTINUOUS
 62
               3
  5
151
 10
-43.803348977930739
 20
-53.794959676963956
 30
0.0
 11
-43.825670184080764
 21
-53.700238503855857
 31
0.0
  0
LINE
  8
0
  6
CONTINUOUS
 62
               3
  5
152
 10
-43.825670184080764
 20
-53.700238503855857
 30
0.0
 11
-43.84834130221946
 21
-53.605603784570008
 31
0.0
  0
LINE
  8
0
  6
CONTINUOUS
 62
               3
  5
153
 10
-43.84834130221946
 20
-53.605603784570008
 30
0.0
 11
-43.871362010345884
 21
-53.511056863216098
 31
0.0
  0
LINE
  8
0
  6
CONTINUOUS
 62
               3
  5
154
 10
-43.871362010345884
 20
-53.511056863216098
 30
0.0
 11
-43.894731981493806
 21
-53.416599082656823
 31
0.0
  0
LINE
  8
0
  6
CONTINUOUS
 62
               3
  5
155
 10
-43.894731981493806
 20
-53.416599082656823
 30
0.0
 11
-43.918450883736362
 21
-53.322231784488807
 31
0.0
  0
LINE
  8
0
  6
CONTINUOUS
 62
               3
  5
156
 10
-43.918450883736362
 20
-53.322231784488807
 30
0.0
 11
-43.942518380190791
 21
-53.227956309023526
 31
0.0
  0
LINE
  8
0
  6
CONTINUOUS
 62
               3
  5
157
 10
-43.942518380190791
 20
-53.227956309023526
 30
0.0
 11
-43.96693412902318
 21
-53.133773995268292
 31
0.0
  0
LINE
  8
0
  6
CONTINUOUS
 62
               3
  5
158
 10
-43.96693412902318
 20
-53.133773995268292
 30
0.0
 11
-43.991697783453361
 21
-53.039686180907232
 31
0.0
  0
LINE
  8
0
  6
CONTINUOUS
 62
               3
  5
159
 10
-43.991697783453361
 20
-53.039686180907232
 30
0.0
 11
-44.016808991759788
 21
-52.945694202282283
 31
0.0
  0
LINE
  8
0
  6
CONTINUOUS
 62
               3
  5
15A
 10
-44.016808991759788
 20
-52.945694202282283
 30
0.0
 11
-44.042267397284597
 21
-52.851799394374211
 31
0.0
  0
LINE
  8
0
  6
CONTINUOUS
 62
               3
  5
15B
 10
-44.042267397284597
 20
-52.851799394374211
 30
0.0
 11
-44.068072638438608
 21
-52.758003090783646
 31
0.0
  0
LINE
  8
0
  6
CONTINUOUS
 62
               3
  5
15C
 10
-44.068072638438608
 20
-52.758003090783646
 30
0.0
 11
-44.09422434870649
 21
-52.664306623712172
 31
0.0
  0
LINE
  8
0
  6
CONTINUOUS
 62
               3
  5
15D
 10
-44.09422434870649
 20
-52.664306623712172
 30
0.0
 11
-44.120722156651979
 21
-52.570711323943357
 31
0.0
  0
LINE
  8
0
  6
CONTINUOUS
 62
               3
  5
15E
 10
-44.120722156651979
 20
-52.570711323943357
 30
0.0
 11
-44.147565685923119
 21
-52.477218520823897
 31
0.0
  0
LINE
  8
0
  6
CONTINUOUS
 62
               3
  5
15F
 10
-44.147565685923119
 20
-52.477218520823897
 30
0.0
 11
-44.17475455525765
 21
-52.383829542244683
 31
0.0
  0
LINE
  8
0
  6
CONTINUOUS
 62
               3
  5
160
 10
-44.17475455525765
 20
-52.383829542244683
 30
0.0
 11
-44.202288378488376
 21
-52.290545714622013
 31
0.0
  0
LINE
  8
0
  6
CONTINUOUS
 62
               3
  5
161
 10
-44.202288378488376
 20
-52.290545714622013
 30
0.0
 11
-44.230166764548699
 21
-52.197368362878677
 31
0.0
  0
LINE
  8
0
  6
CONTINUOUS
 62
               3
  5
162
 10
-44.230166764548699
 20
-52.197368362878677
 30
0.0
 11
-44.25838931747812
 21
-52.104298810425192
 31
0.0
  0
LINE
  8
0
  6
CONTINUOUS
 62
               3
  5
163
 10
-44.25838931747812
 20
-52.104298810425192
 30
0.0
 11
-44.286955636427926
 21
-52.011338379140994
 31
0.0
  0
LINE
  8
0
  6
CONTINUOUS
 62
               3
  5
164
 10
-44.286955636427926
 20
-52.011338379140994
 30
0.0
 11
-44.315865315666827
 21
-51.918488389355623
 31
0.0
  0
LINE
  8
0
  6
CONTINUOUS
 62
               3
  5
165
 10
-44.315865315666827
 20
-51.918488389355623
 30
0.0
 11
-44.345117944586725
 21
-51.825750159830037
 31
0.0
  0
LINE
  8
0
  6
CONTINUOUS
 62
               3
  5
166
 10
-44.345117944586725
 20
-51.825750159830037
 30
0.0
 11
-44.374713107708601
 21
-51.73312500773784
 31
0.0
  0
LINE
  8
0
  6
CONTINUOUS
 62
               3
  5
167
 10
-44.374713107708601
 20
-51.73312500773784
 30
0.0
 11
-44.404650384688352
 21
-51.640614248646571
 31
0.0
  0
LINE
  8
0
  6
CONTINUOUS
 62
               3
  5
168
 10
-44.404650384688352
 20
-51.640614248646571
 30
0.0
 11
-44.434929350322783
 21
-51.548219196499034
 31
0.0
  0
LINE
  8
0
  6
CONTINUOUS
 62
               3
  5
169
 10
-44.434929350322783
 20
-51.548219196499034
 30
0.0
 11
-44.465549574555659
 21
-51.455941163594652
 31
0.0
  0
LINE
  8
0
  6
CONTINUOUS
 62
               3
  5
16A
 10
-44.465549574555659
 20
-51.455941163594652
 30
0.0
 11
-44.496510622483797
 21
-51.36378146057077
 31
0.0
  0
LINE
  8
0
  6
CONTINUOUS
 62
               3
  5
16B
 10
-44.496510622483797
 20
-51.36378146057077
 30
0.0
 11
-44.527812054363253
 21
-51.271741396384115
 31
0.0
  0
LINE
  8
0
  6
CONTINUOUS
 62
               3
  5
16C
 10
-44.527812054363253
 20
-51.271741396384115
 30
0.0
 11
-44.559453425615565
 21
-51.179822278292136
 31
0.0
  0
LINE
  8
0
  6
CONTINUOUS
 62
               3
  5
16D
 10
-44.559453425615565
 20
-51.179822278292136
 30
0.0
 11
-44.591434286834058
 21
-51.088025411834494
 31
0.0
  0
LINE
  8
0
  6
CONTINUOUS
 62
               3
  5
16E
 10
-44.591434286834058
 20
-51.088025411834494
 30
0.0
 11
-44.623754183790247
 21
-50.996352100814477
 31
0.0
  0
LINE
  8
0
  6
CONTINUOUS
 62
               3
  5
16F
 10
-44.623754183790247
 20
-50.996352100814477
 30
0.0
 11
-44.656412657440264
 21
-50.904803647280502
 31
0.0
  0
LINE
  8
0
  6
CONTINUOUS
 62
               3
  5
170
 10
-44.656412657440264
 20
-50.904803647280502
 30
0.0
 11
-44.689409243931394
 21
-50.81338135150763
 31
0.0
  0
LINE
  8
0
  6
CONTINUOUS
 62
               3
  5
171
 10
-44.689409243931394
 20
-50.81338135150763
 30
0.0
 11
-44.72274347460867
 21
-50.722086511979064
 31
0.0
  0
LINE
  8
0
  6
CONTINUOUS
 62
               3
  5
172
 10
-44.72274347460867
 20
-50.722086511979064
 30
0.0
 11
-44.756414876021509
 21
-50.630920425367748
 31
0.0
  0
LINE
  8
0
  6
CONTINUOUS
 62
               3
  5
173
 10
-44.756414876021509
 20
-50.630920425367748
 30
0.0
 11
-44.790422969930447
 21
-50.539884386517926
 31
0.0
  0
LINE
  8
0
  6
CONTINUOUS
 62
               3
  5
174
 10
-44.790422969930447
 20
-50.539884386517926
 30
0.0
 11
-44.824767273313924
 21
-50.448979688426753
 31
0.0
  0
LINE
  8
0
  6
CONTINUOUS
 62
               3
  5
175
 10
-44.824767273313924
 20
-50.448979688426753
 30
0.0
 11
-44.85944729837518
 21
-50.358207622225933
 31
0.0
  0
LINE
  8
0
  6
CONTINUOUS
 62
               3
  5
176
 10
-44.85944729837518
 20
-50.358207622225933
 30
0.0
 11
-44.894462552549115
 21
-50.267569477163384
 31
0.0
  0
LINE
  8
0
  6
CONTINUOUS
 62
               3
  5
177
 10
-44.894462552549115
 20
-50.267569477163384
 30
0.0
 11
-44.92981253850936
 21
-50.177066540584917
 31
0.0
  0
LINE
  8
0
  6
CONTINUOUS
 62
               3
  5
178
 10
-44.92981253850936
 20
-50.177066540584917
 30
0.0
 11
-44.965496754175277
 21
-50.08670009791598
 31
0.0
  0
LINE
  8
0
  6
CONTINUOUS
 62
               3
  5
179
 10
-44.965496754175277
 20
-50.08670009791598
 30
0.0
 11
-45.001514692719141
 21
-49.996471432643347
 31
0.0
  0
LINE
  8
0
  6
CONTINUOUS
 62
               3
  5
17A
 10
-45.001514692719141
 20
-49.996471432643347
 30
0.0
 11
-45.037865842573304
 21
-49.906381826296943
 31
0.0
  0
LINE
  8
0
  6
CONTINUOUS
 62
               3
  5
17B
 10
-45.037865842573304
 20
-49.906381826296943
 30
0.0
 11
-45.074549687437468
 21
-49.816432558431622
 31
0.0
  0
LINE
  8
0
  6
CONTINUOUS
 62
               3
  5
17C
 10
-45.074549687437468
 20
-49.816432558431622
 30
0.0
 11
-45.111565706286029
 21
-49.726624906608983
 31
0.0
  0
LINE
  8
0
  6
CONTINUOUS
 62
               3
  5
17D
 10
-45.111565706286029
 20
-49.726624906608983
 30
0.0
 11
-45.148913373375485
 21
-49.636960146379231
 31
0.0
  0
LINE
  8
0
  6
CONTINUOUS
 62
               3
  5
17E
 10
-45.148913373375485
 20
-49.636960146379231
 30
0.0
 11
-45.186592158251862
 21
-49.547439551263068
 31
0.0
  0
LINE
  8
0
  6
CONTINUOUS
 62
               3
  5
17F
 10
-45.186592158251862
 20
-49.547439551263068
 30
0.0
 11
-45.224601525758295
 21
-49.458064392733604
 31
0.0
  0
LINE
  8
0
  6
CONTINUOUS
 62
               3
  5
180
 10
-45.224601525758295
 20
-49.458064392733604
 30
0.0
 11
-45.262940936042597
 21
-49.368835940198281
 31
0.0
  0
LINE
  8
0
  6
CONTINUOUS
 62
               3
  5
181
 10
-45.262940936042597
 20
-49.368835940198281
 30
0.0
 11
-45.301609844564958
 21
-49.279755460980866
 31
0.0
  0
LINE
  8
0
  6
CONTINUOUS
 62
               3
  5
182
 10
-45.301609844564958
 20
-49.279755460980866
 30
0.0
 11
-45.340607702105636
 21
-49.190824220303433
 31
0.0
  0
LINE
  8
0
  6
CONTINUOUS
 62
               3
  5
183
 10
-45.340607702105636
 20
-49.190824220303433
 30
0.0
 11
-45.379933954772795
 21
-49.10204348126841
 31
0.0
  0
LINE
  8
0
  6
CONTINUOUS
 62
               3
  5
184
 10
-45.379933954772795
 20
-49.10204348126841
 30
0.0
 11
-45.419588044010354
 21
-49.013414504840625
 31
0.0
  0
LINE
  8
0
  6
CONTINUOUS
 62
               3
  5
185
 10
-45.419588044010354
 20
-49.013414504840625
 30
0.0
 11
-45.459569406605937
 21
-48.924938549829399
 31
0.0
  0
LINE
  8
0
  6
CONTINUOUS
 62
               3
  5
186
 10
-45.459569406605937
 20
-48.924938549829399
 30
0.0
 11
-45.499877474698849
 21
-48.836616872870678
 31
0.0
  0
LINE
  8
0
  6
CONTINUOUS
 62
               3
  5
187
 10
-45.499877474698849
 20
-48.836616872870678
 30
0.0
 11
-45.540511675788139
 21
-48.748450728409161
 31
0.0
  0
LINE
  8
0
  6
CONTINUOUS
 62
               3
  5
188
 10
-45.540511675788139
 20
-48.748450728409161
 30
0.0
 11
-45.581471432740777
 21
-48.660441368680516
 31
0.0
  0
LINE
  8
0
  6
CONTINUOUS
 62
               3
  5
189
 10
-45.581471432740777
 20
-48.660441368680516
 30
0.0
 11
-45.622756163799792
 21
-48.572590043693559
 31
0.0
  0
LINE
  8
0
  6
CONTINUOUS
 62
               3
  5
18A
 10
-45.622756163799792
 20
-48.572590043693559
 30
0.0
 11
-45.664365282592584
 21
-48.484898001212528
 31
0.0
  0
LINE
  8
0
  6
CONTINUOUS
 62
               3
  5
18B
 10
-45.664365282592584
 20
-48.484898001212528
 30
0.0
 11
-45.706298198139208
 21
-48.397366486739344
 31
0.0
  0
LINE
  8
0
  6
CONTINUOUS
 62
               3
  5
18C
 10
-45.706298198139208
 20
-48.397366486739344
 30
0.0
 11
-45.748554314860812
 21
-48.30999674349593
 31
0.0
  0
LINE
  8
0
  6
CONTINUOUS
 62
               3
  5
18D
 10
-45.748554314860812
 20
-48.30999674349593
 30
0.0
 11
-45.791133032588043
 21
-48.222790012406563
 31
0.0
  0
LINE
  8
0
  6
CONTINUOUS
 62
               3
  5
18E
 10
-45.791133032588043
 20
-48.222790012406563
 30
0.0
 11
-45.834033746569638
 21
-48.13574753208021
 31
0.0
  0
LINE
  8
0
  6
CONTINUOUS
 62
               3
  5
18F
 10
-45.834033746569638
 20
-48.13574753208021
 30
0.0
 11
-45.87725584748096
 21
-48.048870538792976
 31
0.0
  0
LINE
  8
0
  6
CONTINUOUS
 62
               3
  5
190
 10
-45.87725584748096
 20
-48.048870538792976
 30
0.0
 11
-45.920798721432668
 21
-47.962160266470541
 31
0.0
  0
LINE
  8
0
  6
CONTINUOUS
 62
               3
  5
191
 10
-45.920798721432668
 20
-47.962160266470541
 30
0.0
 11
-45.964661749979442
 21
-47.875617946670609
 31
0.0
  0
LINE
  8
0
  6
CONTINUOUS
 62
               3
  5
192
 10
-45.964661749979442
 20
-47.875617946670609
 30
0.0
 11
-46.008844310128765
 21
-47.789244808565435
 31
0.0
  0
LINE
  8
0
  6
CONTINUOUS
 62
               3
  5
193
 10
-46.008844310128765
 20
-47.789244808565435
 30
0.0
 11
-46.053345774349765
 21
-47.703042078924369
 31
0.0
  0
LINE
  8
0
  6
CONTINUOUS
 62
               3
  5
194
 10
-46.053345774349765
 20
-47.703042078924369
 30
0.0
 11
-46.098165510582135
 21
-47.617010982096431
 31
0.0
  0
LINE
  8
0
  6
CONTINUOUS
 62
               3
  5
195
 10
-46.098165510582135
 20
-47.617010982096431
 30
0.0
 11
-46.143302882245109
 21
-47.531152739992898
 31
0.0
  0
LINE
  8
0
  6
CONTINUOUS
 62
               3
  5
196
 10
-46.143302882245109
 20
-47.531152739992898
 30
0.0
 11
-46.188757248246503
 21
-47.445468572069984
 31
0.0
  0
LINE
  8
0
  6
CONTINUOUS
 62
               3
  5
197
 10
-46.188757248246503
 20
-47.445468572069984
 30
0.0
 11
-46.234527962991805
 21
-47.359959695311503
 31
0.0
  0
LINE
  8
0
  6
CONTINUOUS
 62
               3
  5
198
 10
-46.234527962991805
 20
-47.359959695311503
 30
0.0
 11
-46.280614376393387
 21
-47.274627324211572
 31
0.0
  0
LINE
  8
0
  6
CONTINUOUS
 62
               3
  5
199
 10
-46.280614376393387
 20
-47.274627324211572
 30
0.0
 11
-46.327015833879685
 21
-47.189472670757397
 31
0.0
  0
LINE
  8
0
  6
CONTINUOUS
 62
               3
  5
19A
 10
-46.327015833879685
 20
-47.189472670757397
 30
0.0
 11
-46.373731676404539
 21
-47.104496944412013
 31
0.0
  0
LINE
  8
0
  6
CONTINUOUS
 62
               3
  5
19B
 10
-46.373731676404539
 20
-47.104496944412013
 30
0.0
 11
-46.420761240456514
 21
-47.019701352097144
 31
0.0
  0
LINE
  8
0
  6
CONTINUOUS
 62
               3
  5
19C
 10
-46.420761240456514
 20
-47.019701352097144
 30
0.0
 11
-46.468103858068375
 21
-46.935087098176041
 31
0.0
  0
LINE
  8
0
  6
CONTINUOUS
 62
               3
  5
19D
 10
-46.468103858068375
 20
-46.935087098176041
 30
0.0
 11
-46.515758856826508
 21
-46.850655384436379
 31
0.0
  0
LINE
  8
0
  6
CONTINUOUS
 62
               3
  5
19E
 10
-46.515758856826508
 20
-46.850655384436379
 30
0.0
 11
-46.563725559880552
 21
-46.766407410073185
 31
0.0
  0
LINE
  8
0
  6
CONTINUOUS
 62
               3
  5
19F
 10
-46.563725559880552
 20
-46.766407410073185
 30
0.0
 11
-46.612003285952937
 21
-46.682344371671839
 31
0.0
  0
LINE
  8
0
  6
CONTINUOUS
 62
               3
  5
1A0
 10
-46.612003285952937
 20
-46.682344371671839
 30
0.0
 11
-46.660591349348593
 21
-46.598467463191014
 31
0.0
  0
LINE
  8
0
  6
CONTINUOUS
 62
               3
  5
1A1
 10
-46.660591349348593
 20
-46.598467463191014
 30
0.0
 11
-46.709489059964696
 21
-46.514777875945768
 31
0.0
  0
LINE
  8
0
  6
CONTINUOUS
 62
               3
  5
1A2
 10
-46.709489059964696
 20
-46.514777875945768
 30
0.0
 11
-46.758695723300463
 21
-46.431276798590631
 31
0.0
  0
LINE
  8
0
  6
CONTINUOUS
 62
               3
  5
1A3
 10
-46.758695723300463
 20
-46.431276798590631
 30
0.0
 11
-46.808210640466996
 21
-46.347965417102664
 31
0.0
  0
LINE
  8
0
  6
CONTINUOUS
 62
               3
  5
1A4
 10
-46.808210640466996
 20
-46.347965417102664
 30
0.0
 11
-46.858033108197247
 21
-46.26484491476468
 31
0.0
  0
LINE
  8
0
  6
CONTINUOUS
 62
               3
  5
1A5
 10
-46.858033108197247
 20
-46.26484491476468
 30
0.0
 11
-46.908162418855973
 21
-46.181916472148401
 31
0.0
  0
LINE
  8
0
  6
CONTINUOUS
 62
               3
  5
1A6
 10
-46.908162418855973
 20
-46.181916472148401
 30
0.0
 11
-46.958597860449814
 21
-46.099181267097705
 31
0.0
  0
LINE
  8
0
  6
CONTINUOUS
 62
               3
  5
1A7
 10
-46.958597860449814
 20
-46.099181267097705
 30
0.0
 11
-47.009338716637359
 21
-46.01664047471187
 31
0.0
  0
LINE
  8
0
  6
CONTINUOUS
 62
               3
  5
1A8
 10
-47.009338716637359
 20
-46.01664047471187
 30
0.0
 11
-47.060384266739398
 21
-45.934295267328928
 31
0.0
  0
LINE
  8
0
  6
CONTINUOUS
 62
               3
  5
1A9
 10
-47.060384266739398
 20
-45.934295267328928
 30
0.0
 11
-47.111733785749074
 21
-45.852146814508977
 31
0.0
  0
LINE
  8
0
  6
CONTINUOUS
 62
               3
  5
1AA
 10
-47.111733785749074
 20
-45.852146814508977
 30
0.0
 11
-47.163386544342238
 21
-45.770196283017597
 31
0.0
  0
LINE
  8
0
  6
CONTINUOUS
 62
               3
  5
1AB
 10
-47.163386544342238
 20
-45.770196283017597
 30
0.0
 11
-47.215341808887786
 21
-45.688444836809254
 31
0.0
  0
LINE
  8
0
  6
CONTINUOUS
 62
               3
  5
1AC
 10
-47.215341808887786
 20
-45.688444836809254
 30
0.0
 11
-47.26759884145806
 21
-45.606893637010771
 31
0.0
  0
LINE
  8
0
  6
CONTINUOUS
 62
               3
  5
1AD
 10
-47.26759884145806
 20
-45.606893637010771
 30
0.0
 11
-47.32015689983939
 21
-45.525543841904863
 31
0.0
  0
LINE
  8
0
  6
CONTINUOUS
 62
               3
  5
1AE
 10
-47.32015689983939
 20
-45.525543841904863
 30
0.0
 11
-47.37301523754256
 21
-45.444396606913656
 31
0.0
  0
LINE
  8
0
  6
CONTINUOUS
 62
               3
  5
1AF
 10
-47.37301523754256
 20
-45.444396606913656
 30
0.0
 11
-47.426173103813468
 21
-45.363453084582289
 31
0.0
  0
LINE
  8
0
  6
CONTINUOUS
 62
               3
  5
1B0
 10
-47.426173103813468
 20
-45.363453084582289
 30
0.0
 11
-47.479629743643756
 21
-45.282714424562549
 31
0.0
  0
LINE
  8
0
  6
CONTINUOUS
 62
               3
  5
1B1
 10
-47.479629743643756
 20
-45.282714424562549
 30
0.0
 11
-47.533384397781546
 21
-45.202181773596521
 31
0.0
  0
LINE
  8
0
  6
CONTINUOUS
 62
               3
  5
1B2
 10
-47.533384397781546
 20
-45.202181773596521
 30
0.0
 11
-47.587436302742226
 21
-45.121856275500321
 31
0.0
  0
LINE
  8
0
  6
CONTINUOUS
 62
               3
  5
1B3
 10
-47.587436302742226
 20
-45.121856275500321
 30
0.0
 11
-47.641784690819293
 21
-45.041739071147859
 31
0.0
  0
LINE
  8
0
  6
CONTINUOUS
 62
               3
  5
1B4
 10
-47.641784690819293
 20
-45.041739071147859
 30
0.0
 11
-47.69642879009524
 21
-44.961831298454612
 31
0.0
  0
LINE
  8
0
  6
CONTINUOUS
 62
               3
  5
1B5
 10
-47.69642879009524
 20
-44.961831298454612
 30
0.0
 11
-47.751367824452551
 21
-44.882134092361454
 31
0.0
  0
LINE
  8
0
  6
CONTINUOUS
 62
               3
  5
1B6
 10
-47.751367824452551
 20
-44.882134092361454
 30
0.0
 11
-47.806601013584697
 21
-44.802648584818577
 31
0.0
  0
LINE
  8
0
  6
CONTINUOUS
 62
               3
  5
1B7
 10
-47.806601013584697
 20
-44.802648584818577
 30
0.0
 11
-47.862127573007243
 21
-44.723375904769384
 31
0.0
  0
LINE
  8
0
  6
CONTINUOUS
 62
               3
  5
1B8
 10
-47.862127573007243
 20
-44.723375904769384
 30
0.0
 11
-47.917946714068954
 21
-44.644317178134457
 31
0.0
  0
LINE
  8
0
  6
CONTINUOUS
 62
               3
  5
1B9
 10
-47.917946714068954
 20
-44.644317178134457
 30
0.0
 11
-47.974057643963036
 21
-44.565473527795561
 31
0.0
  0
LINE
  8
0
  6
CONTINUOUS
 62
               3
  5
1BA
 10
-47.974057643963036
 20
-44.565473527795561
 30
0.0
 11
-48.030459565738369
 21
-44.486846073579713
 31
0.0
  0
LINE
  8
0
  6
CONTINUOUS
 62
               3
  5
1BB
 10
-48.030459565738369
 20
-44.486846073579713
 30
0.0
 11
-48.087151678310832
 21
-44.408435932243272
 31
0.0
  0
LINE
  8
0
  6
CONTINUOUS
 62
               3
  5
1BC
 10
-48.087151678310832
 20
-44.408435932243272
 30
0.0
 11
-48.14413317647471
 21
-44.330244217456062
 31
0.0
  0
LINE
  8
0
  6
CONTINUOUS
 62
               3
  5
1BD
 10
-48.14413317647471
 20
-44.330244217456062
 30
0.0
 11
-48.201403250914076
 21
-44.252272039785574
 31
0.0
  0
LINE
  8
0
  6
CONTINUOUS
 62
               3
  5
1BE
 10
-48.201403250914076
 20
-44.252272039785574
 30
0.0
 11
-48.258961088214335
 21
-44.174520506681176
 31
0.0
  0
LINE
  8
0
  6
CONTINUOUS
 62
               3
  5
1BF
 10
-48.258961088214335
 20
-44.174520506681176
 30
0.0
 11
-48.316805870873736
 21
-44.096990722458393
 31
0.0
  0
LINE
  8
0
  6
CONTINUOUS
 62
               3
  5
1C0
 10
-48.316805870873736
 20
-44.096990722458393
 30
0.0
 11
-48.374936777315028
 21
-44.019683788283224
 31
0.0
  0
LINE
  8
0
  6
CONTINUOUS
 62
               3
  5
1C1
 10
-48.374936777315028
 20
-44.019683788283224
 30
0.0
 11
-48.433352981897102
 21
-43.942600802156498
 31
0.0
  0
LINE
  8
0
  6
CONTINUOUS
 62
               3
  5
1C2
 10
-48.433352981897102
 20
-43.942600802156498
 30
0.0
 11
-48.4920536549267
 21
-43.86574285889828
 31
0.0
  0
LINE
  8
0
  6
CONTINUOUS
 62
               3
  5
1C3
 10
-48.4920536549267
 20
-43.86574285889828
 30
0.0
 11
-48.551037962670236
 21
-43.78911105013232
 31
0.0
  0
LINE
  8
0
  6
CONTINUOUS
 62
               3
  5
1C4
 10
-48.551037962670236
 20
-43.78911105013232
 30
0.0
 11
-48.61030506736563
 21
-43.712706464270539
 31
0.0
  0
LINE
  8
0
  6
CONTINUOUS
 62
               3
  5
1C5
 10
-48.61030506736563
 20
-43.712706464270539
 30
0.0
 11
-48.669854127234174
 21
-43.636530186497602
 31
0.0
  0
LINE
  8
0
  6
CONTINUOUS
 62
               3
  5
1C6
 10
-48.669854127234174
 20
-43.636530186497602
 30
0.0
 11
-48.729684296492543
 21
-43.560583298755461
 31
0.0
  0
LINE
  8
0
  6
CONTINUOUS
 62
               3
  5
1C7
 10
-48.729684296492543
 20
-43.560583298755461
 30
0.0
 11
-48.78979472536475
 21
-43.484866879728031
 31
0.0
  0
LINE
  8
0
  6
CONTINUOUS
 62
               3
  5
1C8
 10
-48.78979472536475
 20
-43.484866879728031
 30
0.0
 11
-48.850184560094263
 21
-43.409382004825844
 31
0.0
  0
LINE
  8
0
  6
CONTINUOUS
 62
               3
  5
1C9
 10
-48.850184560094263
 20
-43.409382004825844
 30
0.0
 11
-48.910852942956083
 21
-43.334129746170753
 31
0.0
  0
LINE
  8
0
  6
CONTINUOUS
 62
               3
  5
1CA
 10
-48.910852942956083
 20
-43.334129746170753
 30
0.0
 11
-48.971799012269003
 21
-43.259111172580774
 31
0.0
  0
LINE
  8
0
  6
CONTINUOUS
 62
               3
  5
1CB
 10
-48.971799012269003
 20
-43.259111172580774
 30
0.0
 11
-49.033021902407754
 21
-43.18432734955482
 31
0.0
  0
LINE
  8
0
  6
CONTINUOUS
 62
               3
  5
1CC
 10
-49.033021902407754
 20
-43.18432734955482
 30
0.0
 11
-49.094520743815352
 21
-43.109779339257642
 31
0.0
  0
LINE
  8
0
  6
CONTINUOUS
 62
               3
  5
1CD
 10
-49.094520743815352
 20
-43.109779339257642
 30
0.0
 11
-49.156294663015444
 21
-43.03546820050471
 31
0.0
  0
LINE
  8
0
  6
CONTINUOUS
 62
               3
  5
1CE
 10
-49.156294663015444
 20
-43.03546820050471
 30
0.0
 11
-49.218342782624731
 21
-42.961394988747145
 31
0.0
  0
ENDBLK
  8
0
  5
1CF
  0
BLOCK
  8
0
  5
1D0
  2
GROUP_2
 70
               0
 10
0.0
 20
0.0
 30
0.0
  3
GROUP_2
  0
LINE
  8
0
  6
CONTINUOUS
 62
               3
  5
1D1
 10
-52.154340935116672
 20
-59.949480510556974
 30
0.0
 11
-52.103807540509088
 21
-60.026946890089832
 31
0.0
  0
LINE
  8
0
  6
CONTINUOUS
 62
               3
  5
1D2
 10
-52.103807540509088
 20
-60.026946890089832
 30
0.0
 11
-52.052031720384178
 21
-60.103408847378788
 31
0.0
  0
LINE
  8
0
  6
CONTINUOUS
 62
               3
  5
1D3
 10
-52.052031720384178
 20
-60.103408847378788
 30
0.0
 11
-51.999029884641452
 21
-60.178842148466124
 31
0.0
  0
LINE
  8
0
  6
CONTINUOUS
 62
               3
  5
1D4
 10
-51.999029884641452
 20
-60.178842148466124
 30
0.0
 11
-51.944818831755498
 21
-60.253222885417834
 31
0.0
  0
LINE
  8
0
  6
CONTINUOUS
 62
               3
  5
1D5
 10
-51.944818831755498
 20
-60.253222885417834
 30
0.0
 11
-51.889415743451849
 21
-60.326527483901025
 31
0.0
  0
LINE
  8
0
  6
CONTINUOUS
 62
               3
  5
1D6
 10
-51.889415743451849
 20
-60.326527483901025
 30
0.0
 11
-51.832838179261365
 21
-60.398732710655622
 31
0.0
  0
LINE
  8
0
  6
CONTINUOUS
 62
               3
  5
1D7
 10
-51.832838179261365
 20
-60.398732710655622
 30
0.0
 11
-51.775104070954924
 21
-60.46981568085792
 31
0.0
  0
LINE
  8
0
  6
CONTINUOUS
 62
               3
  5
1D8
 10
-51.775104070954924
 20
-60.46981568085792
 30
0.0
 11
-51.716231716860065
 21
-60.539753865373768
 31
0.0
  0
LINE
  8
0
  6
CONTINUOUS
 62
               3
  5
1D9
 10
-51.716231716860065
 20
-60.539753865373768
 30
0.0
 11
-51.656239776061526
 21
-60.608525097898927
 31
0.0
  0
LINE
  8
0
  6
CONTINUOUS
 62
               3
  5
1DA
 10
-51.656239776061526
 20
-60.608525097898927
 30
0.0
 11
-51.595147262487387
 21
-60.67610758198456
 31
0.0
  0
LINE
  8
0
  6
CONTINUOUS
 62
               3
  5
1DB
 10
-51.595147262487387
 20
-60.67610758198456
 30
0.0
 11
-51.532973538882779
 21
-60.742479897945373
 31
0.0
  0
LINE
  8
0
  6
CONTINUOUS
 62
               3
  5
1DC
 10
-51.532973538882779
 20
-60.742479897945373
 30
0.0
 11
-51.469738310673009
 21
-60.807621009648429
 31
0.0
  0
LINE
  8
0
  6
CONTINUOUS
 62
               3
  5
1DD
 10
-51.469738310673009
 20
-60.807621009648429
 30
0.0
 11
-51.405461619718125
 21
-60.871510271180341
 31
0.0
  0
LINE
  8
0
  6
CONTINUOUS
 62
               3
  5
1DE
 10
-51.405461619718125
 20
-60.871510271180341
 30
0.0
 11
-51.340163837960802
 21
-60.934127433390856
 31
0.0
  0
LINE
  8
0
  6
CONTINUOUS
 62
               3
  5
1DF
 10
-51.340163837960802
 20
-60.934127433390856
 30
0.0
 11
-51.273865660969633
 21
-60.995452650310611
 31
0.0
  0
LINE
  8
0
  6
CONTINUOUS
 62
               3
  5
1E0
 10
-51.273865660969633
 20
-60.995452650310611
 30
0.0
 11
-51.206588101379864
 21
-61.055466485441173
 31
0.0
  0
LINE
  8
0
  6
CONTINUOUS
 62
               3
  5
1E1
 10
-51.206588101379864
 20
-61.055466485441173
 30
0.0
 11
-51.138352482233586
 21
-61.114149917915228
 31
0.0
  0
LINE
  8
0
  6
CONTINUOUS
 62
               3
  5
1E2
 10
-51.138352482233586
 20
-61.114149917915228
 30
0.0
 11
-51.069180430221621
 21
-61.171484348525134
 31
0.0
  0
LINE
  8
0
  6
CONTINUOUS
 62
               3
  5
1E3
 10
-51.069180430221621
 20
-61.171484348525134
 30
0.0
 11
-50.999093868829092
 21
-61.22745160561773
 31
0.0
  0
LINE
  8
0
  6
CONTINUOUS
 62
               3
  5
1E4
 10
-50.999093868829092
 20
-61.22745160561773
 30
0.0
 11
-50.928115011386993
 21
-61.28203395085373
 31
0.0
  0
LINE
  8
0
  6
CONTINUOUS
 62
               3
  5
1E5
 10
-50.928115011386993
 20
-61.28203395085373
 30
0.0
 11
-50.856266354031845
 21
-61.33521408482968
 31
0.0
  0
LINE
  8
0
  6
CONTINUOUS
 62
               3
  5
1E6
 10
-50.856266354031845
 20
-61.33521408482968
 30
0.0
 11
-50.783570668575749
 21
-61.386975152560922
 31
0.0
  0
LINE
  8
0
  6
CONTINUOUS
 62
               3
  5
1E7
 10
-50.783570668575749
 20
-61.386975152560922
 30
0.0
 11
-50.710050995289066
 21
-61.437300748823581
 31
0.0
  0
LINE
  8
0
  6
CONTINUOUS
 62
               3
  5
1E8
 10
-50.710050995289066
 20
-61.437300748823581
 30
0.0
 11
-50.635730635597966
 21
-61.486174923354085
 31
0.0
  0
LINE
  8
0
  6
CONTINUOUS
 62
               3
  5
1E9
 10
-50.635730635597966
 20
-61.486174923354085
 30
0.0
 11
-50.560633144699295
 21
-61.533582185904464
 31
0.0
  0
LINE
  8
0
  6
CONTINUOUS
 62
               3
  5
1EA
 10
-50.560633144699295
 20
-61.533582185904464
 30
0.0
 11
-50.484782324094915
 21
-61.579507511151839
 31
0.0
  0
LINE
  8
0
  6
CONTINUOUS
 62
               3
  5
1EB
 10
-50.484782324094915
 20
-61.579507511151839
 30
0.0
 11
-50.408202214048046
 21
-61.623936343460571
 31
0.0
  0
LINE
  8
0
  6
CONTINUOUS
 62
               3
  5
1EC
 10
-50.408202214048046
 20
-61.623936343460571
 30
0.0
 11
-50.330917085963904
 21
-61.666854601495558
 31
0.0
  0
LINE
  8
0
  6
CONTINUOUS
 62
               3
  5
1ED
 10
-50.330917085963904
 20
-61.666854601495558
 30
0.0
 11
-50.252951434697074
 21
-61.708248682685173
 31
0.0
  0
LINE
  8
0
  6
CONTINUOUS
 62
               3
  5
1EE
 10
-50.252951434697074
 20
-61.708248682685173
 30
0.0
 11
-50.174329970788129
 21
-61.748105467532497
 31
0.0
  0
LINE
  8
0
  6
CONTINUOUS
 62
               3
  5
1EF
 10
-50.174329970788129
 20
-61.748105467532497
 30
0.0
 11
-50.095077612631762
 21
-61.786412323773412
 31
0.0
  0
LINE
  8
0
  6
CONTINUOUS
 62
               3
  5
1F0
 10
-50.095077612631762
 20
-61.786412323773412
 30
0.0
 11
-50.015219478579183
 21
-61.823157110380322
 31
0.0
  0
LINE
  8
0
  6
CONTINUOUS
 62
               3
  5
1F1
 10
-50.015219478579183
 20
-61.823157110380322
 30
0.0
 11
-49.934780878977023
 21
-61.858328181410108
 31
0.0
  0
LINE
  8
0
  6
CONTINUOUS
 62
               3
  5
1F2
 10
-49.934780878977023
 20
-61.858328181410108
 30
0.0
 11
-49.853787308145485
 21
-61.891914389695231
 31
0.0
  0
LINE
  8
0
  6
CONTINUOUS
 62
               3
  5
1F3
 10
-49.853787308145485
 20
-61.891914389695231
 30
0.0
 11
-49.772264436298101
 21
-61.923905090376735
 31
0.0
  0
LINE
  8
0
  6
CONTINUOUS
 62
               3
  5
1F4
 10
-49.772264436298101
 20
-61.923905090376735
 30
0.0
 11
-49.690238101405797
 21
-61.954290144278005
 31
0.0
  0
LINE
  8
0
  6
CONTINUOUS
 62
               3
  5
1F5
 10
-49.690238101405797
 20
-61.954290144278005
 30
0.0
 11
-49.607734301007753
 21
-61.983059921118368
 31
0.0
  0
LINE
  8
0
  6
CONTINUOUS
 62
               3
  5
1F6
 10
-49.607734301007753
 20
-61.983059921118368
 30
0.0
 11
-49.524779183971759
 21
-62.01020530256524
 31
0.0
  0
LINE
  8
0
  6
CONTINUOUS
 62
               3
  5
1F7
 10
-49.524779183971759
 20
-62.01020530256524
 30
0.0
 11
-49.441399042206477
 21
-62.035717685124162
 31
0.0
  0
LINE
  8
0
  6
CONTINUOUS
 62
               3
  5
1F8
 10
-49.441399042206477
 20
-62.035717685124162
 30
0.0
 11
-49.357620302328527
 21
-62.059588982865577
 31
0.0
  0
LINE
  8
0
  6
CONTINUOUS
 62
               3
  5
1F9
 10
-49.357620302328527
 20
-62.059588982865577
 30
0.0
 11
-49.273469517286728
 21
-62.081811629987605
 31
0.0
  0
LINE
  8
0
  6
CONTINUOUS
 62
               3
  5
1FA
 10
-49.273469517286728
 20
-62.081811629987605
 30
0.0
 11
-49.188973357946431
 21
-62.102378583213962
 31
0.0
  0
LINE
  8
0
  6
CONTINUOUS
 62
               3
  5
1FB
 10
-49.188973357946431
 20
-62.102378583213962
 30
0.0
 11
-49.104158604636382
 21
-62.121283324026251
 31
0.0
  0
LINE
  8
0
  6
CONTINUOUS
 62
               3
  5
1FC
 10
-49.104158604636382
 20
-62.121283324026251
 30
0.0
 11
-49.019052138660939
 21
-62.138519860729971
 31
0.0
  0
LINE
  8
0
  6
CONTINUOUS
 62
               3
  5
1FD
 10
-49.019052138660939
 20
-62.138519860729971
 30
0.0
 11
-48.933680933780259
 21
-62.154082730353522
 31
0.0
  0
LINE
  8
0
  6
CONTINUOUS
 62
               3
  5
1FE
 10
-48.933680933780259
 20
-62.154082730353522
 30
0.0
 11
-48.848072047661226
 21
-62.167967000379619
 31
0.0
  0
LINE
  8
0
  6
CONTINUOUS
 62
               3
  5
1FF
 10
-48.848072047661226
 20
-62.167967000379619
 30
0.0
 11
-48.762252613301747
 21
-62.18016827030867
 31
0.0
  0
LINE
  8
0
  6
CONTINUOUS
 62
               3
  5
200
 10
-48.762252613301747
 20
-62.18016827030867
 30
0.0
 11
-48.676249830431161
 21
-62.190682673053431
 31
0.0
  0
LINE
  8
0
  6
CONTINUOUS
 62
               3
  5
201
 10
-48.676249830431161
 20
-62.190682673053431
 30
0.0
 11
-48.590090956889547
 21
-62.199506876164669
 31
0.0
  0
LINE
  8
0
  6
CONTINUOUS
 62
               3
  5
202
 10
-48.590090956889547
 20
-62.199506876164669
 30
0.0
 11
-48.503803299988569
 21
-62.206638082887324
 31
0.0
  0
LINE
  8
0
  6
CONTINUOUS
 62
               3
  5
203
 10
-48.503803299988569
 20
-62.206638082887324
 30
0.0
 11
-48.417414207856666
 21
-62.212074033046953
 31
0.0
  0
LINE
  8
0
  6
CONTINUOUS
 62
               3
  5
204
 10
-48.417414207856666
 20
-62.212074033046953
 30
0.0
 11
-48.330951060771312
 21
-62.215813003766044
 31
0.0
  0
LINE
  8
0
  6
CONTINUOUS
 62
               3
  5
205
 10
-48.330951060771312
 20
-62.215813003766044
 30
0.0
 11
-48.244441262481033
 21
-62.217853810010091
 31
0.0
  0
LINE
  8
0
  6
CONTINUOUS
 62
               3
  5
206
 10
-48.244441262481033
 20
-62.217853810010091
 30
0.0
 11
-48.157912231520086
 21
-62.218195804963159
 31
0.0
  0
LINE
  8
0
  6
CONTINUOUS
 62
               3
  5
207
 10
-48.157912231520086
 20
-62.218195804963159
 30
0.0
 11
-48.071391392518322
 21
-62.216838880232899
 31
0.0
  0
LINE
  8
0
  6
CONTINUOUS
 62
               3
  5
208
 10
-48.071391392518322
 20
-62.216838880232899
 30
0.0
 11
-47.984906167509251
 21
-62.213783465884887
 31
0.0
  0
LINE
  8
0
  6
CONTINUOUS
 62
               3
  5
209
 10
-47.984906167509251
 20
-62.213783465884887
 30
0.0
 11
-47.898483967238811
 21
-62.20903053030635
 31
0.0
  0
LINE
  8
0
  6
CONTINUOUS
 62
               3
  5
20A
 10
-47.898483967238811
 20
-62.20903053030635
 30
0.0
 11
-47.812152182477817
 21
-62.202581579899224
 31
0.0
  0
LINE
  8
0
  6
CONTINUOUS
 62
               3
  5
20B
 10
-47.812152182477817
 20
-62.202581579899224
 30
0.0
 11
-47.725938175340644
 21
-62.194438658602692
 31
0.0
  0
LINE
  8
0
  6
CONTINUOUS
 62
               3
  5
20C
 10
-47.725938175340644
 20
-62.194438658602692
 30
0.0
 11
-47.639869270613076
 21
-62.184604347245418
 31
0.0
  0
LINE
  8
0
  6
CONTINUOUS
 62
               3
  5
20D
 10
-47.639869270613076
 20
-62.184604347245418
 30
0.0
 11
-47.553972747091954
 21
-62.173081762727534
 31
0.0
  0
LINE
  8
0
  6
CONTINUOUS
 62
               3
  5
20E
 10
-47.553972747091954
 20
-62.173081762727534
 30
0.0
 11
-47.468275828939355
 21
-62.159874557032808
 31
0.0
  0
LINE
  8
0
  6
CONTINUOUS
 62
               3
  5
20F
 10
-47.468275828939355
 20
-62.159874557032808
 30
0.0
 11
-47.382805677054172
 21
-62.144986916071133
 31
0.0
  0
LINE
  8
0
  6
CONTINUOUS
 62
               3
  5
210
 10
-47.382805677054172
 20
-62.144986916071133
 30
0.0
 11
-47.297589380463698
 21
-62.128423558351891
 31
0.0
  0
LINE
  8
0
  6
CONTINUOUS
 62
               3
  5
211
 10
-47.297589380463698
 20
-62.128423558351891
 30
0.0
 11
-47.212653947737955
 21
-62.110189733488397
 31
0.0
  0
LINE
  8
0
  6
CONTINUOUS
 62
               3
  5
212
 10
-47.212653947737955
 20
-62.110189733488397
 30
0.0
 11
-47.128026298429596
 21
-62.090291220534155
 31
0.0
  0
LINE
  8
0
  6
CONTINUOUS
 62
               3
  5
213
 10
-47.128026298429596
 20
-62.090291220534155
 30
0.0
 11
-47.043733254541991
 21
-62.068734326151173
 31
0.0
  0
LINE
  8
0
  6
CONTINUOUS
 62
               3
  5
214
 10
-47.043733254541991
 20
-62.068734326151173
 30
0.0
 11
-46.95980153202818
 21
-62.045525882611145
 31
0.0
  0
LINE
  8
0
  6
CONTINUOUS
 62
               3
  5
215
 10
-46.95980153202818
 20
-62.045525882611145
 30
0.0
 11
-46.876257732323538
 21
-62.020673245630029
 31
0.0
  0
LINE
  8
0
  6
CONTINUOUS
 62
               3
  5
216
 10
-46.876257732323538
 20
-62.020673245630029
 30
0.0
 11
-46.79312833391463
 21
-61.994184292036721
 31
0.0
  0
LINE
  8
0
  6
CONTINUOUS
 62
               3
  5
217
 10
-46.79312833391463
 20
-61.994184292036721
 30
0.0
 11
-46.710439683947122
 21
-61.966067417276534
 31
0.0
  0
LINE
  8
0
  6
CONTINUOUS
 62
               3
  5
218
 10
-46.710439683947122
 20
-61.966067417276534
 30
0.0
 11
-46.628217989875253
 21
-61.936331532750351
 31
0.0
  0
LINE
  8
0
  6
CONTINUOUS
 62
               3
  5
219
 10
-46.628217989875253
 20
-61.936331532750351
 30
0.0
 11
-46.546489311155625
 21
-61.904986062990247
 31
0.0
  0
LINE
  8
0
  6
CONTINUOUS
 62
               3
  5
21A
 10
-46.546489311155625
 20
-61.904986062990247
 30
0.0
 11
-46.46527955098788
 21
-61.872040942672434
 31
0.0
  0
LINE
  8
0
  6
CONTINUOUS
 62
               3
  5
21B
 10
-46.46527955098788
 20
-61.872040942672434
 30
0.0
 11
-46.384614448104891
 21
-61.837506613468577
 31
0.0
  0
LINE
  8
0
  6
CONTINUOUS
 62
               3
  5
21C
 10
-46.384614448104891
 20
-61.837506613468577
 30
0.0
 11
-46.304519568615113
 21
-61.801394020736396
 31
0.0
  0
LINE
  8
0
  6
CONTINUOUS
 62
               3
  5
21D
 10
-46.304519568615113
 20
-61.801394020736396
 30
0.0
 11
-46.225020297899619
 21
-61.763714610050592
 31
0.0
  0
LINE
  8
0
  6
CONTINUOUS
 62
               3
  5
21E
 10
-46.225020297899619
 20
-61.763714610050592
 30
0.0
 11
-46.1461418325664
 21
-61.724480323575335
 31
0.0
  0
LINE
  8
0
  6
CONTINUOUS
 62
               3
  5
21F
 10
-46.1461418325664
 20
-61.724480323575335
 30
0.0
 11
-46.067909172464567
 21
-61.68370359627923
 31
0.0
  0
LINE
  8
0
  6
CONTINUOUS
 62
               3
  5
220
 10
-46.067909172464567
 20
-61.68370359627923
 30
0.0
 11
-45.990347112760801
 21
-61.641397351994215
 31
0.0
  0
LINE
  8
0
  6
CONTINUOUS
 62
               3
  5
221
 10
-45.990347112760801
 20
-61.641397351994215
 30
0.0
 11
-45.913480236080801
 21
-61.597574999319434
 31
0.0
  0
LINE
  8
0
  6
CONTINUOUS
 62
               3
  5
222
 10
-45.913480236080801
 20
-61.597574999319434
 30
0.0
 11
-45.837332904717989
 21
-61.552250427371519
 31
0.0
  0
LINE
  8
0
  6
CONTINUOUS
 62
               3
  5
223
 10
-45.837332904717989
 20
-61.552250427371519
 30
0.0
 11
-45.761929252912104
 21
-61.505438001382508
 31
0.0
  0
LINE
  8
0
  6
CONTINUOUS
 62
               3
  5
224
 10
-45.761929252912104
 20
-61.505438001382508
 30
0.0
 11
-45.687293179200076
 21
-61.45715255814698
 31
0.0
  0
LINE
  8
0
  6
CONTINUOUS
 62
               3
  5
225
 10
-45.687293179200076
 20
-61.45715255814698
 30
0.0
 11
-45.613448338841572
 21
-61.40740940131959
 31
0.0
  0
LINE
  8
0
  6
CONTINUOUS
 62
               3
  5
226
 10
-45.613448338841572
 20
-61.40740940131959
 30
0.0
 11
-45.540418136321676
 21
-61.356224296564768
 31
0.0
  0
LINE
  8
0
  6
CONTINUOUS
 62
               3
  5
227
 10
-45.540418136321676
 20
-61.356224296564768
 30
0.0
 11
-45.468225717933038
 21
-61.303613466559881
 31
0.0
  0
LINE
  8
0
  6
CONTINUOUS
 62
               3
  5
228
 10
-45.468225717933038
 20
-61.303613466559881
 30
0.0
 11
-45.396893964439855
 21
-61.249593585853617
 31
0.0
  0
LINE
  8
0
  6
CONTINUOUS
 62
               3
  5
229
 10
-45.396893964439855
 20
-61.249593585853617
 30
0.0
 11
-45.326445483826014
 21
-61.194181775581143
 31
0.0
  0
LINE
  8
0
  6
CONTINUOUS
 62
               3
  5
22A
 10
-45.326445483826014
 20
-61.194181775581143
 30
0.0
 11
-45.256902604129664
 21
-61.137395598037656
 31
0.0
  0
LINE
  8
0
  6
CONTINUOUS
 62
               3
  5
22B
 10
-45.256902604129664
 20
-61.137395598037656
 30
0.0
 11
-45.188287366366588
 21
-61.079253051112254
 31
0.0
  0
LINE
  8
0
  6
CONTINUOUS
 62
               3
  5
22C
 10
-45.188287366366588
 20
-61.079253051112254
 30
0.0
 11
-45.120621517544436
 21
-61.019772562583569
 31
0.0
  0
LINE
  8
0
  6
CONTINUOUS
 62
               3
  5
22D
 10
-45.120621517544436
 20
-61.019772562583569
 30
0.0
 11
-45.053926503770235
 21
-60.958972984279299
 31
0.0
  0
LINE
  8
0
  6
CONTINUOUS
 62
               3
  5
22E
 10
-45.053926503770235
 20
-60.958972984279299
 30
0.0
 11
-44.98822346345321
 21
-60.896873586101265
 31
0.0
  0
LINE
  8
0
  6
CONTINUOUS
 62
               3
  5
22F
 10
-44.98822346345321
 20
-60.896873586101265
 30
0.0
 11
-44.923533220605165
 21
-60.833494049917974
 31
0.0
  0
LINE
  8
0
  6
CONTINUOUS
 62
               3
  5
230
 10
-44.923533220605165
 20
-60.833494049917974
 30
0.0
 11
-44.859876278240485
 21
-60.768854463326647
 31
0.0
  0
LINE
  8
0
  6
CONTINUOUS
 62
               3
  5
231
 10
-44.859876278240485
 20
-60.768854463326647
 30
0.0
 11
-44.797272811877868
 21
-60.702975313286601
 31
0.0
  0
LINE
  8
0
  6
CONTINUOUS
 62
               3
  5
232
 10
-44.797272811877868
 20
-60.702975313286601
 30
0.0
 11
-44.735742663145899
 21
-60.635877479626082
 31
0.0
  0
LINE
  8
0
  6
CONTINUOUS
 62
               3
  5
233
 10
-44.735742663145899
 20
-60.635877479626082
 30
0.0
 11
-44.675305333494386
 21
-60.567582228424619
 31
0.0
  0
LINE
  8
0
  6
CONTINUOUS
 62
               3
  5
234
 10
-44.675305333494386
 20
-60.567582228424619
 30
0.0
 11
-44.61597997801357
 21
-60.498111205272892
 31
0.0
  0
LINE
  8
0
  6
CONTINUOUS
 62
               3
  5
235
 10
-44.61597997801357
 20
-60.498111205272892
 30
0.0
 11
-44.557785399363055
 21
-60.427486428412344
 31
0.0
  0
LINE
  8
0
  6
CONTINUOUS
 62
               3
  5
236
 10
-44.557785399363055
 20
-60.427486428412344
 30
0.0
 11
-44.500740041812499
 21
-60.355730281756721
 31
0.0
  0
LINE
  8
0
  6
CONTINUOUS
 62
               3
  5
237
 10
-44.500740041812499
 20
-60.355730281756721
 30
0.0
 11
-44.444861985395846
 21
-60.282865507797659
 31
0.0
  0
LINE
  8
0
  6
CONTINUOUS
 62
               3
  5
238
 10
-44.444861985395846
 20
-60.282865507797659
 30
0.0
 11
-44.390168940180999
 21
-60.208915200396646
 31
0.0
  0
LINE
  8
0
  6
CONTINUOUS
 62
               3
  5
239
 10
-44.390168940180999
 20
-60.208915200396646
 30
0.0
 11
-44.336678240656802
 21
-60.133902797465645
 31
0.0
  0
LINE
  8
0
  6
CONTINUOUS
 62
               3
  5
23A
 10
-44.336678240656802
 20
-60.133902797465645
 30
0.0
 11
-44.284406840239001
 21
-60.057852073538612
 31
0.0
  0
LINE
  8
0
  6
CONTINUOUS
 62
               3
  5
23B
 10
-44.284406840239001
 20
-60.057852073538612
 30
0.0
 11
-44.233371305897009
 21
-59.980787132236415
 31
0.0
  0
LINE
  8
0
  6
CONTINUOUS
 62
               3
  5
23C
 10
-44.233371305897009
 20
-59.980787132236415
 30
0.0
 11
-44.183587812903141
 21
-59.902732398627336
 31
0.0
  0
LINE
  8
0
  6
CONTINUOUS
 62
               3
  5
23D
 10
-44.183587812903141
 20
-59.902732398627336
 30
0.0
 11
-44.135072139706011
 21
-59.823712611485803
 31
0.0
  0
LINE
  8
0
  6
CONTINUOUS
 62
               3
  5
23E
 10
-44.135072139706011
 20
-59.823712611485803
 30
0.0
 11
-44.087839662929703
 21
-59.743752815451657
 31
0.0
  0
LINE
  8
0
  6
CONTINUOUS
 62
               3
  5
23F
 10
-44.087839662929703
 20
-59.743752815451657
 30
0.0
 11
-44.041905352500237
 21
-59.66287835309241
 31
0.0
  0
LINE
  8
0
  6
CONTINUOUS
 62
               3
  5
240
 10
-44.041905352500237
 20
-59.66287835309241
 30
0.0
 11
-43.997283766901027
 21
-59.58111485687121
 31
0.0
  0
LINE
  8
0
  6
CONTINUOUS
 62
               3
  5
241
 10
-43.997283766901027
 20
-59.58111485687121
 30
0.0
 11
-43.953989048558675
 21
-59.498488241022791
 31
0.0
  0
LINE
  8
0
  6
CONTINUOUS
 62
               3
  5
242
 10
-43.953989048558675
 20
-59.498488241022791
 30
0.0
 11
-43.912034919360657
 21
-59.415024693340214
 31
0.0
  0
LINE
  8
0
  6
CONTINUOUS
 62
               3
  5
243
 10
-43.912034919360657
 20
-59.415024693340214
 30
0.0
 11
-43.871434676306272
 21
-59.330750666874891
 31
0.0
  0
LINE
  8
0
  6
CONTINUOUS
 62
               3
  5
244
 10
-43.871434676306272
 20
-59.330750666874891
 30
0.0
 11
-43.832201187292291
 21
-59.245692871552436
 31
0.0
  0
LINE
  8
0
  6
CONTINUOUS
 62
               3
  5
245
 10
-43.832201187292291
 20
-59.245692871552436
 30
0.0
 11
-43.7943468870346
 21
-59.159878265707299
 31
0.0
  0
LINE
  8
0
  6
CONTINUOUS
 62
               3
  5
246
 10
-43.7943468870346
 20
-59.159878265707299
 30
0.0
 11
-43.757883773127077
 21
-59.073334047538467
 31
0.0
  0
LINE
  8
0
  6
CONTINUOUS
 62
               3
  5
247
 10
-43.757883773127077
 20
-59.073334047538467
 30
0.0
 11
-43.722823402239101
 21
-58.986087646489246
 31
0.0
  0
LINE
  8
0
  6
CONTINUOUS
 62
               3
  5
248
 10
-43.722823402239101
 20
-58.986087646489246
 30
0.0
 11
-43.689176886452771
 21
-58.898166714553781
 31
0.0
  0
LINE
  8
0
  6
CONTINUOUS
 62
               3
  5
249
 10
-43.689176886452771
 20
-58.898166714553781
 30
0.0
 11
-43.656954889740987
 21
-58.809599117512938
 31
0.0
  0
LINE
  8
0
  6
CONTINUOUS
 62
               3
  5
24A
 10
-43.656954889740987
 20
-58.809599117512938
 30
0.0
 11
-43.626167624587623
 21
-58.720412926102526
 31
0.0
  0
LINE
  8
0
  6
CONTINUOUS
 62
               3
  5
24B
 10
-43.626167624587623
 20
-58.720412926102526
 30
0.0
 11
-43.596824848750764
 21
-58.630636407116477
 31
0.0
  0
LINE
  8
0
  6
CONTINUOUS
 62
               3
  5
24C
 10
-43.596824848750764
 20
-58.630636407116477
 30
0.0
 11
-43.568935862170065
 21
-58.540298014447984
 31
0.0
  0
LINE
  8
0
  6
CONTINUOUS
 62
               3
  5
24D
 10
-43.568935862170065
 20
-58.540298014447984
 30
0.0
 11
-43.542509504019229
 21
-58.449426380071245
 31
0.0
  0
LINE
  8
0
  6
CONTINUOUS
 62
               3
  5
24E
 10
-43.542509504019229
 20
-58.449426380071245
 30
0.0
 11
-43.517554149904484
 21
-58.35805030496681
 31
0.0
  0
LINE
  8
0
  6
CONTINUOUS
 62
               3
  5
24F
 10
-43.517554149904484
 20
-58.35805030496681
 30
0.0
 11
-43.494077709210018
 21
-58.266198749993379
 31
0.0
  0
LINE
  8
0
  6
CONTINUOUS
 62
               3
  5
250
 10
-43.494077709210018
 20
-58.266198749993379
 30
0.0
 11
-43.472087622591189
 21
-58.173900826708874
 31
0.0
  0
LINE
  8
0
  6
CONTINUOUS
 62
               3
  5
251
 10
-43.472087622591189
 20
-58.173900826708874
 30
0.0
 11
-43.451590859616232
 21
-58.081185788143827
 31
0.0
  0
LINE
  8
0
  6
CONTINUOUS
 62
               3
  5
252
 10
-43.451590859616232
 20
-58.081185788143827
 30
0.0
 11
-43.432593916557344
 21
-57.988083019529853
 31
0.0
  0
LINE
  8
0
  6
CONTINUOUS
 62
               3
  5
253
 10
-43.432593916557344
 20
-57.988083019529853
 30
0.0
 11
-43.415102814331739
 21
-57.894622028986248
 31
0.0
  0
LINE
  8
0
  6
CONTINUOUS
 62
               3
  5
254
 10
-43.415102814331739
 20
-57.894622028986248
 30
0.0
 11
-43.399123096593378
 21
-57.800832438167674
 31
0.0
  0
LINE
  8
0
  6
CONTINUOUS
 62
               3
  5
255
 10
-43.399123096593378
 20
-57.800832438167674
 30
0.0
 11
-43.384659827975923
 21
-57.706743972875799
 31
0.0
  0
LINE
  8
0
  6
CONTINUOUS
 62
               3
  5
256
 10
-43.384659827975923
 20
-57.706743972875799
 30
0.0
 11
-43.371717592487599
 21
-57.612386453637981
 31
0.0
  0
LINE
  8
0
  6
CONTINUOUS
 62
               3
  5
257
 10
-43.371717592487599
 20
-57.612386453637981
 30
0.0
 11
-43.360300492058286
 21
-57.517789786255932
 31
0.0
  0
LINE
  8
0
  6
CONTINUOUS
 62
               3
  5
258
 10
-43.360300492058286
 20
-57.517789786255932
 30
0.0
 11
-43.350412145239474
 21
-57.422983952327257
 31
0.0
  0
LINE
  8
0
  6
CONTINUOUS
 62
               3
  5
259
 10
-43.350412145239474
 20
-57.422983952327257
 30
0.0
 11
-43.342055686057364
 21
-57.327998999743144
 31
0.0
  0
LINE
  8
0
  6
CONTINUOUS
 62
               3
  5
25A
 10
-43.342055686057364
 20
-57.327998999743144
 30
0.0
 11
-43.335233763019616
 21
-57.232865033164856
 31
0.0
  0
LINE
  8
0
  6
CONTINUOUS
 62
               3
  5
25B
 10
-43.335233763019616
 20
-57.232865033164856
 30
0.0
 11
-43.329948538275886
 21
-57.137612204482366
 31
0.0
  0
LINE
  8
0
  6
CONTINUOUS
 62
               3
  5
25C
 10
-43.329948538275886
 20
-57.137612204482366
 30
0.0
 11
-43.326201686932549
 21
-57.042270703257969
 31
0.0
  0
LINE
  8
0
  6
CONTINUOUS
 62
               3
  5
25D
 10
-43.326201686932549
 20
-57.042270703257969
 30
0.0
 11
-43.323994396521812
 21
-56.946870747157959
 31
0.0
  0
LINE
  8
0
  6
CONTINUOUS
 62
               3
  5
25E
 10
-43.323994396521812
 20
-56.946870747157959
 30
0.0
 11
-43.323327366625342
 21
-56.851442572375404
 31
0.0
  0
LINE
  8
0
  6
CONTINUOUS
 62
               3
  5
25F
 10
-43.323327366625342
 20
-56.851442572375404
 30
0.0
 11
-43.324200808652499
 21
-56.756016424047026
 31
0.0
  0
LINE
  8
0
  6
CONTINUOUS
 62
               3
  5
260
 10
-43.324200808652499
 20
-56.756016424047026
 30
0.0
 11
-43.326614445773373
 21
-56.660622546667284
 31
0.0
  0
LINE
  8
0
  6
CONTINUOUS
 62
               3
  5
261
 10
-43.326614445773373
 20
-56.660622546667284
 30
0.0
 11
-43.3305675130065
 21
-56.565291174502633
 31
0.0
  0
LINE
  8
0
  6
CONTINUOUS
 62
               3
  5
262
 10
-43.3305675130065
 20
-56.565291174502633
 30
0.0
 11
-43.336058757461323
 21
-56.47005252200907
 31
0.0
  0
LINE
  8
0
  6
CONTINUOUS
 62
               3
  5
263
 10
-43.336058757461323
 20
-56.47005252200907
 30
0.0
 11
-43.343086438735284
 21
-56.374936774255843
 31
0.0
  0
LINE
  8
0
  6
CONTINUOUS
 62
               3
  5
264
 10
-43.343086438735284
 20
-56.374936774255843
 30
0.0
 11
-43.351648329465441
 21
-56.279974077358638
 31
0.0
  0
LINE
  8
0
  6
CONTINUOUS
 62
               3
  5
265
 10
-43.351648329465441
 20
-56.279974077358638
 30
0.0
 11
-43.361741716034373
 21
-56.185194528924988
 31
0.0
  0
LINE
  8
0
  6
CONTINUOUS
 62
               3
  5
266
 10
-43.361741716034373
 20
-56.185194528924988
 30
0.0
 11
-43.373363399430303
 21
-56.090628168515096
 31
0.0
  0
ENDBLK
  8
0
  5
267
  0
ENDSEC
  0
SECTION
  2
ENTITIES
  0
LINE
  8
0
  6
DASHDOT
 62
               4
  5
268
 10
0.0
 20
74.86094234382972
 30
0.0
 11
0.0
 21
-233.82081151955276
 31
0.0
  0
LINE
  8
0
  6
DASHDOT
 62
               4
  5
269
 10
300.0
 20
75.37681717259386
 30
0.0
 11
300.0
 21
-234.82081151955276
 31
0.0
  0
LINE
  8
0
  6
DASHDOT
 62
               4
  5
26A
 10
-300.0
 20
75.37681717259386
 30
0.0
 11
-300.0
 21
-234.82081151955276
 31
0.0
  0
LINE
  8
0
  6
DASHDOT
 62
               4
  5
26B
 10
81.0
 20
250.0
 30
0.0
 11
-93.859202394094268
 21
250.00000000000003
 31
0.0
  0
LINE
  8
0
  6
DASHDOT
 62
               4
  5
26C
 10
0.0
 20
168.99999999999989
 30
0.0
 11
0.0000000000000107
 21
331.49623798701418
 31
0.0
  0
LINE
  8
0
  6
DASHED2
 62
               4
  5
26D
 10
-44.5
 20
0.0
 30
0.0
 11
44.500000000000014
 21
0.0
 31
0.0
  0
LINE
  8
0
  6
DASHED2
 62
               4
  5
26E
 10
-39.5
 20
-220.0
 30
0.0
 11
-39.5
 21
-180.0
 31
0.0
  0
LINE
  8
0
  6
DASHED2
 62
               4
  5
26F
 10
39.500000000000014
 20
-180.0
 30
0.0
 11
39.500000000000014
 21
-220.0
 31
0.0
  0
LINE
  8
0
  6
DASHED2
 62
               4
  5
270
 10
260.5
 20
-220.0
 30
0.0
 11
260.5
 21
-180.0
 31
0.0
  0
LINE
  8
0
  6
DASHED2
 62
               4
  5
271
 10
339.5
 20
-180.0
 30
0.0
 11
339.5
 21
-220.0
 31
0.0
  0
LINE
  8
0
  6
DASHED2
 62
               4
  5
272
 10
255.5
 20
0.0
 30
0.0
 11
344.5
 21
0.0
 31
0.0
  0
LINE
  8
0
  6
DASHED2
 62
               4
  5
273
 10
-339.5
 20
-220.0
 30
0.0
 11
-339.5
 21
-180.0
 31
0.0
  0
LINE
  8
0
  6
DASHED2
 62
               4
  5
274
 10
-260.5
 20
-180.0
 30
0.0
 11
-260.5
 21
-220.0
 31
0.0
  0
LINE
  8
0
  6
DASHED2
 62
               4
  5
275
 10
-344.5
 20
0.0
 30
0.0
 11
-255.5
 21
0.0
 31
0.0
  0
LINE
  8
0
  6
CONTINUOUS
 62
               3
  5
276
 10
60.999999999999886
 20
60.0
 30
0.0
 11
60.999999999999886
 21
44.685713074574551
 31
0.0
  0
LINE
  8
0
  6
CONTINUOUS
 62
               3
  5
277
 10
-61.0
 20
60.0
 30
0.0
 11
-61.0
 21
44.685713074574551
 31
0.0
  0
LINE
  8
0
  6
CONTINUOUS
 62
               3
  5
278
 10
-58.999999999999993
 20
40.685713074574437
 30
0.0
 11
-58.999999999999993
 21
-17.898412096661787
 31
0.0
  0
ARC
  8
0
  6
CONTINUOUS
 62
               3
  5
279
 10
-63.999999999999993
 20
40.685713074574437
 30
0.0
 40
5.0
 50
0.0
 51
53.130102354145734
  0
LINE
  8
0
  6
CONTINUOUS
 62
               3
  5
27A
 10
59.0
 20
40.685713074574437
 30
0.0
 11
59.0
 21
-17.898412096661673
 31
0.0
  0
ARC
  8
0
  6
CONTINUOUS
 62
               3
  5
27B
 10
64.0
 20
40.685713074574437
 30
0.0
 40
5.0
 50
126.86989764581953
 51
179.99999999996524
  0
LINE
  8
0
  6
CONTINUOUS
 62
               3
  5
27C
 10
-61.000000000000107
 20
60.0
 30
0.0
 11
60.999999999999787
 21
60.0
 31
0.0
  0
LINE
  8
0
  6
CONTINUOUS
 62
               3
  5
27D
 10
-61.0
 20
44.685713074574551
 30
0.0
 11
60.999999999999886
 21
44.685713074574551
 31
0.0
  0
LINE
  8
0
  6
CONTINUOUS
 62
               3
  5
27E
 10
-42.0
 20
-220.00000000000006
 30
0.0
 11
42.0
 21
-220.00000000000006
 31
0.0
  0
LINE
  8
0
  6
CONTINUOUS
 62
               3
  5
27F
 10
-44.0
 20
-160.0
 30
0.0
 11
44.0
 21
-160.0
 31
0.0
  0
LINE
  8
0
  6
CONTINUOUS
 62
               3
  5
280
 10
-45.499999999999886
 20
-158.48015746413975
 30
0.0
 11
-45.499999999999886
 21
-158.50000000000017
 31
0.0
  0
LINE
  8
0
  6
CONTINUOUS
 62
               3
  5
281
 10
-44.0
 20
-160.00000000000006
 30
0.0
 11
-44.0
 21
-218.00000000000006
 31
0.0
  0
LINE
  8
0
  6
CONTINUOUS
 62
               3
  5
282
 10
44.0
 20
-160.00000000000006
 30
0.0
 11
44.0
 21
-218.0
 31
0.0
  0
LINE
  8
0
  6
CONTINUOUS
 62
               3
  5
283
 10
45.499999999999901
 20
-155.77335155267701
 30
0.0
 11
45.499999999999901
 21
-158.50000000000017
 31
0.0
  0
LINE
  8
0
  6
CONTINUOUS
 62
               3
  5
284
 10
-54.500000000000163
 20
-33.034593816714278
 30
0.0
 11
-54.499999999997293
 21
-28.090942502038843
 31
0.0
  0
ARC
  8
0
  6
CONTINUOUS
 62
               3
  5
285
 10
-44.500000000000163
 20
-33.034593816714278
 30
0.0
 40
10.0
 50
179.99999999996518
 51
220.05916053515978
  0
ARC
  8
0
  6
CONTINUOUS
 62
               3
  5
286
 10
-55.877627851165037
 20
-61.265548248188736
 30
0.0
 40
3.9490378257560579
 50
19.46693943286057
 51
69.582914919460407
  0
ARC
  8
0
  6
CONTINUOUS
 62
               3
  5
287
 10
-95.007841695256189
 20
-45.881002932536035
 30
0.0
 40
42.15912244855646
 50
343.91096007681159
 51
373.13569460765041
  0
LINE
  8
0
  6
CONTINUOUS
 62
               3
  5
288
 10
-54.500000000000021
 20
-27.734569883114887
 30
0.0
 11
-54.500000000000163
 21
-33.034593816714164
 31
0.0
  0
LINE
  8
0
  6
CONTINUOUS
 62
               3
  5
289
 10
-54.499999999999993
 20
-57.564596849839177
 30
0.0
 11
-54.500000000000014
 21
-111.52729612354284
 31
0.0
  0
LINE
  8
0
  6
CONTINUOUS
 62
               3
  5
28A
 10
54.500000000000014
 20
-27.734569883114887
 30
0.0
 11
54.500000000000014
 21
-111.52729612354284
 31
0.0
  0
ARC
  8
0
  6
CONTINUOUS
 62
               3
  5
28B
 10
-59.499999999999993
 20
-27.734569883114773
 30
0.0
 40
5.0
 50
359.99999999992906
 51
409.16778297245179
  0
ARC
  8
0
  6
CONTINUOUS
 62
               3
  5
28C
 10
-51.0
 20
-17.898412096661787
 30
0.0
 40
8.0
 50
179.99999999996518
 51
229.16778297248669
  0
ARC
  8
0
  6
CONTINUOUS
 62
               3
  5
28D
 10
59.500000000000014
 20
-27.734569883114773
 30
0.0
 40
5.0
 50
130.83221702744387
 51
179.99999999996646
  0
ARC
  8
0
  6
CONTINUOUS
 62
               3
  5
28E
 10
51.000000000000014
 20
-17.898412096661673
 30
0.0
 40
8.0
 50
310.83221702740889
 51
359.99999999993042
  0
LINE
  8
0
  6
CONTINUOUS
 62
               3
  5
28F
 10
-52.15380359873631
 20
-39.470375857148156
 30
0.0
 11
-49.218342782624198
 21
-42.961394988747713
 31
0.0
  0
LINE
  8
0
  6
CONTINUOUS
 62
               3
  5
290
 10
54.500000000000014
 20
-111.52729612354284
 30
0.0
 11
-54.500000000000014
 21
-111.52729612354284
 31
0.0
  0
LINE
  8
0
  6
CONTINUOUS
 62
               3
  5
291
 10
45.499999999999901
 20
-155.7733515526761
 30
0.0
 11
54.500000000000014
 21
-111.52729612354284
 31
0.0
  0
LINE
  8
0
  6
CONTINUOUS
 62
               3
  5
292
 10
-42.0
 20
-220.00000000000006
 30
0.0
 11
-44.0
 21
-218.00000000000006
 31
0.0
  0
LINE
  8
0
  6
CONTINUOUS
 62
               3
  5
293
 10
42.0
 20
-220.00000000000006
 30
0.0
 11
44.0
 21
-218.0
 31
0.0
  0
LINE
  8
0
  6
CONTINUOUS
 62
               3
  5
294
 10
44.0
 20
-160.0
 30
0.0
 11
45.5
 21
-158.50000000000006
 31
0.0
  0
LINE
  8
0
  6
CONTINUOUS
 62
               3
  5
295
 10
45.5
 20
-158.50000000000006
 30
0.0
 11
-45.499999999999886
 21
-158.50000000000006
 31
0.0
  0
LINE
  8
0
  6
CONTINUOUS
 62
               3
  5
296
 10
-44.0
 20
-160.00000000000006
 30
0.0
 11
-45.5
 21
-158.50000000000006
 31
0.0
  0
LINE
  8
0
  6
CONTINUOUS
 62
               3
  5
297
 10
-45.499999999999901
 20
-155.77335155267701
 30
0.0
 11
-45.499999999999901
 21
-158.50000000000017
 31
0.0
  0
LINE
  8
0
  6
CONTINUOUS
 62
               3
  5
298
 10
-45.499999999999901
 20
-155.7733515526761
 30
0.0
 11
-54.500000000000014
 21
-111.52729612354284
 31
0.0
  0
LINE
  8
0
  6
CONTINUOUS
 62
               3
  5
299
 10
239.00000000000017
 20
60.0
 30
0.0
 11
239.00000000000017
 21
44.685713074574437
 31
0.0
  0
LINE
  8
0
  6
CONTINUOUS
 62
               3
  5
29A
 10
361.0
 20
60.0
 30
0.0
 11
361.0
 21
44.685713074574437
 31
0.0
  0
LINE
  8
0
  6
CONTINUOUS
 62
               3
  5
29B
 10
359.0
 20
40.685713074574551
 30
0.0
 11
359.0
 21
-17.898412096661787
 31
0.0
  0
ARC
  8
0
  6
CONTINUOUS
 62
               3
  5
29C
 10
364.0
 20
40.685713074574551
 30
0.0
 40
5.0
 50
126.86989764581953
 51
179.99999999996524
  0
LINE
  8
0
  6
CONTINUOUS
 62
               3
  5
29D
 10
354.50000000000011
 20
-27.734569883114659
 30
0.0
 11
354.50000000000011
 21
-111.52729612354261
 31
0.0
  0
ARC
  8
0
  6
CONTINUOUS
 62
               3
  5
29E
 10
359.50000000000011
 20
-27.734569883114659
 30
0.0
 40
5.0
 50
130.83221702744399
 51
179.99999999996524
  0
LINE
  8
0
  6
CONTINUOUS
 62
               3
  5
29F
 10
354.50000000000011
 20
-111.52729612354261
 30
0.0
 11
345.49999999999989
 21
-156.7733515526761
 31
0.0
  0
ARC
  8
0
  6
CONTINUOUS
 62
               3
  5
2A0
 10
351.0
 20
-17.898412096661787
 30
0.0
 40
8.0
 50
310.83221702740889
 51
359.99999999993042
  0
LINE
  8
0
  6
CONTINUOUS
 62
               3
  5
2A1
 10
241.00000000000006
 20
40.685713074574551
 30
0.0
 11
241.00000000000006
 21
-17.898412096661673
 31
0.0
  0
ARC
  8
0
  6
CONTINUOUS
 62
               3
  5
2A2
 10
236.00000000000006
 20
40.685713074574551
 30
0.0
 40
5.0
 50
359.99999999993048
 51
413.13010235407609
  0
ARC
  8
0
  6
CONTINUOUS
 62
               3
  5
2A3
 10
240.50000000000006
 20
-27.734569883114659
 30
0.0
 40
5.0
 50
359.99999999993037
 51
409.16778297245168
  0
ARC
  8
0
  6
CONTINUOUS
 62
               3
  5
2A4
 10
249.0
 20
-17.898412096661673
 30
0.0
 40
8.0
 50
179.99999999996518
 51
229.16778297248669
  0
LINE
  8
0
  6
CONTINUOUS
 62
               3
  5
2A5
 10
245.50000000000006
 20
-27.734569883114659
 30
0.0
 11
245.50000000000006
 21
-111.52729612354261
 31
0.0
  0
LINE
  8
0
  6
CONTINUOUS
 62
               3
  5
2A6
 10
245.50000000000006
 20
-111.52729612354261
 30
0.0
 11
254.50000000000011
 21
-156.77335155267656
 31
0.0
  0
LINE
  8
0
  6
CONTINUOUS
 62
               3
  5
2A7
 10
361.00000000000011
 20
60.0
 30
0.0
 11
239.00000000000028
 21
60.0
 31
0.0
  0
LINE
  8
0
  6
CONTINUOUS
 62
               3
  5
2A8
 10
361.0
 20
44.685713074574437
 30
0.0
 11
239.00000000000017
 21
44.685713074574437
 31
0.0
  0
LINE
  8
0
  6
CONTINUOUS
 62
               3
  5
2A9
 10
258.0
 20
-220.00000000000006
 30
0.0
 11
342.0
 21
-220.00000000000006
 31
0.0
  0
LINE
  8
0
  6
CONTINUOUS
 62
               3
  5
2AA
 10
256.0
 20
-160.0
 30
0.0
 11
344.0
 21
-160.0
 31
0.0
  0
LINE
  8
0
  6
CONTINUOUS
 62
               3
  5
2AB
 10
256.0
 20
-160.00000000000006
 30
0.0
 11
256.0
 21
-218.00000000000006
 31
0.0
  0
LINE
  8
0
  6
CONTINUOUS
 62
               3
  5
2AC
 10
344.0
 20
-160.00000000000006
 30
0.0
 11
344.0
 21
-218.0
 31
0.0
  0
LINE
  8
0
  6
CONTINUOUS
 62
               3
  5
2AD
 10
258.0
 20
-220.00000000000006
 30
0.0
 11
256.0
 21
-218.00000000000006
 31
0.0
  0
LINE
  8
0
  6
CONTINUOUS
 62
               3
  5
2AE
 10
342.0
 20
-220.00000000000006
 30
0.0
 11
344.0
 21
-218.0
 31
0.0
  0
LINE
  8
0
  6
CONTINUOUS
 62
               3
  5
2AF
 10
344.0
 20
-160.0
 30
0.0
 11
345.5
 21
-158.50000000000006
 31
0.0
  0
LINE
  8
0
  6
CONTINUOUS
 62
               3
  5
2B0
 10
345.5
 20
-158.50000000000006
 30
0.0
 11
254.50000000000011
 21
-158.50000000000006
 31
0.0
  0
LINE
  8
0
  6
CONTINUOUS
 62
               3
  5
2B1
 10
256.0
 20
-160.00000000000006
 30
0.0
 11
254.5
 21
-158.50000000000006
 31
0.0
  0
LINE
  8
0
  6
CONTINUOUS
 62
               3
  5
2B2
 10
345.49999999999989
 20
-156.77335155267605
 30
0.0
 11
345.49999999999989
 21
-158.50000000000017
 31
0.0
  0
LINE
  8
0
  6
CONTINUOUS
 62
               3
  5
2B3
 10
254.50000000000011
 20
-156.77335155267656
 30
0.0
 11
254.50000000000011
 21
-158.50000000000017
 31
0.0
  0
LINE
  8
0
  6
CONTINUOUS
 62
               3
  5
2B4
 10
-239.00000000000009
 20
60.0
 30
0.0
 11
-239.00000000000009
 21
44.685713074574664
 31
0.0
  0
LINE
  8
0
  6
CONTINUOUS
 62
               3
  5
2B5
 10
-361.0
 20
60.0
 30
0.0
 11
-361.0
 21
44.685713074574664
 31
0.0
  0
LINE
  8
0
  6
CONTINUOUS
 62
               3
  5
2B6
 10
-359.0
 20
40.685713074574551
 30
0.0
 11
-359.0
 21
-17.898412096661787
 31
0.0
  0
ARC
  8
0
  6
CONTINUOUS
 62
               3
  5
2B7
 10
-364.0
 20
40.685713074574551
 30
0.0
 40
5.0
 50
0.0
 51
53.130102354145734
  0
LINE
  8
0
  6
CONTINUOUS
 62
               3
  5
2B8
 10
-354.5
 20
-27.734569883114659
 30
0.0
 11
-354.5
 21
-111.52729612354261
 31
0.0
  0
ARC
  8
0
  6
CONTINUOUS
 62
               3
  5
2B9
 10
-359.5
 20
-27.734569883114659
 30
0.0
 40
5.0
 50
0.0
 51
49.167782972521202
  0
LINE
  8
0
  6
CONTINUOUS
 62
               3
  5
2BA
 10
-354.5
 20
-111.52729612354261
 30
0.0
 11
-345.49999999999989
 21
-156.7733515526761
 31
0.0
  0
ARC
  8
0
  6
CONTINUOUS
 62
               3
  5
2BB
 10
-351.0
 20
-17.898412096661787
 30
0.0
 40
8.0
 50
179.99999999996518
 51
229.16778297248672
  0
LINE
  8
0
  6
CONTINUOUS
 62
               3
  5
2BC
 10
-240.99999999999997
 20
40.685713074574551
 30
0.0
 11
-240.99999999999997
 21
-17.898412096661673
 31
0.0
  0
ARC
  8
0
  6
CONTINUOUS
 62
               3
  5
2BD
 10
-235.99999999999997
 20
40.685713074574551
 30
0.0
 40
5.0
 50
126.86989764581953
 51
179.99999999996524
  0
ARC
  8
0
  6
CONTINUOUS
 62
               3
  5
2BE
 10
-240.50000000000003
 20
-27.734569883114659
 30
0.0
 40
5.0
 50
130.83221702744399
 51
179.99999999996524
  0
ARC
  8
0
  6
CONTINUOUS
 62
               3
  5
2BF
 10
-249.00000000000003
 20
-17.898412096661673
 30
0.0
 40
8.0
 50
310.83221702740889
 51
359.99999999993042
  0
LINE
  8
0
  6
CONTINUOUS
 62
               3
  5
2C0
 10
-245.50000000000003
 20
-27.734569883114659
 30
0.0
 11
-245.50000000000003
 21
-111.52729612354261
 31
0.0
  0
LINE
  8
0
  6
CONTINUOUS
 62
               3
  5
2C1
 10
-245.50000000000003
 20
-111.52729612354261
 30
0.0
 11
-254.50000000000014
 21
-156.77335155267656
 31
0.0
  0
LINE
  8
0
  6
CONTINUOUS
 62
               3
  5
2C2
 10
-361.00000000000011
 20
60.0
 30
0.0
 11
-239.00000000000026
 21
60.0
 31
0.0
  0
LINE
  8
0
  6
CONTINUOUS
 62
               3
  5
2C3
 10
-361.0
 20
44.685713074574664
 30
0.0
 11
-239.00000000000009
 21
44.685713074574664
 31
0.0
  0
LINE
  8
0
  6
CONTINUOUS
 62
               3
  5
2C4
 10
-342.0
 20
-220.00000000000006
 30
0.0
 11
-258.0
 21
-220.00000000000006
 31
0.0
  0
LINE
  8
0
  6
CONTINUOUS
 62
               3
  5
2C5
 10
-344.0
 20
-160.0
 30
0.0
 11
-256.0
 21
-160.0
 31
0.0
  0
LINE
  8
0
  6
CONTINUOUS
 62
               3
  5
2C6
 10
-344.0
 20
-160.00000000000006
 30
0.0
 11
-344.0
 21
-218.00000000000006
 31
0.0
  0
LINE
  8
0
  6
CONTINUOUS
 62
               3
  5
2C7
 10
-256.0
 20
-160.00000000000006
 30
0.0
 11
-256.0
 21
-218.0
 31
0.0
  0
LINE
  8
0
  6
CONTINUOUS
 62
               3
  5
2C8
 10
-342.0
 20
-220.00000000000006
 30
0.0
 11
-344.0
 21
-218.00000000000006
 31
0.0
  0
LINE
  8
0
  6
CONTINUOUS
 62
               3
  5
2C9
 10
-258.0
 20
-220.00000000000006
 30
0.0
 11
-256.0
 21
-218.0
 31
0.0
  0
LINE
  8
0
  6
CONTINUOUS
 62
               3
  5
2CA
 10
-256.0
 20
-160.0
 30
0.0
 11
-254.50000000000003
 21
-158.50000000000006
 31
0.0
  0
LINE
  8
0
  6
CONTINUOUS
 62
               3
  5
2CB
 10
-254.50000000000003
 20
-158.50000000000006
 30
0.0
 11
-345.49999999999989
 21
-158.50000000000006
 31
0.0
  0
LINE
  8
0
  6
CONTINUOUS
 62
               3
  5
2CC
 10
-344.0
 20
-160.00000000000006
 30
0.0
 11
-345.5
 21
-158.50000000000006
 31
0.0
  0
LINE
  8
0
  6
CONTINUOUS
 62
               3
  5
2CD
 10
-254.50000000000011
 20
-156.77335155267647
 30
0.0
 11
-254.50000000000011
 21
-158.50000000000017
 31
0.0
  0
LINE
  8
0
  6
CONTINUOUS
 62
               3
  5
2CE
 10
-345.49999999999989
 20
-156.77335155267582
 30
0.0
 11
-345.49999999999989
 21
-158.50000000000017
 31
0.0
  0
POINT
  8
0
  6
CONTINUOUS
 62
               3
  5
2CF
 10
-300.0
 20
-50.189294355093352
 30
0.0
  0
POINT
  8
0
  6
CONTINUOUS
 62
               3
  5
2D0
 10
-300.0
 20
-50.189294355093352
 30
0.0
  0
ARC
  8
0
  6
CONTINUOUS
 62
               3
  5
2D1
 10
-414.42527091467025
 20
-163.06767830941391
 30
0.0
 40
171.22836028630022
 50
38.037080543382451
 51
44.518937330845311
  0
ARC
  8
0
  6
CONTINUOUS
 62
               3
  5
2D2
 10
-300.0
 20
-50.189294355093352
 30
0.0
 40
10.5
 50
43.12350611602475
 51
135.38991333445398
  0
LINE
  8
0
  6
CONTINUOUS
 62
               3
  5
2D3
 10
-300.0
 20
-51.611577413859152
 30
0.0
 11
-284.32789459941745
 21
-62.585303754964002
 31
0.0
  0
LINE
  8
0
  6
CONTINUOUS
 62
               3
  5
2D4
 10
-300.0
 20
-41.078868441545637
 30
0.0
 11
-300.0
 21
-51.611577364366951
 31
0.0
  0
ARC
  8
0
  6
CONTINUOUS
 62
               3
  5
2D5
 10
-282.32037707218888
 20
-59.718271599952516
 30
0.0
 40
3.5000000000000004
 50
235.00000000000003
 51
398.03708054338199
  0
ARC
  8
0
  6
CONTINUOUS
 62
               3
  5
2D6
 10
-185.57472908532981
 20
-163.06767830941391
 30
0.0
 40
171.22836028630022
 50
135.48106266915431
 51
141.96291945661716
  0
ARC
  8
0
  6
CONTINUOUS
 62
               3
  5
2D7
 10
-317.67962292781112
 20
-59.718271599952516
 30
0.0
 40
3.5000000000000004
 50
141.96291945661679
 51
304.99999999999869
  0
LINE
  8
0
  6
CONTINUOUS
 62
               3
  5
2D8
 10
-300.0
 20
-51.611577413859152
 30
0.0
 11
-315.67210540058255
 21
-62.585303754964002
 31
0.0
  0
ARC
  8
0
  6
CONTINUOUS
 62
               3
  5
2D9
 10
-299.99999999999994
 20
-84.967389844258605
 30
0.0
 40
27.323481941282026
 50
55.000000000000469
 51
124.99999999999932
  0
LINE
  8
0
  6
CONTINUOUS
 62
               3
  5
2DA
 10
-20.000000000000007
 20
214.78281669411899
 30
0.0
 11
-20.000000000000007
 21
245.3369234184496
 31
0.0
  0
ARC
  8
0
  6
CONTINUOUS
 62
               3
  5
2DB
 10
-30.000000000000007
 20
245.3369234184496
 30
0.0
 40
10.0
 50
359.99999999993042
 51
409.99999999992042
  0
CIRCLE
  8
0
  6
CONTINUOUS
 62
               3
  5
2DC
 10
0.0
 20
250.0
 30
0.0
 40
61.000000000000007
  0
CIRCLE
  8
0
  6
CONTINUOUS
 62
               3
  5
2DD
 10
0.0
 20
250.0
 30
0.0
 40
52.0
  0
LINE
  8
0
  6
CONTINUOUS
 62
               3
  5
2DE
 10
-37.683810219924119
 20
264.83847860492392
 30
0.0
 11
-23.572123903134532
 21
252.99736784963932
 31
0.0
  0
CIRCLE
  8
0
  6
CONTINUOUS
 62
               3
  5
2DF
 10
-0.0000000000005684
 20
250.0
 30
0.0
 40
40.499999999999964
  0
INSERT
  8
0
  6
CONTINUOUS
  5
2E0
  2
GROUP_1
 10
0.0
 20
0.0
 30
0.0
  0
INSERT
  8
0
  6
CONTINUOUS
  5
2E1
  2
GROUP_2
 10
0.0
 20
0.0
 30
0.0
  0
ENDSEC
  0
EOF
