  0
SECTION
  2
HEADER
  9
$ACADVER
  1
AC1009
  9
$INSBASE
 10
0.0
 20
0.0
 30
0.0
  9
$EXTMIN
 10
-510.62573046432613
 20
-1500.9358253300072
 30
0.0
  9
$EXTMAX
 10
639.91225368063385
 20
626.66540833980412
 30
0.0
  9
$LIMMIN
 10
-546.58004246885616
 20
-1567.4233638821888
  9
$LIMMAX
 10
675.86656568516389
 20
693.15294689198572
  9
$ORTHOMODE
 70
               0
  9
$REGENMODE
 70
               1
  9
$FILLMODE
 70
               1
  9
$QTEXTMODE
 70
               0
  9
$MIRRTEXT
 70
               1
  9
$DRAGMODE
 70
               2
  9
$LTSCALE
 40
1.0
  9
$OSMODE
 70
               0
  9
$ATTMODE
 70
               1
  9
$TEXTSIZE
 40
0.2
  9
$TRACEWID
 40
0.05
  9
$TEXTSTYLE
  7
STANDARD
  9
$CLAYER
  8
0
  9
$CELTYPE
  6
CONTINUOUS
  9
$CECOLOR
 62
             256
  9
$DIMSCALE
 40
1.0
  9
$DIMASZ
 40
0.18
  9
$DIMEXO
 40
0.0625
  9
$DIMDLI
 40
0.38
  9
$DIMRND
 40
0.0
  9
$DIMDLE
 40
0.0
  9
$DIMEXE
 40
0.18
  9
$DIMTP
 40
0.0
  9
$DIMTM
 40
0.0
  9
$DIMTXT
 40
0.18
  9
$DIMCEN
 40
0.09
  9
$DIMTSZ
 40
0.0
  9
$DIMTOL
 70
               0
  9
$DIMLIM
 70
               0
  9
$DIMTIH
 70
               1
  9
$DIMTOH
 70
               1
  9
$DIMSE1
 70
               0
  9
$DIMSE2
 70
               0
  9
$DIMTAD
 70
               0
  9
$DIMZIN
 70
               0
  9
$DIMBLK
  1

  9
$DIMASO
 70
               1
  9
$DIMSHO
 70
               1
  9
$DIMPOST
  1

  9
$DIMAPOST
  1

  9
$DIMALT
 70
               0
  9
$DIMALTD
 70
               2
  9
$DIMALTF
 40
25.399999999999999
  9
$DIMLFAC
 40
1.0
  9
$DIMTOFL
 70
               0
  9
$DIMTVP
 40
0.0
  9
$DIMTIX
 70
               0
  9
$DIMSOXD
 70
               0
  9
$DIMSAH
 70
               0
  9
$DIMBLK1
  1

  9
$DIMBLK2
  1

  9
$DIMSTYLE
  2
STANDARD
  9
$DIMCLRD
 70
               0
  9
$DIMCLRE
 70
               0
  9
$DIMCLRT
 70
               0
  9
$DIMTFAC
 40
1.0
  9
$DIMGAP
 40
0.09
  9
$LUNITS
 70
               2
  9
$LUPREC
 70
               4
  9
$AXISMODE
 70
               0
  9
$AXISUNIT
 10
0.0
 20
0.0
  9
$SKETCHINC
 40
0.1
  9
$FILLETRAD
 40
0.0
  9
$AUNITS
 70
               0
  9
$AUPREC
 70
               0
  9
$MENU
  1
acad
  9
$ELEVATION
 40
0.0
  9
$PELEVATION
 40
0.0
  9
$THICKNESS
 40
0.0
  9
$LIMCHECK
 70
               0
  9
$BLIPMODE
 70
               1
  9
$CHAMFERA
 40
0.0
  9
$CHAMFERB
 40
0.0
  9
$SKPOLY
 70
               0
  9
$TDCREATE
 40
0.000000000
  9
$TDUPDATE
 40
0.000000000
  9
$TDINDWG
 40
0.0000000000
  9
$TDUSRTIMER
 40
0.0000000000
  9
$USRTIMER
 70
               1
  9
$ANGBASE
 50
0.0
  9
$ANGDIR
 70
               0
  9
$PDMODE
 70
               0
  9
$PDSIZE
 40
1.0
  9
$PLINEWID
 40
0.0
  9
$COORDS
 70
               1
  9
$SPLFRAME
 70
               0
  9
$SPLINETYPE
 70
               6
  9
$SPLINESEGS
 70
               8
  9
$ATTDIA
 70
               0
  9
$ATTREQ
 70
               1
  9
$HANDLING
 70
               1
  9
$HANDSEED
  5
330
  9
$SURFTAB1
 70
               6
  9
$SURFTAB2
 70
               6
  9
$SURFTYPE
 70
               6
  9
$SURFU
 70
               6
  9
$SURFV
 70
               6
  9
$UCSNAME
  2

  9
$UCSORG
 10
0.0
 20
0.0
 30
0.0
  9
$UCSXDIR
 10
1.0
 20
0.0
 30
0.0
  9
$UCSYDIR
 10
0.0
 20
1.0
 30
0.0
  9
$PUCSNAME
  2

  9
$PUCSORG
 10
0.0
 20
0.0
 30
0.0
  9
$PUCSXDIR
 10
1.0
 20
0.0
 30
0.0
  9
$PUCSYDIR
 10
0.0
 20
1.0
 30
0.0
  9
$USERI1
 70
               0
  9
$USERI2
 70
               0
  9
$USERI3
 70
               0
  9
$USERI4
 70
               0
  9
$USERI5
 70
               0
  9
$USERR1
 40
0.0
  9
$USERR2
 40
0.0
  9
$USERR3
 40
0.0
  9
$USERR4
 40
0.0
  9
$USERR5
 40
0.0
  9
$WORLDVIEW
 70
               1
  9
$SHADEDGE
 70
               3
  9
$SHADEDIF
 70
              70
  9
$TILEMODE
 70
               1
  9
$MAXACTVP
 70
              16
  9
$PINSBASE
 10
0.0
 20
0.0
 30
0.0
  9
$PLIMCHECK
 70
               0
  9
$PEXTMIN
 10
1.0000000000000000E+20
 20
1.0000000000000000E+20
 30
1.0000000000000000E+20
  9
$PEXTMAX
 10
-1.0000000000000000E+20
 20
-1.0000000000000000E+20
 30
-1.0000000000000000E+20
  9
$PLIMMIN
 10
0.0
 20
0.0
  9
$PLIMMAX
 10
12.0
 20
9.0
  9
$UNITMODE
 70
               0
  9
$VISRETAIN
 70
               0
  9
$PLINEGEN
 70
               1
  9
$PSLTSCALE
 70
               0
  9
$TREEDEPTH
 70
            3020
  9
$DWGCODEPAGE
  3
dos932
  0
ENDSEC
  0
SECTION
  2
TABLES
  0
TABLE
  2
VPORT
 70
               1
  0
VPORT
  2
*ACTIVE
 70
               0
 10
0.0
 20
0.0
 11
1.0
 21
1.0
 12
64.643261608153864
 22
-437.13520849510155
 13
0.0
 23
0.0
 14
1.0
 24
1.0
 15
0.0
 25
0.0
 16
0.0
 26
0.0
 36
1.0
 17
0.0
 27
0.0
 37
0.0
 40
2260.5763107741745
 41
0.5407676804926667
 42
50.0
 43
0.0
 44
0.0
 50
0.0
 51
0.0
 71
               0
 72
             100
 73
               1
 74
               1
 75
               0
 76
               0
 77
               0
 78
               0
  0
ENDTAB
  0
TABLE
  2
LTYPE
 70
              26
  0
LTYPE
  2
CONTINUOUS
 70
               0
  3
Solid line
 72
              65
 73
               0
 40
0.0
  0
LTYPE
  2
HIDDENX2
 70
               0
  3
CADPAC FUSION LINETYPE
 72
              65
 73
               2
 40
47.560000000000002
 49
35.670000000000002
 49
-11.890000000000001
  0
LTYPE
  2
HIDDEN
 70
               0
  3
CADPAC FUSION LINETYPE
 72
              65
 73
               2
 40
35.670000000000002
 49
23.780000000000001
 49
-11.890000000000001
  0
LTYPE
  2
HIDDEN2
 70
               0
  3
CADPAC FUSION LINETYPE
 72
              65
 73
               2
 40
29.725000000000001
 49
17.835000000000001
 49
-11.890000000000001
  0
LTYPE
  2
DASHED
 70
               0
  3
CADPAC FUSION LINETYPE
 72
              65
 73
               2
 40
35.670000000000002
 49
23.780000000000001
 49
-11.890000000000001
  0
LTYPE
  2
DASHED2
 70
               0
  3
CADPAC FUSION LINETYPE
 72
              65
 73
               2
 40
26.752500000000001
 49
17.835000000000001
 49
-8.9175000000000004
  0
LTYPE
  2
DASHEDX2
 70
               0
  3
CADPAC FUSION LINETYPE
 72
              65
 73
               2
 40
53.505000000000003
 49
35.670000000000002
 49
-17.835000000000001
  0
LTYPE
  2
DOTX2
 70
               0
  3
CADPAC FUSION LINETYPE
 72
              65
 73
               2
 40
14.862500000000001
 49
0.0
 49
-14.862500000000001
  0
LTYPE
  2
DOT
 70
               0
  3
CADPAC FUSION LINETYPE
 72
              65
 73
               2
 40
11.890000000000001
 49
0.0
 49
-11.890000000000001
  0
LTYPE
  2
DOTS
 70
               0
  3
CADPAC FUSION LINETYPE
 72
              65
 73
               2
 40
11.890000000000001
 49
0.0
 49
-11.890000000000001
  0
LTYPE
  2
DOT2
 70
               0
  3
CADPAC FUSION LINETYPE
 72
              65
 73
               2
 40
8.9175000000000004
 49
0.0
 49
-8.9175000000000004
  0
LTYPE
  2
CENTERX2
 70
               0
  3
CADPAC FUSION LINETYPE
 72
              65
 73
               4
 40
71.340000000000003
 49
29.725000000000001
 49
-14.862500000000001
 49
11.890000000000001
 49
-14.862500000000001
  0
LTYPE
  2
CENTER
 70
               0
  3
CADPAC FUSION LINETYPE
 72
              65
 73
               4
 40
54.694000000000003
 49
23.780000000000001
 49
-11.890000000000001
 49
7.1340000000000003
 49
-11.890000000000001
  0
LTYPE
  2
CENTER2
 70
               0
  3
CADPAC FUSION LINETYPE
 72
              65
 73
               4
 40
38.048000000000002
 49
17.835000000000001
 49
-8.9175000000000004
 49
2.3780000000000001
 49
-8.9175000000000004
  0
LTYPE
  2
DASHDOTX2
 70
               0
  3
CADPAC FUSION LINETYPE
 72
              65
 73
               4
 40
59.450000000000003
 49
29.725000000000001
 49
-14.862500000000001
 49
0.0
 49
-14.862500000000001
  0
LTYPE
  2
DASHDOT
 70
               0
  3
CADPAC FUSION LINETYPE
 72
              65
 73
               4
 40
47.560000000000002
 49
23.780000000000001
 49
-11.890000000000001
 49
0.0
 49
-11.890000000000001
  0
LTYPE
  2
DASHDOT2
 70
               0
  3
CADPAC FUSION LINETYPE
 72
              65
 73
               4
 40
35.670000000000002
 49
17.835000000000001
 49
-8.9175000000000004
 49
0.0
 49
-8.9175000000000004
  0
LTYPE
  2
DIVIDEX2
 70
               0
  3
CADPAC FUSION LINETYPE
 72
              65
 73
               6
 40
74.3125
 49
29.725000000000001
 49
-14.862500000000001
 49
0.0
 49
-14.862500000000001
 49
0.0
 49
-14.862500000000001
  0
LTYPE
  2
DIVIDE
 70
               0
  3
CADPAC FUSION LINETYPE
 72
              65
 73
               6
 40
59.450000000000003
 49
23.780000000000001
 49
-11.890000000000001
 49
0.0
 49
-11.890000000000001
 49
0.0
 49
-11.890000000000001
  0
LTYPE
  2
DIVIDE2
 70
               0
  3
CADPAC FUSION LINETYPE
 72
              65
 73
               6
 40
44.587500000000006
 49
17.835000000000001
 49
-8.9175000000000004
 49
0.0
 49
-8.9175000000000004
 49
0.0
 49
-8.9175000000000004
  0
LTYPE
  2
BORDERX2
 70
               0
  3
CADPAC FUSION LINETYPE
 72
              65
 73
               6
 40
104.03750000000001
 49
29.725000000000001
 49
-14.862500000000001
 49
29.725000000000001
 49
-14.862500000000001
 49
0.0
 49
-14.862500000000001
  0
LTYPE
  2
BORDER
 70
               0
  3
CADPAC FUSION LINETYPE
 72
              65
 73
               6
 40
83.230000000000004
 49
23.780000000000001
 49
-11.890000000000001
 49
23.780000000000001
 49
-11.890000000000001
 49
0.0
 49
-11.890000000000001
  0
LTYPE
  2
BORDER2
 70
               0
  3
CADPAC FUSION LINETYPE
 72
              65
 73
               6
 40
62.422499999999999
 49
17.835000000000001
 49
-8.9175000000000004
 49
17.835000000000001
 49
-8.9175000000000004
 49
0.0
 49
-8.9175000000000004
  0
LTYPE
  2
PHANTOMX2
 70
               0
  3
CADPAC FUSION LINETYPE
 72
              65
 73
               6
 40
89.175000000000011
 49
29.725000000000001
 49
-11.890000000000001
 49
11.890000000000001
 49
-11.890000000000001
 49
11.890000000000001
 49
-11.890000000000001
  0
LTYPE
  2
PHANTOM
 70
               0
  3
CADPAC FUSION LINETYPE
 72
              65
 73
               6
 40
73.718000000000004
 49
23.780000000000001
 49
-11.890000000000001
 49
7.1340000000000003
 49
-11.890000000000001
 49
7.1340000000000003
 49
-11.890000000000001
  0
LTYPE
  2
PHANTOM2
 70
               0
  3
CADPAC FUSION LINETYPE
 72
              65
 73
               6
 40
63.017000000000003
 49
17.835000000000001
 49
-11.890000000000001
 49
4.7560000000000002
 49
-11.890000000000001
 49
4.7560000000000002
 49
-11.890000000000001
  0
ENDTAB
  0
TABLE
  2
LAYER
 70
             256
  0
LAYER
  2
0
 70
               0
 62
               7
  6
CONTINUOUS
  0
LAYER
  2
LAYER001
 70
               0
 62
               7
  6
CONTINUOUS
  0
LAYER
  2
LAYER002
 70
               0
 62
               7
  6
CONTINUOUS
  0
LAYER
  2
LAYER003
 70
               0
 62
               7
  6
CONTINUOUS
  0
LAYER
  2
LAYER004
 70
               0
 62
               7
  6
CONTINUOUS
  0
LAYER
  2
LAYER005
 70
               0
 62
               7
  6
CONTINUOUS
  0
LAYER
  2
LAYER006
 70
               0
 62
               7
  6
CONTINUOUS
  0
LAYER
  2
LAYER007
 70
               0
 62
               7
  6
CONTINUOUS
  0
LAYER
  2
LAYER008
 70
               0
 62
               7
  6
CONTINUOUS
  0
LAYER
  2
LAYER009
 70
               0
 62
               7
  6
CONTINUOUS
  0
LAYER
  2
LAYER010
 70
               0
 62
               7
  6
CONTINUOUS
  0
LAYER
  2
LAYER011
 70
               0
 62
               7
  6
CONTINUOUS
  0
LAYER
  2
LAYER012
 70
               0
 62
               7
  6
CONTINUOUS
  0
LAYER
  2
LAYER013
 70
               0
 62
               7
  6
CONTINUOUS
  0
LAYER
  2
LAYER014
 70
               0
 62
               7
  6
CONTINUOUS
  0
LAYER
  2
LAYER015
 70
               0
 62
               7
  6
CONTINUOUS
  0
LAYER
  2
LAYER016
 70
               0
 62
               7
  6
CONTINUOUS
  0
LAYER
  2
LAYER017
 70
               0
 62
               7
  6
CONTINUOUS
  0
LAYER
  2
LAYER018
 70
               0
 62
               7
  6
CONTINUOUS
  0
LAYER
  2
LAYER019
 70
               0
 62
               7
  6
CONTINUOUS
  0
LAYER
  2
LAYER020
 70
               0
 62
               7
  6
CONTINUOUS
  0
LAYER
  2
LAYER021
 70
               0
 62
               7
  6
CONTINUOUS
  0
LAYER
  2
LAYER022
 70
               0
 62
               7
  6
CONTINUOUS
  0
LAYER
  2
LAYER023
 70
               0
 62
               7
  6
CONTINUOUS
  0
LAYER
  2
LAYER024
 70
               0
 62
               7
  6
CONTINUOUS
  0
LAYER
  2
LAYER025
 70
               0
 62
               7
  6
CONTINUOUS
  0
LAYER
  2
LAYER026
 70
               0
 62
               7
  6
CONTINUOUS
  0
LAYER
  2
LAYER027
 70
               0
 62
               7
  6
CONTINUOUS
  0
LAYER
  2
LAYER028
 70
               0
 62
               7
  6
CONTINUOUS
  0
LAYER
  2
LAYER029
 70
               0
 62
               7
  6
CONTINUOUS
  0
LAYER
  2
LAYER030
 70
               0
 62
               7
  6
CONTINUOUS
  0
LAYER
  2
LAYER031
 70
               0
 62
               7
  6
CONTINUOUS
  0
LAYER
  2
LAYER032
 70
               0
 62
               7
  6
CONTINUOUS
  0
LAYER
  2
LAYER033
 70
               0
 62
               7
  6
CONTINUOUS
  0
LAYER
  2
LAYER034
 70
               0
 62
               7
  6
CONTINUOUS
  0
LAYER
  2
LAYER035
 70
               0
 62
               7
  6
CONTINUOUS
  0
LAYER
  2
LAYER036
 70
               0
 62
               7
  6
CONTINUOUS
  0
LAYER
  2
LAYER037
 70
               0
 62
               7
  6
CONTINUOUS
  0
LAYER
  2
LAYER038
 70
               0
 62
               7
  6
CONTINUOUS
  0
LAYER
  2
LAYER039
 70
               0
 62
               7
  6
CONTINUOUS
  0
LAYER
  2
LAYER040
 70
               0
 62
               7
  6
CONTINUOUS
  0
LAYER
  2
LAYER041
 70
               0
 62
               7
  6
CONTINUOUS
  0
LAYER
  2
LAYER042
 70
               0
 62
               7
  6
CONTINUOUS
  0
LAYER
  2
LAYER043
 70
               0
 62
               7
  6
CONTINUOUS
  0
LAYER
  2
LAYER044
 70
               0
 62
               7
  6
CONTINUOUS
  0
LAYER
  2
LAYER045
 70
               0
 62
               7
  6
CONTINUOUS
  0
LAYER
  2
LAYER046
 70
               0
 62
               7
  6
CONTINUOUS
  0
LAYER
  2
LAYER047
 70
               0
 62
               7
  6
CONTINUOUS
  0
LAYER
  2
LAYER048
 70
               0
 62
               7
  6
CONTINUOUS
  0
LAYER
  2
LAYER049
 70
               0
 62
               7
  6
CONTINUOUS
  0
LAYER
  2
LAYER050
 70
               0
 62
               7
  6
CONTINUOUS
  0
LAYER
  2
LAYER051
 70
               0
 62
               7
  6
CONTINUOUS
  0
LAYER
  2
LAYER052
 70
               0
 62
               7
  6
CONTINUOUS
  0
LAYER
  2
LAYER053
 70
               0
 62
               7
  6
CONTINUOUS
  0
LAYER
  2
LAYER054
 70
               0
 62
               7
  6
CONTINUOUS
  0
LAYER
  2
LAYER055
 70
               0
 62
               7
  6
CONTINUOUS
  0
LAYER
  2
LAYER056
 70
               0
 62
               7
  6
CONTINUOUS
  0
LAYER
  2
LAYER057
 70
               0
 62
               7
  6
CONTINUOUS
  0
LAYER
  2
LAYER058
 70
               0
 62
               7
  6
CONTINUOUS
  0
LAYER
  2
LAYER059
 70
               0
 62
               7
  6
CONTINUOUS
  0
LAYER
  2
LAYER060
 70
               0
 62
               7
  6
CONTINUOUS
  0
LAYER
  2
LAYER061
 70
               0
 62
               7
  6
CONTINUOUS
  0
LAYER
  2
LAYER062
 70
               0
 62
               7
  6
CONTINUOUS
  0
LAYER
  2
LAYER063
 70
               0
 62
               7
  6
CONTINUOUS
  0
LAYER
  2
LAYER064
 70
               0
 62
               7
  6
CONTINUOUS
  0
LAYER
  2
LAYER065
 70
               0
 62
               7
  6
CONTINUOUS
  0
LAYER
  2
LAYER066
 70
               0
 62
               7
  6
CONTINUOUS
  0
LAYER
  2
LAYER067
 70
               0
 62
               7
  6
CONTINUOUS
  0
LAYER
  2
LAYER068
 70
               0
 62
               7
  6
CONTINUOUS
  0
LAYER
  2
LAYER069
 70
               0
 62
               7
  6
CONTINUOUS
  0
LAYER
  2
LAYER070
 70
               0
 62
               7
  6
CONTINUOUS
  0
LAYER
  2
LAYER071
 70
               0
 62
               7
  6
CONTINUOUS
  0
LAYER
  2
LAYER072
 70
               0
 62
               7
  6
CONTINUOUS
  0
LAYER
  2
LAYER073
 70
               0
 62
               7
  6
CONTINUOUS
  0
LAYER
  2
LAYER074
 70
               0
 62
               7
  6
CONTINUOUS
  0
LAYER
  2
LAYER075
 70
               0
 62
               7
  6
CONTINUOUS
  0
LAYER
  2
LAYER076
 70
               0
 62
               7
  6
CONTINUOUS
  0
LAYER
  2
LAYER077
 70
               0
 62
               7
  6
CONTINUOUS
  0
LAYER
  2
LAYER078
 70
               0
 62
               7
  6
CONTINUOUS
  0
LAYER
  2
LAYER079
 70
               0
 62
               7
  6
CONTINUOUS
  0
LAYER
  2
LAYER080
 70
               0
 62
               7
  6
CONTINUOUS
  0
LAYER
  2
LAYER081
 70
               0
 62
               7
  6
CONTINUOUS
  0
LAYER
  2
LAYER082
 70
               0
 62
               7
  6
CONTINUOUS
  0
LAYER
  2
LAYER083
 70
               0
 62
               7
  6
CONTINUOUS
  0
LAYER
  2
LAYER084
 70
               0
 62
               7
  6
CONTINUOUS
  0
LAYER
  2
LAYER085
 70
               0
 62
               7
  6
CONTINUOUS
  0
LAYER
  2
LAYER086
 70
               0
 62
               7
  6
CONTINUOUS
  0
LAYER
  2
LAYER087
 70
               0
 62
               7
  6
CONTINUOUS
  0
LAYER
  2
LAYER088
 70
               0
 62
               7
  6
CONTINUOUS
  0
LAYER
  2
LAYER089
 70
               0
 62
               7
  6
CONTINUOUS
  0
LAYER
  2
LAYER090
 70
               0
 62
               7
  6
CONTINUOUS
  0
LAYER
  2
LAYER091
 70
               0
 62
               7
  6
CONTINUOUS
  0
LAYER
  2
LAYER092
 70
               0
 62
               7
  6
CONTINUOUS
  0
LAYER
  2
LAYER093
 70
               0
 62
               7
  6
CONTINUOUS
  0
LAYER
  2
LAYER094
 70
               0
 62
               7
  6
CONTINUOUS
  0
LAYER
  2
LAYER095
 70
               0
 62
               7
  6
CONTINUOUS
  0
LAYER
  2
LAYER096
 70
               0
 62
               7
  6
CONTINUOUS
  0
LAYER
  2
LAYER097
 70
               0
 62
               7
  6
CONTINUOUS
  0
LAYER
  2
LAYER098
 70
               0
 62
               7
  6
CONTINUOUS
  0
LAYER
  2
LAYER099
 70
               0
 62
               7
  6
CONTINUOUS
  0
LAYER
  2
LAYER100
 70
               0
 62
               7
  6
CONTINUOUS
  0
LAYER
  2
LAYER101
 70
               0
 62
               7
  6
CONTINUOUS
  0
LAYER
  2
LAYER102
 70
               0
 62
               7
  6
CONTINUOUS
  0
LAYER
  2
LAYER103
 70
               0
 62
               7
  6
CONTINUOUS
  0
LAYER
  2
LAYER104
 70
               0
 62
               7
  6
CONTINUOUS
  0
LAYER
  2
LAYER105
 70
               0
 62
               7
  6
CONTINUOUS
  0
LAYER
  2
LAYER106
 70
               0
 62
               7
  6
CONTINUOUS
  0
LAYER
  2
LAYER107
 70
               0
 62
               7
  6
CONTINUOUS
  0
LAYER
  2
LAYER108
 70
               0
 62
               7
  6
CONTINUOUS
  0
LAYER
  2
LAYER109
 70
               0
 62
               7
  6
CONTINUOUS
  0
LAYER
  2
LAYER110
 70
               0
 62
               7
  6
CONTINUOUS
  0
LAYER
  2
LAYER111
 70
               0
 62
               7
  6
CONTINUOUS
  0
LAYER
  2
LAYER112
 70
               0
 62
               7
  6
CONTINUOUS
  0
LAYER
  2
LAYER113
 70
               0
 62
               7
  6
CONTINUOUS
  0
LAYER
  2
LAYER114
 70
               0
 62
               7
  6
CONTINUOUS
  0
LAYER
  2
LAYER115
 70
               0
 62
               7
  6
CONTINUOUS
  0
LAYER
  2
LAYER116
 70
               0
 62
               7
  6
CONTINUOUS
  0
LAYER
  2
LAYER117
 70
               0
 62
               7
  6
CONTINUOUS
  0
LAYER
  2
LAYER118
 70
               0
 62
               7
  6
CONTINUOUS
  0
LAYER
  2
LAYER119
 70
               0
 62
               7
  6
CONTINUOUS
  0
LAYER
  2
LAYER120
 70
               0
 62
               7
  6
CONTINUOUS
  0
LAYER
  2
LAYER121
 70
               0
 62
               7
  6
CONTINUOUS
  0
LAYER
  2
LAYER122
 70
               0
 62
               7
  6
CONTINUOUS
  0
LAYER
  2
LAYER123
 70
               0
 62
               7
  6
CONTINUOUS
  0
LAYER
  2
LAYER124
 70
               0
 62
               7
  6
CONTINUOUS
  0
LAYER
  2
LAYER125
 70
               0
 62
               7
  6
CONTINUOUS
  0
LAYER
  2
LAYER126
 70
               0
 62
               7
  6
CONTINUOUS
  0
LAYER
  2
LAYER127
 70
               0
 62
               7
  6
CONTINUOUS
  0
LAYER
  2
LAYER128
 70
               0
 62
               7
  6
CONTINUOUS
  0
LAYER
  2
LAYER129
 70
               0
 62
               7
  6
CONTINUOUS
  0
LAYER
  2
LAYER130
 70
               0
 62
               7
  6
CONTINUOUS
  0
LAYER
  2
LAYER131
 70
               0
 62
               7
  6
CONTINUOUS
  0
LAYER
  2
LAYER132
 70
               0
 62
               7
  6
CONTINUOUS
  0
LAYER
  2
LAYER133
 70
               0
 62
               7
  6
CONTINUOUS
  0
LAYER
  2
LAYER134
 70
               0
 62
               7
  6
CONTINUOUS
  0
LAYER
  2
LAYER135
 70
               0
 62
               7
  6
CONTINUOUS
  0
LAYER
  2
LAYER136
 70
               0
 62
               7
  6
CONTINUOUS
  0
LAYER
  2
LAYER137
 70
               0
 62
               7
  6
CONTINUOUS
  0
LAYER
  2
LAYER138
 70
               0
 62
               7
  6
CONTINUOUS
  0
LAYER
  2
LAYER139
 70
               0
 62
               7
  6
CONTINUOUS
  0
LAYER
  2
LAYER140
 70
               0
 62
               7
  6
CONTINUOUS
  0
LAYER
  2
LAYER141
 70
               0
 62
               7
  6
CONTINUOUS
  0
LAYER
  2
LAYER142
 70
               0
 62
               7
  6
CONTINUOUS
  0
LAYER
  2
LAYER143
 70
               0
 62
               7
  6
CONTINUOUS
  0
LAYER
  2
LAYER144
 70
               0
 62
               7
  6
CONTINUOUS
  0
LAYER
  2
LAYER145
 70
               0
 62
               7
  6
CONTINUOUS
  0
LAYER
  2
LAYER146
 70
               0
 62
               7
  6
CONTINUOUS
  0
LAYER
  2
LAYER147
 70
               0
 62
               7
  6
CONTINUOUS
  0
LAYER
  2
LAYER148
 70
               0
 62
               7
  6
CONTINUOUS
  0
LAYER
  2
LAYER149
 70
               0
 62
               7
  6
CONTINUOUS
  0
LAYER
  2
LAYER150
 70
               0
 62
               7
  6
CONTINUOUS
  0
LAYER
  2
LAYER151
 70
               0
 62
               7
  6
CONTINUOUS
  0
LAYER
  2
LAYER152
 70
               0
 62
               7
  6
CONTINUOUS
  0
LAYER
  2
LAYER153
 70
               0
 62
               7
  6
CONTINUOUS
  0
LAYER
  2
LAYER154
 70
               0
 62
               7
  6
CONTINUOUS
  0
LAYER
  2
LAYER155
 70
               0
 62
               7
  6
CONTINUOUS
  0
LAYER
  2
LAYER156
 70
               0
 62
               7
  6
CONTINUOUS
  0
LAYER
  2
LAYER157
 70
               0
 62
               7
  6
CONTINUOUS
  0
LAYER
  2
LAYER158
 70
               0
 62
               7
  6
CONTINUOUS
  0
LAYER
  2
LAYER159
 70
               0
 62
               7
  6
CONTINUOUS
  0
LAYER
  2
LAYER160
 70
               0
 62
               7
  6
CONTINUOUS
  0
LAYER
  2
LAYER161
 70
               0
 62
               7
  6
CONTINUOUS
  0
LAYER
  2
LAYER162
 70
               0
 62
               7
  6
CONTINUOUS
  0
LAYER
  2
LAYER163
 70
               0
 62
               7
  6
CONTINUOUS
  0
LAYER
  2
LAYER164
 70
               0
 62
               7
  6
CONTINUOUS
  0
LAYER
  2
LAYER165
 70
               0
 62
               7
  6
CONTINUOUS
  0
LAYER
  2
LAYER166
 70
               0
 62
               7
  6
CONTINUOUS
  0
LAYER
  2
LAYER167
 70
               0
 62
               7
  6
CONTINUOUS
  0
LAYER
  2
LAYER168
 70
               0
 62
               7
  6
CONTINUOUS
  0
LAYER
  2
LAYER169
 70
               0
 62
               7
  6
CONTINUOUS
  0
LAYER
  2
LAYER170
 70
               0
 62
               7
  6
CONTINUOUS
  0
LAYER
  2
LAYER171
 70
               0
 62
               7
  6
CONTINUOUS
  0
LAYER
  2
LAYER172
 70
               0
 62
               7
  6
CONTINUOUS
  0
LAYER
  2
LAYER173
 70
               0
 62
               7
  6
CONTINUOUS
  0
LAYER
  2
LAYER174
 70
               0
 62
               7
  6
CONTINUOUS
  0
LAYER
  2
LAYER175
 70
               0
 62
               7
  6
CONTINUOUS
  0
LAYER
  2
LAYER176
 70
               0
 62
               7
  6
CONTINUOUS
  0
LAYER
  2
LAYER177
 70
               0
 62
               7
  6
CONTINUOUS
  0
LAYER
  2
LAYER178
 70
               0
 62
               7
  6
CONTINUOUS
  0
LAYER
  2
LAYER179
 70
               0
 62
               7
  6
CONTINUOUS
  0
LAYER
  2
LAYER180
 70
               0
 62
               7
  6
CONTINUOUS
  0
LAYER
  2
LAYER181
 70
               0
 62
               7
  6
CONTINUOUS
  0
LAYER
  2
LAYER182
 70
               0
 62
               7
  6
CONTINUOUS
  0
LAYER
  2
LAYER183
 70
               0
 62
               7
  6
CONTINUOUS
  0
LAYER
  2
LAYER184
 70
               0
 62
               7
  6
CONTINUOUS
  0
LAYER
  2
LAYER185
 70
               0
 62
               7
  6
CONTINUOUS
  0
LAYER
  2
LAYER186
 70
               0
 62
               7
  6
CONTINUOUS
  0
LAYER
  2
LAYER187
 70
               0
 62
               7
  6
CONTINUOUS
  0
LAYER
  2
LAYER188
 70
               0
 62
               7
  6
CONTINUOUS
  0
LAYER
  2
LAYER189
 70
               0
 62
               7
  6
CONTINUOUS
  0
LAYER
  2
LAYER190
 70
               0
 62
               7
  6
CONTINUOUS
  0
LAYER
  2
LAYER191
 70
               0
 62
               7
  6
CONTINUOUS
  0
LAYER
  2
LAYER192
 70
               0
 62
               7
  6
CONTINUOUS
  0
LAYER
  2
LAYER193
 70
               0
 62
               7
  6
CONTINUOUS
  0
LAYER
  2
LAYER194
 70
               0
 62
               7
  6
CONTINUOUS
  0
LAYER
  2
LAYER195
 70
               0
 62
               7
  6
CONTINUOUS
  0
LAYER
  2
LAYER196
 70
               0
 62
               7
  6
CONTINUOUS
  0
LAYER
  2
LAYER197
 70
               0
 62
               7
  6
CONTINUOUS
  0
LAYER
  2
LAYER198
 70
               0
 62
               7
  6
CONTINUOUS
  0
LAYER
  2
LAYER199
 70
               0
 62
               7
  6
CONTINUOUS
  0
LAYER
  2
LAYER200
 70
               0
 62
               7
  6
CONTINUOUS
  0
LAYER
  2
LAYER201
 70
               0
 62
               7
  6
CONTINUOUS
  0
LAYER
  2
LAYER202
 70
               0
 62
               7
  6
CONTINUOUS
  0
LAYER
  2
LAYER203
 70
               0
 62
               7
  6
CONTINUOUS
  0
LAYER
  2
LAYER204
 70
               0
 62
               7
  6
CONTINUOUS
  0
LAYER
  2
LAYER205
 70
               0
 62
               7
  6
CONTINUOUS
  0
LAYER
  2
LAYER206
 70
               0
 62
               7
  6
CONTINUOUS
  0
LAYER
  2
LAYER207
 70
               0
 62
               7
  6
CONTINUOUS
  0
LAYER
  2
LAYER208
 70
               0
 62
               7
  6
CONTINUOUS
  0
LAYER
  2
LAYER209
 70
               0
 62
               7
  6
CONTINUOUS
  0
LAYER
  2
LAYER210
 70
               0
 62
               7
  6
CONTINUOUS
  0
LAYER
  2
LAYER211
 70
               0
 62
               7
  6
CONTINUOUS
  0
LAYER
  2
LAYER212
 70
               0
 62
               7
  6
CONTINUOUS
  0
LAYER
  2
LAYER213
 70
               0
 62
               7
  6
CONTINUOUS
  0
LAYER
  2
LAYER214
 70
               0
 62
               7
  6
CONTINUOUS
  0
LAYER
  2
LAYER215
 70
               0
 62
               7
  6
CONTINUOUS
  0
LAYER
  2
LAYER216
 70
               0
 62
               7
  6
CONTINUOUS
  0
LAYER
  2
LAYER217
 70
               0
 62
               7
  6
CONTINUOUS
  0
LAYER
  2
LAYER218
 70
               0
 62
               7
  6
CONTINUOUS
  0
LAYER
  2
LAYER219
 70
               0
 62
               7
  6
CONTINUOUS
  0
LAYER
  2
LAYER220
 70
               0
 62
               7
  6
CONTINUOUS
  0
LAYER
  2
LAYER221
 70
               0
 62
               7
  6
CONTINUOUS
  0
LAYER
  2
LAYER222
 70
               0
 62
               7
  6
CONTINUOUS
  0
LAYER
  2
LAYER223
 70
               0
 62
               7
  6
CONTINUOUS
  0
LAYER
  2
LAYER224
 70
               0
 62
               7
  6
CONTINUOUS
  0
LAYER
  2
LAYER225
 70
               0
 62
               7
  6
CONTINUOUS
  0
LAYER
  2
LAYER226
 70
               0
 62
               7
  6
CONTINUOUS
  0
LAYER
  2
LAYER227
 70
               0
 62
               7
  6
CONTINUOUS
  0
LAYER
  2
LAYER228
 70
               0
 62
               7
  6
CONTINUOUS
  0
LAYER
  2
LAYER229
 70
               0
 62
               7
  6
CONTINUOUS
  0
LAYER
  2
LAYER230
 70
               0
 62
               7
  6
CONTINUOUS
  0
LAYER
  2
LAYER231
 70
               0
 62
               7
  6
CONTINUOUS
  0
LAYER
  2
LAYER232
 70
               0
 62
               7
  6
CONTINUOUS
  0
LAYER
  2
LAYER233
 70
               0
 62
               7
  6
CONTINUOUS
  0
LAYER
  2
LAYER234
 70
               0
 62
               7
  6
CONTINUOUS
  0
LAYER
  2
LAYER235
 70
               0
 62
               7
  6
CONTINUOUS
  0
LAYER
  2
LAYER236
 70
               0
 62
               7
  6
CONTINUOUS
  0
LAYER
  2
LAYER237
 70
               0
 62
               7
  6
CONTINUOUS
  0
LAYER
  2
LAYER238
 70
               0
 62
               7
  6
CONTINUOUS
  0
LAYER
  2
LAYER239
 70
               0
 62
               7
  6
CONTINUOUS
  0
LAYER
  2
LAYER240
 70
               0
 62
               7
  6
CONTINUOUS
  0
LAYER
  2
LAYER241
 70
               0
 62
               7
  6
CONTINUOUS
  0
LAYER
  2
LAYER242
 70
               0
 62
               7
  6
CONTINUOUS
  0
LAYER
  2
LAYER243
 70
               0
 62
               7
  6
CONTINUOUS
  0
LAYER
  2
LAYER244
 70
               0
 62
               7
  6
CONTINUOUS
  0
LAYER
  2
LAYER245
 70
               0
 62
               7
  6
CONTINUOUS
  0
LAYER
  2
LAYER246
 70
               0
 62
               7
  6
CONTINUOUS
  0
LAYER
  2
LAYER247
 70
               0
 62
               7
  6
CONTINUOUS
  0
LAYER
  2
LAYER248
 70
               0
 62
               7
  6
CONTINUOUS
  0
LAYER
  2
LAYER249
 70
               0
 62
               7
  6
CONTINUOUS
  0
LAYER
  2
LAYER250
 70
               0
 62
               7
  6
CONTINUOUS
  0
LAYER
  2
LAYER251
 70
               0
 62
               7
  6
CONTINUOUS
  0
LAYER
  2
LAYER252
 70
               0
 62
               7
  6
CONTINUOUS
  0
LAYER
  2
LAYER253
 70
               0
 62
               7
  6
CONTINUOUS
  0
LAYER
  2
LAYER254
 70
               0
 62
               7
  6
CONTINUOUS
  0
LAYER
  2
LAYER255
 70
               0
 62
               7
  6
CONTINUOUS
  0
ENDTAB
  0
TABLE
  2
STYLE
 70
               1
  0
STYLE
  2
STANDARD
 70
               0
 40
0.0
 41
0.8
 50
0.0
 71
               0
 42
40.0
  3
MS PGothic.ttf
  4

  0
ENDTAB
  0
TABLE
  2
VIEW
 70
               0
  0
VIEW
  2
QQQQ
 70
               0
 40
2260.5763107741745
 10
64.643261608153864
 20
-437.13520849510155
 41
1222.4466081540199
 11
0.0
 21
0.0
 31
1.0
 12
100.0
 22
100.0
 32
0.0
 42
50.0
 43
0.0
 44
0.0
 50
0.0
 71
               0
  0
ENDTAB
  0
TABLE
  2
UCS
 70
               0
  0
ENDTAB
  0
TABLE
  2
APPID
 70
               1
  0
APPID
  2
ACAD
 70
               0
  0
ENDTAB
  0
TABLE
  2
DIMSTYLE
 70
               1
  0
DIMSTYLE
  2
STANDARD
 70
               0
  3

  4

  5

  6

  7

 40
1.0
 41
0.18
 42
0.0625
 43
0.38
 44
0.18
 45
0.0
 46
0.0
 47
0.0
 48
0.0
140
0.18
141
0.09
142
0.0
143
25.399999999999999
144
1.0
145
0.0
146
1.0
147
0.09
 71
               0
 72
               0
 73
               1
 74
               1
 75
               0
 76
               0
 77
               0
 78
               0
170
               0
171
               2
172
               0
173
               0
174
               0
175
               0
176
               0
177
               0
178
               0
  0
ENDTAB
  0
ENDSEC
  0
SECTION
  2
BLOCKS
  0
ENDSEC
  0
SECTION
  2
ENTITIES
  0
LINE
  8
0
  6
CONTINUOUS
 62
               3
  5
136
 10
-75.000000000000313
 20
142.24999999999997
 30
0.0
 11
74.999999999999687
 21
142.24999999999997
 31
0.0
  0
LINE
  8
0
  6
CONTINUOUS
 62
               3
  5
137
 10
-88.50000000000054
 20
132.24999999999997
 30
0.0
 11
-88.50000000000054
 21
125.25000000000031
 31
0.0
  0
LINE
  8
0
  6
CONTINUOUS
 62
               3
  5
138
 10
-88.50000000000054
 20
132.24999999999997
 30
0.0
 11
-75.000000000000313
 21
142.24999999999997
 31
0.0
  0
ARC
  8
0
  6
CONTINUOUS
 62
               3
  5
139
 10
-77.000000000000199
 20
120.66742430504459
 30
0.0
 40
4.9999999999999991
 50
0.0
 51
66.421821521759824
  0
LINE
  8
0
  6
CONTINUOUS
 62
               3
  5
13A
 10
-88.50000000000054
 20
125.25000000000031
 30
0.0
 11
88.499999999999346
 21
125.25000000000031
 31
0.0
  0
LINE
  8
0
  6
CONTINUOUS
 62
               3
  5
13B
 10
-72.000000000000199
 20
120.66742430504459
 30
0.0
 11
-72.000000000000199
 21
65.847726206145666
 31
0.0
  0
LINE
  8
0
  6
CONTINUOUS
 62
               3
  5
13C
 10
71.999999999999574
 20
50.785653752853335
 30
0.0
 11
71.999999999999574
 21
120.66742430504459
 31
0.0
  0
LINE
  8
0
  6
CONTINUOUS
 62
               3
  5
13D
 10
-58.000000000000426
 20
-350.75000000000034
 30
0.0
 11
-75.000000000000313
 21
-201.74999999999989
 31
0.0
  0
LINE
  8
0
  6
CONTINUOUS
 62
               3
  5
13E
 10
-75.000000000000171
 20
-97.382343068587858
 30
0.0
 11
-75.000000000000313
 21
-201.74999999999989
 31
0.0
  0
LINE
  8
0
  6
CONTINUOUS
 62
               3
  5
13F
 10
-52.000000000000206
 20
45.785653752852767
 30
0.0
 11
71.500000000000028
 21
45.785653752852767
 31
0.0
  0
LINE
  8
0
  6
CONTINUOUS
 62
               3
  5
140
 10
-20.00000000000032
 20
125.25000000000031
 30
0.0
 11
-20.00000000000032
 21
142.24999999999997
 31
0.0
  0
LINE
  8
0
  6
CONTINUOUS
 62
               3
  5
141
 10
19.999999999999684
 20
142.24999999999997
 30
0.0
 11
19.999999999999684
 21
125.25000000000031
 31
0.0
  0
LINE
  8
0
  6
CONTINUOUS
 62
               3
  5
142
 10
-20.00000000000032
 20
132.24999999999997
 30
0.0
 11
19.999999999999684
 21
132.24999999999997
 31
0.0
  0
LINE
  8
0
  6
CONTINUOUS
 62
               3
  5
143
 10
-72.284161474005685
 20
142.24999999999997
 30
0.0
 11
-72.284161474005685
 21
125.25000000000031
 31
0.0
  0
LINE
  8
0
  6
CONTINUOUS
 62
               3
  5
144
 10
-86.210498200625551
 20
132.24999999999997
 30
0.0
 11
-86.210498200625551
 21
125.25000000000031
 31
0.0
  0
LINE
  8
0
  6
CONTINUOUS
 62
               3
  5
145
 10
-88.50000000000054
 20
132.24999999999997
 30
0.0
 11
-86.210498200625551
 21
132.24999999999997
 31
0.0
  0
LINE
  8
0
  6
CONTINUOUS
 62
               3
  5
146
 10
-86.210498200625551
 20
132.24999999999997
 30
0.0
 11
-72.284161474005685
 21
142.24999999999997
 31
0.0
  0
LINE
  8
0
  6
CONTINUOUS
 62
               3
  5
147
 10
88.499999999999346
 20
132.24999999999997
 30
0.0
 11
88.499999999999346
 21
125.25000000000031
 31
0.0
  0
LINE
  8
0
  6
CONTINUOUS
 62
               3
  5
148
 10
88.499999999999346
 20
132.24999999999997
 30
0.0
 11
74.999999999999687
 21
142.24999999999997
 31
0.0
  0
ARC
  8
0
  6
CONTINUOUS
 62
               3
  5
149
 10
76.999999999999574
 20
120.66742430504459
 30
0.0
 40
4.9999999999999991
 50
113.57817847813641
 51
179.9999999998962
  0
LINE
  8
0
  6
CONTINUOUS
 62
               3
  5
14A
 10
72.284161474003923
 20
142.24999999999997
 30
0.0
 11
72.284161474003923
 21
125.25000000000031
 31
0.0
  0
LINE
  8
0
  6
CONTINUOUS
 62
               3
  5
14B
 10
86.210498200624926
 20
132.24999999999997
 30
0.0
 11
86.210498200624926
 21
125.25000000000031
 31
0.0
  0
LINE
  8
0
  6
CONTINUOUS
 62
               3
  5
14C
 10
88.499999999999346
 20
132.24999999999997
 30
0.0
 11
86.210498200624926
 21
132.24999999999997
 31
0.0
  0
LINE
  8
0
  6
CONTINUOUS
 62
               3
  5
14D
 10
86.210498200624926
 20
132.24999999999997
 30
0.0
 11
72.284161474003923
 21
142.24999999999997
 31
0.0
  0
ARC
  8
0
  6
CONTINUOUS
 62
               3
  5
14E
 10
-65.000000000000313
 20
-86.250000000000028
 30
0.0
 40
2.4999999999999996
 50
89.999999999948017
 51
269.9999999998447
  0
ARC
  8
0
  6
CONTINUOUS
 62
               3
  5
14F
 10
74.999999999999687
 20
-86.250000000000028
 30
0.0
 40
2.4999999999999996
 50
269.99999999984499
 51
449.99999999974102
  0
LINE
  8
0
  6
CONTINUOUS
 62
               3
  5
150
 10
-75.000000000000313
 20
-201.74999999999989
 30
0.0
 11
-46.368107792057209
 21
-201.74999999999989
 31
0.0
  0
LINE
  8
0
  6
CONTINUOUS
 62
               3
  5
151
 10
-1.9728332801512112
 20
-201.74999999999989
 30
0.0
 11
74.496765133649461
 21
-201.74999999999989
 31
0.0
  0
LINE
  8
0
  6
CONTINUOUS
 62
               3
  5
152
 10
-65.000000000000313
 20
-83.750000000000028
 30
0.0
 11
74.999999999999687
 21
-83.750000000000028
 31
0.0
  0
LINE
  8
0
  6
CONTINUOUS
 62
               3
  5
153
 10
-65.000000000000313
 20
-88.750000000000028
 30
0.0
 11
74.999999999999687
 21
-88.750000000000028
 31
0.0
  0
LINE
  8
0
  6
CONTINUOUS
 62
               3
  5
154
 10
-137.0000000000002
 20
-81.250000000000028
 30
0.0
 11
-89.294996001753987
 21
-82.915895448225825
 31
0.0
  0
LINE
  8
0
  6
CONTINUOUS
 62
               3
  5
155
 10
-85.933959579333703
 20
-84.377315677388566
 30
0.0
 11
-76.464466094067262
 21
-93.846809162655205
 31
0.0
  0
ARC
  8
0
  6
CONTINUOUS
 62
               3
  5
156
 10
-89.469493485266469
 20
-87.912849583321332
 30
0.0
 40
5.0
 50
44.999999999982855
 51
87.999999999965851
  0
ARC
  8
0
  6
CONTINUOUS
 62
               3
  5
157
 10
-80.000000000000171
 20
-97.382343068587858
 30
0.0
 40
5.0
 50
0.0
 51
44.9999999999824
  0
LINE
  8
0
  6
CONTINUOUS
 62
               3
  5
158
 10
-140.00000000000031
 20
-78.921556125964145
 30
0.0
 11
-139.31218750679494
 21
-78.921556125964145
 31
0.0
  0
LINE
  8
0
  6
CONTINUOUS
 62
               3
  5
159
 10
-136.98374363275906
 20
-81.250000000000028
 30
0.0
 11
-139.31218750679494
 21
-78.921556125964145
 31
0.0
  0
LINE
  8
0
  6
CONTINUOUS
 62
               3
  5
15A
 10
-140.00000000000031
 20
-81.249999999999915
 30
0.0
 11
-142.50000000000031
 21
-81.249999999999915
 31
0.0
  0
ARC
  8
0
  6
CONTINUOUS
 62
               3
  5
15B
 10
-142.50000000000031
 20
-78.749999999999915
 30
0.0
 40
2.5
 50
179.99999999993057
 51
269.99999999989649
  0
LINE
  8
0
  6
CONTINUOUS
 62
               3
  5
15C
 10
-136.98374363275906
 20
58.749999999999972
 30
0.0
 11
-136.98374363275906
 21
-81.250567684853337
 31
0.0
  0
LINE
  8
0
  6
CONTINUOUS
 62
               3
  5
15D
 10
-140.00000000000031
 20
56.421556125964088
 30
0.0
 11
-139.31218750679494
 21
56.421556125964088
 31
0.0
  0
LINE
  8
0
  6
CONTINUOUS
 62
               3
  5
15E
 10
-136.98374363275906
 20
58.749999999999972
 30
0.0
 11
-139.31218750679494
 21
56.421556125964088
 31
0.0
  0
LINE
  8
0
  6
CONTINUOUS
 62
               3
  5
15F
 10
-140.00000000000031
 20
58.749999999999858
 30
0.0
 11
-142.50000000000031
 21
58.749999999999858
 31
0.0
  0
ARC
  8
0
  6
CONTINUOUS
 62
               3
  5
160
 10
-142.50000000000031
 20
56.249999999999858
 30
0.0
 40
2.5
 50
89.999999999965937
 51
179.99999999993065
  0
LINE
  8
0
  6
CONTINUOUS
 62
               3
  5
161
 10
-145.00000000000031
 20
56.249999999999858
 30
0.0
 11
-145.00000000000031
 21
-78.749999999999915
 31
0.0
  0
LINE
  8
0
  6
CONTINUOUS
 62
               3
  5
162
 10
-140.00000000000031
 20
-81.249999999999915
 30
0.0
 11
-140.00000000000031
 21
58.749999999999858
 31
0.0
  0
LINE
  8
0
  6
CONTINUOUS
 62
               3
  5
163
 10
-139.31218750679494
 20
56.421556125964088
 30
0.0
 11
-139.31218750679494
 21
-78.921556125964145
 31
0.0
  0
LINE
  8
0
  6
CONTINUOUS
 62
               3
  5
164
 10
-136.98374363275906
 20
58.749999999999972
 30
0.0
 11
-76.825502516487703
 21
60.850772071050159
 31
0.0
  0
ARC
  8
0
  6
CONTINUOUS
 62
               3
  5
165
 10
-77.000000000000199
 20
65.847726206145666
 30
0.0
 40
5.0
 50
271.99999999994731
 51
359.99999999993042
  0
LINE
  8
0
  6
CONTINUOUS
 62
               3
  5
166
 10
57.999999999999787
 20
-441.74999999999909
 30
0.0
 11
57.999999999999787
 21
-350.75000000000034
 31
0.0
  0
LINE
  8
0
  6
CONTINUOUS
 62
               3
  5
167
 10
-58.000000000000426
 20
-350.75000000000034
 30
0.0
 11
-58.000000000000426
 21
-441.75
 31
0.0
  0
LINE
  8
0
  6
CONTINUOUS
 62
               3
  5
168
 10
-58.000000000000426
 20
-350.74999999999966
 30
0.0
 11
57.999999999999787
 21
-350.75000000000034
 31
0.0
  0
LINE
  8
0
  6
CONTINUOUS
 62
               3
  5
169
 10
-55.000000000000313
 20
-542.75
 30
0.0
 11
54.999999999999758
 21
-542.75
 31
0.0
  0
LINE
  8
0
  6
CONTINUOUS
 62
               3
  5
16A
 10
-57.000000000000313
 20
-540.75
 30
0.0
 11
-57.000000000000313
 21
-442.75
 31
0.0
  0
LINE
  8
0
  6
CONTINUOUS
 62
               3
  5
16B
 10
-57.000000000000313
 20
-442.75
 30
0.0
 11
-57.999999999999858
 21
-441.75000000000045
 31
0.0
  0
LINE
  8
0
  6
CONTINUOUS
 62
               3
  5
16C
 10
56.999999999999758
 20
-540.75
 30
0.0
 11
56.999999999999744
 21
-442.75
 31
0.0
  0
LINE
  8
0
  6
CONTINUOUS
 62
               3
  5
16D
 10
56.999999999999744
 20
-442.75
 30
0.0
 11
57.999999999999289
 21
-441.75000000000045
 31
0.0
  0
LINE
  8
0
  6
CONTINUOUS
 62
               3
  5
16E
 10
-474.99999999999977
 20
142.25
 30
0.0
 11
-325.00000000000034
 21
142.25
 31
0.0
  0
LINE
  8
0
  6
CONTINUOUS
 62
               3
  5
16F
 10
-488.5
 20
132.25
 30
0.0
 11
-488.5
 21
125.25000000000034
 31
0.0
  0
LINE
  8
0
  6
CONTINUOUS
 62
               3
  5
170
 10
-488.5
 20
132.25
 30
0.0
 11
-474.99999999999977
 21
142.25
 31
0.0
  0
ARC
  8
0
  6
CONTINUOUS
 62
               3
  5
171
 10
-476.99999999999966
 20
120.66742430504462
 30
0.0
 40
4.9999999999999991
 50
0.0
 51
66.421821521759668
  0
LINE
  8
0
  6
CONTINUOUS
 62
               3
  5
172
 10
-488.5
 20
125.25000000000034
 30
0.0
 11
-311.50000000000011
 21
125.25000000000034
 31
0.0
  0
ARC
  8
0
  6
CONTINUOUS
 62
               3
  5
173
 10
-454.99999999999977
 20
35.25
 30
0.0
 40
19.999999999999996
 50
148.21166938286299
 51
179.99999999989649
  0
LINE
  8
0
  6
CONTINUOUS
 62
               3
  5
174
 10
-471.99999999999966
 20
120.66742430504462
 30
0.0
 11
-471.99999999999966
 21
45.785653752852795
 31
0.0
  0
ARC
  8
0
  6
CONTINUOUS
 62
               3
  5
175
 10
-345.00000000000034
 20
35.25
 30
0.0
 40
19.999999999999996
 50
0.0
 51
31.78833061703353
  0
LINE
  8
0
  6
CONTINUOUS
 62
               3
  5
176
 10
-327.99999999999989
 20
45.785653752852795
 30
0.0
 11
-327.99999999999989
 21
120.66742430504462
 31
0.0
  0
LINE
  8
0
  6
CONTINUOUS
 62
               3
  5
177
 10
-457.99999999999989
 20
-350.75000000000028
 30
0.0
 11
-474.99999999999977
 21
-201.74999999999983
 31
0.0
  0
LINE
  8
0
  6
CONTINUOUS
 62
               3
  5
178
 10
-474.99999999999977
 20
-88.75
 30
0.0
 11
-474.99999999999977
 21
-201.74999999999983
 31
0.0
  0
LINE
  8
0
  6
CONTINUOUS
 62
               3
  5
179
 10
-419.99999999999977
 20
125.25000000000034
 30
0.0
 11
-419.99999999999977
 21
142.25
 31
0.0
  0
LINE
  8
0
  6
CONTINUOUS
 62
               3
  5
17A
 10
-380.00000000000034
 20
142.25
 30
0.0
 11
-380.00000000000034
 21
125.25000000000034
 31
0.0
  0
LINE
  8
0
  6
CONTINUOUS
 62
               3
  5
17B
 10
-419.99999999999977
 20
132.25
 30
0.0
 11
-380.00000000000034
 21
132.25
 31
0.0
  0
LINE
  8
0
  6
CONTINUOUS
 62
               3
  5
17C
 10
-472.28416147400401
 20
142.25
 30
0.0
 11
-472.28416147400401
 21
125.25000000000034
 31
0.0
  0
LINE
  8
0
  6
CONTINUOUS
 62
               3
  5
17D
 10
-486.21049820062501
 20
132.25
 30
0.0
 11
-486.21049820062501
 21
125.25000000000034
 31
0.0
  0
LINE
  8
0
  6
CONTINUOUS
 62
               3
  5
17E
 10
-488.5
 20
132.25
 30
0.0
 11
-486.21049820062501
 21
132.25
 31
0.0
  0
LINE
  8
0
  6
CONTINUOUS
 62
               3
  5
17F
 10
-486.21049820062501
 20
132.25
 30
0.0
 11
-472.28416147400401
 21
142.25
 31
0.0
  0
LINE
  8
0
  6
CONTINUOUS
 62
               3
  5
180
 10
-311.50000000000011
 20
132.25
 30
0.0
 11
-311.50000000000011
 21
125.25000000000034
 31
0.0
  0
LINE
  8
0
  6
CONTINUOUS
 62
               3
  5
181
 10
-311.50000000000011
 20
132.25
 30
0.0
 11
-325.00000000000034
 21
142.25
 31
0.0
  0
ARC
  8
0
  6
CONTINUOUS
 62
               3
  5
182
 10
-322.99999999999989
 20
120.66742430504462
 30
0.0
 40
4.9999999999999991
 50
113.57817847813625
 51
179.9999999998962
  0
LINE
  8
0
  6
CONTINUOUS
 62
               3
  5
183
 10
-327.71583852599497
 20
142.25
 30
0.0
 11
-327.71583852599497
 21
125.25000000000034
 31
0.0
  0
LINE
  8
0
  6
CONTINUOUS
 62
               3
  5
184
 10
-313.78950179937453
 20
132.25
 30
0.0
 11
-313.78950179937453
 21
125.25000000000034
 31
0.0
  0
LINE
  8
0
  6
CONTINUOUS
 62
               3
  5
185
 10
-311.50000000000011
 20
132.25
 30
0.0
 11
-313.78950179937453
 21
132.25
 31
0.0
  0
LINE
  8
0
  6
CONTINUOUS
 62
               3
  5
186
 10
-313.78950179937453
 20
132.25
 30
0.0
 11
-327.71583852599497
 21
142.25
 31
0.0
  0
ARC
  8
0
  6
CONTINUOUS
 62
               3
  5
187
 10
-474.99999999999977
 20
-86.25
 30
0.0
 40
2.4999999999999996
 50
89.99999999994769
 51
269.99999999984436
  0
LINE
  8
0
  6
CONTINUOUS
 62
               3
  5
188
 10
-474.99999999999977
 20
35.25
 30
0.0
 11
-474.99999999999977
 21
-83.75
 31
0.0
  0
LINE
  8
0
  6
CONTINUOUS
 62
               3
  5
189
 10
-474.99999999999977
 20
-201.74999999999983
 30
0.0
 11
-341.0509999999997
 21
-201.74999999999955
 31
0.0
  0
LINE
  8
0
  6
CONTINUOUS
 62
               3
  5
18A
 10
-328.24363345646054
 20
-201.74999999999955
 30
0.0
 11
-325.00000000000034
 21
-201.74999999999955
 31
0.0
  0
ARC
  8
0
  6
CONTINUOUS
 62
               3
  5
18B
 10
-422.49999999999977
 20
-86.25
 30
0.0
 40
2.4999999999999996
 50
269.99999999984436
 51
449.99999999974102
  0
ARC
  8
0
  6
CONTINUOUS
 62
               3
  5
18C
 10
-377.49999999999977
 20
-86.25
 30
0.0
 40
2.4999999999999996
 50
89.99999999994769
 51
269.99999999984436
  0
LINE
  8
0
  6
CONTINUOUS
 62
               3
  5
18D
 10
-474.99999999999977
 20
-88.75
 30
0.0
 11
-422.49999999999977
 21
-88.75
 31
0.0
  0
LINE
  8
0
  6
CONTINUOUS
 62
               3
  5
18E
 10
-377.49999999999977
 20
-88.75
 30
0.0
 11
-325.00000000000091
 21
-88.75
 31
0.0
  0
LINE
  8
0
  6
CONTINUOUS
 62
               3
  5
18F
 10
-474.99999999999977
 20
-83.75
 30
0.0
 11
-422.49999999999977
 21
-83.75
 31
0.0
  0
LINE
  8
0
  6
CONTINUOUS
 62
               3
  5
190
 10
-377.49999999999977
 20
-83.75
 30
0.0
 11
-325.00000000000091
 21
-83.75
 31
0.0
  0
ARC
  8
0
  6
CONTINUOUS
 62
               3
  5
191
 10
-325.00000000000091
 20
-86.25
 30
0.0
 40
2.4999999999999996
 50
269.99999999984436
 51
449.99999999974102
  0
LINE
  8
0
  6
CONTINUOUS
 62
               3
  5
192
 10
-325.00000000000034
 20
-201.74999999999983
 30
0.0
 11
-325.00000000000091
 21
-88.75
 31
0.0
  0
LINE
  8
0
  6
CONTINUOUS
 62
               3
  5
193
 10
-325.00000000000091
 20
-83.75
 30
0.0
 11
-325.00000000000034
 21
35.25
 31
0.0
  0
LINE
  8
0
  6
CONTINUOUS
 62
               3
  5
194
 10
-341.99999999999966
 20
-350.75000000000028
 30
0.0
 11
-329.45190901929914
 21
-240.76967316915028
 31
0.0
  0
LINE
  8
0
  6
CONTINUOUS
 62
               3
  5
195
 10
-327.39985704623871
 20
-222.78404116997245
 30
0.0
 11
-325.00000000000034
 21
-201.74999999999955
 31
0.0
  0
CIRCLE
  8
0
  6
CONTINUOUS
 62
               3
  5
196
 10
-400.00000000000034
 20
-11.249999999999972
 30
0.0
 40
55.499999999999865
  0
CIRCLE
  8
0
  6
CONTINUOUS
 62
               3
  5
197
 10
-400.00000000000034
 20
-11.249999999999972
 30
0.0
 40
51.249999999999865
  0
ARC
  8
0
  6
CONTINUOUS
 62
               3
  5
198
 10
-400.00000000000034
 20
-11.249999999999972
 30
0.0
 40
57.499999999999865
 50
224.99999999991346
 51
314.99999999987892
  0
LINE
  8
0
  6
CONTINUOUS
 62
               3
  5
199
 10
-440.65863991822675
 20
-51.908639918226356
 30
0.0
 11
-442.28498551495591
 21
-53.534985514955423
 31
0.0
  0
LINE
  8
0
  6
CONTINUOUS
 62
               3
  5
19A
 10
-359.34136008177393
 20
-51.908639918226356
 30
0.0
 11
-357.71501448504489
 21
-53.534985514955423
 31
0.0
  0
CIRCLE
  8
0
  6
CONTINUOUS
 62
               3
  5
19B
 10
-400.00000000000034
 20
-11.249999999999972
 30
0.0
 40
60.999999999999879
  0
CIRCLE
  8
0
  6
CONTINUOUS
 62
               3
  5
19C
 10
-400.00000000000034
 20
-11.249999999999972
 30
0.0
 40
59.799999999999862
  0
LINE
  8
0
  6
CONTINUOUS
 62
               3
  5
19D
 10
-471.99999999999966
 20
45.785653752852795
 30
0.0
 11
-451.99999999999966
 21
45.785653752852795
 31
0.0
  0
LINE
  8
0
  6
CONTINUOUS
 62
               3
  5
19E
 10
-347.99999999999807
 20
45.785653752849186
 30
0.0
 11
-327.99999999999989
 21
45.785653752852795
 31
0.0
  0
LINE
  8
0
  6
CONTINUOUS
 62
               3
  5
19F
 10
-457.99999999999989
 20
-350.75000000000028
 30
0.0
 11
-457.99999999999989
 21
-441.75000000000034
 31
0.0
  0
LINE
  8
0
  6
CONTINUOUS
 62
               3
  5
1A0
 10
-457.99999999999989
 20
-350.74999999999972
 30
0.0
 11
-341.99999999999966
 21
-350.75000000000028
 31
0.0
  0
LINE
  8
0
  6
CONTINUOUS
 62
               3
  5
1A1
 10
-455.00000000000034
 20
-542.74999999999989
 30
0.0
 11
-345.00000000000023
 21
-542.74999999999989
 31
0.0
  0
LINE
  8
0
  6
CONTINUOUS
 62
               3
  5
1A2
 10
-457.00000000000034
 20
-540.74999999999989
 30
0.0
 11
-457.00000000000034
 21
-442.74999999999989
 31
0.0
  0
LINE
  8
0
  6
CONTINUOUS
 62
               3
  5
1A3
 10
-457.00000000000034
 20
-442.74999999999989
 30
0.0
 11
-457.99999999999989
 21
-441.75000000000034
 31
0.0
  0
CIRCLE
  8
0
  6
CONTINUOUS
 62
               3
  5
1A4
 10
-400.00000000000034
 20
-11.249999999999972
 30
0.0
 40
70.0
  0
LINE
  8
0
  6
CONTINUOUS
 62
               3
  5
1A5
 10
-343.00000000000023
 20
-540.74999999999989
 30
0.0
 11
-343.00000000000023
 21
-442.74999999999989
 31
0.0
  0
LINE
  8
0
  6
CONTINUOUS
 62
               3
  5
1A6
 10
-343.00000000000023
 20
-442.74999999999989
 30
0.0
 11
-342.00000000000068
 21
-441.75000000000034
 31
0.0
  0
LINE
  8
0
  6
CONTINUOUS
 62
               3
  5
1A7
 10
-342.00000000000068
 20
-350.75000000000028
 30
0.0
 11
-342.00000000000068
 21
-441.75000000000034
 31
0.0
  0
LINE
  8
0
  6
CONTINUOUS
 62
               3
  5
1A8
 10
474.99999999999966
 20
142.25
 30
0.0
 11
324.99999999999966
 21
142.25
 31
0.0
  0
LINE
  8
0
  6
CONTINUOUS
 62
               3
  5
1A9
 10
488.49999999999989
 20
132.25
 30
0.0
 11
488.49999999999989
 21
125.25000000000034
 31
0.0
  0
LINE
  8
0
  6
CONTINUOUS
 62
               3
  5
1AA
 10
488.49999999999989
 20
132.25
 30
0.0
 11
474.99999999999966
 21
142.25
 31
0.0
  0
ARC
  8
0
  6
CONTINUOUS
 62
               3
  5
1AB
 10
476.99999999999955
 20
120.66742430504462
 30
0.0
 40
4.9999999999999991
 50
113.57817847813625
 51
179.9999999998962
  0
LINE
  8
0
  6
CONTINUOUS
 62
               3
  5
1AC
 10
488.49999999999989
 20
125.25000000000034
 30
0.0
 11
311.49999999999943
 21
125.25000000000034
 31
0.0
  0
ARC
  8
0
  6
CONTINUOUS
 62
               3
  5
1AD
 10
454.99999999999966
 20
35.249999999999972
 30
0.0
 40
19.999999999999996
 50
0.0
 51
31.78833061703353
  0
LINE
  8
0
  6
CONTINUOUS
 62
               3
  5
1AE
 10
471.99999999999955
 20
120.66742430504462
 30
0.0
 11
471.99999999999955
 21
45.785653752852767
 31
0.0
  0
ARC
  8
0
  6
CONTINUOUS
 62
               3
  5
1AF
 10
344.99999999999966
 20
35.249999999999972
 30
0.0
 40
19.999999999999996
 50
148.21166938286299
 51
179.99999999989649
  0
LINE
  8
0
  6
CONTINUOUS
 62
               3
  5
1B0
 10
327.99999999999977
 20
45.785653752852767
 30
0.0
 11
327.99999999999977
 21
120.66742430504462
 31
0.0
  0
LINE
  8
0
  6
CONTINUOUS
 62
               3
  5
1B1
 10
457.99999999999977
 20
-350.75000000000023
 30
0.0
 11
474.99999999999966
 21
-201.74999999999989
 31
0.0
  0
LINE
  8
0
  6
CONTINUOUS
 62
               3
  5
1B2
 10
341.99999999999955
 20
-350.75000000000023
 30
0.0
 11
324.99999999999966
 21
-201.74999999999989
 31
0.0
  0
LINE
  8
0
  6
CONTINUOUS
 62
               3
  5
1B3
 10
474.99999999999966
 20
-88.75
 30
0.0
 11
474.99999999999966
 21
-201.74999999999989
 31
0.0
  0
LINE
  8
0
  6
CONTINUOUS
 62
               3
  5
1B4
 10
419.99999999999966
 20
125.25000000000034
 30
0.0
 11
419.99999999999966
 21
142.25
 31
0.0
  0
LINE
  8
0
  6
CONTINUOUS
 62
               3
  5
1B5
 10
379.99999999999966
 20
142.25
 30
0.0
 11
379.99999999999966
 21
125.25000000000034
 31
0.0
  0
LINE
  8
0
  6
CONTINUOUS
 62
               3
  5
1B6
 10
419.99999999999966
 20
132.25
 30
0.0
 11
379.99999999999966
 21
132.25
 31
0.0
  0
LINE
  8
0
  6
CONTINUOUS
 62
               3
  5
1B7
 10
472.28416147400446
 20
142.25
 30
0.0
 11
472.28416147400446
 21
125.25000000000034
 31
0.0
  0
LINE
  8
0
  6
CONTINUOUS
 62
               3
  5
1B8
 10
486.2104982006249
 20
132.25
 30
0.0
 11
486.2104982006249
 21
125.25000000000034
 31
0.0
  0
LINE
  8
0
  6
CONTINUOUS
 62
               3
  5
1B9
 10
488.49999999999989
 20
132.25
 30
0.0
 11
486.2104982006249
 21
132.25
 31
0.0
  0
LINE
  8
0
  6
CONTINUOUS
 62
               3
  5
1BA
 10
486.2104982006249
 20
132.25
 30
0.0
 11
472.28416147400446
 21
142.25
 31
0.0
  0
LINE
  8
0
  6
CONTINUOUS
 62
               3
  5
1BB
 10
311.49999999999943
 20
132.25
 30
0.0
 11
311.49999999999943
 21
125.25000000000034
 31
0.0
  0
LINE
  8
0
  6
CONTINUOUS
 62
               3
  5
1BC
 10
311.49999999999943
 20
132.25
 30
0.0
 11
324.99999999999966
 21
142.25
 31
0.0
  0
ARC
  8
0
  6
CONTINUOUS
 62
               3
  5
1BD
 10
322.99999999999977
 20
120.66742430504462
 30
0.0
 40
4.9999999999999991
 50
0.0
 51
66.421821521759668
  0
LINE
  8
0
  6
CONTINUOUS
 62
               3
  5
1BE
 10
327.71583852599485
 20
142.25
 30
0.0
 11
327.71583852599485
 21
125.25000000000034
 31
0.0
  0
LINE
  8
0
  6
CONTINUOUS
 62
               3
  5
1BF
 10
313.78950179937442
 20
132.25
 30
0.0
 11
313.78950179937442
 21
125.25000000000034
 31
0.0
  0
LINE
  8
0
  6
CONTINUOUS
 62
               3
  5
1C0
 10
311.49999999999943
 20
132.25
 30
0.0
 11
313.78950179937442
 21
132.25
 31
0.0
  0
LINE
  8
0
  6
CONTINUOUS
 62
               3
  5
1C1
 10
313.78950179937442
 20
132.25
 30
0.0
 11
327.71583852599485
 21
142.25
 31
0.0
  0
LINE
  8
0
  6
CONTINUOUS
 62
               3
  5
1C2
 10
471.99999999999955
 20
45.785653752852767
 30
0.0
 11
411.72699999999986
 21
45.785653752852767
 31
0.0
  0
LINE
  8
0
  6
CONTINUOUS
 62
               3
  5
1C3
 10
388.27299999999946
 20
45.785653752852767
 30
0.0
 11
327.99999999999977
 21
45.785653752852767
 31
0.0
  0
ARC
  8
0
  6
CONTINUOUS
 62
               3
  5
1C4
 10
474.99999999999966
 20
-86.25
 30
0.0
 40
2.4999999999999996
 50
269.99999999984436
 51
449.99999999974102
  0
LINE
  8
0
  6
CONTINUOUS
 62
               3
  5
1C5
 10
324.99999999999966
 20
-83.75
 30
0.0
 11
391.78299999999945
 21
-83.75
 31
0.0
  0
LINE
  8
0
  6
CONTINUOUS
 62
               3
  5
1C6
 10
408.2169999999993
 20
-83.75
 30
0.0
 11
474.99999999999966
 21
-83.75
 31
0.0
  0
LINE
  8
0
  6
CONTINUOUS
 62
               3
  5
1C7
 10
324.99999999999966
 20
-88.75
 30
0.0
 11
391.93835546658443
 21
-88.75
 31
0.0
  0
LINE
  8
0
  6
CONTINUOUS
 62
               3
  5
1C8
 10
408.2169999999993
 20
-88.75
 30
0.0
 11
474.99999999999966
 21
-88.75
 31
0.0
  0
LINE
  8
0
  6
CONTINUOUS
 62
               3
  5
1C9
 10
474.99999999999966
 20
-201.74999999999989
 30
0.0
 11
408.2169999999993
 21
-201.74999999999989
 31
0.0
  0
LINE
  8
0
  6
CONTINUOUS
 62
               3
  5
1CA
 10
391.78299999999945
 20
-201.74999999999989
 30
0.0
 11
324.99999999999966
 21
-201.74999999999989
 31
0.0
  0
LINE
  8
0
  6
CONTINUOUS
 62
               3
  5
1CB
 10
474.99999999999966
 20
35.249999999999972
 30
0.0
 11
474.99999999999966
 21
-83.75
 31
0.0
  0
ARC
  8
0
  6
CONTINUOUS
 62
               3
  5
1CC
 10
324.99999999999966
 20
-86.25
 30
0.0
 40
2.4999999999999996
 50
89.99999999994769
 51
269.99999999984436
  0
LINE
  8
0
  6
CONTINUOUS
 62
               3
  5
1CD
 10
324.99999999999966
 20
-201.74999999999989
 30
0.0
 11
324.99999999999966
 21
-88.75
 31
0.0
  0
LINE
  8
0
  6
CONTINUOUS
 62
               3
  5
1CE
 10
324.99999999999966
 20
-83.75
 30
0.0
 11
324.99999999999966
 21
35.249999999999972
 31
0.0
  0
LINE
  8
0
  6
CONTINUOUS
 62
               3
  5
1CF
 10
341.99999999999932
 20
-441.75000000000034
 30
0.0
 11
341.99999999999955
 21
-350.75000000000023
 31
0.0
  0
LINE
  8
0
  6
CONTINUOUS
 62
               3
  5
1D0
 10
457.99999999999977
 20
-350.75000000000023
 30
0.0
 11
458.00000000000011
 21
-441.74999999999989
 31
0.0
  0
LINE
  8
0
  6
CONTINUOUS
 62
               3
  5
1D1
 10
457.99999999999977
 20
-350.74999999999966
 30
0.0
 11
341.99999999999955
 21
-350.75000000000023
 31
0.0
  0
LINE
  8
0
  6
CONTINUOUS
 62
               3
  5
1D2
 10
344.99999999999966
 20
-542.74999999999989
 30
0.0
 11
454.99999999999977
 21
-542.74999999999989
 31
0.0
  0
LINE
  8
0
  6
CONTINUOUS
 62
               3
  5
1D3
 10
342.99999999999966
 20
-540.74999999999989
 30
0.0
 11
342.99999999999966
 21
-442.74999999999989
 31
0.0
  0
LINE
  8
0
  6
CONTINUOUS
 62
               3
  5
1D4
 10
342.99999999999966
 20
-442.74999999999989
 30
0.0
 11
342.00000000000011
 21
-441.75000000000034
 31
0.0
  0
LINE
  8
0
  6
CONTINUOUS
 62
               3
  5
1D5
 10
456.99999999999977
 20
-540.74999999999989
 30
0.0
 11
456.99999999999977
 21
-442.74999999999989
 31
0.0
  0
LINE
  8
0
  6
CONTINUOUS
 62
               3
  5
1D6
 10
456.99999999999977
 20
-442.74999999999989
 30
0.0
 11
457.99999999999932
 21
-441.75000000000034
 31
0.0
  0
CIRCLE
  8
0
  6
CONTINUOUS
 62
               3
  5
1D7
 10
-0.0000000000003197
 20
477.25
 30
0.0
 40
75.0
  0
CIRCLE
  8
0
  6
CONTINUOUS
 62
               3
  5
1D8
 10
-0.0000000000003197
 20
477.25
 30
0.0
 40
52.5
  0
LINE
  8
0
  6
CONTINUOUS
 62
               3
  5
1D9
 10
-86.210498200625551
 20
497.25
 30
0.0
 11
-72.284161474005685
 21
497.25
 31
0.0
  0
LINE
  8
0
  6
CONTINUOUS
 62
               3
  5
1DA
 10
-72.284161474005685
 20
457.25
 30
0.0
 11
-86.210498200625551
 21
457.25
 31
0.0
  0
ARC
  8
0
  6
CONTINUOUS
 62
               3
  5
1DB
 10
-0.0000000000003197
 20
477.25
 30
0.0
 40
88.5
 50
166.93897588510339
 51
193.06102411468945
  0
LINE
  8
0
  6
CONTINUOUS
 62
               3
  5
1DC
 10
-20.000000000000323
 20
391.0395017993751
 30
0.0
 11
-20.000000000000323
 21
404.96583852599497
 31
0.0
  0
LINE
  8
0
  6
CONTINUOUS
 62
               3
  5
1DD
 10
19.99999999999968
 20
404.96583852599497
 30
0.0
 11
19.99999999999968
 21
391.0395017993751
 31
0.0
  0
ARC
  8
0
  6
CONTINUOUS
 62
               3
  5
1DE
 10
-0.0000000000003197
 20
477.25
 30
0.0
 40
88.5
 50
256.93897588505172
 51
283.06102411463769
  0
LINE
  8
0
  6
CONTINUOUS
 62
               3
  5
1DF
 10
86.210498200624329
 20
457.25
 30
0.0
 11
72.284161474003923
 21
457.25
 31
0.0
  0
LINE
  8
0
  6
CONTINUOUS
 62
               3
  5
1E0
 10
72.284161474003923
 20
497.25
 30
0.0
 11
86.210498200624329
 21
497.25
 31
0.0
  0
ARC
  8
0
  6
CONTINUOUS
 62
               3
  5
1E1
 10
-0.0000000000003197
 20
477.25
 30
0.0
 40
88.5
 50
346.93897588499982
 51
373.06102411458585
  0
LINE
  8
0
  6
CONTINUOUS
 62
               3
  5
1E2
 10
19.99999999999968
 20
563.46049820062558
 30
0.0
 11
19.99999999999968
 21
549.53416147400503
 31
0.0
  0
LINE
  8
0
  6
CONTINUOUS
 62
               3
  5
1E3
 10
-20.000000000000323
 20
549.53416147400503
 30
0.0
 11
-20.000000000000323
 21
563.46049820062558
 31
0.0
  0
ARC
  8
0
  6
CONTINUOUS
 62
               3
  5
1E4
 10
-0.0000000000003197
 20
477.25
 30
0.0
 40
88.5
 50
76.938975885155202
 51
103.06102411474124
  0
LINE
  8
0
  6
CONTINUOUS
 62
               3
  5
1E5
 10
-47.668123520861378
 20
455.24999999999955
 30
0.0
 11
47.668123520859602
 21
455.24999999999955
 31
0.0
  0
ARC
  8
0
  6
CONTINUOUS
 62
               3
  5
1E6
 10
12.503611649380808
 20
485.95639762761903
 30
0.0
 40
54.763804151667173
 50
141.38591763675657
 51
145.15009542087034
  0
ARC
  8
0
  6
CONTINUOUS
 62
               3
  5
1E7
 10
-0.0000000000003197
 20
477.25
 30
0.0
 40
51.5
 50
334.7109884732651
 51
410.95932736340399
  0
ARC
  8
0
  6
CONTINUOUS
 62
               3
  5
1E8
 10
-0.0000000000003197
 20
477.25
 30
0.0
 40
51.5
 50
129.04067263628565
 51
205.2890115264241
  0
ARC
  8
0
  6
CONTINUOUS
 62
               3
  5
1E9
 10
-0.0000000000003197
 20
477.25
 30
0.0
 40
77.5
 50
14.955248316634737
 51
75.044751683313507
  0
ARC
  8
0
  6
CONTINUOUS
 62
               3
  5
1EA
 10
-0.0000000000003197
 20
477.25
 30
0.0
 40
77.5
 50
284.95524831647941
 51
345.04475168315804
  0
LINE
  8
0
  6
CONTINUOUS
 62
               3
  5
1EB
 10
-32.438403166617924
 20
517.24999999999977
 30
0.0
 11
-0.0000000000003197
 21
517.24999999999977
 31
0.0
  0
LINE
  8
0
  6
CONTINUOUS
 62
               3
  5
1EC
 10
-0.0000000000003197
 20
517.24999999999977
 30
0.0
 11
34.003676271838366
 21
517.24999999999977
 31
0.0
  0
LINE
  8
0
  6
CONTINUOUS
 62
               3
  5
1ED
 10
-136.98374363275906
 20
547.24999999999966
 30
0.0
 11
-136.98374363275906
 21
407.24943231514658
 31
0.0
  0
LINE
  8
0
  6
CONTINUOUS
 62
               3
  5
1EE
 10
-140.00000000000031
 20
544.92155612596378
 30
0.0
 11
-139.31218750679494
 21
544.92155612596378
 31
0.0
  0
LINE
  8
0
  6
CONTINUOUS
 62
               3
  5
1EF
 10
-136.98374363275906
 20
547.24999999999966
 30
0.0
 11
-139.31218750679494
 21
544.92155612596378
 31
0.0
  0
LINE
  8
0
  6
CONTINUOUS
 62
               3
  5
1F0
 10
-140.00000000000031
 20
547.24999999999966
 30
0.0
 11
-142.50000000000031
 21
547.24999999999966
 31
0.0
  0
ARC
  8
0
  6
CONTINUOUS
 62
               3
  5
1F1
 10
-142.50000000000031
 20
544.74999999999966
 30
0.0
 40
2.5
 50
89.999999999965937
 51
179.99999999993057
  0
LINE
  8
0
  6
CONTINUOUS
 62
               3
  5
1F2
 10
-140.00000000000031
 20
409.57844387403554
 30
0.0
 11
-139.31218750679494
 21
409.57844387403554
 31
0.0
  0
LINE
  8
0
  6
CONTINUOUS
 62
               3
  5
1F3
 10
-136.98374363275906
 20
407.24999999999966
 30
0.0
 11
-139.31218750679494
 21
409.57844387403554
 31
0.0
  0
LINE
  8
0
  6
CONTINUOUS
 62
               3
  5
1F4
 10
-140.00000000000031
 20
407.25
 30
0.0
 11
-142.50000000000031
 21
407.25
 31
0.0
  0
ARC
  8
0
  6
CONTINUOUS
 62
               3
  5
1F5
 10
-142.50000000000031
 20
409.75
 30
0.0
 40
2.5
 50
179.99999999993057
 51
269.99999999989649
  0
LINE
  8
0
  6
CONTINUOUS
 62
               3
  5
1F6
 10
-145.00000000000031
 20
544.74999999999966
 30
0.0
 11
-145.00000000000031
 21
409.75
 31
0.0
  0
LINE
  8
0
  6
CONTINUOUS
 62
               3
  5
1F7
 10
-140.00000000000031
 20
407.25
 30
0.0
 11
-140.00000000000031
 21
547.24999999999966
 31
0.0
  0
LINE
  8
0
  6
CONTINUOUS
 62
               3
  5
1F8
 10
-139.31218750679494
 20
544.92155612596378
 30
0.0
 11
-139.31218750679494
 21
409.57844387403554
 31
0.0
  0
LINE
  8
0
  6
CONTINUOUS
 62
               3
  5
1F9
 10
-137.0000000000002
 20
407.24999999999966
 30
0.0
 11
-20.000000000000323
 21
403.16426996946376
 31
0.0
  0
LINE
  8
0
  6
CONTINUOUS
 62
               3
  5
1FA
 10
-136.98374363275906
 20
547.24999999999966
 30
0.0
 11
-20.000000000000323
 21
551.33516234568094
 31
0.0
  0
LINE
  8
0
  6
CONTINUOUS
 62
               3
  5
1FB
 10
-55.000000000000313
 20
-542.75
 30
0.0
 11
-57.000000000000313
 21
-540.75
 31
0.0
  0
LINE
  8
0
  6
CONTINUOUS
 62
               3
  5
1FC
 10
54.999999999999758
 20
-542.75
 30
0.0
 11
56.999999999999758
 21
-540.75
 31
0.0
  0
LINE
  8
0
  6
CONTINUOUS
 62
               3
  5
1FD
 10
344.99999999999966
 20
-542.74999999999989
 30
0.0
 11
342.99999999999966
 21
-540.74999999999989
 31
0.0
  0
LINE
  8
0
  6
CONTINUOUS
 62
               3
  5
1FE
 10
454.99999999999977
 20
-542.74999999999989
 30
0.0
 11
456.99999999999977
 21
-540.74999999999989
 31
0.0
  0
LINE
  8
0
  6
CONTINUOUS
 62
               3
  5
1FF
 10
-455.00000000000034
 20
-542.74999999999989
 30
0.0
 11
-457.00000000000034
 21
-540.74999999999989
 31
0.0
  0
LINE
  8
0
  6
CONTINUOUS
 62
               3
  5
200
 10
-345.00000000000023
 20
-542.74999999999989
 30
0.0
 11
-343.00000000000023
 21
-540.74999999999989
 31
0.0
  0
LINE
  8
0
  6
CONTINUOUS
 62
               3
  5
201
 10
-432.04001400241998
 20
28.750000000000028
 30
0.0
 11
-367.95998591253897
 21
28.750000000000028
 31
0.0
  0
CIRCLE
  8
0
  6
CONTINUOUS
 62
               3
  5
202
 10
-0.0000000000003197
 20
477.25
 30
0.0
 40
59.0
  0
CIRCLE
  8
0
  6
CONTINUOUS
 62
               3
  5
203
 10
509.2865232163075
 20
-906.71375990939964
 30
0.0
 40
75.0
  0
CIRCLE
  8
0
  6
CONTINUOUS
 62
               3
  5
204
 10
509.2865232163075
 20
-906.71375990939964
 30
0.0
 40
52.5
  0
LINE
  8
0
  6
CONTINUOUS
 62
               3
  5
205
 10
423.07602501568226
 20
-886.71375990939964
 30
0.0
 11
437.00236174230213
 21
-886.71375990939964
 31
0.0
  0
LINE
  8
0
  6
CONTINUOUS
 62
               3
  5
206
 10
437.00236174230213
 20
-926.71375990939964
 30
0.0
 11
423.07602501568226
 21
-926.71375990939964
 31
0.0
  0
ARC
  8
0
  6
CONTINUOUS
 62
               3
  5
207
 10
509.2865232163075
 20
-906.71375990939964
 30
0.0
 40
88.5
 50
166.93897588507147
 51
193.06102411465253
  0
LINE
  8
0
  6
CONTINUOUS
 62
               3
  5
208
 10
489.2865232163075
 20
-992.92425811002454
 30
0.0
 11
489.2865232163075
 21
-978.99792138340467
 31
0.0
  0
LINE
  8
0
  6
CONTINUOUS
 62
               3
  5
209
 10
529.2865232163075
 20
-978.99792138340467
 30
0.0
 11
529.2865232163075
 21
-992.92425811002454
 31
0.0
  0
ARC
  8
0
  6
CONTINUOUS
 62
               3
  5
20A
 10
509.2865232163075
 20
-906.71375990939964
 30
0.0
 40
88.5
 50
256.93897588500255
 51
283.06102411458357
  0
LINE
  8
0
  6
CONTINUOUS
 62
               3
  5
20B
 10
595.49702141693217
 20
-926.71375990939964
 30
0.0
 11
581.57068469031174
 21
-926.71375990939964
 31
0.0
  0
LINE
  8
0
  6
CONTINUOUS
 62
               3
  5
20C
 10
581.57068469031174
 20
-886.71375990939964
 30
0.0
 11
595.49702141693217
 21
-886.71375990939964
 31
0.0
  0
ARC
  8
0
  6
CONTINUOUS
 62
               3
  5
20D
 10
509.2865232163075
 20
-906.71375990939964
 30
0.0
 40
88.5
 50
346.93897588493354
 51
373.06102411451457
  0
LINE
  8
0
  6
CONTINUOUS
 62
               3
  5
20E
 10
529.2865232163075
 20
-820.50326170877406
 30
0.0
 11
529.2865232163075
 21
-834.42959843539461
 31
0.0
  0
LINE
  8
0
  6
CONTINUOUS
 62
               3
  5
20F
 10
489.2865232163075
 20
-834.42959843539461
 30
0.0
 11
489.2865232163075
 21
-820.50326170877406
 31
0.0
  0
ARC
  8
0
  6
CONTINUOUS
 62
               3
  5
210
 10
509.2865232163075
 20
-906.71375990939964
 30
0.0
 40
88.5
 50
76.938975885140493
 51
103.06102411472156
  0
LINE
  8
0
  6
CONTINUOUS
 62
               3
  5
211
 10
461.61839969544644
 20
-928.7137599094001
 30
0.0
 11
556.95464673716742
 21
-928.7137599094001
 31
0.0
  0
ARC
  8
0
  6
CONTINUOUS
 62
               3
  5
212
 10
521.79013486568863
 20
-898.00736228178062
 30
0.0
 40
54.763804151667173
 50
141.38591763672954
 51
145.15009542084252
  0
ARC
  8
0
  6
CONTINUOUS
 62
               3
  5
213
 10
509.2865232163075
 20
-906.71375990939964
 30
0.0
 40
51.5
 50
334.7109884732011
 51
410.95932736332554
  0
ARC
  8
0
  6
CONTINUOUS
 62
               3
  5
214
 10
509.2865232163075
 20
-906.71375990939964
 30
0.0
 40
51.5
 50
129.04067263626098
 51
205.289011526385
  0
ARC
  8
0
  6
CONTINUOUS
 62
               3
  5
215
 10
509.2865232163075
 20
-906.71375990939964
 30
0.0
 40
77.5
 50
104.95524831656294
 51
128.57288309093474
  0
ARC
  8
0
  6
CONTINUOUS
 62
               3
  5
216
 10
509.2865232163075
 20
-906.71375990939964
 30
0.0
 40
77.5
 50
14.95524831663182
 51
75.044751683299182
  0
ARC
  8
0
  6
CONTINUOUS
 62
               3
  5
217
 10
509.2865232163075
 20
-906.71375990939964
 30
0.0
 40
77.5
 50
321.42711690871977
 51
345.04475168309216
  0
LINE
  8
0
  6
CONTINUOUS
 62
               3
  5
218
 10
369.2865232163075
 20
-961.71375990939964
 30
0.0
 11
369.95807934227173
 21
-961.71375990939964
 31
0.0
  0
LINE
  8
0
  6
CONTINUOUS
 62
               3
  5
219
 10
372.45807934227219
 20
-964.21375990939964
 30
0.0
 11
369.95807934227173
 21
-961.71375990939964
 31
0.0
  0
LINE
  8
0
  6
CONTINUOUS
 62
               3
  5
21A
 10
369.2865232163075
 20
-851.71375990939964
 30
0.0
 11
369.95807934227173
 21
-851.71375990939964
 31
0.0
  0
LINE
  8
0
  6
CONTINUOUS
 62
               3
  5
21B
 10
372.45807934227173
 20
-849.21375990939964
 30
0.0
 11
369.95807934227173
 21
-851.71375990939964
 31
0.0
  0
LINE
  8
0
  6
CONTINUOUS
 62
               3
  5
21C
 10
369.95807934227173
 20
-851.71375990939964
 30
0.0
 11
369.95807934227173
 21
-961.71375990939964
 31
0.0
  0
LINE
  8
0
  6
CONTINUOUS
 62
               3
  5
21D
 10
463.79618742992955
 20
-846.02416289105804
 30
0.0
 11
372.45807934227173
 21
-849.21375990939964
 31
0.0
  0
LINE
  8
0
  6
CONTINUOUS
 62
               3
  5
21E
 10
444.45005149975646
 20
-966.72777497436732
 30
0.0
 11
372.4580793422723
 21
-964.21375990939964
 31
0.0
  0
LINE
  8
0
  6
CONTINUOUS
 62
               3
  5
21F
 10
364.2865232163075
 20
-851.88531603536376
 30
0.0
 11
364.2865232163075
 21
-961.81375990939955
 31
0.0
  0
LINE
  8
0
  6
CONTINUOUS
 62
               3
  5
220
 10
369.2865232163075
 20
-964.31375990939955
 30
0.0
 11
369.2865232163075
 21
-849.1137599093995
 31
0.0
  0
LINE
  8
0
  6
CONTINUOUS
 62
               3
  5
221
 10
369.2865232163075
 20
-849.1137599093995
 30
0.0
 11
366.7865232163075
 21
-849.1137599093995
 31
0.0
  0
LINE
  8
0
  6
CONTINUOUS
 62
               3
  5
222
 10
369.2865232163075
 20
-964.31375990939955
 30
0.0
 11
366.7865232163075
 21
-964.31375990939955
 31
0.0
  0
ARC
  8
0
  6
CONTINUOUS
 62
               3
  5
223
 10
366.7865232163075
 20
-961.81375990939955
 30
0.0
 40
2.5
 50
179.9999999998615
 51
269.99999999979229
  0
ARC
  8
0
  6
CONTINUOUS
 62
               3
  5
224
 10
366.7865232163075
 20
-851.6137599093995
 30
0.0
 40
2.5
 50
89.999999999932058
 51
179.9999999998615
  0
LINE
  8
0
  6
CONTINUOUS
 62
               3
  5
225
 10
476.8481200496899
 20
-866.71375990939987
 30
0.0
 11
509.2865232163075
 21
-866.71375990939987
 31
0.0
  0
LINE
  8
0
  6
CONTINUOUS
 62
               3
  5
226
 10
509.2865232163075
 20
-866.71375990939987
 30
0.0
 11
543.29019948814619
 21
-866.71375990939987
 31
0.0
  0
LINE
  8
0
  6
CONTINUOUS
 62
               3
  5
227
 10
372.45807934227219
 20
-964.21375990939964
 30
0.0
 11
372.45807934227173
 21
-849.21375990939964
 31
0.0
  0
ARC
  8
0
  6
CONTINUOUS
 62
               3
  5
228
 10
463.62168994641706
 20
-841.02720875596242
 30
0.0
 40
5.0
 50
271.9999999997919
 51
304.80675787019362
  0
LINE
  8
0
  6
CONTINUOUS
 62
               3
  5
229
 10
564.28652321630739
 20
-1046.7137599093996
 30
0.0
 11
564.28652321630739
 21
-1046.0422037834353
 31
0.0
  0
LINE
  8
0
  6
CONTINUOUS
 62
               3
  5
22A
 10
566.78652321630739
 20
-1043.5422037834348
 30
0.0
 11
564.28652321630739
 21
-1046.0422037834353
 31
0.0
  0
LINE
  8
0
  6
CONTINUOUS
 62
               3
  5
22B
 10
454.28652321630739
 20
-1046.7137599093996
 30
0.0
 11
454.28652321630739
 21
-1046.0422037834353
 31
0.0
  0
LINE
  8
0
  6
CONTINUOUS
 62
               3
  5
22C
 10
451.78652321630739
 20
-1043.5422037834353
 30
0.0
 11
454.28652321630739
 21
-1046.0422037834353
 31
0.0
  0
LINE
  8
0
  6
CONTINUOUS
 62
               3
  5
22D
 10
454.28652321630739
 20
-1046.0422037834353
 30
0.0
 11
564.28652321630739
 21
-1046.0422037834353
 31
0.0
  0
LINE
  8
0
  6
CONTINUOUS
 62
               3
  5
22E
 10
454.4580793422715
 20
-1051.7137599093996
 30
0.0
 11
564.38652321630741
 21
-1051.7137599093996
 31
0.0
  0
LINE
  8
0
  6
CONTINUOUS
 62
               3
  5
22F
 10
566.88652321630741
 20
-1046.7137599093996
 30
0.0
 11
451.68652321630736
 21
-1046.7137599093996
 31
0.0
  0
LINE
  8
0
  6
CONTINUOUS
 62
               3
  5
230
 10
451.68652321630736
 20
-1046.7137599093996
 30
0.0
 11
451.68652321630736
 21
-1049.2137599093996
 31
0.0
  0
LINE
  8
0
  6
CONTINUOUS
 62
               3
  5
231
 10
566.88652321630741
 20
-1046.7137599093996
 30
0.0
 11
566.88652321630741
 21
-1049.2137599093996
 31
0.0
  0
ARC
  8
0
  6
CONTINUOUS
 62
               3
  5
232
 10
564.38652321630741
 20
-1049.2137599093996
 30
0.0
 40
2.5
 50
269.99999999979354
 51
359.999999999723
  0
ARC
  8
0
  6
CONTINUOUS
 62
               3
  5
233
 10
454.18652321630736
 20
-1049.2137599093996
 30
0.0
 40
2.5
 50
179.9999999998615
 51
269.99999999979354
  0
LINE
  8
0
  6
CONTINUOUS
 62
               3
  5
234
 10
566.78652321630739
 20
-1043.5422037834348
 30
0.0
 11
451.78652321630739
 21
-1043.5422037834353
 31
0.0
  0
LINE
  8
0
  6
CONTINUOUS
 62
               3
  5
235
 10
569.97612023464853
 20
-952.20409569577805
 30
0.0
 11
566.78652321630739
 21
-1043.5422037834348
 31
0.0
  0
ARC
  8
0
  6
CONTINUOUS
 62
               3
  5
236
 10
574.97307436974404
 20
-952.37859317929065
 30
0.0
 40
5.0
 50
145.19324212946151
 51
177.99999999986429
  0
LINE
  8
0
  6
CONTINUOUS
 62
               3
  5
237
 10
449.27250815133937
 20
-971.55023162595057
 30
0.0
 11
451.78652321630739
 21
-1043.5422037834353
 31
0.0
  0
ARC
  8
0
  6
CONTINUOUS
 62
               3
  5
238
 10
444.27555401624397
 20
-971.72472910946271
 30
0.0
 40
5.0
 50
1.9999999999958187
 51
87.999999999932285
  0
CIRCLE
  8
0
  6
CONTINUOUS
 62
               3
  5
239
 10
509.2865232163075
 20
-906.71375990939964
 30
0.0
 40
59.0
  0
LINE
  8
0
  6
CONTINUOUS
 62
               3
  5
23A
 10
434.2865232163075
 20
-1215.213193657984
 30
0.0
 11
584.2865232163075
 21
-1215.213193657984
 31
0.0
  0
LINE
  8
0
  6
CONTINUOUS
 62
               3
  5
23B
 10
420.78652321630727
 20
-1225.213193657984
 30
0.0
 11
420.78652321630727
 21
-1232.2131936579835
 31
0.0
  0
LINE
  8
0
  6
CONTINUOUS
 62
               3
  5
23C
 10
420.78652321630727
 20
-1225.213193657984
 30
0.0
 11
434.2865232163075
 21
-1215.213193657984
 31
0.0
  0
ARC
  8
0
  6
CONTINUOUS
 62
               3
  5
23D
 10
432.28652321630761
 20
-1236.7957693529393
 30
0.0
 40
4.9999999999999991
 50
0.0
 51
66.421821521747802
  0
LINE
  8
0
  6
CONTINUOUS
 62
               3
  5
23E
 10
420.78652321630727
 20
-1232.2131936579835
 30
0.0
 11
597.78652321630716
 21
-1232.2131936579835
 31
0.0
  0
ARC
  8
0
  6
CONTINUOUS
 62
               3
  5
23F
 10
454.2865232163075
 20
-1322.213193657984
 30
0.0
 40
19.999999999999996
 50
148.21166938283449
 51
167.2698198615592
  0
LINE
  8
0
  6
CONTINUOUS
 62
               3
  5
240
 10
437.28652321630761
 20
-1236.7957693529393
 30
0.0
 11
437.28652321630761
 21
-1311.6775399051312
 31
0.0
  0
LINE
  8
0
  6
CONTINUOUS
 62
               3
  5
241
 10
581.28652321630739
 20
-1306.6775399051307
 30
0.0
 11
581.28652321630739
 21
-1236.7957693529393
 31
0.0
  0
LINE
  8
0
  6
CONTINUOUS
 62
               3
  5
242
 10
437.28652321630761
 20
-1311.6775399051312
 30
0.0
 11
580.78652321630784
 21
-1311.6775399051312
 31
0.0
  0
LINE
  8
0
  6
CONTINUOUS
 62
               3
  5
243
 10
489.2865232163075
 20
-1232.2131936579835
 30
0.0
 11
489.2865232163075
 21
-1215.213193657984
 31
0.0
  0
LINE
  8
0
  6
CONTINUOUS
 62
               3
  5
244
 10
529.2865232163075
 20
-1215.213193657984
 30
0.0
 11
529.2865232163075
 21
-1232.2131936579835
 31
0.0
  0
LINE
  8
0
  6
CONTINUOUS
 62
               3
  5
245
 10
489.2865232163075
 20
-1225.213193657984
 30
0.0
 11
529.2865232163075
 21
-1225.213193657984
 31
0.0
  0
LINE
  8
0
  6
CONTINUOUS
 62
               3
  5
246
 10
437.00236174230213
 20
-1215.213193657984
 30
0.0
 11
437.00236174230213
 21
-1232.2131936579835
 31
0.0
  0
LINE
  8
0
  6
CONTINUOUS
 62
               3
  5
247
 10
423.07602501568226
 20
-1225.213193657984
 30
0.0
 11
423.07602501568226
 21
-1232.2131936579835
 31
0.0
  0
LINE
  8
0
  6
CONTINUOUS
 62
               3
  5
248
 10
420.78652321630727
 20
-1225.213193657984
 30
0.0
 11
423.07602501568226
 21
-1225.213193657984
 31
0.0
  0
LINE
  8
0
  6
CONTINUOUS
 62
               3
  5
249
 10
423.07602501568226
 20
-1225.213193657984
 30
0.0
 11
437.00236174230213
 21
-1215.213193657984
 31
0.0
  0
LINE
  8
0
  6
CONTINUOUS
 62
               3
  5
24A
 10
597.78652321630716
 20
-1225.213193657984
 30
0.0
 11
597.78652321630716
 21
-1232.2131936579835
 31
0.0
  0
LINE
  8
0
  6
CONTINUOUS
 62
               3
  5
24B
 10
597.78652321630716
 20
-1225.213193657984
 30
0.0
 11
584.2865232163075
 21
-1215.213193657984
 31
0.0
  0
ARC
  8
0
  6
CONTINUOUS
 62
               3
  5
24C
 10
586.28652321630739
 20
-1236.7957693529393
 30
0.0
 40
4.9999999999999991
 50
113.5781784781135
 51
179.9999999998615
  0
LINE
  8
0
  6
CONTINUOUS
 62
               3
  5
24D
 10
581.57068469031174
 20
-1215.213193657984
 30
0.0
 11
581.57068469031174
 21
-1232.2131936579835
 31
0.0
  0
LINE
  8
0
  6
CONTINUOUS
 62
               3
  5
24E
 10
595.49702141693274
 20
-1225.213193657984
 30
0.0
 11
595.49702141693274
 21
-1232.2131936579835
 31
0.0
  0
LINE
  8
0
  6
CONTINUOUS
 62
               3
  5
24F
 10
597.78652321630716
 20
-1225.213193657984
 30
0.0
 11
595.49702141693274
 21
-1225.213193657984
 31
0.0
  0
LINE
  8
0
  6
CONTINUOUS
 62
               3
  5
250
 10
595.49702141693274
 20
-1225.213193657984
 30
0.0
 11
581.57068469031174
 21
-1215.213193657984
 31
0.0
  0
ARC
  8
0
  6
CONTINUOUS
 62
               3
  5
251
 10
444.2865232163075
 20
-1443.713193657984
 30
0.0
 40
2.4999999999999996
 50
89.999999999930751
 51
269.99999999979354
  0
ARC
  8
0
  6
CONTINUOUS
 62
               3
  5
252
 10
584.2865232163075
 20
-1443.713193657984
 30
0.0
 40
2.4999999999999996
 50
269.99999999979354
 51
449.99999999965507
  0
LINE
  8
0
  6
CONTINUOUS
 62
               3
  5
253
 10
369.2865232163075
 20
-1436.213193657984
 30
0.0
 11
369.95807934227184
 21
-1436.213193657984
 31
0.0
  0
LINE
  8
0
  6
CONTINUOUS
 62
               3
  5
254
 10
372.45807934227196
 20
-1438.7131936579833
 30
0.0
 11
369.95807934227184
 21
-1436.213193657984
 31
0.0
  0
LINE
  8
0
  6
CONTINUOUS
 62
               3
  5
255
 10
372.45807934227275
 20
-1438.713193657984
 30
0.0
 11
414.62318959855008
 21
-1440.1856317538382
 31
0.0
  0
LINE
  8
0
  6
CONTINUOUS
 62
               3
  5
256
 10
432.82205712224004
 20
-1456.48488308427
 30
0.0
 11
417.98422602097025
 21
-1441.6470519830007
 31
0.0
  0
ARC
  8
0
  6
CONTINUOUS
 62
               3
  5
257
 10
429.2865232163075
 20
-1460.0204169902031
 30
0.0
 40
4.9999999999999991
 50
0.0
 51
44.999999999964892
  0
LINE
  8
0
  6
CONTINUOUS
 62
               3
  5
258
 10
369.2865232163075
 20
-1326.213193657984
 30
0.0
 11
369.95807934227184
 21
-1326.213193657984
 31
0.0
  0
LINE
  8
0
  6
CONTINUOUS
 62
               3
  5
259
 10
372.45807934227196
 20
-1323.713193657984
 30
0.0
 11
369.95807934227184
 21
-1326.213193657984
 31
0.0
  0
LINE
  8
0
  6
CONTINUOUS
 62
               3
  5
25A
 10
372.45807934227184
 20
-1323.713193657984
 30
0.0
 11
430.07555554444616
 21
-1321.7011470528316
 31
0.0
  0
LINE
  8
0
  6
CONTINUOUS
 62
               3
  5
25B
 10
369.95807934227184
 20
-1326.213193657984
 30
0.0
 11
369.95807934227184
 21
-1436.213193657984
 31
0.0
  0
LINE
  8
0
  6
CONTINUOUS
 62
               3
  5
25C
 10
369.2865232163075
 20
-1438.8131936579839
 30
0.0
 11
369.2865232163075
 21
-1323.6131936579841
 31
0.0
  0
LINE
  8
0
  6
CONTINUOUS
 62
               3
  5
25D
 10
369.2865232163075
 20
-1323.6131936579841
 30
0.0
 11
366.7865232163075
 21
-1323.6131936579841
 31
0.0
  0
ARC
  8
0
  6
CONTINUOUS
 62
               3
  5
25E
 10
366.7865232163075
 20
-1326.1131936579841
 30
0.0
 40
2.5
 50
89.999999999932058
 51
179.99999999985891
  0
LINE
  8
0
  6
CONTINUOUS
 62
               3
  5
25F
 10
364.2865232163075
 20
-1326.1131936579841
 30
0.0
 11
364.2865232163075
 21
-1436.3131936579839
 31
0.0
  0
LINE
  8
0
  6
CONTINUOUS
 62
               3
  5
260
 10
369.2865232163075
 20
-1438.8131936579839
 30
0.0
 11
366.7865232163075
 21
-1438.8131936579839
 31
0.0
  0
ARC
  8
0
  6
CONTINUOUS
 62
               3
  5
261
 10
366.7865232163075
 20
-1436.3131936579839
 30
0.0
 40
2.5
 50
179.99999999985891
 51
269.99999999979229
  0
LINE
  8
0
  6
CONTINUOUS
 62
               3
  5
262
 10
372.45807934227196
 20
-1323.713193657984
 30
0.0
 11
372.45807934227275
 21
-1438.713193657984
 31
0.0
  0
ARC
  8
0
  6
CONTINUOUS
 62
               3
  5
263
 10
414.4486921150376
 20
-1445.1825858889335
 30
0.0
 40
5.0
 50
44.999999999968125
 51
87.999999999932243
  0
ARC
  8
0
  6
CONTINUOUS
 62
               3
  5
264
 10
429.90105806093368
 20
-1316.7041929177362
 30
0.0
 40
5.0
 50
271.9999999997919
 51
347.26981986141988
  0
CIRCLE
  8
0
  6
CONTINUOUS
 62
               3
  5
265
 10
509.2865232163075
 20
-1381.213193657984
 30
0.0
 40
48.5
  0
CIRCLE
  8
0
  6
CONTINUOUS
 62
               3
  5
266
 10
509.2865232163075
 20
-1381.213193657984
 30
0.0
 40
47.299999999999997
  0
LINE
  8
0
  6
CONTINUOUS
 62
               3
  5
267
 10
477.46671806291295
 20
-1413.0329988113785
 30
0.0
 11
475.84037246618379
 21
-1414.6593444081077
 31
0.0
  0
LINE
  8
0
  6
CONTINUOUS
 62
               3
  5
268
 10
541.10632836970217
 20
-1413.0329988113785
 30
0.0
 11
542.73267396643121
 21
-1414.6593444081077
 31
0.0
  0
ARC
  8
0
  6
CONTINUOUS
 62
               3
  5
269
 10
509.2865232163075
 20
-1381.213193657984
 30
0.0
 40
45.0
 50
224.99999999982739
 51
314.99999999975864
  0
CIRCLE
  8
0
  6
CONTINUOUS
 62
               3
  5
26A
 10
509.2865232163075
 20
-1381.213193657984
 30
0.0
 40
57.600000000000001
  0
ARC
  8
0
  6
CONTINUOUS
 62
               3
  5
26B
 10
486.78652321630807
 20
-1443.713193657984
 30
0.0
 40
2.4999999999999996
 50
269.99999999979354
 51
449.99999999965507
  0
ARC
  8
0
  6
CONTINUOUS
 62
               3
  5
26C
 10
531.78652321630807
 20
-1443.713193657984
 30
0.0
 40
2.4999999999999996
 50
89.999999999929457
 51
269.99999999979354
  0
LINE
  8
0
  6
CONTINUOUS
 62
               3
  5
26D
 10
444.2865232163075
 20
-1446.213193657984
 30
0.0
 11
486.78652321630807
 21
-1446.213193657984
 31
0.0
  0
LINE
  8
0
  6
CONTINUOUS
 62
               3
  5
26E
 10
444.2865232163075
 20
-1441.213193657984
 30
0.0
 11
486.78652321630807
 21
-1441.213193657984
 31
0.0
  0
LINE
  8
0
  6
CONTINUOUS
 62
               3
  5
26F
 10
531.78652321630807
 20
-1441.213193657984
 30
0.0
 11
584.2865232163075
 21
-1441.213193657984
 31
0.0
  0
LINE
  8
0
  6
CONTINUOUS
 62
               3
  5
270
 10
531.78652321630807
 20
-1446.213193657984
 30
0.0
 11
584.2865232163075
 21
-1446.213193657984
 31
0.0
  0
LINE
  8
0
  6
DASHED2
 62
               3
  5
271
 10
-51.500000000000547
 20
-542.75
 30
0.0
 11
-51.500000000000547
 21
-462.75
 31
0.0
  0
LINE
  8
0
  6
DASHED2
 62
               3
  5
272
 10
51.499999999999332
 20
-542.75
 30
0.0
 11
51.499999999999332
 21
-462.75
 31
0.0
  0
LINE
  8
0
  6
DASHED2
 62
               3
  5
273
 10
-451.50000000000057
 20
-542.74999999999989
 30
0.0
 11
-451.50000000000057
 21
-462.74999999999989
 31
0.0
  0
LINE
  8
0
  6
DASHED2
 62
               3
  5
274
 10
-348.50000000000068
 20
-542.74999999999989
 30
0.0
 11
-348.50000000000068
 21
-462.74999999999989
 31
0.0
  0
LINE
  8
0
  6
DASHED2
 62
               3
  5
275
 10
348.49999999999943
 20
-542.74999999999989
 30
0.0
 11
348.49999999999943
 21
-462.74999999999989
 31
0.0
  0
LINE
  8
0
  6
DASHED2
 62
               3
  5
276
 10
451.49999999999932
 20
-542.74999999999989
 30
0.0
 11
451.49999999999932
 21
-462.74999999999989
 31
0.0
  0
LINE
  8
0
  6
CONTINUOUS
 62
               4
  5
277
 10
76.999999999999574
 20
45.785653752852767
 30
0.0
 11
71.999999999999574
 21
50.785653752852767
 31
0.0
  0
LINE
  8
0
  6
CONTINUOUS
 62
               4
  5
278
 10
76.999999999999574
 20
-87.903023597116913
 30
0.0
 11
76.999999999999574
 21
-201.86356823025505
 31
0.0
  0
LINE
  8
0
  6
CONTINUOUS
 62
               4
  5
279
 10
76.999999999999574
 20
-201.86356823025505
 30
0.0
 11
60.271775600348533
 21
-348.47822439965114
 31
0.0
  0
ARC
  8
0
  6
CONTINUOUS
 62
               4
  5
27A
 10
54.499999999999559
 20
35.249999999999972
 30
0.0
 40
19.999999999999996
 50
0.0
 51
31.788330617033505
  0
LINE
  8
0
  6
CONTINUOUS
 62
               4
  5
27B
 10
71.500000000000028
 20
45.785653752852767
 30
0.0
 11
71.500000000000028
 21
50.785653752853335
 31
0.0
  0
LINE
  8
0
  6
CONTINUOUS
 62
               4
  5
27C
 10
71.999999999999574
 20
50.785653752852767
 30
0.0
 11
71.500000000000028
 21
50.785653752852767
 31
0.0
  0
LINE
  8
0
  6
CONTINUOUS
 62
               4
  5
27D
 10
76.749999999999801
 20
45.535653752852767
 30
0.0
 11
71.500000000000028
 21
50.785653752852767
 31
0.0
  0
LINE
  8
0
  6
CONTINUOUS
 62
               4
  5
27E
 10
76.749999999999801
 20
45.535653752852767
 30
0.0
 11
76.999999999999574
 21
45.785653752852767
 31
0.0
  0
LINE
  8
0
  6
CONTINUOUS
 62
               4
  5
27F
 10
74.499999999999574
 20
-88.903023597117141
 30
0.0
 11
74.499999999999574
 21
-201.72160794243553
 31
0.0
  0
LINE
  8
0
  6
CONTINUOUS
 62
               4
  5
280
 10
76.749999999999801
 20
-88.188380704252978
 30
0.0
 11
76.749999999999801
 21
-201.8493722014731
 31
0.0
  0
LINE
  8
0
  6
CONTINUOUS
 62
               4
  5
281
 10
74.499999999999574
 20
-201.72160794243553
 30
0.0
 11
57.496765133650129
 21
-350.75000000000034
 31
0.0
  0
LINE
  8
0
  6
CONTINUOUS
 62
               4
  5
282
 10
74.496765133649461
 20
-201.74999999999989
 30
0.0
 11
76.999999999999574
 21
-201.86356823025505
 31
0.0
  0
LINE
  8
0
  6
CONTINUOUS
 62
               4
  5
283
 10
76.749999999999801
 20
-201.8493722014731
 30
0.0
 11
59.994274553678466
 21
-348.70540195968613
 31
0.0
  0
LINE
  8
0
  6
CONTINUOUS
 62
               4
  5
284
 10
76.999999999999574
 20
45.785653752852767
 30
0.0
 11
76.999999999999574
 21
-84.903023597117027
 31
0.0
  0
LINE
  8
0
  6
CONTINUOUS
 62
               4
  5
285
 10
76.749999999999801
 20
45.535653752852767
 30
0.0
 11
76.749999999999801
 21
-84.617666489981531
 31
0.0
  0
LINE
  8
0
  6
CONTINUOUS
 62
               4
  5
286
 10
74.499999999999574
 20
35.403023597117084
 30
0.0
 11
74.499999999999574
 21
-83.750000000000028
 31
0.0
  0
LINE
  8
0
  6
CONTINUOUS
 62
               4
  5
287
 10
58.141132586505606
 20
-255.53450905619968
 30
0.0
 11
-65.512000000000825
 21
-151.77721110894686
 31
0.0
  0
ARC
  8
0
  6
CONTINUOUS
 62
               4
  5
288
 10
-914.2723201005399
 20
-1296.3356282358955
 30
0.0
 40
1424.9238755783815
 50
50.189956146237648
 51
53.440796050701131
  0
ARC
  8
0
  6
CONTINUOUS
 62
               4
  5
289
 10
63.579388837032653
 20
-130.97734108515374
 30
0.0
 40
130.75634311527989
 50
189.15312334019521
 51
212.7691831126306
  0
ARC
  8
0
  6
CONTINUOUS
 62
               4
  5
28A
 10
61.364025499550749
 20
-120.84332033391343
 30
0.0
 40
134.72974192119386
 50
216.90649751121279
 51
268.62928723395265
  0
ARC
  8
0
  6
CONTINUOUS
 62
               4
  5
28B
 10
-733.63034809850865
 20
-1079.996670911009
 30
0.0
 40
1143.0835201141012
 50
46.158732653398935
 51
50.202696616627449
  0
LINE
  8
0
  6
CONTINUOUS
 62
               4
  5
28C
 10
57.999999999999787
 20
-350.74999999999966
 30
0.0
 11
60.271775600348533
 21
-348.47822439965114
 31
0.0
  0
LINE
  8
0
  6
CONTINUOUS
 62
               4
  5
28D
 10
57.496765133650129
 20
-350.75000000000034
 30
0.0
 11
60.271775600348533
 21
-348.47822439965114
 31
0.0
  0
LINE
  8
0
  6
CONTINUOUS
 62
               4
  5
28E
 10
-57.000000000000313
 20
-442.75
 30
0.0
 11
56.999999999999758
 21
-442.75
 31
0.0
  0
LINE
  8
0
  6
CONTINUOUS
 62
               4
  5
28F
 10
-57.999999999999858
 20
-441.75000000000045
 30
0.0
 11
58.000000000000071
 21
-441.75
 31
0.0
  0
ARC
  8
0
  6
CONTINUOUS
 62
               4
  5
290
 10
-678.92922884912457
 20
-323.42239841146238
 30
0.0
 40
359.11818398045398
 50
13.306177675722571
 51
28.55244350160207
  0
ARC
  8
0
  6
CONTINUOUS
 62
               4
  5
291
 10
-400.3311864699939
 20
-215.17572250889316
 30
0.0
 40
73.327111796148202
 50
342.62945642111072
 51
419.83689160537818
  0
LINE
  8
0
  6
CONTINUOUS
 62
               4
  5
292
 10
-457.00000000000034
 20
-442.74999999999989
 30
0.0
 11
-343.00000000000023
 21
-442.74999999999989
 31
0.0
  0
LINE
  8
0
  6
CONTINUOUS
 62
               4
  5
293
 10
-457.99999999999989
 20
-441.75000000000034
 30
0.0
 11
-341.99999999999989
 21
-441.74999999999989
 31
0.0
  0
ARC
  8
0
  6
CONTINUOUS
 62
               4
  5
294
 10
374.21603418803352
 20
35.249999999999972
 30
0.0
 40
17.566965811965957
 50
0.0
 51
36.851448659209673
  0
LINE
  8
0
  6
CONTINUOUS
 62
               4
  5
295
 10
411.72699999999986
 20
50.785653752852767
 30
0.0
 11
388.27299999999946
 21
50.785653752852767
 31
0.0
  0
ARC
  8
0
  6
CONTINUOUS
 62
               4
  5
296
 10
425.78396581196523
 20
35.249999999999972
 30
0.0
 40
17.566965811965957
 50
143.14855134068674
 51
179.99999999989643
  0
LINE
  8
0
  6
CONTINUOUS
 62
               4
  5
297
 10
388.27299999999946
 20
45.785653752852767
 30
0.0
 11
388.27299999999946
 21
50.785653752852767
 31
0.0
  0
LINE
  8
0
  6
CONTINUOUS
 62
               4
  5
298
 10
411.72699999999986
 20
45.785653752852767
 30
0.0
 11
411.72699999999986
 21
50.785653752852767
 31
0.0
  0
LINE
  8
0
  6
CONTINUOUS
 62
               4
  5
299
 10
388.27299999999946
 20
50.785653752852767
 30
0.0
 11
393.99999999999943
 21
45.785653752852767
 31
0.0
  0
LINE
  8
0
  6
CONTINUOUS
 62
               4
  5
29A
 10
405.99999999999932
 20
45.785653752852767
 30
0.0
 11
411.72699999999986
 21
50.785653752852767
 31
0.0
  0
LINE
  8
0
  6
CONTINUOUS
 62
               4
  5
29B
 10
393.99999999999943
 20
45.785653752852767
 30
0.0
 11
405.99999999999932
 21
45.785653752852767
 31
0.0
  0
LINE
  8
0
  6
CONTINUOUS
 62
               4
  5
29C
 10
405.99999999999932
 20
-84.749999999999886
 30
0.0
 11
393.99999999999943
 21
-84.749999999999886
 31
0.0
  0
ARC
  8
0
  6
CONTINUOUS
 62
               4
  5
29D
 10
391.93835546658443
 20
-86.164079848466599
 30
0.0
 40
2.4999999999999996
 50
34.44618582212469
 51
93.56278057374098
  0
ARC
  8
0
  6
CONTINUOUS
 62
               4
  5
29E
 10
408.06164453341489
 20
-86.164079848466599
 30
0.0
 40
2.4999999999999996
 50
86.437219426155508
 51
145.55381417777213
  0
LINE
  8
0
  6
CONTINUOUS
 62
               4
  5
29F
 10
405.99999999999932
 20
-87.749999999999773
 30
0.0
 11
393.99999999999943
 21
-87.749999999999773
 31
0.0
  0
ARC
  8
0
  6
CONTINUOUS
 62
               4
  5
2A0
 10
391.93835546658443
 20
-86.335920151533401
 30
0.0
 40
2.4999999999999996
 50
266.43721942605072
 51
325.55381417766819
  0
ARC
  8
0
  6
CONTINUOUS
 62
               4
  5
2A1
 10
408.06164453341489
 20
-86.335920151533401
 30
0.0
 40
2.4999999999999996
 50
214.44618582202128
 51
273.56278057363744
  0
LINE
  8
0
  6
CONTINUOUS
 62
               4
  5
2A2
 10
391.78299999999945
 20
-88.75
 30
0.0
 11
391.78299999999945
 21
-350.75000000000023
 31
0.0
  0
LINE
  8
0
  6
CONTINUOUS
 62
               4
  5
2A3
 10
408.2169999999993
 20
-88.835920151533401
 30
0.0
 11
408.2169999999993
 21
-350.75000000000023
 31
0.0
  0
LINE
  8
0
  6
CONTINUOUS
 62
               4
  5
2A4
 10
393.99999999999943
 20
-87.749999999999773
 30
0.0
 11
393.99999999999943
 21
-348.47822439965125
 31
0.0
  0
LINE
  8
0
  6
CONTINUOUS
 62
               4
  5
2A5
 10
405.99999999999932
 20
-348.47822439965125
 30
0.0
 11
405.99999999999932
 21
-87.749999999999773
 31
0.0
  0
LINE
  8
0
  6
CONTINUOUS
 62
               4
  5
2A6
 10
408.2169999999993
 20
-201.74999999999989
 30
0.0
 11
391.78299999999945
 21
-201.74999999999989
 31
0.0
  0
LINE
  8
0
  6
CONTINUOUS
 62
               4
  5
2A7
 10
391.78299999999945
 20
35.249999999999972
 30
0.0
 11
391.78299999999945
 21
-83.75
 31
0.0
  0
LINE
  8
0
  6
CONTINUOUS
 62
               4
  5
2A8
 10
408.2169999999993
 20
35.249999999999972
 30
0.0
 11
408.2169999999993
 21
-83.75
 31
0.0
  0
LINE
  8
0
  6
CONTINUOUS
 62
               4
  5
2A9
 10
405.99999999999932
 20
-84.749999999999886
 30
0.0
 11
405.99999999999932
 21
45.785653752852767
 31
0.0
  0
LINE
  8
0
  6
CONTINUOUS
 62
               4
  5
2AA
 10
393.99999999999943
 20
45.785653752852767
 30
0.0
 11
393.99999999999943
 21
-84.749999999999886
 31
0.0
  0
ARC
  8
0
  6
CONTINUOUS
 62
               4
  5
2AB
 10
385.02192705347193
 20
-206.0472496535815
 30
0.0
 40
59.149634972654262
 50
186.49999999989254
 51
236.78754046655169
  0
ARC
  8
0
  6
CONTINUOUS
 62
               4
  5
2AC
 10
405.92691953069357
 20
-194.19823255482981
 30
0.0
 40
81.261593956721953
 50
186.49999999989254
 51
229.00792456441027
  0
ARC
  8
0
  6
CONTINUOUS
 62
               4
  5
2AD
 10
260.68129117650437
 20
-278.53575137952453
 30
0.0
 40
204.24864340422488
 50
353.49999999979656
 51
373.43680216726273
  0
ARC
  8
0
  6
CONTINUOUS
 62
               4
  5
2AE
 10
298.37230094456538
 20
-276.25133431011682
 30
0.0
 40
167.18634723772169
 50
351.25933879873276
 51
375.67746336832698
  0
LINE
  8
0
  6
CONTINUOUS
 62
               4
  5
2AF
 10
393.99999999999943
 20
-348.47822439965125
 30
0.0
 11
405.99999999999932
 21
-348.47822439965125
 31
0.0
  0
LINE
  8
0
  6
CONTINUOUS
 62
               4
  5
2B0
 10
391.78299999999945
 20
-350.75000000000023
 30
0.0
 11
393.99999999999943
 21
-348.47822439965125
 31
0.0
  0
LINE
  8
0
  6
CONTINUOUS
 62
               4
  5
2B1
 10
405.99999999999932
 20
-348.47822439965125
 30
0.0
 11
408.2169999999993
 21
-350.75000000000023
 31
0.0
  0
LINE
  8
0
  6
CONTINUOUS
 62
               4
  5
2B2
 10
342.99999999999966
 20
-442.74999999999989
 30
0.0
 11
456.99999999999977
 21
-442.74999999999989
 31
0.0
  0
LINE
  8
0
  6
CONTINUOUS
 62
               4
  5
2B3
 10
342.00000000000011
 20
-441.75000000000034
 30
0.0
 11
458.00000000000011
 21
-441.74999999999989
 31
0.0
  0
POINT
  8
0
  6
CONTINUOUS
 62
               4
  5
2B4
 10
553.7865232163075
 20
-1051.1137599093997
 30
0.0
  0
POINT
  8
0
  6
CONTINUOUS
 62
               4
  5
2B5
 10
364.88652321630764
 20
-951.21375990939941
 30
0.0
  0
LINE
  8
0
  6
CONTINUOUS
 62
               4
  5
2B6
 10
586.28652321630739
 20
-1311.6775399051312
 30
0.0
 11
581.28652321630739
 21
-1306.6775399051312
 31
0.0
  0
ARC
  8
0
  6
CONTINUOUS
 62
               4
  5
2B7
 10
563.78652321630739
 20
-1322.213193657984
 30
0.0
 40
19.999999999999996
 50
0.0
 51
31.788330617027277
  0
LINE
  8
0
  6
CONTINUOUS
 62
               4
  5
2B8
 10
580.78652321630784
 20
-1311.6775399051312
 30
0.0
 11
580.78652321630784
 21
-1306.6775399051307
 31
0.0
  0
LINE
  8
0
  6
CONTINUOUS
 62
               4
  5
2B9
 10
581.28652321630739
 20
-1306.6775399051312
 30
0.0
 11
580.78652321630784
 21
-1306.6775399051312
 31
0.0
  0
LINE
  8
0
  6
CONTINUOUS
 62
               4
  5
2BA
 10
586.03652321630761
 20
-1311.9275399051312
 30
0.0
 11
580.78652321630784
 21
-1306.6775399051312
 31
0.0
  0
LINE
  8
0
  6
CONTINUOUS
 62
               4
  5
2BB
 10
586.03652321630761
 20
-1311.9275399051312
 30
0.0
 11
586.28652321630739
 21
-1311.6775399051312
 31
0.0
  0
LINE
  8
0
  6
CONTINUOUS
 62
               4
  5
2BC
 10
586.28652321630739
 20
-1311.6775399051312
 30
0.0
 11
586.28652321630739
 21
-1442.366217255101
 31
0.0
  0
LINE
  8
0
  6
CONTINUOUS
 62
               4
  5
2BD
 10
586.03652321630761
 20
-1311.9275399051312
 30
0.0
 11
586.03652321630761
 21
-1442.0808601479655
 31
0.0
  0
LINE
  8
0
  6
CONTINUOUS
 62
               4
  5
2BE
 10
583.78652321630739
 20
-1322.0601700608668
 30
0.0
 11
583.78652321630739
 21
-1441.213193657984
 31
0.0
  0
POINT
  8
0
  6
CONTINUOUS
 62
               4
  5
2BF
 10
364.88652321630752
 20
-1336.713193657984
 30
0.0
  0
LINE
  8
0
  6
DASHED2
 62
               4
  5
2C0
 10
-57.000000000000199
 20
77.249999999999972
 30
0.0
 11
56.999999999999559
 21
77.249999999999972
 31
0.0
  0
LINE
  8
0
  6
DASHED2
 62
               4
  5
2C1
 10
-457.00000000000023
 20
77.25
 30
0.0
 11
-343.00000000000045
 21
77.25
 31
0.0
  0
LINE
  8
0
  6
DASHED2
 62
               4
  5
2C2
 10
342.99999999999977
 20
77.25
 30
0.0
 11
456.99999999999955
 21
77.25
 31
0.0
  0
LINE
  8
0
  6
DASHED2
 62
               4
  5
2C3
 10
452.28652321630761
 20
-1280.213193657984
 30
0.0
 11
566.28652321630739
 21
-1280.213193657984
 31
0.0
  0
LINE
  8
0
  6
DASHDOT
 62
               4
  5
2C4
 10
-0.000000000000318
 20
162.24999999999997
 30
0.0
 11
-0.0000000000002753
 21
-585.75
 31
0.0
  0
LINE
  8
0
  6
DASHDOT
 62
               4
  5
2C5
 10
-157.74095525896121
 20
-11.250000000000028
 30
0.0
 11
-75.000000000000171
 21
-11.250000000000028
 31
0.0
  0
LINE
  8
0
  6
DASHDOT
 62
               4
  5
2C6
 10
-400.00000000000034
 20
162.25
 30
0.0
 11
-400.00000000000023
 21
-585.74999999999989
 31
0.0
  0
LINE
  8
0
  6
DASHDOT
 62
               4
  5
2C7
 10
-475.50000000000034
 20
-11.249999999999972
 30
0.0
 11
-324.50000000000034
 21
-11.249999999999972
 31
0.0
  0
LINE
  8
0
  6
DASHDOT
 62
               4
  5
2C8
 10
399.99999999999966
 20
162.25
 30
0.0
 11
399.99999999999977
 21
-585.74999999999989
 31
0.0
  0
LINE
  8
0
  6
DASHDOT
 62
               4
  5
2C9
 10
-0.0000000000003197
 20
585.75
 30
0.0
 11
-0.0000000000003197
 21
368.75
 31
0.0
  0
LINE
  8
0
  6
DASHDOT
 62
               4
  5
2CA
 10
-162.0000000000002
 20
477.25
 30
0.0
 11
108.49999999999991
 21
477.25
 31
0.0
  0
LINE
  8
0
  6
DASHDOT
 62
               4
  5
2CB
 10
509.2865232163075
 20
-798.21375990939964
 30
0.0
 11
509.2865232163075
 21
-1068.760546709226
 31
0.0
  0
LINE
  8
0
  6
DASHDOT
 62
               4
  5
2CC
 10
347.28652321630761
 20
-906.71375990939964
 30
0.0
 11
617.78652321630773
 21
-906.71375990939964
 31
0.0
  0
LINE
  8
0
  6
DASHDOT
 62
               4
  5
2CD
 10
509.2865232163075
 20
-1097.3137599093998
 30
0.0
 11
509.2865232163075
 21
-973.71375990939941
 31
0.0
  0
LINE
  8
0
  6
DASHDOT
 62
               4
  5
2CE
 10
309.28652321630773
 20
-906.71375990939941
 30
0.0
 11
442.28652321630773
 21
-906.71375990939941
 31
0.0
  0
LINE
  8
0
  6
DASHDOT
 62
               4
  5
2CF
 10
577.81174799153223
 20
-1381.213193657984
 30
0.0
 11
347.55790992287928
 21
-1381.213193657984
 31
0.0
  0
LINE
  8
0
  6
DASHDOT
 62
               4
  5
2D0
 10
509.2865232163075
 20
-1195.213193657984
 30
0.0
 11
509.2865232163075
 21
-1446.213193657984
 31
0.0
  0
LINE
  8
0
  6
DASHDOT
 62
               4
  5
2D1
 10
459.2865232163075
 20
-1395.713193657984
 30
0.0
 11
559.28652321630773
 21
-1395.713193657984
 31
0.0
  0
LINE
  8
0
  6
DASHDOT
 62
               4
  5
2D2
 10
309.2865232163075
 20
-1387.713193657984
 30
0.0
 11
383.68652321630748
 21
-1387.713193657984
 31
0.0
  0
LINE
  8
0
  6
DASHDOT
 62
               4
  5
2D3
 10
-100.00000000000028
 20
-1045.4584043822035
 30
0.0
 11
-100.00000000000023
 21
-891.45840438220353
 31
0.0
  0
LINE
  8
0
  6
DASHDOT
 62
               4
  5
2D4
 10
-164.50000000000023
 20
-980.95840438220353
 30
0.0
 11
-35.500000000000227
 21
-980.95840438220353
 31
0.0
  0
LINE
  8
0
  6
DASHDOT
 62
               4
  5
2D5
 10
-177.00000000000028
 20
-968.45840438220353
 30
0.0
 11
-23.000000000000284
 21
-968.45840438220353
 31
0.0
  0
LINE
  8
0
  6
DASHDOT
 62
               4
  5
2D6
 10
87.10840438220319
 20
-980.95840438220364
 30
0.0
 11
7.1084043822031617
 21
-980.95840438220353
 31
0.0
  0
LINE
  8
0
  6
DASHDOT
 62
               4
  5
2D7
 10
145.70840438220318
 20
-968.45840438220364
 30
0.0
 11
47.10840438220319
 21
-968.45840438220364
 31
0.0
  0
LINE
  8
0
  6
DASHDOT
 62
               4
  5
2D8
 10
-287.10840438220373
 20
-980.95840438220353
 30
0.0
 11
-207.10840438220373
 21
-980.95840438220353
 31
0.0
  0
LINE
  8
0
  6
DASHDOT
 62
               4
  5
2D9
 10
-100.00000000000034
 20
-722.75
 30
0.0
 11
-100.00000000000034
 21
-861.35000000000002
 31
0.0
  0
LINE
  8
0
  6
DASHDOT
 62
               4
  5
2DA
 10
-345.70840438220375
 20
-968.45840438220353
 30
0.0
 11
-247.10840438220373
 21
-968.45840438220353
 31
0.0
  0
CIRCLE
  8
0
  6
DASHED
 62
               4
  5
2DB
 10
-100.00000000000028
 20
-968.45840438220353
 30
0.0
 40
53.124999999999986
  0
POINT
  8
0
  6
CONTINUOUS
 62
               5
  5
2DC
 10
-401.89364935998299
 20
-538.44523192121665
 30
0.0
  0
POINT
  8
0
  6
CONTINUOUS
 62
               5
  5
2DD
 10
398.10635064001701
 20
-538.44523192121653
 30
0.0
  0
POINT
  8
0
  6
CONTINUOUS
 62
               5
  5
2DE
 10
393.01659472626795
 20
-905.42296583451048
 30
0.0
  0
POINT
  8
0
  6
CONTINUOUS
 62
               5
  5
2DF
 10
393.01659472626784
 20
-1382.5039877328729
 30
0.0
  0
TEXT
  8
0
 62
               3
  5
2E0
 10
-98.155466192098174
 20
-651.83520642428289
 30
0.0
 40
40.0
  1
横枝管に呼び８０の管を接続するときは、EMBをご使用ください。
 41
0.8
 72
               1
 11
-98.155466192098174
 21
-651.83520642428289
 31
0.0
 73
               3
  0
TEXT
  8
0
 62
               3
  5
2E1
 10
505.58911923866719
 20
-727.26739140418022
 30
0.0
 40
40.0
  1
EMB使用例
 41
0.8
 72
               1
 11
505.58911923866719
 21
-727.26739140418022
 31
0.0
 73
               3
  0
TEXT
  8
0
 62
               3
  5
2E2
 10
-100.00000000000034
 20
-1052.9584043822033
 30
0.0
 40
40.0
  1
EMB_100×80
 41
0.8
 72
               1
 11
-100.00000000000034
 21
-1052.9584043822033
 31
0.0
 73
               3
  0
LINE
  8
0
  6
CONTINUOUS
 62
               7
  5
2E3
 10
480.2865232163075
 20
-1077.3137599093996
 30
0.0
 11
538.2865232163075
 21
-1077.3137599093996
 31
0.0
  0
LINE
  8
0
  6
CONTINUOUS
 62
               7
  5
2E4
 10
553.7865232163075
 20
-1051.7137599093996
 30
0.0
 11
464.7865232163075
 21
-1051.7137599093996
 31
0.0
  0
LINE
  8
0
  6
CONTINUOUS
 62
               7
  5
2E5
 10
553.7865232163075
 20
-1051.1137599093997
 30
0.0
 11
553.7865232163075
 21
-1051.7137599093996
 31
0.0
  0
LINE
  8
0
  6
CONTINUOUS
 62
               7
  5
2E6
 10
465.7865232163075
 20
-993.71375990939941
 30
0.0
 11
552.7865232163075
 21
-993.71375990939941
 31
0.0
  0
LINE
  8
0
  6
CONTINUOUS
 62
               7
  5
2E7
 10
553.7865232163075
 20
-1051.5793081639192
 30
0.0
 11
553.7865232163075
 21
-994.71375990939941
 31
0.0
  0
LINE
  8
0
  6
CONTINUOUS
 62
               7
  5
2E8
 10
479.2865232163075
 20
-1076.3137599093996
 30
0.0
 11
479.2865232163075
 21
-1051.7137599093996
 31
0.0
  0
LINE
  8
0
  6
CONTINUOUS
 62
               7
  5
2E9
 10
539.2865232163075
 20
-1076.3137599093996
 30
0.0
 11
539.2865232163075
 21
-1051.7137599093996
 31
0.0
  0
LINE
  8
0
  6
CONTINUOUS
 62
               7
  5
2EA
 10
539.2865232163075
 20
-1076.3137599093996
 30
0.0
 11
538.2865232163075
 21
-1077.3137599093996
 31
0.0
  0
LINE
  8
0
  6
CONTINUOUS
 62
               7
  5
2EB
 10
553.7865232163075
 20
-994.71375990939941
 30
0.0
 11
552.7865232163075
 21
-993.71375990939941
 31
0.0
  0
LINE
  8
0
  6
CONTINUOUS
 62
               7
  5
2EC
 10
480.2865232163075
 20
-1077.3137599093996
 30
0.0
 11
479.2865232163075
 21
-1076.3137599093996
 31
0.0
  0
LINE
  8
0
  6
CONTINUOUS
 62
               7
  5
2ED
 10
465.7865232163075
 20
-993.71375990939941
 30
0.0
 11
464.7865232163075
 21
-994.71375990939941
 31
0.0
  0
LINE
  8
0
  6
CONTINUOUS
 62
               7
  5
2EE
 10
464.7865232163075
 20
-1051.5793081639192
 30
0.0
 11
464.7865232163075
 21
-994.71375990939941
 31
0.0
  0
LINE
  8
0
  6
CONTINUOUS
 62
               7
  5
2EF
 10
364.2865232163075
 20
-951.21375990939941
 30
0.0
 11
364.28652321630773
 21
-862.21899603007387
 31
0.0
  0
LINE
  8
0
  6
CONTINUOUS
 62
               7
  5
2F0
 10
364.88652321630764
 20
-951.21375990939941
 30
0.0
 11
364.2865232163075
 21
-951.21375990939941
 31
0.0
  0
LINE
  8
0
  6
CONTINUOUS
 62
               7
  5
2F1
 10
329.28652321630773
 20
-869.71375990939941
 30
0.0
 11
329.2865232163075
 21
-943.71375990939941
 31
0.0
  0
LINE
  8
0
  6
CONTINUOUS
 62
               7
  5
2F2
 10
422.28652321630773
 20
-863.21375990939964
 30
0.0
 11
422.2865232163075
 21
-950.21375990939941
 31
0.0
  0
LINE
  8
0
  6
CONTINUOUS
 62
               7
  5
2F3
 10
364.2865232163075
 20
-951.21375990939941
 30
0.0
 11
421.2865232163075
 21
-951.21375990939941
 31
0.0
  0
LINE
  8
0
  6
CONTINUOUS
 62
               7
  5
2F4
 10
330.28652321630773
 20
-868.71375990939941
 30
0.0
 11
364.28652321630773
 21
-868.71375990939941
 31
0.0
  0
LINE
  8
0
  6
CONTINUOUS
 62
               7
  5
2F5
 10
421.2865232163075
 20
-951.21375990939941
 30
0.0
 11
422.2865232163075
 21
-950.21375990939941
 31
0.0
  0
LINE
  8
0
  6
CONTINUOUS
 62
               7
  5
2F6
 10
422.28652321630773
 20
-863.21375990939964
 30
0.0
 11
421.28652321630773
 21
-862.21375990939964
 31
0.0
  0
LINE
  8
0
  6
CONTINUOUS
 62
               7
  5
2F7
 10
330.2865232163075
 20
-944.71375990939941
 30
0.0
 11
364.28652321630773
 21
-944.71375990939941
 31
0.0
  0
LINE
  8
0
  6
CONTINUOUS
 62
               7
  5
2F8
 10
330.2865232163075
 20
-944.71375990939941
 30
0.0
 11
329.2865232163075
 21
-943.71375990939941
 31
0.0
  0
LINE
  8
0
  6
CONTINUOUS
 62
               7
  5
2F9
 10
329.28652321630773
 20
-869.71375990939941
 30
0.0
 11
330.28652321630773
 21
-868.71375990939941
 31
0.0
  0
LINE
  8
0
  6
CONTINUOUS
 62
               7
  5
2FA
 10
364.28652321630773
 20
-862.21375990939941
 30
0.0
 11
421.28652321630773
 21
-862.21375990939941
 31
0.0
  0
CIRCLE
  8
0
  6
CONTINUOUS
 62
               7
  5
2FB
 10
509.2865232163075
 20
-1395.713193657984
 30
0.0
 40
25.5
  0
CIRCLE
  8
0
  6
CONTINUOUS
 62
               7
  5
2FC
 10
509.2865232163075
 20
-1381.213193657984
 30
0.0
 40
44.5
  0
CIRCLE
  8
0
  6
CONTINUOUS
 62
               7
  5
2FD
 10
509.2865232163075
 20
-1395.713193657984
 30
0.0
 40
30.0
  0
LINE
  8
0
  6
CONTINUOUS
 62
               7
  5
2FE
 10
364.2865232163075
 20
-1336.713193657984
 30
0.0
 11
364.2865232163075
 21
-1425.7079575373095
 31
0.0
  0
LINE
  8
0
  6
CONTINUOUS
 62
               7
  5
2FF
 10
364.88652321630752
 20
-1336.713193657984
 30
0.0
 11
364.2865232163075
 21
-1336.713193657984
 31
0.0
  0
LINE
  8
0
  6
CONTINUOUS
 62
               7
  5
300
 10
329.2865232163075
 20
-1424.713193657984
 30
0.0
 11
329.2865232163075
 21
-1350.713193657984
 31
0.0
  0
LINE
  8
0
  6
CONTINUOUS
 62
               7
  5
301
 10
422.2865232163075
 20
-1424.713193657984
 30
0.0
 11
422.2865232163075
 21
-1337.713193657984
 31
0.0
  0
LINE
  8
0
  6
CONTINUOUS
 62
               7
  5
302
 10
364.2865232163075
 20
-1336.713193657984
 30
0.0
 11
421.2865232163075
 21
-1336.713193657984
 31
0.0
  0
LINE
  8
0
  6
CONTINUOUS
 62
               7
  5
303
 10
330.2865232163075
 20
-1425.713193657984
 30
0.0
 11
421.2865232163075
 21
-1425.713193657984
 31
0.0
  0
LINE
  8
0
  6
CONTINUOUS
 62
               7
  5
304
 10
421.2865232163075
 20
-1336.713193657984
 30
0.0
 11
422.2865232163075
 21
-1337.713193657984
 31
0.0
  0
LINE
  8
0
  6
CONTINUOUS
 62
               7
  5
305
 10
422.2865232163075
 20
-1424.713193657984
 30
0.0
 11
421.2865232163075
 21
-1425.713193657984
 31
0.0
  0
LINE
  8
0
  6
CONTINUOUS
 62
               7
  5
306
 10
330.2865232163075
 20
-1349.713193657984
 30
0.0
 11
364.2865232163075
 21
-1349.713193657984
 31
0.0
  0
LINE
  8
0
  6
CONTINUOUS
 62
               7
  5
307
 10
330.2865232163075
 20
-1349.713193657984
 30
0.0
 11
329.2865232163075
 21
-1350.713193657984
 31
0.0
  0
LINE
  8
0
  6
CONTINUOUS
 62
               7
  5
308
 10
329.2865232163075
 20
-1424.713193657984
 30
0.0
 11
330.2865232163075
 21
-1425.713193657984
 31
0.0
  0
CIRCLE
  8
0
  6
CONTINUOUS
 62
               7
  5
309
 10
-100.00000000000023
 20
-980.95840438220353
 30
0.0
 40
44.5
  0
CIRCLE
  8
0
  6
CONTINUOUS
 62
               7
  5
30A
 10
-100.00000000000028
 20
-968.45840438220353
 30
0.0
 40
57.0
  0
CIRCLE
  8
0
  6
CONTINUOUS
 62
               7
  5
30B
 10
-100.00000000000028
 20
-980.95840438220353
 30
0.0
 40
40.625
  0
LINE
  8
0
  6
CONTINUOUS
 62
               7
  5
30C
 10
27.108404382203105
 20
-1024.4584043822035
 30
0.0
 11
27.108404382203219
 21
-937.45840438220353
 31
0.0
  0
LINE
  8
0
  6
CONTINUOUS
 62
               7
  5
30D
 10
67.708404382203241
 20
-911.45840438220364
 30
0.0
 11
67.708404382203128
 21
-1025.4584043822038
 31
0.0
  0
LINE
  8
0
  6
CONTINUOUS
 62
               7
  5
30E
 10
125.70840438220313
 20
-1024.4584043822038
 30
0.0
 11
125.70840438220324
 21
-912.45840438220364
 31
0.0
  0
LINE
  8
0
  6
CONTINUOUS
 62
               7
  5
30F
 10
124.70840438220324
 20
-911.45840438220364
 30
0.0
 11
67.708404382203241
 21
-911.45840438220364
 31
0.0
  0
LINE
  8
0
  6
CONTINUOUS
 62
               7
  5
310
 10
124.70840438220313
 20
-1025.4584043822038
 30
0.0
 11
67.708404382203128
 21
-1025.4584043822038
 31
0.0
  0
LINE
  8
0
  6
CONTINUOUS
 62
               7
  5
311
 10
67.708404382203128
 20
-1025.4584043822038
 30
0.0
 11
28.108404382203133
 21
-1025.4584043822035
 31
0.0
  0
LINE
  8
0
  6
CONTINUOUS
 62
               7
  5
312
 10
67.708404382203213
 20
-936.45840438220364
 30
0.0
 11
28.10840438220319
 21
-936.45840438220364
 31
0.0
  0
LINE
  8
0
  6
CONTINUOUS
 62
               7
  5
313
 10
124.70840438220324
 20
-911.45840438220364
 30
0.0
 11
125.70840438220324
 21
-912.45840438220364
 31
0.0
  0
LINE
  8
0
  6
CONTINUOUS
 62
               7
  5
314
 10
125.70840438220313
 20
-1024.4584043822038
 30
0.0
 11
124.70840438220313
 21
-1025.4584043822038
 31
0.0
  0
LINE
  8
0
  6
CONTINUOUS
 62
               7
  5
315
 10
28.10840438220319
 20
-936.45840438220364
 30
0.0
 11
27.108404382203219
 21
-937.45840438220353
 31
0.0
  0
LINE
  8
0
  6
CONTINUOUS
 62
               7
  5
316
 10
27.108404382203105
 20
-1024.4584043822035
 30
0.0
 11
28.108404382203133
 21
-1025.4584043822035
 31
0.0
  0
LINE
  8
0
  6
CONTINUOUS
 62
               7
  5
317
 10
-227.10840438220373
 20
-1024.4584043822035
 30
0.0
 11
-227.10840438220373
 21
-937.45840438220353
 31
0.0
  0
LINE
  8
0
  6
CONTINUOUS
 62
               7
  5
318
 10
-267.7084043822037
 20
-911.45840438220353
 30
0.0
 11
-267.7084043822037
 21
-1025.4584043822035
 31
0.0
  0
LINE
  8
0
  6
CONTINUOUS
 62
               7
  5
319
 10
-325.70840438220375
 20
-1024.4584043822035
 30
0.0
 11
-325.70840438220375
 21
-912.45840438220353
 31
0.0
  0
LINE
  8
0
  6
CONTINUOUS
 62
               7
  5
31A
 10
-324.70840438220375
 20
-911.45840438220353
 30
0.0
 11
-267.7084043822037
 21
-911.45840438220353
 31
0.0
  0
LINE
  8
0
  6
CONTINUOUS
 62
               7
  5
31B
 10
-324.70840438220375
 20
-1025.4584043822035
 30
0.0
 11
-267.7084043822037
 21
-1025.4584043822035
 31
0.0
  0
LINE
  8
0
  6
CONTINUOUS
 62
               7
  5
31C
 10
-267.7084043822037
 20
-1025.4584043822035
 30
0.0
 11
-228.10840438220373
 21
-1025.4584043822035
 31
0.0
  0
LINE
  8
0
  6
CONTINUOUS
 62
               7
  5
31D
 10
-267.7084043822037
 20
-936.45840438220353
 30
0.0
 11
-228.10840438220373
 21
-936.45840438220353
 31
0.0
  0
LINE
  8
0
  6
CONTINUOUS
 62
               7
  5
31E
 10
-324.70840438220375
 20
-911.45840438220353
 30
0.0
 11
-325.70840438220375
 21
-912.45840438220353
 31
0.0
  0
LINE
  8
0
  6
CONTINUOUS
 62
               7
  5
31F
 10
-325.70840438220375
 20
-1024.4584043822035
 30
0.0
 11
-324.70840438220375
 21
-1025.4584043822035
 31
0.0
  0
LINE
  8
0
  6
CONTINUOUS
 62
               7
  5
320
 10
-228.10840438220373
 20
-936.45840438220353
 30
0.0
 11
-227.10840438220373
 21
-937.45840438220353
 31
0.0
  0
LINE
  8
0
  6
CONTINUOUS
 62
               7
  5
321
 10
-227.10840438220373
 20
-1024.4584043822035
 30
0.0
 11
-228.10840438220373
 21
-1025.4584043822035
 31
0.0
  0
LINE
  8
0
  6
CONTINUOUS
 62
               7
  5
322
 10
-143.50000000000034
 20
-841.35000000000002
 30
0.0
 11
-56.500000000000341
 21
-841.35000000000002
 31
0.0
  0
LINE
  8
0
  6
CONTINUOUS
 62
               7
  5
323
 10
-43.000000000000341
 20
-800.75
 30
0.0
 11
-157.00000000000034
 21
-800.75
 31
0.0
  0
LINE
  8
0
  6
CONTINUOUS
 62
               7
  5
324
 10
-156.00000000000034
 20
-742.75
 30
0.0
 11
-44.000000000000341
 21
-742.75
 31
0.0
  0
LINE
  8
0
  6
CONTINUOUS
 62
               7
  5
325
 10
-43.000000000000341
 20
-743.75
 30
0.0
 11
-43.000000000000341
 21
-800.75000000000011
 31
0.0
  0
LINE
  8
0
  6
CONTINUOUS
 62
               7
  5
326
 10
-157.00000000000034
 20
-743.75
 30
0.0
 11
-157.00000000000034
 21
-800.75000000000011
 31
0.0
  0
LINE
  8
0
  6
CONTINUOUS
 62
               7
  5
327
 10
-144.50000000000034
 20
-800.75000000000011
 30
0.0
 11
-144.50000000000034
 21
-840.35000000000002
 31
0.0
  0
LINE
  8
0
  6
CONTINUOUS
 62
               7
  5
328
 10
-55.500000000000341
 20
-800.75000000000011
 30
0.0
 11
-55.500000000000341
 21
-840.35000000000002
 31
0.0
  0
LINE
  8
0
  6
CONTINUOUS
 62
               7
  5
329
 10
-43.000000000000341
 20
-743.75
 30
0.0
 11
-44.000000000000341
 21
-742.75
 31
0.0
  0
LINE
  8
0
  6
CONTINUOUS
 62
               7
  5
32A
 10
-156.00000000000034
 20
-742.75
 30
0.0
 11
-157.00000000000034
 21
-743.75
 31
0.0
  0
LINE
  8
0
  6
CONTINUOUS
 62
               7
  5
32B
 10
-55.500000000000341
 20
-840.35000000000002
 30
0.0
 11
-56.500000000000341
 21
-841.35000000000002
 31
0.0
  0
LINE
  8
0
  6
CONTINUOUS
 62
               7
  5
32C
 10
-143.50000000000034
 20
-841.35000000000002
 30
0.0
 11
-144.50000000000034
 21
-840.35000000000002
 31
0.0
  0
CIRCLE
  8
0
  6
DASHED
 62
               7
  5
32D
 10
509.2865232163075
 20
-1381.213193657984
 30
0.0
 40
40.0
  0
ENDSEC
  0
EOF
