  0
SECTION
  2
HEADER
  9
$ACADVER
  1
AC1009
  9
$INSBASE
 10
0.0
 20
0.0
 30
0.0
  9
$EXTMIN
 10
-737.29799736827704
 20
-1022.2006168349056
 30
0.0
  9
$EXTMAX
 10
413.23998677668294
 20
1022.2006168349056
 30
0.0
  9
$LIMMIN
 10
-773.25230937280708
 20
-1086.0881553870872
  9
$LIMMAX
 10
449.19429878121292
 20
1086.0881553870872
  9
$ORTHOMODE
 70
               0
  9
$REGENMODE
 70
               1
  9
$FILLMODE
 70
               1
  9
$QTEXTMODE
 70
               0
  9
$MIRRTEXT
 70
               1
  9
$DRAGMODE
 70
               2
  9
$LTSCALE
 40
1.0
  9
$OSMODE
 70
               0
  9
$ATTMODE
 70
               1
  9
$TEXTSIZE
 40
0.2
  9
$TRACEWID
 40
0.05
  9
$TEXTSTYLE
  7
STANDARD
  9
$CLAYER
  8
0
  9
$CELTYPE
  6
CONTINUOUS
  9
$CECOLOR
 62
             256
  9
$DIMSCALE
 40
1.0
  9
$DIMASZ
 40
0.18
  9
$DIMEXO
 40
0.0625
  9
$DIMDLI
 40
0.38
  9
$DIMRND
 40
0.0
  9
$DIMDLE
 40
0.0
  9
$DIMEXE
 40
0.18
  9
$DIMTP
 40
0.0
  9
$DIMTM
 40
0.0
  9
$DIMTXT
 40
0.18
  9
$DIMCEN
 40
0.09
  9
$DIMTSZ
 40
0.0
  9
$DIMTOL
 70
               0
  9
$DIMLIM
 70
               0
  9
$DIMTIH
 70
               1
  9
$DIMTOH
 70
               1
  9
$DIMSE1
 70
               0
  9
$DIMSE2
 70
               0
  9
$DIMTAD
 70
               0
  9
$DIMZIN
 70
               0
  9
$DIMBLK
  1

  9
$DIMASO
 70
               1
  9
$DIMSHO
 70
               1
  9
$DIMPOST
  1

  9
$DIMAPOST
  1

  9
$DIMALT
 70
               0
  9
$DIMALTD
 70
               2
  9
$DIMALTF
 40
25.399999999999999
  9
$DIMLFAC
 40
1.0
  9
$DIMTOFL
 70
               0
  9
$DIMTVP
 40
0.0
  9
$DIMTIX
 70
               0
  9
$DIMSOXD
 70
               0
  9
$DIMSAH
 70
               0
  9
$DIMBLK1
  1

  9
$DIMBLK2
  1

  9
$DIMSTYLE
  2
STANDARD
  9
$DIMCLRD
 70
               0
  9
$DIMCLRE
 70
               0
  9
$DIMCLRT
 70
               0
  9
$DIMTFAC
 40
1.0
  9
$DIMGAP
 40
0.09
  9
$LUNITS
 70
               2
  9
$LUPREC
 70
               4
  9
$AXISMODE
 70
               0
  9
$AXISUNIT
 10
0.0
 20
0.0
  9
$SKETCHINC
 40
0.1
  9
$FILLETRAD
 40
0.0
  9
$AUNITS
 70
               0
  9
$AUPREC
 70
               0
  9
$MENU
  1
acad
  9
$ELEVATION
 40
0.0
  9
$PELEVATION
 40
0.0
  9
$THICKNESS
 40
0.0
  9
$LIMCHECK
 70
               0
  9
$BLIPMODE
 70
               1
  9
$CHAMFERA
 40
0.0
  9
$CHAMFERB
 40
0.0
  9
$SKPOLY
 70
               0
  9
$TDCREATE
 40
0.000000000
  9
$TDUPDATE
 40
0.000000000
  9
$TDINDWG
 40
0.0000000000
  9
$TDUSRTIMER
 40
0.0000000000
  9
$USRTIMER
 70
               1
  9
$ANGBASE
 50
0.0
  9
$ANGDIR
 70
               0
  9
$PDMODE
 70
               0
  9
$PDSIZE
 40
1.0
  9
$PLINEWID
 40
0.0
  9
$COORDS
 70
               1
  9
$SPLFRAME
 70
               0
  9
$SPLINETYPE
 70
               6
  9
$SPLINESEGS
 70
               8
  9
$ATTDIA
 70
               0
  9
$ATTREQ
 70
               1
  9
$HANDLING
 70
               1
  9
$HANDSEED
  5
333
  9
$SURFTAB1
 70
               6
  9
$SURFTAB2
 70
               6
  9
$SURFTYPE
 70
               6
  9
$SURFU
 70
               6
  9
$SURFV
 70
               6
  9
$UCSNAME
  2

  9
$UCSORG
 10
0.0
 20
0.0
 30
0.0
  9
$UCSXDIR
 10
1.0
 20
0.0
 30
0.0
  9
$UCSYDIR
 10
0.0
 20
1.0
 30
0.0
  9
$PUCSNAME
  2

  9
$PUCSORG
 10
0.0
 20
0.0
 30
0.0
  9
$PUCSXDIR
 10
1.0
 20
0.0
 30
0.0
  9
$PUCSYDIR
 10
0.0
 20
1.0
 30
0.0
  9
$USERI1
 70
               0
  9
$USERI2
 70
               0
  9
$USERI3
 70
               0
  9
$USERI4
 70
               0
  9
$USERI5
 70
               0
  9
$USERR1
 40
0.0
  9
$USERR2
 40
0.0
  9
$USERR3
 40
0.0
  9
$USERR4
 40
0.0
  9
$USERR5
 40
0.0
  9
$WORLDVIEW
 70
               1
  9
$SHADEDGE
 70
               3
  9
$SHADEDIF
 70
              70
  9
$TILEMODE
 70
               1
  9
$MAXACTVP
 70
              16
  9
$PINSBASE
 10
0.0
 20
0.0
 30
0.0
  9
$PLIMCHECK
 70
               0
  9
$PEXTMIN
 10
1.0000000000000000E+20
 20
1.0000000000000000E+20
 30
1.0000000000000000E+20
  9
$PEXTMAX
 10
-1.0000000000000000E+20
 20
-1.0000000000000000E+20
 30
-1.0000000000000000E+20
  9
$PLIMMIN
 10
0.0
 20
0.0
  9
$PLIMMAX
 10
12.0
 20
9.0
  9
$UNITMODE
 70
               0
  9
$VISRETAIN
 70
               0
  9
$PLINEGEN
 70
               1
  9
$PSLTSCALE
 70
               0
  9
$TREEDEPTH
 70
            3020
  9
$DWGCODEPAGE
  3
dos932
  0
ENDSEC
  0
SECTION
  2
TABLES
  0
TABLE
  2
VPORT
 70
               1
  0
VPORT
  2
*ACTIVE
 70
               0
 10
0.0
 20
0.0
 11
1.0
 21
1.0
 12
-162.02900529579708
 22
0.0
 13
0.0
 23
0.0
 14
1.0
 24
1.0
 15
0.0
 25
0.0
 16
0.0
 26
0.0
 36
1.0
 17
0.0
 27
0.0
 37
0.0
 40
2172.1763107741745
 41
0.5627750390659283
 42
50.0
 43
0.0
 44
0.0
 50
0.0
 51
0.0
 71
               0
 72
             100
 73
               1
 74
               1
 75
               0
 76
               0
 77
               0
 78
               0
  0
ENDTAB
  0
TABLE
  2
LTYPE
 70
              26
  0
LTYPE
  2
CONTINUOUS
 70
               0
  3
Solid line
 72
              65
 73
               0
 40
0.0
  0
LTYPE
  2
HIDDENX2
 70
               0
  3
CADPAC FUSION LINETYPE
 72
              65
 73
               2
 40
47.560000000000002
 49
35.670000000000002
 49
-11.890000000000001
  0
LTYPE
  2
HIDDEN
 70
               0
  3
CADPAC FUSION LINETYPE
 72
              65
 73
               2
 40
35.670000000000002
 49
23.780000000000001
 49
-11.890000000000001
  0
LTYPE
  2
HIDDEN2
 70
               0
  3
CADPAC FUSION LINETYPE
 72
              65
 73
               2
 40
29.725000000000001
 49
17.835000000000001
 49
-11.890000000000001
  0
LTYPE
  2
DASHED
 70
               0
  3
CADPAC FUSION LINETYPE
 72
              65
 73
               2
 40
35.670000000000002
 49
23.780000000000001
 49
-11.890000000000001
  0
LTYPE
  2
DASHED2
 70
               0
  3
CADPAC FUSION LINETYPE
 72
              65
 73
               2
 40
26.752500000000001
 49
17.835000000000001
 49
-8.9175000000000004
  0
LTYPE
  2
DASHEDX2
 70
               0
  3
CADPAC FUSION LINETYPE
 72
              65
 73
               2
 40
53.505000000000003
 49
35.670000000000002
 49
-17.835000000000001
  0
LTYPE
  2
DOTX2
 70
               0
  3
CADPAC FUSION LINETYPE
 72
              65
 73
               2
 40
14.862500000000001
 49
0.0
 49
-14.862500000000001
  0
LTYPE
  2
DOT
 70
               0
  3
CADPAC FUSION LINETYPE
 72
              65
 73
               2
 40
11.890000000000001
 49
0.0
 49
-11.890000000000001
  0
LTYPE
  2
DOTS
 70
               0
  3
CADPAC FUSION LINETYPE
 72
              65
 73
               2
 40
11.890000000000001
 49
0.0
 49
-11.890000000000001
  0
LTYPE
  2
DOT2
 70
               0
  3
CADPAC FUSION LINETYPE
 72
              65
 73
               2
 40
8.9175000000000004
 49
0.0
 49
-8.9175000000000004
  0
LTYPE
  2
CENTERX2
 70
               0
  3
CADPAC FUSION LINETYPE
 72
              65
 73
               4
 40
71.340000000000003
 49
29.725000000000001
 49
-14.862500000000001
 49
11.890000000000001
 49
-14.862500000000001
  0
LTYPE
  2
CENTER
 70
               0
  3
CADPAC FUSION LINETYPE
 72
              65
 73
               4
 40
54.694000000000003
 49
23.780000000000001
 49
-11.890000000000001
 49
7.1340000000000003
 49
-11.890000000000001
  0
LTYPE
  2
CENTER2
 70
               0
  3
CADPAC FUSION LINETYPE
 72
              65
 73
               4
 40
38.048000000000002
 49
17.835000000000001
 49
-8.9175000000000004
 49
2.3780000000000001
 49
-8.9175000000000004
  0
LTYPE
  2
DASHDOTX2
 70
               0
  3
CADPAC FUSION LINETYPE
 72
              65
 73
               4
 40
59.450000000000003
 49
29.725000000000001
 49
-14.862500000000001
 49
0.0
 49
-14.862500000000001
  0
LTYPE
  2
DASHDOT
 70
               0
  3
CADPAC FUSION LINETYPE
 72
              65
 73
               4
 40
47.560000000000002
 49
23.780000000000001
 49
-11.890000000000001
 49
0.0
 49
-11.890000000000001
  0
LTYPE
  2
DASHDOT2
 70
               0
  3
CADPAC FUSION LINETYPE
 72
              65
 73
               4
 40
35.670000000000002
 49
17.835000000000001
 49
-8.9175000000000004
 49
0.0
 49
-8.9175000000000004
  0
LTYPE
  2
DIVIDEX2
 70
               0
  3
CADPAC FUSION LINETYPE
 72
              65
 73
               6
 40
74.3125
 49
29.725000000000001
 49
-14.862500000000001
 49
0.0
 49
-14.862500000000001
 49
0.0
 49
-14.862500000000001
  0
LTYPE
  2
DIVIDE
 70
               0
  3
CADPAC FUSION LINETYPE
 72
              65
 73
               6
 40
59.450000000000003
 49
23.780000000000001
 49
-11.890000000000001
 49
0.0
 49
-11.890000000000001
 49
0.0
 49
-11.890000000000001
  0
LTYPE
  2
DIVIDE2
 70
               0
  3
CADPAC FUSION LINETYPE
 72
              65
 73
               6
 40
44.587500000000006
 49
17.835000000000001
 49
-8.9175000000000004
 49
0.0
 49
-8.9175000000000004
 49
0.0
 49
-8.9175000000000004
  0
LTYPE
  2
BORDERX2
 70
               0
  3
CADPAC FUSION LINETYPE
 72
              65
 73
               6
 40
104.03750000000001
 49
29.725000000000001
 49
-14.862500000000001
 49
29.725000000000001
 49
-14.862500000000001
 49
0.0
 49
-14.862500000000001
  0
LTYPE
  2
BORDER
 70
               0
  3
CADPAC FUSION LINETYPE
 72
              65
 73
               6
 40
83.230000000000004
 49
23.780000000000001
 49
-11.890000000000001
 49
23.780000000000001
 49
-11.890000000000001
 49
0.0
 49
-11.890000000000001
  0
LTYPE
  2
BORDER2
 70
               0
  3
CADPAC FUSION LINETYPE
 72
              65
 73
               6
 40
62.422499999999999
 49
17.835000000000001
 49
-8.9175000000000004
 49
17.835000000000001
 49
-8.9175000000000004
 49
0.0
 49
-8.9175000000000004
  0
LTYPE
  2
PHANTOMX2
 70
               0
  3
CADPAC FUSION LINETYPE
 72
              65
 73
               6
 40
89.175000000000011
 49
29.725000000000001
 49
-11.890000000000001
 49
11.890000000000001
 49
-11.890000000000001
 49
11.890000000000001
 49
-11.890000000000001
  0
LTYPE
  2
PHANTOM
 70
               0
  3
CADPAC FUSION LINETYPE
 72
              65
 73
               6
 40
73.718000000000004
 49
23.780000000000001
 49
-11.890000000000001
 49
7.1340000000000003
 49
-11.890000000000001
 49
7.1340000000000003
 49
-11.890000000000001
  0
LTYPE
  2
PHANTOM2
 70
               0
  3
CADPAC FUSION LINETYPE
 72
              65
 73
               6
 40
63.017000000000003
 49
17.835000000000001
 49
-11.890000000000001
 49
4.7560000000000002
 49
-11.890000000000001
 49
4.7560000000000002
 49
-11.890000000000001
  0
ENDTAB
  0
TABLE
  2
LAYER
 70
             256
  0
LAYER
  2
0
 70
               0
 62
               7
  6
CONTINUOUS
  0
LAYER
  2
LAYER001
 70
               0
 62
               7
  6
CONTINUOUS
  0
LAYER
  2
LAYER002
 70
               0
 62
               7
  6
CONTINUOUS
  0
LAYER
  2
LAYER003
 70
               0
 62
               7
  6
CONTINUOUS
  0
LAYER
  2
LAYER004
 70
               0
 62
               7
  6
CONTINUOUS
  0
LAYER
  2
LAYER005
 70
               0
 62
               7
  6
CONTINUOUS
  0
LAYER
  2
LAYER006
 70
               0
 62
               7
  6
CONTINUOUS
  0
LAYER
  2
LAYER007
 70
               0
 62
               7
  6
CONTINUOUS
  0
LAYER
  2
LAYER008
 70
               0
 62
               7
  6
CONTINUOUS
  0
LAYER
  2
LAYER009
 70
               0
 62
               7
  6
CONTINUOUS
  0
LAYER
  2
LAYER010
 70
               0
 62
               7
  6
CONTINUOUS
  0
LAYER
  2
LAYER011
 70
               0
 62
               7
  6
CONTINUOUS
  0
LAYER
  2
LAYER012
 70
               0
 62
               7
  6
CONTINUOUS
  0
LAYER
  2
LAYER013
 70
               0
 62
               7
  6
CONTINUOUS
  0
LAYER
  2
LAYER014
 70
               0
 62
               7
  6
CONTINUOUS
  0
LAYER
  2
LAYER015
 70
               0
 62
               7
  6
CONTINUOUS
  0
LAYER
  2
LAYER016
 70
               0
 62
               7
  6
CONTINUOUS
  0
LAYER
  2
LAYER017
 70
               0
 62
               7
  6
CONTINUOUS
  0
LAYER
  2
LAYER018
 70
               0
 62
               7
  6
CONTINUOUS
  0
LAYER
  2
LAYER019
 70
               0
 62
               7
  6
CONTINUOUS
  0
LAYER
  2
LAYER020
 70
               0
 62
               7
  6
CONTINUOUS
  0
LAYER
  2
LAYER021
 70
               0
 62
               7
  6
CONTINUOUS
  0
LAYER
  2
LAYER022
 70
               0
 62
               7
  6
CONTINUOUS
  0
LAYER
  2
LAYER023
 70
               0
 62
               7
  6
CONTINUOUS
  0
LAYER
  2
LAYER024
 70
               0
 62
               7
  6
CONTINUOUS
  0
LAYER
  2
LAYER025
 70
               0
 62
               7
  6
CONTINUOUS
  0
LAYER
  2
LAYER026
 70
               0
 62
               7
  6
CONTINUOUS
  0
LAYER
  2
LAYER027
 70
               0
 62
               7
  6
CONTINUOUS
  0
LAYER
  2
LAYER028
 70
               0
 62
               7
  6
CONTINUOUS
  0
LAYER
  2
LAYER029
 70
               0
 62
               7
  6
CONTINUOUS
  0
LAYER
  2
LAYER030
 70
               0
 62
               7
  6
CONTINUOUS
  0
LAYER
  2
LAYER031
 70
               0
 62
               7
  6
CONTINUOUS
  0
LAYER
  2
LAYER032
 70
               0
 62
               7
  6
CONTINUOUS
  0
LAYER
  2
LAYER033
 70
               0
 62
               7
  6
CONTINUOUS
  0
LAYER
  2
LAYER034
 70
               0
 62
               7
  6
CONTINUOUS
  0
LAYER
  2
LAYER035
 70
               0
 62
               7
  6
CONTINUOUS
  0
LAYER
  2
LAYER036
 70
               0
 62
               7
  6
CONTINUOUS
  0
LAYER
  2
LAYER037
 70
               0
 62
               7
  6
CONTINUOUS
  0
LAYER
  2
LAYER038
 70
               0
 62
               7
  6
CONTINUOUS
  0
LAYER
  2
LAYER039
 70
               0
 62
               7
  6
CONTINUOUS
  0
LAYER
  2
LAYER040
 70
               0
 62
               7
  6
CONTINUOUS
  0
LAYER
  2
LAYER041
 70
               0
 62
               7
  6
CONTINUOUS
  0
LAYER
  2
LAYER042
 70
               0
 62
               7
  6
CONTINUOUS
  0
LAYER
  2
LAYER043
 70
               0
 62
               7
  6
CONTINUOUS
  0
LAYER
  2
LAYER044
 70
               0
 62
               7
  6
CONTINUOUS
  0
LAYER
  2
LAYER045
 70
               0
 62
               7
  6
CONTINUOUS
  0
LAYER
  2
LAYER046
 70
               0
 62
               7
  6
CONTINUOUS
  0
LAYER
  2
LAYER047
 70
               0
 62
               7
  6
CONTINUOUS
  0
LAYER
  2
LAYER048
 70
               0
 62
               7
  6
CONTINUOUS
  0
LAYER
  2
LAYER049
 70
               0
 62
               7
  6
CONTINUOUS
  0
LAYER
  2
LAYER050
 70
               0
 62
               7
  6
CONTINUOUS
  0
LAYER
  2
LAYER051
 70
               0
 62
               7
  6
CONTINUOUS
  0
LAYER
  2
LAYER052
 70
               0
 62
               7
  6
CONTINUOUS
  0
LAYER
  2
LAYER053
 70
               0
 62
               7
  6
CONTINUOUS
  0
LAYER
  2
LAYER054
 70
               0
 62
               7
  6
CONTINUOUS
  0
LAYER
  2
LAYER055
 70
               0
 62
               7
  6
CONTINUOUS
  0
LAYER
  2
LAYER056
 70
               0
 62
               7
  6
CONTINUOUS
  0
LAYER
  2
LAYER057
 70
               0
 62
               7
  6
CONTINUOUS
  0
LAYER
  2
LAYER058
 70
               0
 62
               7
  6
CONTINUOUS
  0
LAYER
  2
LAYER059
 70
               0
 62
               7
  6
CONTINUOUS
  0
LAYER
  2
LAYER060
 70
               0
 62
               7
  6
CONTINUOUS
  0
LAYER
  2
LAYER061
 70
               0
 62
               7
  6
CONTINUOUS
  0
LAYER
  2
LAYER062
 70
               0
 62
               7
  6
CONTINUOUS
  0
LAYER
  2
LAYER063
 70
               0
 62
               7
  6
CONTINUOUS
  0
LAYER
  2
LAYER064
 70
               0
 62
               7
  6
CONTINUOUS
  0
LAYER
  2
LAYER065
 70
               0
 62
               7
  6
CONTINUOUS
  0
LAYER
  2
LAYER066
 70
               0
 62
               7
  6
CONTINUOUS
  0
LAYER
  2
LAYER067
 70
               0
 62
               7
  6
CONTINUOUS
  0
LAYER
  2
LAYER068
 70
               0
 62
               7
  6
CONTINUOUS
  0
LAYER
  2
LAYER069
 70
               0
 62
               7
  6
CONTINUOUS
  0
LAYER
  2
LAYER070
 70
               0
 62
               7
  6
CONTINUOUS
  0
LAYER
  2
LAYER071
 70
               0
 62
               7
  6
CONTINUOUS
  0
LAYER
  2
LAYER072
 70
               0
 62
               7
  6
CONTINUOUS
  0
LAYER
  2
LAYER073
 70
               0
 62
               7
  6
CONTINUOUS
  0
LAYER
  2
LAYER074
 70
               0
 62
               7
  6
CONTINUOUS
  0
LAYER
  2
LAYER075
 70
               0
 62
               7
  6
CONTINUOUS
  0
LAYER
  2
LAYER076
 70
               0
 62
               7
  6
CONTINUOUS
  0
LAYER
  2
LAYER077
 70
               0
 62
               7
  6
CONTINUOUS
  0
LAYER
  2
LAYER078
 70
               0
 62
               7
  6
CONTINUOUS
  0
LAYER
  2
LAYER079
 70
               0
 62
               7
  6
CONTINUOUS
  0
LAYER
  2
LAYER080
 70
               0
 62
               7
  6
CONTINUOUS
  0
LAYER
  2
LAYER081
 70
               0
 62
               7
  6
CONTINUOUS
  0
LAYER
  2
LAYER082
 70
               0
 62
               7
  6
CONTINUOUS
  0
LAYER
  2
LAYER083
 70
               0
 62
               7
  6
CONTINUOUS
  0
LAYER
  2
LAYER084
 70
               0
 62
               7
  6
CONTINUOUS
  0
LAYER
  2
LAYER085
 70
               0
 62
               7
  6
CONTINUOUS
  0
LAYER
  2
LAYER086
 70
               0
 62
               7
  6
CONTINUOUS
  0
LAYER
  2
LAYER087
 70
               0
 62
               7
  6
CONTINUOUS
  0
LAYER
  2
LAYER088
 70
               0
 62
               7
  6
CONTINUOUS
  0
LAYER
  2
LAYER089
 70
               0
 62
               7
  6
CONTINUOUS
  0
LAYER
  2
LAYER090
 70
               0
 62
               7
  6
CONTINUOUS
  0
LAYER
  2
LAYER091
 70
               0
 62
               7
  6
CONTINUOUS
  0
LAYER
  2
LAYER092
 70
               0
 62
               7
  6
CONTINUOUS
  0
LAYER
  2
LAYER093
 70
               0
 62
               7
  6
CONTINUOUS
  0
LAYER
  2
LAYER094
 70
               0
 62
               7
  6
CONTINUOUS
  0
LAYER
  2
LAYER095
 70
               0
 62
               7
  6
CONTINUOUS
  0
LAYER
  2
LAYER096
 70
               0
 62
               7
  6
CONTINUOUS
  0
LAYER
  2
LAYER097
 70
               0
 62
               7
  6
CONTINUOUS
  0
LAYER
  2
LAYER098
 70
               0
 62
               7
  6
CONTINUOUS
  0
LAYER
  2
LAYER099
 70
               0
 62
               7
  6
CONTINUOUS
  0
LAYER
  2
LAYER100
 70
               0
 62
               7
  6
CONTINUOUS
  0
LAYER
  2
LAYER101
 70
               0
 62
               7
  6
CONTINUOUS
  0
LAYER
  2
LAYER102
 70
               0
 62
               7
  6
CONTINUOUS
  0
LAYER
  2
LAYER103
 70
               0
 62
               7
  6
CONTINUOUS
  0
LAYER
  2
LAYER104
 70
               0
 62
               7
  6
CONTINUOUS
  0
LAYER
  2
LAYER105
 70
               0
 62
               7
  6
CONTINUOUS
  0
LAYER
  2
LAYER106
 70
               0
 62
               7
  6
CONTINUOUS
  0
LAYER
  2
LAYER107
 70
               0
 62
               7
  6
CONTINUOUS
  0
LAYER
  2
LAYER108
 70
               0
 62
               7
  6
CONTINUOUS
  0
LAYER
  2
LAYER109
 70
               0
 62
               7
  6
CONTINUOUS
  0
LAYER
  2
LAYER110
 70
               0
 62
               7
  6
CONTINUOUS
  0
LAYER
  2
LAYER111
 70
               0
 62
               7
  6
CONTINUOUS
  0
LAYER
  2
LAYER112
 70
               0
 62
               7
  6
CONTINUOUS
  0
LAYER
  2
LAYER113
 70
               0
 62
               7
  6
CONTINUOUS
  0
LAYER
  2
LAYER114
 70
               0
 62
               7
  6
CONTINUOUS
  0
LAYER
  2
LAYER115
 70
               0
 62
               7
  6
CONTINUOUS
  0
LAYER
  2
LAYER116
 70
               0
 62
               7
  6
CONTINUOUS
  0
LAYER
  2
LAYER117
 70
               0
 62
               7
  6
CONTINUOUS
  0
LAYER
  2
LAYER118
 70
               0
 62
               7
  6
CONTINUOUS
  0
LAYER
  2
LAYER119
 70
               0
 62
               7
  6
CONTINUOUS
  0
LAYER
  2
LAYER120
 70
               0
 62
               7
  6
CONTINUOUS
  0
LAYER
  2
LAYER121
 70
               0
 62
               7
  6
CONTINUOUS
  0
LAYER
  2
LAYER122
 70
               0
 62
               7
  6
CONTINUOUS
  0
LAYER
  2
LAYER123
 70
               0
 62
               7
  6
CONTINUOUS
  0
LAYER
  2
LAYER124
 70
               0
 62
               7
  6
CONTINUOUS
  0
LAYER
  2
LAYER125
 70
               0
 62
               7
  6
CONTINUOUS
  0
LAYER
  2
LAYER126
 70
               0
 62
               7
  6
CONTINUOUS
  0
LAYER
  2
LAYER127
 70
               0
 62
               7
  6
CONTINUOUS
  0
LAYER
  2
LAYER128
 70
               0
 62
               7
  6
CONTINUOUS
  0
LAYER
  2
LAYER129
 70
               0
 62
               7
  6
CONTINUOUS
  0
LAYER
  2
LAYER130
 70
               0
 62
               7
  6
CONTINUOUS
  0
LAYER
  2
LAYER131
 70
               0
 62
               7
  6
CONTINUOUS
  0
LAYER
  2
LAYER132
 70
               0
 62
               7
  6
CONTINUOUS
  0
LAYER
  2
LAYER133
 70
               0
 62
               7
  6
CONTINUOUS
  0
LAYER
  2
LAYER134
 70
               0
 62
               7
  6
CONTINUOUS
  0
LAYER
  2
LAYER135
 70
               0
 62
               7
  6
CONTINUOUS
  0
LAYER
  2
LAYER136
 70
               0
 62
               7
  6
CONTINUOUS
  0
LAYER
  2
LAYER137
 70
               0
 62
               7
  6
CONTINUOUS
  0
LAYER
  2
LAYER138
 70
               0
 62
               7
  6
CONTINUOUS
  0
LAYER
  2
LAYER139
 70
               0
 62
               7
  6
CONTINUOUS
  0
LAYER
  2
LAYER140
 70
               0
 62
               7
  6
CONTINUOUS
  0
LAYER
  2
LAYER141
 70
               0
 62
               7
  6
CONTINUOUS
  0
LAYER
  2
LAYER142
 70
               0
 62
               7
  6
CONTINUOUS
  0
LAYER
  2
LAYER143
 70
               0
 62
               7
  6
CONTINUOUS
  0
LAYER
  2
LAYER144
 70
               0
 62
               7
  6
CONTINUOUS
  0
LAYER
  2
LAYER145
 70
               0
 62
               7
  6
CONTINUOUS
  0
LAYER
  2
LAYER146
 70
               0
 62
               7
  6
CONTINUOUS
  0
LAYER
  2
LAYER147
 70
               0
 62
               7
  6
CONTINUOUS
  0
LAYER
  2
LAYER148
 70
               0
 62
               7
  6
CONTINUOUS
  0
LAYER
  2
LAYER149
 70
               0
 62
               7
  6
CONTINUOUS
  0
LAYER
  2
LAYER150
 70
               0
 62
               7
  6
CONTINUOUS
  0
LAYER
  2
LAYER151
 70
               0
 62
               7
  6
CONTINUOUS
  0
LAYER
  2
LAYER152
 70
               0
 62
               7
  6
CONTINUOUS
  0
LAYER
  2
LAYER153
 70
               0
 62
               7
  6
CONTINUOUS
  0
LAYER
  2
LAYER154
 70
               0
 62
               7
  6
CONTINUOUS
  0
LAYER
  2
LAYER155
 70
               0
 62
               7
  6
CONTINUOUS
  0
LAYER
  2
LAYER156
 70
               0
 62
               7
  6
CONTINUOUS
  0
LAYER
  2
LAYER157
 70
               0
 62
               7
  6
CONTINUOUS
  0
LAYER
  2
LAYER158
 70
               0
 62
               7
  6
CONTINUOUS
  0
LAYER
  2
LAYER159
 70
               0
 62
               7
  6
CONTINUOUS
  0
LAYER
  2
LAYER160
 70
               0
 62
               7
  6
CONTINUOUS
  0
LAYER
  2
LAYER161
 70
               0
 62
               7
  6
CONTINUOUS
  0
LAYER
  2
LAYER162
 70
               0
 62
               7
  6
CONTINUOUS
  0
LAYER
  2
LAYER163
 70
               0
 62
               7
  6
CONTINUOUS
  0
LAYER
  2
LAYER164
 70
               0
 62
               7
  6
CONTINUOUS
  0
LAYER
  2
LAYER165
 70
               0
 62
               7
  6
CONTINUOUS
  0
LAYER
  2
LAYER166
 70
               0
 62
               7
  6
CONTINUOUS
  0
LAYER
  2
LAYER167
 70
               0
 62
               7
  6
CONTINUOUS
  0
LAYER
  2
LAYER168
 70
               0
 62
               7
  6
CONTINUOUS
  0
LAYER
  2
LAYER169
 70
               0
 62
               7
  6
CONTINUOUS
  0
LAYER
  2
LAYER170
 70
               0
 62
               7
  6
CONTINUOUS
  0
LAYER
  2
LAYER171
 70
               0
 62
               7
  6
CONTINUOUS
  0
LAYER
  2
LAYER172
 70
               0
 62
               7
  6
CONTINUOUS
  0
LAYER
  2
LAYER173
 70
               0
 62
               7
  6
CONTINUOUS
  0
LAYER
  2
LAYER174
 70
               0
 62
               7
  6
CONTINUOUS
  0
LAYER
  2
LAYER175
 70
               0
 62
               7
  6
CONTINUOUS
  0
LAYER
  2
LAYER176
 70
               0
 62
               7
  6
CONTINUOUS
  0
LAYER
  2
LAYER177
 70
               0
 62
               7
  6
CONTINUOUS
  0
LAYER
  2
LAYER178
 70
               0
 62
               7
  6
CONTINUOUS
  0
LAYER
  2
LAYER179
 70
               0
 62
               7
  6
CONTINUOUS
  0
LAYER
  2
LAYER180
 70
               0
 62
               7
  6
CONTINUOUS
  0
LAYER
  2
LAYER181
 70
               0
 62
               7
  6
CONTINUOUS
  0
LAYER
  2
LAYER182
 70
               0
 62
               7
  6
CONTINUOUS
  0
LAYER
  2
LAYER183
 70
               0
 62
               7
  6
CONTINUOUS
  0
LAYER
  2
LAYER184
 70
               0
 62
               7
  6
CONTINUOUS
  0
LAYER
  2
LAYER185
 70
               0
 62
               7
  6
CONTINUOUS
  0
LAYER
  2
LAYER186
 70
               0
 62
               7
  6
CONTINUOUS
  0
LAYER
  2
LAYER187
 70
               0
 62
               7
  6
CONTINUOUS
  0
LAYER
  2
LAYER188
 70
               0
 62
               7
  6
CONTINUOUS
  0
LAYER
  2
LAYER189
 70
               0
 62
               7
  6
CONTINUOUS
  0
LAYER
  2
LAYER190
 70
               0
 62
               7
  6
CONTINUOUS
  0
LAYER
  2
LAYER191
 70
               0
 62
               7
  6
CONTINUOUS
  0
LAYER
  2
LAYER192
 70
               0
 62
               7
  6
CONTINUOUS
  0
LAYER
  2
LAYER193
 70
               0
 62
               7
  6
CONTINUOUS
  0
LAYER
  2
LAYER194
 70
               0
 62
               7
  6
CONTINUOUS
  0
LAYER
  2
LAYER195
 70
               0
 62
               7
  6
CONTINUOUS
  0
LAYER
  2
LAYER196
 70
               0
 62
               7
  6
CONTINUOUS
  0
LAYER
  2
LAYER197
 70
               0
 62
               7
  6
CONTINUOUS
  0
LAYER
  2
LAYER198
 70
               0
 62
               7
  6
CONTINUOUS
  0
LAYER
  2
LAYER199
 70
               0
 62
               7
  6
CONTINUOUS
  0
LAYER
  2
LAYER200
 70
               0
 62
               7
  6
CONTINUOUS
  0
LAYER
  2
LAYER201
 70
               0
 62
               7
  6
CONTINUOUS
  0
LAYER
  2
LAYER202
 70
               0
 62
               7
  6
CONTINUOUS
  0
LAYER
  2
LAYER203
 70
               0
 62
               7
  6
CONTINUOUS
  0
LAYER
  2
LAYER204
 70
               0
 62
               7
  6
CONTINUOUS
  0
LAYER
  2
LAYER205
 70
               0
 62
               7
  6
CONTINUOUS
  0
LAYER
  2
LAYER206
 70
               0
 62
               7
  6
CONTINUOUS
  0
LAYER
  2
LAYER207
 70
               0
 62
               7
  6
CONTINUOUS
  0
LAYER
  2
LAYER208
 70
               0
 62
               7
  6
CONTINUOUS
  0
LAYER
  2
LAYER209
 70
               0
 62
               7
  6
CONTINUOUS
  0
LAYER
  2
LAYER210
 70
               0
 62
               7
  6
CONTINUOUS
  0
LAYER
  2
LAYER211
 70
               0
 62
               7
  6
CONTINUOUS
  0
LAYER
  2
LAYER212
 70
               0
 62
               7
  6
CONTINUOUS
  0
LAYER
  2
LAYER213
 70
               0
 62
               7
  6
CONTINUOUS
  0
LAYER
  2
LAYER214
 70
               0
 62
               7
  6
CONTINUOUS
  0
LAYER
  2
LAYER215
 70
               0
 62
               7
  6
CONTINUOUS
  0
LAYER
  2
LAYER216
 70
               0
 62
               7
  6
CONTINUOUS
  0
LAYER
  2
LAYER217
 70
               0
 62
               7
  6
CONTINUOUS
  0
LAYER
  2
LAYER218
 70
               0
 62
               7
  6
CONTINUOUS
  0
LAYER
  2
LAYER219
 70
               0
 62
               7
  6
CONTINUOUS
  0
LAYER
  2
LAYER220
 70
               0
 62
               7
  6
CONTINUOUS
  0
LAYER
  2
LAYER221
 70
               0
 62
               7
  6
CONTINUOUS
  0
LAYER
  2
LAYER222
 70
               0
 62
               7
  6
CONTINUOUS
  0
LAYER
  2
LAYER223
 70
               0
 62
               7
  6
CONTINUOUS
  0
LAYER
  2
LAYER224
 70
               0
 62
               7
  6
CONTINUOUS
  0
LAYER
  2
LAYER225
 70
               0
 62
               7
  6
CONTINUOUS
  0
LAYER
  2
LAYER226
 70
               0
 62
               7
  6
CONTINUOUS
  0
LAYER
  2
LAYER227
 70
               0
 62
               7
  6
CONTINUOUS
  0
LAYER
  2
LAYER228
 70
               0
 62
               7
  6
CONTINUOUS
  0
LAYER
  2
LAYER229
 70
               0
 62
               7
  6
CONTINUOUS
  0
LAYER
  2
LAYER230
 70
               0
 62
               7
  6
CONTINUOUS
  0
LAYER
  2
LAYER231
 70
               0
 62
               7
  6
CONTINUOUS
  0
LAYER
  2
LAYER232
 70
               0
 62
               7
  6
CONTINUOUS
  0
LAYER
  2
LAYER233
 70
               0
 62
               7
  6
CONTINUOUS
  0
LAYER
  2
LAYER234
 70
               0
 62
               7
  6
CONTINUOUS
  0
LAYER
  2
LAYER235
 70
               0
 62
               7
  6
CONTINUOUS
  0
LAYER
  2
LAYER236
 70
               0
 62
               7
  6
CONTINUOUS
  0
LAYER
  2
LAYER237
 70
               0
 62
               7
  6
CONTINUOUS
  0
LAYER
  2
LAYER238
 70
               0
 62
               7
  6
CONTINUOUS
  0
LAYER
  2
LAYER239
 70
               0
 62
               7
  6
CONTINUOUS
  0
LAYER
  2
LAYER240
 70
               0
 62
               7
  6
CONTINUOUS
  0
LAYER
  2
LAYER241
 70
               0
 62
               7
  6
CONTINUOUS
  0
LAYER
  2
LAYER242
 70
               0
 62
               7
  6
CONTINUOUS
  0
LAYER
  2
LAYER243
 70
               0
 62
               7
  6
CONTINUOUS
  0
LAYER
  2
LAYER244
 70
               0
 62
               7
  6
CONTINUOUS
  0
LAYER
  2
LAYER245
 70
               0
 62
               7
  6
CONTINUOUS
  0
LAYER
  2
LAYER246
 70
               0
 62
               7
  6
CONTINUOUS
  0
LAYER
  2
LAYER247
 70
               0
 62
               7
  6
CONTINUOUS
  0
LAYER
  2
LAYER248
 70
               0
 62
               7
  6
CONTINUOUS
  0
LAYER
  2
LAYER249
 70
               0
 62
               7
  6
CONTINUOUS
  0
LAYER
  2
LAYER250
 70
               0
 62
               7
  6
CONTINUOUS
  0
LAYER
  2
LAYER251
 70
               0
 62
               7
  6
CONTINUOUS
  0
LAYER
  2
LAYER252
 70
               0
 62
               7
  6
CONTINUOUS
  0
LAYER
  2
LAYER253
 70
               0
 62
               7
  6
CONTINUOUS
  0
LAYER
  2
LAYER254
 70
               0
 62
               7
  6
CONTINUOUS
  0
LAYER
  2
LAYER255
 70
               0
 62
               7
  6
CONTINUOUS
  0
ENDTAB
  0
TABLE
  2
STYLE
 70
               1
  0
STYLE
  2
STANDARD
 70
               0
 40
0.0
 41
0.8
 50
0.0
 71
               0
 42
40.0
  3
MS PGothic.ttf
  4

  0
ENDTAB
  0
TABLE
  2
VIEW
 70
               0
  0
VIEW
  2
QQQQ
 70
               0
 40
2172.1763107741745
 10
-162.02900529579708
 20
0.0
 41
1222.4466081540199
 11
0.0
 21
0.0
 31
1.0
 12
100.0
 22
100.0
 32
0.0
 42
50.0
 43
0.0
 44
0.0
 50
0.0
 71
               0
  0
ENDTAB
  0
TABLE
  2
UCS
 70
               0
  0
ENDTAB
  0
TABLE
  2
APPID
 70
               1
  0
APPID
  2
ACAD
 70
               0
  0
ENDTAB
  0
TABLE
  2
DIMSTYLE
 70
               1
  0
DIMSTYLE
  2
STANDARD
 70
               0
  3

  4

  5

  6

  7

 40
1.0
 41
0.18
 42
0.0625
 43
0.38
 44
0.18
 45
0.0
 46
0.0
 47
0.0
 48
0.0
140
0.18
141
0.09
142
0.0
143
25.399999999999999
144
1.0
145
0.0
146
1.0
147
0.09
 71
               0
 72
               0
 73
               1
 74
               1
 75
               0
 76
               0
 77
               0
 78
               0
170
               0
171
               2
172
               0
173
               0
174
               0
175
               0
176
               0
177
               0
178
               0
  0
ENDTAB
  0
ENDSEC
  0
SECTION
  2
BLOCKS
  0
ENDSEC
  0
SECTION
  2
ENTITIES
  0
LINE
  8
0
  6
CONTINUOUS
 62
               3
  5
136
 10
-301.67226690395125
 20
539.38520849510144
 30
0.0
 11
-151.67226690395123
 21
539.38520849510144
 31
0.0
  0
LINE
  8
0
  6
CONTINUOUS
 62
               3
  5
137
 10
-315.17226690395148
 20
529.38520849510144
 30
0.0
 11
-315.17226690395148
 21
522.38520849510178
 31
0.0
  0
LINE
  8
0
  6
CONTINUOUS
 62
               3
  5
138
 10
-315.17226690395148
 20
529.38520849510144
 30
0.0
 11
-301.67226690395125
 21
539.38520849510144
 31
0.0
  0
ARC
  8
0
  6
CONTINUOUS
 62
               3
  5
139
 10
-303.67226690395114
 20
517.80263280014606
 30
0.0
 40
4.9999999999999991
 50
0.0
 51
66.421821521747177
  0
LINE
  8
0
  6
CONTINUOUS
 62
               3
  5
13A
 10
-315.17226690395148
 20
522.38520849510178
 30
0.0
 11
-138.17226690395157
 21
522.38520849510178
 31
0.0
  0
LINE
  8
0
  6
CONTINUOUS
 62
               3
  5
13B
 10
-298.67226690395114
 20
517.80263280014606
 30
0.0
 11
-298.67226690395114
 21
462.98293470124713
 31
0.0
  0
LINE
  8
0
  6
CONTINUOUS
 62
               3
  5
13C
 10
-154.67226690395134
 20
462.98293470124719
 30
0.0
 11
-154.67226690395134
 21
517.80263280014606
 31
0.0
  0
LINE
  8
0
  6
CONTINUOUS
 62
               3
  5
13D
 10
-284.67226690395137
 20
46.385208495101153
 30
0.0
 11
-301.67226690395125
 21
195.38520849510161
 31
0.0
  0
LINE
  8
0
  6
CONTINUOUS
 62
               3
  5
13E
 10
-301.67226690395108
 20
299.75286542651361
 30
0.0
 11
-301.67226690395125
 21
195.38520849510161
 31
0.0
  0
LINE
  8
0
  6
CONTINUOUS
 62
               3
  5
13F
 10
-278.67226690395114
 20
442.92086224795423
 30
0.0
 11
-226.67226690395123
 21
442.92086224795423
 31
0.0
  0
LINE
  8
0
  6
CONTINUOUS
 62
               3
  5
140
 10
-246.67226690395123
 20
522.38520849510178
 30
0.0
 11
-246.67226690395123
 21
539.38520849510144
 31
0.0
  0
LINE
  8
0
  6
CONTINUOUS
 62
               3
  5
141
 10
-206.67226690395123
 20
539.38520849510144
 30
0.0
 11
-206.67226690395123
 21
522.38520849510178
 31
0.0
  0
LINE
  8
0
  6
CONTINUOUS
 62
               3
  5
142
 10
-246.67226690395123
 20
529.38520849510144
 30
0.0
 11
-206.67226690395123
 21
529.38520849510144
 31
0.0
  0
LINE
  8
0
  6
CONTINUOUS
 62
               3
  5
143
 10
-298.95642837795663
 20
539.38520849510144
 30
0.0
 11
-298.95642837795663
 21
522.38520849510178
 31
0.0
  0
LINE
  8
0
  6
CONTINUOUS
 62
               3
  5
144
 10
-312.88276510457649
 20
529.38520849510144
 30
0.0
 11
-312.88276510457649
 21
522.38520849510178
 31
0.0
  0
LINE
  8
0
  6
CONTINUOUS
 62
               3
  5
145
 10
-315.17226690395148
 20
529.38520849510144
 30
0.0
 11
-312.88276510457649
 21
529.38520849510144
 31
0.0
  0
LINE
  8
0
  6
CONTINUOUS
 62
               3
  5
146
 10
-312.88276510457649
 20
529.38520849510144
 30
0.0
 11
-298.95642837795663
 21
539.38520849510144
 31
0.0
  0
LINE
  8
0
  6
CONTINUOUS
 62
               3
  5
147
 10
-138.17226690395157
 20
529.38520849510144
 30
0.0
 11
-138.17226690395157
 21
522.38520849510178
 31
0.0
  0
LINE
  8
0
  6
CONTINUOUS
 62
               3
  5
148
 10
-138.17226690395157
 20
529.38520849510144
 30
0.0
 11
-151.67226690395123
 21
539.38520849510144
 31
0.0
  0
ARC
  8
0
  6
CONTINUOUS
 62
               3
  5
149
 10
-149.67226690395134
 20
517.80263280014606
 30
0.0
 40
4.9999999999999991
 50
113.57817847811468
 51
179.99999999986184
  0
LINE
  8
0
  6
CONTINUOUS
 62
               3
  5
14A
 10
-154.38810542994699
 20
539.38520849510144
 30
0.0
 11
-154.38810542994699
 21
522.38520849510178
 31
0.0
  0
LINE
  8
0
  6
CONTINUOUS
 62
               3
  5
14B
 10
-140.46176870332599
 20
529.38520849510144
 30
0.0
 11
-140.46176870332599
 21
522.38520849510178
 31
0.0
  0
LINE
  8
0
  6
CONTINUOUS
 62
               3
  5
14C
 10
-138.17226690395157
 20
529.38520849510144
 30
0.0
 11
-140.46176870332599
 21
529.38520849510144
 31
0.0
  0
LINE
  8
0
  6
CONTINUOUS
 62
               3
  5
14D
 10
-140.46176870332599
 20
529.38520849510144
 30
0.0
 11
-154.38810542994699
 21
539.38520849510144
 31
0.0
  0
ARC
  8
0
  6
CONTINUOUS
 62
               3
  5
14E
 10
-291.67226690395125
 20
310.88520849510144
 30
0.0
 40
2.4999999999999996
 50
89.999999999930751
 51
269.99999999979326
  0
LINE
  8
0
  6
CONTINUOUS
 62
               3
  5
14F
 10
-301.67226690395125
 20
195.38520849510161
 30
0.0
 11
-273.04037469600814
 21
195.38520849510161
 31
0.0
  0
LINE
  8
0
  6
CONTINUOUS
 62
               3
  5
150
 10
-228.64510018410212
 20
195.38520849510161
 30
0.0
 11
-152.17550177030145
 21
195.38520849510161
 31
0.0
  0
LINE
  8
0
  6
CONTINUOUS
 62
               3
  5
151
 10
-291.67226690395125
 20
313.38520849510144
 30
0.0
 11
-161.67226690395123
 21
313.38520849510144
 31
0.0
  0
LINE
  8
0
  6
CONTINUOUS
 62
               3
  5
152
 10
-291.67226690395125
 20
308.38520849510144
 30
0.0
 11
-161.67226690395123
 21
308.38520849510144
 31
0.0
  0
LINE
  8
0
  6
CONTINUOUS
 62
               3
  5
153
 10
-363.67226690395114
 20
315.88520849510144
 30
0.0
 11
-315.9672629057049
 21
314.21931304687564
 31
0.0
  0
LINE
  8
0
  6
CONTINUOUS
 62
               3
  5
154
 10
-312.60622648328462
 20
312.7578928177129
 30
0.0
 11
-303.13673299801815
 21
303.28839933244626
 31
0.0
  0
ARC
  8
0
  6
CONTINUOUS
 62
               3
  5
155
 10
-316.14176038921738
 20
309.22235891178013
 30
0.0
 40
5.0
 50
44.999999999974342
 51
87.999999999949068
  0
ARC
  8
0
  6
CONTINUOUS
 62
               3
  5
156
 10
-306.67226690395108
 20
299.75286542651361
 30
0.0
 40
5.0
 50
0.0
 51
44.99999999997376
  0
LINE
  8
0
  6
CONTINUOUS
 62
               3
  5
157
 10
-366.67226690395125
 20
318.21365236913732
 30
0.0
 11
-365.98445441074585
 21
318.21365236913732
 31
0.0
  0
LINE
  8
0
  6
CONTINUOUS
 62
               3
  5
158
 10
-363.65601053670997
 20
315.88520849510144
 30
0.0
 11
-365.98445441074585
 21
318.21365236913732
 31
0.0
  0
LINE
  8
0
  6
CONTINUOUS
 62
               3
  5
159
 10
-366.67226690395125
 20
315.88520849510155
 30
0.0
 11
-369.17226690395125
 21
315.88520849510155
 31
0.0
  0
ARC
  8
0
  6
CONTINUOUS
 62
               3
  5
15A
 10
-369.17226690395125
 20
318.38520849510155
 30
0.0
 40
2.5
 50
179.99999999989603
 51
269.99999999984499
  0
LINE
  8
0
  6
CONTINUOUS
 62
               3
  5
15B
 10
-363.65601053670997
 20
455.88520849510144
 30
0.0
 11
-363.65601053670997
 21
315.88464081024813
 31
0.0
  0
LINE
  8
0
  6
CONTINUOUS
 62
               3
  5
15C
 10
-366.67226690395125
 20
453.55676462106555
 30
0.0
 11
-365.98445441074585
 21
453.55676462106555
 31
0.0
  0
LINE
  8
0
  6
CONTINUOUS
 62
               3
  5
15D
 10
-363.65601053670997
 20
455.88520849510144
 30
0.0
 11
-365.98445441074585
 21
453.55676462106555
 31
0.0
  0
LINE
  8
0
  6
CONTINUOUS
 62
               3
  5
15E
 10
-366.67226690395125
 20
455.88520849510132
 30
0.0
 11
-369.17226690395125
 21
455.88520849510132
 31
0.0
  0
ARC
  8
0
  6
CONTINUOUS
 62
               3
  5
15F
 10
-369.17226690395125
 20
453.38520849510132
 30
0.0
 40
2.5
 50
89.999999999948997
 51
179.99999999989626
  0
LINE
  8
0
  6
CONTINUOUS
 62
               3
  5
160
 10
-371.67226690395125
 20
453.38520849510132
 30
0.0
 11
-371.67226690395125
 21
318.38520849510155
 31
0.0
  0
LINE
  8
0
  6
CONTINUOUS
 62
               3
  5
161
 10
-366.67226690395125
 20
315.88520849510155
 30
0.0
 11
-366.67226690395125
 21
455.88520849510132
 31
0.0
  0
LINE
  8
0
  6
CONTINUOUS
 62
               3
  5
162
 10
-365.98445441074585
 20
453.55676462106555
 30
0.0
 11
-365.98445441074585
 21
318.21365236913732
 31
0.0
  0
LINE
  8
0
  6
CONTINUOUS
 62
               3
  5
163
 10
-363.65601053670997
 20
455.88520849510144
 30
0.0
 11
-303.4977694204386
 21
457.98598056615162
 31
0.0
  0
ARC
  8
0
  6
CONTINUOUS
 62
               3
  5
164
 10
-303.67226690395114
 20
462.98293470124713
 30
0.0
 40
5.0
 50
271.99999999989535
 51
359.99999999986164
  0
LINE
  8
0
  6
CONTINUOUS
 62
               3
  5
165
 10
-168.67226690395114
 20
35.385208495102404
 30
0.0
 11
-168.67226690395114
 21
46.385208495101153
 31
0.0
  0
LINE
  8
0
  6
CONTINUOUS
 62
               3
  5
166
 10
-284.67226690395137
 20
46.385208495101153
 30
0.0
 11
-284.67226690395137
 21
35.385208495101494
 31
0.0
  0
LINE
  8
0
  6
CONTINUOUS
 62
               3
  5
167
 10
-284.67226690395137
 20
46.385208495101836
 30
0.0
 11
-168.67226690395114
 21
46.385208495101153
 31
0.0
  0
LINE
  8
0
  6
CONTINUOUS
 62
               3
  5
168
 10
-281.67226690395125
 20
-65.614791504898506
 30
0.0
 11
-171.67226690395114
 21
-65.614791504898506
 31
0.0
  0
LINE
  8
0
  6
CONTINUOUS
 62
               3
  5
169
 10
-283.67226690395125
 20
-63.614791504898506
 30
0.0
 11
-283.67226690395125
 21
34.385208495101494
 31
0.0
  0
LINE
  8
0
  6
CONTINUOUS
 62
               3
  5
16A
 10
-283.67226690395125
 20
34.385208495101494
 30
0.0
 11
-284.6722669039508
 21
35.38520849510104
 31
0.0
  0
LINE
  8
0
  6
CONTINUOUS
 62
               3
  5
16B
 10
-169.67226690395114
 20
-63.614791504898506
 30
0.0
 11
-169.67226690395117
 21
34.385208495101494
 31
0.0
  0
LINE
  8
0
  6
CONTINUOUS
 62
               3
  5
16C
 10
-169.67226690395117
 20
34.385208495101494
 30
0.0
 11
-168.67226690395162
 21
35.38520849510104
 31
0.0
  0
LINE
  8
0
  6
CONTINUOUS
 62
               3
  5
16D
 10
-701.67226690395069
 20
539.38520849510155
 30
0.0
 11
-551.67226690395125
 21
539.38520849510155
 31
0.0
  0
LINE
  8
0
  6
CONTINUOUS
 62
               3
  5
16E
 10
-715.17226690395091
 20
529.38520849510155
 30
0.0
 11
-715.17226690395091
 21
522.38520849510178
 31
0.0
  0
LINE
  8
0
  6
CONTINUOUS
 62
               3
  5
16F
 10
-715.17226690395091
 20
529.38520849510155
 30
0.0
 11
-701.67226690395069
 21
539.38520849510155
 31
0.0
  0
ARC
  8
0
  6
CONTINUOUS
 62
               3
  5
170
 10
-703.67226690395057
 20
517.80263280014606
 30
0.0
 40
4.9999999999999991
 50
0.0
 51
66.421821521746878
  0
LINE
  8
0
  6
CONTINUOUS
 62
               3
  5
171
 10
-715.17226690395091
 20
522.38520849510178
 30
0.0
 11
-538.17226690395103
 21
522.38520849510178
 31
0.0
  0
ARC
  8
0
  6
CONTINUOUS
 62
               3
  5
172
 10
-681.67226690395069
 20
432.38520849510149
 30
0.0
 40
19.999999999999996
 50
148.21166938283463
 51
179.9999999998621
  0
LINE
  8
0
  6
CONTINUOUS
 62
               3
  5
173
 10
-698.67226690395057
 20
517.80263280014606
 30
0.0
 11
-698.67226690395057
 21
442.92086224795429
 31
0.0
  0
ARC
  8
0
  6
CONTINUOUS
 62
               3
  5
174
 10
-571.67226690395125
 20
432.38520849510149
 30
0.0
 40
19.999999999999996
 50
0.0
 51
31.788330617027448
  0
LINE
  8
0
  6
CONTINUOUS
 62
               3
  5
175
 10
-554.6722669039508
 20
442.92086224795429
 30
0.0
 11
-554.6722669039508
 21
517.80263280014606
 31
0.0
  0
LINE
  8
0
  6
CONTINUOUS
 62
               3
  5
176
 10
-684.6722669039508
 20
46.38520849510121
 30
0.0
 11
-701.67226690395069
 21
195.38520849510166
 31
0.0
  0
LINE
  8
0
  6
CONTINUOUS
 62
               3
  5
177
 10
-701.67226690395069
 20
308.38520849510149
 30
0.0
 11
-701.67226690395069
 21
195.38520849510166
 31
0.0
  0
LINE
  8
0
  6
CONTINUOUS
 62
               3
  5
178
 10
-646.67226690395069
 20
522.38520849510178
 30
0.0
 11
-646.67226690395069
 21
539.38520849510155
 31
0.0
  0
LINE
  8
0
  6
CONTINUOUS
 62
               3
  5
179
 10
-606.67226690395125
 20
539.38520849510155
 30
0.0
 11
-606.67226690395125
 21
522.38520849510178
 31
0.0
  0
LINE
  8
0
  6
CONTINUOUS
 62
               3
  5
17A
 10
-646.67226690395069
 20
529.38520849510155
 30
0.0
 11
-606.67226690395125
 21
529.38520849510155
 31
0.0
  0
LINE
  8
0
  6
CONTINUOUS
 62
               3
  5
17B
 10
-698.95642837795492
 20
539.38520849510155
 30
0.0
 11
-698.95642837795492
 21
522.38520849510178
 31
0.0
  0
LINE
  8
0
  6
CONTINUOUS
 62
               3
  5
17C
 10
-712.88276510457592
 20
529.38520849510155
 30
0.0
 11
-712.88276510457592
 21
522.38520849510178
 31
0.0
  0
LINE
  8
0
  6
CONTINUOUS
 62
               3
  5
17D
 10
-715.17226690395091
 20
529.38520849510155
 30
0.0
 11
-712.88276510457592
 21
529.38520849510155
 31
0.0
  0
LINE
  8
0
  6
CONTINUOUS
 62
               3
  5
17E
 10
-712.88276510457592
 20
529.38520849510155
 30
0.0
 11
-698.95642837795492
 21
539.38520849510155
 31
0.0
  0
LINE
  8
0
  6
CONTINUOUS
 62
               3
  5
17F
 10
-538.17226690395103
 20
529.38520849510155
 30
0.0
 11
-538.17226690395103
 21
522.38520849510178
 31
0.0
  0
LINE
  8
0
  6
CONTINUOUS
 62
               3
  5
180
 10
-538.17226690395103
 20
529.38520849510155
 30
0.0
 11
-551.67226690395125
 21
539.38520849510155
 31
0.0
  0
ARC
  8
0
  6
CONTINUOUS
 62
               3
  5
181
 10
-549.6722669039508
 20
517.80263280014606
 30
0.0
 40
4.9999999999999991
 50
113.57817847811482
 51
179.99999999986184
  0
LINE
  8
0
  6
CONTINUOUS
 62
               3
  5
182
 10
-554.38810542994588
 20
539.38520849510155
 30
0.0
 11
-554.38810542994588
 21
522.38520849510178
 31
0.0
  0
LINE
  8
0
  6
CONTINUOUS
 62
               3
  5
183
 10
-540.46176870332545
 20
529.38520849510155
 30
0.0
 11
-540.46176870332545
 21
522.38520849510178
 31
0.0
  0
LINE
  8
0
  6
CONTINUOUS
 62
               3
  5
184
 10
-538.17226690395103
 20
529.38520849510155
 30
0.0
 11
-540.46176870332545
 21
529.38520849510155
 31
0.0
  0
LINE
  8
0
  6
CONTINUOUS
 62
               3
  5
185
 10
-540.46176870332545
 20
529.38520849510155
 30
0.0
 11
-554.38810542994588
 21
539.38520849510155
 31
0.0
  0
ARC
  8
0
  6
CONTINUOUS
 62
               3
  5
186
 10
-701.67226690395069
 20
310.88520849510149
 30
0.0
 40
2.4999999999999996
 50
89.999999999930751
 51
269.99999999979229
  0
LINE
  8
0
  6
CONTINUOUS
 62
               3
  5
187
 10
-701.67226690395069
 20
432.38520849510149
 30
0.0
 11
-701.67226690395069
 21
313.38520849510149
 31
0.0
  0
LINE
  8
0
  6
CONTINUOUS
 62
               3
  5
188
 10
-701.67226690395069
 20
195.38520849510166
 30
0.0
 11
-567.72326690395062
 21
195.38520849510195
 31
0.0
  0
LINE
  8
0
  6
CONTINUOUS
 62
               3
  5
189
 10
-554.91590036041146
 20
195.38520849510195
 30
0.0
 11
-551.67226690395125
 21
195.38520849510195
 31
0.0
  0
ARC
  8
0
  6
CONTINUOUS
 62
               3
  5
18A
 10
-649.17226690395069
 20
310.88520849510149
 30
0.0
 40
2.4999999999999996
 50
269.99999999979229
 51
449.99999999965507
  0
ARC
  8
0
  6
CONTINUOUS
 62
               3
  5
18B
 10
-604.17226690395069
 20
310.88520849510149
 30
0.0
 40
2.4999999999999996
 50
89.999999999930751
 51
269.99999999979229
  0
LINE
  8
0
  6
CONTINUOUS
 62
               3
  5
18C
 10
-701.67226690395069
 20
308.38520849510149
 30
0.0
 11
-649.17226690395069
 21
308.38520849510149
 31
0.0
  0
LINE
  8
0
  6
CONTINUOUS
 62
               3
  5
18D
 10
-604.17226690395069
 20
308.38520849510149
 30
0.0
 11
-551.67226690395182
 21
308.38520849510149
 31
0.0
  0
LINE
  8
0
  6
CONTINUOUS
 62
               3
  5
18E
 10
-701.67226690395069
 20
313.38520849510149
 30
0.0
 11
-649.17226690395069
 21
313.38520849510149
 31
0.0
  0
LINE
  8
0
  6
CONTINUOUS
 62
               3
  5
18F
 10
-604.17226690395069
 20
313.38520849510149
 30
0.0
 11
-551.67226690395182
 21
313.38520849510149
 31
0.0
  0
ARC
  8
0
  6
CONTINUOUS
 62
               3
  5
190
 10
-551.67226690395182
 20
310.88520849510149
 30
0.0
 40
2.4999999999999996
 50
269.99999999979229
 51
449.99999999965507
  0
LINE
  8
0
  6
CONTINUOUS
 62
               3
  5
191
 10
-551.67226690395125
 20
195.38520849510166
 30
0.0
 11
-551.67226690395182
 21
308.38520849510149
 31
0.0
  0
LINE
  8
0
  6
CONTINUOUS
 62
               3
  5
192
 10
-551.67226690395182
 20
313.38520849510149
 30
0.0
 11
-551.67226690395125
 21
432.38520849510149
 31
0.0
  0
LINE
  8
0
  6
CONTINUOUS
 62
               3
  5
193
 10
-568.67226690395057
 20
46.38520849510121
 30
0.0
 11
-556.12417592325005
 21
156.36553532595121
 31
0.0
  0
LINE
  8
0
  6
CONTINUOUS
 62
               3
  5
194
 10
-554.07212395018962
 20
174.35116732512904
 30
0.0
 11
-551.67226690395125
 21
195.38520849510195
 31
0.0
  0
CIRCLE
  8
0
  6
CONTINUOUS
 62
               3
  5
195
 10
-626.67226690395125
 20
385.88520849510155
 30
0.0
 40
55.499999999999865
  0
CIRCLE
  8
0
  6
CONTINUOUS
 62
               3
  5
196
 10
-626.67226690395125
 20
385.88520849510155
 30
0.0
 40
51.249999999999865
  0
ARC
  8
0
  6
CONTINUOUS
 62
               3
  5
197
 10
-626.67226690395125
 20
385.88520849510155
 30
0.0
 40
57.499999999999865
 50
224.99999999987045
 51
314.99999999981867
  0
LINE
  8
0
  6
CONTINUOUS
 62
               3
  5
198
 10
-667.33090682217767
 20
345.22656857687514
 30
0.0
 11
-668.95725241890682
 21
343.6002229801461
 31
0.0
  0
LINE
  8
0
  6
CONTINUOUS
 62
               3
  5
199
 10
-586.01362698572484
 20
345.22656857687514
 30
0.0
 11
-584.3872813889958
 21
343.6002229801461
 31
0.0
  0
CIRCLE
  8
0
  6
CONTINUOUS
 62
               3
  5
19A
 10
-626.67226690395125
 20
385.88520849510155
 30
0.0
 40
60.999999999999879
  0
CIRCLE
  8
0
  6
CONTINUOUS
 62
               3
  5
19B
 10
-626.67226690395125
 20
385.88520849510155
 30
0.0
 40
59.799999999999862
  0
LINE
  8
0
  6
CONTINUOUS
 62
               3
  5
19C
 10
-698.67226690395057
 20
442.92086224795429
 30
0.0
 11
-678.67226690395057
 21
442.92086224795429
 31
0.0
  0
LINE
  8
0
  6
CONTINUOUS
 62
               3
  5
19D
 10
-574.67226690394898
 20
442.92086224795071
 30
0.0
 11
-554.6722669039508
 21
442.92086224795429
 31
0.0
  0
LINE
  8
0
  6
CONTINUOUS
 62
               3
  5
19E
 10
-684.6722669039508
 20
46.38520849510121
 30
0.0
 11
-684.6722669039508
 21
35.385208495101153
 31
0.0
  0
LINE
  8
0
  6
CONTINUOUS
 62
               3
  5
19F
 10
-684.6722669039508
 20
46.385208495101779
 30
0.0
 11
-568.67226690395057
 21
46.38520849510121
 31
0.0
  0
LINE
  8
0
  6
CONTINUOUS
 62
               3
  5
1A0
 10
-681.67226690395125
 20
-65.614791504898392
 30
0.0
 11
-571.67226690395114
 21
-65.614791504898392
 31
0.0
  0
LINE
  8
0
  6
CONTINUOUS
 62
               3
  5
1A1
 10
-683.67226690395125
 20
-63.614791504898392
 30
0.0
 11
-683.67226690395125
 21
34.385208495101608
 31
0.0
  0
LINE
  8
0
  6
CONTINUOUS
 62
               3
  5
1A2
 10
-683.67226690395125
 20
34.385208495101608
 30
0.0
 11
-684.6722669039508
 21
35.385208495101153
 31
0.0
  0
CIRCLE
  8
0
  6
CONTINUOUS
 62
               3
  5
1A3
 10
-626.67226690395125
 20
385.88520849510155
 30
0.0
 40
70.0
  0
LINE
  8
0
  6
CONTINUOUS
 62
               3
  5
1A4
 10
-569.67226690395114
 20
-63.614791504898392
 30
0.0
 11
-569.67226690395114
 21
34.385208495101608
 31
0.0
  0
LINE
  8
0
  6
CONTINUOUS
 62
               3
  5
1A5
 10
-569.67226690395114
 20
34.385208495101608
 30
0.0
 11
-568.67226690395159
 21
35.385208495101153
 31
0.0
  0
LINE
  8
0
  6
CONTINUOUS
 62
               3
  5
1A6
 10
-568.67226690395159
 20
46.38520849510121
 30
0.0
 11
-568.67226690395159
 21
35.385208495101153
 31
0.0
  0
LINE
  8
0
  6
CONTINUOUS
 62
               3
  5
1A7
 10
248.32773309604875
 20
539.38520849510155
 30
0.0
 11
98.327733096048746
 21
539.38520849510155
 31
0.0
  0
LINE
  8
0
  6
CONTINUOUS
 62
               3
  5
1A8
 10
261.82773309604897
 20
529.38520849510155
 30
0.0
 11
261.82773309604897
 21
522.38520849510178
 31
0.0
  0
LINE
  8
0
  6
CONTINUOUS
 62
               3
  5
1A9
 10
261.82773309604897
 20
529.38520849510155
 30
0.0
 11
248.32773309604875
 21
539.38520849510155
 31
0.0
  0
ARC
  8
0
  6
CONTINUOUS
 62
               3
  5
1AA
 10
250.32773309604863
 20
517.80263280014606
 30
0.0
 40
4.9999999999999991
 50
113.57817847811482
 51
179.99999999986184
  0
LINE
  8
0
  6
CONTINUOUS
 62
               3
  5
1AB
 10
261.82773309604897
 20
522.38520849510178
 30
0.0
 11
84.827733096048519
 21
522.38520849510178
 31
0.0
  0
LINE
  8
0
  6
CONTINUOUS
 62
               3
  5
1AC
 10
245.32773309604863
 20
517.80263280014606
 30
0.0
 11
245.32773309604863
 21
442.92086224795423
 31
0.0
  0
ARC
  8
0
  6
CONTINUOUS
 62
               3
  5
1AD
 10
118.32773309604875
 20
432.38520849510144
 30
0.0
 40
19.999999999999996
 50
148.21166938283463
 51
179.9999999998621
  0
LINE
  8
0
  6
CONTINUOUS
 62
               3
  5
1AE
 10
101.32773309604886
 20
442.92086224795423
 30
0.0
 11
101.32773309604886
 21
517.80263280014606
 31
0.0
  0
LINE
  8
0
  6
CONTINUOUS
 62
               3
  5
1AF
 10
231.32773309604886
 20
46.385208495101267
 30
0.0
 11
248.32773309604875
 21
195.38520849510161
 31
0.0
  0
LINE
  8
0
  6
CONTINUOUS
 62
               3
  5
1B0
 10
115.32773309604863
 20
46.385208495101267
 30
0.0
 11
98.327733096048746
 21
195.38520849510161
 31
0.0
  0
LINE
  8
0
  6
CONTINUOUS
 62
               3
  5
1B1
 10
248.32773309604875
 20
308.38520849510149
 30
0.0
 11
248.32773309604875
 21
195.38520849510161
 31
0.0
  0
LINE
  8
0
  6
CONTINUOUS
 62
               3
  5
1B2
 10
193.32773309604875
 20
522.38520849510178
 30
0.0
 11
193.32773309604875
 21
539.38520849510155
 31
0.0
  0
LINE
  8
0
  6
CONTINUOUS
 62
               3
  5
1B3
 10
153.32773309604875
 20
539.38520849510155
 30
0.0
 11
153.32773309604875
 21
522.38520849510178
 31
0.0
  0
LINE
  8
0
  6
CONTINUOUS
 62
               3
  5
1B4
 10
193.32773309604875
 20
529.38520849510155
 30
0.0
 11
153.32773309604875
 21
529.38520849510155
 31
0.0
  0
LINE
  8
0
  6
CONTINUOUS
 62
               3
  5
1B5
 10
245.61189457005355
 20
539.38520849510155
 30
0.0
 11
245.61189457005355
 21
522.38520849510178
 31
0.0
  0
LINE
  8
0
  6
CONTINUOUS
 62
               3
  5
1B6
 10
259.53823129667398
 20
529.38520849510155
 30
0.0
 11
259.53823129667398
 21
522.38520849510178
 31
0.0
  0
LINE
  8
0
  6
CONTINUOUS
 62
               3
  5
1B7
 10
261.82773309604897
 20
529.38520849510155
 30
0.0
 11
259.53823129667398
 21
529.38520849510155
 31
0.0
  0
LINE
  8
0
  6
CONTINUOUS
 62
               3
  5
1B8
 10
259.53823129667398
 20
529.38520849510155
 30
0.0
 11
245.61189457005355
 21
539.38520849510155
 31
0.0
  0
LINE
  8
0
  6
CONTINUOUS
 62
               3
  5
1B9
 10
84.827733096048519
 20
529.38520849510155
 30
0.0
 11
84.827733096048519
 21
522.38520849510178
 31
0.0
  0
LINE
  8
0
  6
CONTINUOUS
 62
               3
  5
1BA
 10
84.827733096048519
 20
529.38520849510155
 30
0.0
 11
98.327733096048746
 21
539.38520849510155
 31
0.0
  0
ARC
  8
0
  6
CONTINUOUS
 62
               3
  5
1BB
 10
96.32773309604886
 20
517.80263280014606
 30
0.0
 40
4.9999999999999991
 50
0.0
 51
66.421821521746878
  0
LINE
  8
0
  6
CONTINUOUS
 62
               3
  5
1BC
 10
101.04357162204394
 20
539.38520849510155
 30
0.0
 11
101.04357162204394
 21
522.38520849510178
 31
0.0
  0
LINE
  8
0
  6
CONTINUOUS
 62
               3
  5
1BD
 10
87.117234895423508
 20
529.38520849510155
 30
0.0
 11
87.117234895423508
 21
522.38520849510178
 31
0.0
  0
LINE
  8
0
  6
CONTINUOUS
 62
               3
  5
1BE
 10
84.827733096048519
 20
529.38520849510155
 30
0.0
 11
87.117234895423508
 21
529.38520849510155
 31
0.0
  0
LINE
  8
0
  6
CONTINUOUS
 62
               3
  5
1BF
 10
87.117234895423508
 20
529.38520849510155
 30
0.0
 11
101.04357162204394
 21
539.38520849510155
 31
0.0
  0
LINE
  8
0
  6
CONTINUOUS
 62
               3
  5
1C0
 10
248.32773309604875
 20
195.38520849510161
 30
0.0
 11
181.54473309604839
 21
195.38520849510161
 31
0.0
  0
LINE
  8
0
  6
CONTINUOUS
 62
               3
  5
1C1
 10
165.11073309604853
 20
195.38520849510161
 30
0.0
 11
98.327733096048746
 21
195.38520849510161
 31
0.0
  0
LINE
  8
0
  6
CONTINUOUS
 62
               3
  5
1C2
 10
98.327733096048746
 20
195.38520849510161
 30
0.0
 11
98.327733096048746
 21
308.38520849510149
 31
0.0
  0
LINE
  8
0
  6
CONTINUOUS
 62
               3
  5
1C3
 10
98.327733096048746
 20
313.38520849510149
 30
0.0
 11
98.327733096048746
 21
432.38520849510144
 31
0.0
  0
LINE
  8
0
  6
CONTINUOUS
 62
               3
  5
1C4
 10
115.32773309604841
 20
35.385208495101153
 30
0.0
 11
115.32773309604863
 21
46.385208495101267
 31
0.0
  0
LINE
  8
0
  6
CONTINUOUS
 62
               3
  5
1C5
 10
231.32773309604886
 20
46.385208495101267
 30
0.0
 11
231.3277330960492
 21
35.385208495101608
 31
0.0
  0
LINE
  8
0
  6
CONTINUOUS
 62
               3
  5
1C6
 10
231.32773309604886
 20
46.385208495101836
 30
0.0
 11
115.32773309604863
 21
46.385208495101267
 31
0.0
  0
LINE
  8
0
  6
CONTINUOUS
 62
               3
  5
1C7
 10
118.32773309604875
 20
-65.614791504898392
 30
0.0
 11
228.32773309604886
 21
-65.614791504898392
 31
0.0
  0
LINE
  8
0
  6
CONTINUOUS
 62
               3
  5
1C8
 10
116.32773309604875
 20
-63.614791504898392
 30
0.0
 11
116.32773309604875
 21
34.385208495101608
 31
0.0
  0
LINE
  8
0
  6
CONTINUOUS
 62
               3
  5
1C9
 10
116.32773309604875
 20
34.385208495101608
 30
0.0
 11
115.3277330960492
 21
35.385208495101153
 31
0.0
  0
LINE
  8
0
  6
CONTINUOUS
 62
               3
  5
1CA
 10
230.32773309604886
 20
-63.614791504898392
 30
0.0
 11
230.32773309604886
 21
34.385208495101608
 31
0.0
  0
LINE
  8
0
  6
CONTINUOUS
 62
               3
  5
1CB
 10
230.32773309604886
 20
34.385208495101608
 30
0.0
 11
231.32773309604841
 21
35.385208495101153
 31
0.0
  0
CIRCLE
  8
0
  6
CONTINUOUS
 62
               3
  5
1CC
 10
-226.67226690395123
 20
874.38520849510155
 30
0.0
 40
75.0
  0
CIRCLE
  8
0
  6
CONTINUOUS
 62
               3
  5
1CD
 10
-226.67226690395123
 20
874.38520849510155
 30
0.0
 40
52.5
  0
LINE
  8
0
  6
CONTINUOUS
 62
               3
  5
1CE
 10
-312.88276510457649
 20
894.38520849510155
 30
0.0
 11
-298.95642837795663
 21
894.38520849510155
 31
0.0
  0
LINE
  8
0
  6
CONTINUOUS
 62
               3
  5
1CF
 10
-298.95642837795663
 20
854.38520849510155
 30
0.0
 11
-312.88276510457649
 21
854.38520849510155
 31
0.0
  0
ARC
  8
0
  6
CONTINUOUS
 62
               3
  5
1D0
 10
-226.67226690395123
 20
874.38520849510155
 30
0.0
 40
88.5
 50
166.9389758850715
 51
193.06102411465255
  0
LINE
  8
0
  6
CONTINUOUS
 62
               3
  5
1D1
 10
-246.67226690395123
 20
788.17471029447665
 30
0.0
 11
-246.67226690395123
 21
802.10104702109652
 31
0.0
  0
LINE
  8
0
  6
CONTINUOUS
 62
               3
  5
1D2
 10
-206.67226690395123
 20
802.10104702109652
 30
0.0
 11
-206.67226690395123
 21
788.17471029447665
 31
0.0
  0
ARC
  8
0
  6
CONTINUOUS
 62
               3
  5
1D3
 10
-226.67226690395123
 20
874.38520849510155
 30
0.0
 40
88.5
 50
256.93897588500266
 51
283.06102411458357
  0
LINE
  8
0
  6
CONTINUOUS
 62
               3
  5
1D4
 10
-140.46176870332658
 20
854.38520849510155
 30
0.0
 11
-154.38810542994699
 21
854.38520849510155
 31
0.0
  0
LINE
  8
0
  6
CONTINUOUS
 62
               3
  5
1D5
 10
-154.38810542994699
 20
894.38520849510155
 30
0.0
 11
-140.46176870332658
 21
894.38520849510155
 31
0.0
  0
ARC
  8
0
  6
CONTINUOUS
 62
               3
  5
1D6
 10
-226.67226690395123
 20
874.38520849510155
 30
0.0
 40
88.5
 50
346.93897588493354
 51
373.06102411451457
  0
LINE
  8
0
  6
CONTINUOUS
 62
               3
  5
1D7
 10
-206.67226690395123
 20
960.59570669572713
 30
0.0
 11
-206.67226690395123
 21
946.66936996910658
 31
0.0
  0
LINE
  8
0
  6
CONTINUOUS
 62
               3
  5
1D8
 10
-246.67226690395123
 20
946.66936996910658
 30
0.0
 11
-246.67226690395123
 21
960.59570669572713
 31
0.0
  0
ARC
  8
0
  6
CONTINUOUS
 62
               3
  5
1D9
 10
-226.67226690395123
 20
874.38520849510155
 30
0.0
 40
88.5
 50
76.938975885140508
 51
103.06102411472156
  0
LINE
  8
0
  6
CONTINUOUS
 62
               3
  5
1DA
 10
-274.34039042481231
 20
852.3852084951011
 30
0.0
 11
-179.0041433830913
 21
852.3852084951011
 31
0.0
  0
ARC
  8
0
  6
CONTINUOUS
 62
               3
  5
1DB
 10
-214.1686552545701
 20
883.09160612272058
 30
0.0
 40
54.763804151667173
 50
141.38591763672954
 51
145.1500954208426
  0
ARC
  8
0
  6
CONTINUOUS
 62
               3
  5
1DC
 10
-226.67226690395123
 20
874.38520849510155
 30
0.0
 40
51.5
 50
334.71098847320116
 51
410.95932736332549
  0
ARC
  8
0
  6
CONTINUOUS
 62
               3
  5
1DD
 10
-226.67226690395123
 20
874.38520849510155
 30
0.0
 40
51.5
 50
129.04067263626098
 51
205.28901152638485
  0
LINE
  8
0
  6
CONTINUOUS
 62
               3
  5
1DE
 10
-259.11067007056886
 20
914.38520849510132
 30
0.0
 11
-226.67226690395123
 21
914.38520849510132
 31
0.0
  0
LINE
  8
0
  6
CONTINUOUS
 62
               3
  5
1DF
 10
-226.67226690395123
 20
914.38520849510132
 30
0.0
 11
-192.66859063211254
 21
914.38520849510132
 31
0.0
  0
LINE
  8
0
  6
CONTINUOUS
 62
               3
  5
1E0
 10
-363.65601053670997
 20
944.3852084951011
 30
0.0
 11
-363.65601053670997
 21
804.38464081024813
 31
0.0
  0
LINE
  8
0
  6
CONTINUOUS
 62
               3
  5
1E1
 10
-366.67226690395125
 20
942.05676462106521
 30
0.0
 11
-365.98445441074585
 21
942.05676462106521
 31
0.0
  0
LINE
  8
0
  6
CONTINUOUS
 62
               3
  5
1E2
 10
-363.65601053670997
 20
944.3852084951011
 30
0.0
 11
-365.98445441074585
 21
942.05676462106521
 31
0.0
  0
LINE
  8
0
  6
CONTINUOUS
 62
               3
  5
1E3
 10
-366.67226690395125
 20
944.3852084951011
 30
0.0
 11
-369.17226690395125
 21
944.3852084951011
 31
0.0
  0
ARC
  8
0
  6
CONTINUOUS
 62
               3
  5
1E4
 10
-369.17226690395125
 20
941.8852084951011
 30
0.0
 40
2.5
 50
89.999999999948997
 51
179.99999999989669
  0
LINE
  8
0
  6
CONTINUOUS
 62
               3
  5
1E5
 10
-366.67226690395125
 20
806.71365236913698
 30
0.0
 11
-365.98445441074585
 21
806.71365236913698
 31
0.0
  0
LINE
  8
0
  6
CONTINUOUS
 62
               3
  5
1E6
 10
-363.65601053670997
 20
804.3852084951011
 30
0.0
 11
-365.98445441074585
 21
806.71365236913698
 31
0.0
  0
LINE
  8
0
  6
CONTINUOUS
 62
               3
  5
1E7
 10
-366.67226690395125
 20
804.38520849510155
 30
0.0
 11
-369.17226690395125
 21
804.38520849510155
 31
0.0
  0
ARC
  8
0
  6
CONTINUOUS
 62
               3
  5
1E8
 10
-369.17226690395125
 20
806.88520849510155
 30
0.0
 40
2.5
 50
179.99999999989669
 51
269.99999999984499
  0
LINE
  8
0
  6
CONTINUOUS
 62
               3
  5
1E9
 10
-371.67226690395125
 20
941.8852084951011
 30
0.0
 11
-371.67226690395125
 21
806.88520849510155
 31
0.0
  0
LINE
  8
0
  6
CONTINUOUS
 62
               3
  5
1EA
 10
-366.67226690395125
 20
804.38520849510155
 30
0.0
 11
-366.67226690395125
 21
944.3852084951011
 31
0.0
  0
LINE
  8
0
  6
CONTINUOUS
 62
               3
  5
1EB
 10
-365.98445441074585
 20
942.05676462106521
 30
0.0
 11
-365.98445441074585
 21
806.71365236913698
 31
0.0
  0
LINE
  8
0
  6
CONTINUOUS
 62
               3
  5
1EC
 10
-363.67226690395114
 20
804.3852084951011
 30
0.0
 11
-246.67226690395123
 21
800.29947846456525
 31
0.0
  0
LINE
  8
0
  6
CONTINUOUS
 62
               3
  5
1ED
 10
-363.65601053670997
 20
944.3852084951011
 30
0.0
 11
-246.67226690395123
 21
948.47037084078238
 31
0.0
  0
LINE
  8
0
  6
CONTINUOUS
 62
               3
  5
1EE
 10
-281.67226690395125
 20
-65.614791504898506
 30
0.0
 11
-283.67226690395125
 21
-63.614791504898506
 31
0.0
  0
LINE
  8
0
  6
CONTINUOUS
 62
               3
  5
1EF
 10
-171.67226690395114
 20
-65.614791504898506
 30
0.0
 11
-169.67226690395114
 21
-63.614791504898506
 31
0.0
  0
LINE
  8
0
  6
CONTINUOUS
 62
               3
  5
1F0
 10
118.32773309604875
 20
-65.614791504898392
 30
0.0
 11
116.32773309604875
 21
-63.614791504898392
 31
0.0
  0
LINE
  8
0
  6
CONTINUOUS
 62
               3
  5
1F1
 10
228.32773309604886
 20
-65.614791504898392
 30
0.0
 11
230.32773309604886
 21
-63.614791504898392
 31
0.0
  0
LINE
  8
0
  6
CONTINUOUS
 62
               3
  5
1F2
 10
-681.67226690395125
 20
-65.614791504898392
 30
0.0
 11
-683.67226690395125
 21
-63.614791504898392
 31
0.0
  0
LINE
  8
0
  6
CONTINUOUS
 62
               3
  5
1F3
 10
-571.67226690395114
 20
-65.614791504898392
 30
0.0
 11
-569.67226690395114
 21
-63.614791504898392
 31
0.0
  0
LINE
  8
0
  6
CONTINUOUS
 62
               3
  5
1F4
 10
-658.71228090637089
 20
425.88520849510155
 30
0.0
 11
-594.63225281648988
 21
425.88520849510155
 31
0.0
  0
CIRCLE
  8
0
  6
CONTINUOUS
 62
               3
  5
1F5
 10
-226.67226690395123
 20
874.38520849510155
 30
0.0
 40
59.0
  0
ARC
  8
0
  6
CONTINUOUS
 62
               3
  5
1F6
 10
-161.6722669039512
 20
310.88520849510144
 30
0.0
 40
2.4999999999999996
 50
269.99999999999909
 51
449.99999999986153
  0
LINE
  8
0
  6
CONTINUOUS
 62
               3
  5
1F7
 10
-89.672266903951311
 20
315.88520849510149
 30
0.0
 11
-137.37727090219755
 21
314.21931304687564
 31
0.0
  0
LINE
  8
0
  6
CONTINUOUS
 62
               3
  5
1F8
 10
-140.73830732461784
 20
312.7578928177129
 30
0.0
 11
-150.20780080988425
 21
303.28839933244626
 31
0.0
  0
ARC
  8
0
  6
CONTINUOUS
 62
               3
  5
1F9
 10
-137.20277341868507
 20
309.22235891178013
 30
0.0
 40
5.0
 50
91.999999999981782
 51
134.99999999995674
  0
ARC
  8
0
  6
CONTINUOUS
 62
               3
  5
1FA
 10
-146.67226690395137
 20
299.75286542651361
 30
0.0
 40
5.0
 50
134.9999999999572
 51
179.99999999993057
  0
LINE
  8
0
  6
CONTINUOUS
 62
               3
  5
1FB
 10
-86.672266903951197
 20
318.21365236913738
 30
0.0
 11
-87.360079397156568
 21
318.21365236913738
 31
0.0
  0
LINE
  8
0
  6
CONTINUOUS
 62
               3
  5
1FC
 10
-89.688523271192452
 20
315.88520849510149
 30
0.0
 11
-87.360079397156568
 21
318.21365236913738
 31
0.0
  0
LINE
  8
0
  6
CONTINUOUS
 62
               3
  5
1FD
 10
-86.672266903951197
 20
315.88520849510161
 30
0.0
 11
-84.172266903951197
 21
315.88520849510161
 31
0.0
  0
ARC
  8
0
  6
CONTINUOUS
 62
               3
  5
1FE
 10
-84.172266903951197
 20
318.38520849510161
 30
0.0
 40
2.5
 50
269.99999999994793
 51
359.99999999989592
  0
LINE
  8
0
  6
CONTINUOUS
 62
               3
  5
1FF
 10
-89.68852327119248
 20
455.88520849510149
 30
0.0
 11
-89.688523271192452
 21
315.88464081024819
 31
0.0
  0
LINE
  8
0
  6
CONTINUOUS
 62
               3
  5
200
 10
-86.672266903951225
 20
453.55676462106561
 30
0.0
 11
-87.360079397156596
 21
453.55676462106561
 31
0.0
  0
LINE
  8
0
  6
CONTINUOUS
 62
               3
  5
201
 10
-89.68852327119248
 20
455.88520849510149
 30
0.0
 11
-87.360079397156596
 21
453.55676462106561
 31
0.0
  0
LINE
  8
0
  6
CONTINUOUS
 62
               3
  5
202
 10
-86.672266903951225
 20
455.88520849510138
 30
0.0
 11
-84.172266903951225
 21
455.88520849510138
 31
0.0
  0
ARC
  8
0
  6
CONTINUOUS
 62
               3
  5
203
 10
-84.172266903951225
 20
453.38520849510138
 30
0.0
 40
2.5
 50
0.000000000034523
 51
89.999999999982862
  0
LINE
  8
0
  6
CONTINUOUS
 62
               3
  5
204
 10
-81.672266903951225
 20
453.38520849510138
 30
0.0
 11
-81.672266903951197
 21
318.38520849510161
 31
0.0
  0
LINE
  8
0
  6
CONTINUOUS
 62
               3
  5
205
 10
-86.672266903951197
 20
315.88520849510161
 30
0.0
 11
-86.672266903951225
 21
455.88520849510138
 31
0.0
  0
LINE
  8
0
  6
CONTINUOUS
 62
               3
  5
206
 10
-87.360079397156596
 20
453.55676462106561
 30
0.0
 11
-87.360079397156568
 21
318.21365236913738
 31
0.0
  0
LINE
  8
0
  6
CONTINUOUS
 62
               3
  5
207
 10
-89.68852327119248
 20
455.88520849510149
 30
0.0
 11
-149.84676438746385
 21
457.98598056615168
 31
0.0
  0
ARC
  8
0
  6
CONTINUOUS
 62
               3
  5
208
 10
-149.67226690395134
 20
462.98293470124719
 30
0.0
 40
5.0
 50
179.99999999993079
 51
267.99999999989711
  0
LINE
  8
0
  6
CONTINUOUS
 62
               3
  5
209
 10
-151.67226690395137
 20
299.75286542651361
 30
0.0
 11
-151.6722669039512
 21
195.38520849510161
 31
0.0
  0
LINE
  8
0
  6
CONTINUOUS
 62
               3
  5
20A
 10
-168.67226690395105
 20
46.385208495101153
 30
0.0
 11
-151.6722669039512
 21
195.38520849510161
 31
0.0
  0
LINE
  8
0
  6
CONTINUOUS
 62
               3
  5
20B
 10
-151.6722669039512
 20
195.38520849510161
 30
0.0
 11
-180.30415911189431
 21
195.38520849510161
 31
0.0
  0
LINE
  8
0
  6
CONTINUOUS
 62
               3
  5
20C
 10
-174.67226690395131
 20
442.92086224795429
 30
0.0
 11
-226.67226690395123
 21
442.92086224795423
 31
0.0
  0
LINE
  8
0
  6
CONTINUOUS
 62
               3
  5
20D
 10
-89.672266903951339
 20
804.3852084951011
 30
0.0
 11
-206.67226690395123
 21
800.29947846456525
 31
0.0
  0
LINE
  8
0
  6
CONTINUOUS
 62
               3
  5
20E
 10
-89.688523271192508
 20
944.3852084951011
 30
0.0
 11
-206.67226690395123
 21
948.47037084078238
 31
0.0
  0
LINE
  8
0
  6
CONTINUOUS
 62
               3
  5
20F
 10
-89.688523271192508
 20
944.3852084951011
 30
0.0
 11
-89.688523271192508
 21
804.38464081024813
 31
0.0
  0
LINE
  8
0
  6
CONTINUOUS
 62
               3
  5
210
 10
-86.672266903951225
 20
942.05676462106521
 30
0.0
 11
-87.360079397156625
 21
942.05676462106521
 31
0.0
  0
LINE
  8
0
  6
CONTINUOUS
 62
               3
  5
211
 10
-89.688523271192508
 20
944.3852084951011
 30
0.0
 11
-87.360079397156625
 21
942.05676462106521
 31
0.0
  0
LINE
  8
0
  6
CONTINUOUS
 62
               3
  5
212
 10
-86.672266903951225
 20
944.3852084951011
 30
0.0
 11
-84.172266903951225
 21
944.3852084951011
 31
0.0
  0
ARC
  8
0
  6
CONTINUOUS
 62
               3
  5
213
 10
-84.172266903951225
 20
941.8852084951011
 30
0.0
 40
2.5
 50
0.0000000000351744
 51
89.999999999982862
  0
LINE
  8
0
  6
CONTINUOUS
 62
               3
  5
214
 10
-86.672266903951225
 20
806.71365236913698
 30
0.0
 11
-87.360079397156625
 21
806.71365236913698
 31
0.0
  0
LINE
  8
0
  6
CONTINUOUS
 62
               3
  5
215
 10
-89.688523271192508
 20
804.3852084951011
 30
0.0
 11
-87.360079397156625
 21
806.71365236913698
 31
0.0
  0
LINE
  8
0
  6
CONTINUOUS
 62
               3
  5
216
 10
-86.672266903951225
 20
804.38520849510155
 30
0.0
 11
-84.172266903951225
 21
804.38520849510155
 31
0.0
  0
ARC
  8
0
  6
CONTINUOUS
 62
               3
  5
217
 10
-84.172266903951225
 20
806.88520849510155
 30
0.0
 40
2.5
 50
269.99999999994793
 51
359.99999999989632
  0
LINE
  8
0
  6
CONTINUOUS
 62
               3
  5
218
 10
-81.672266903951225
 20
941.8852084951011
 30
0.0
 11
-81.672266903951225
 21
806.88520849510155
 31
0.0
  0
LINE
  8
0
  6
CONTINUOUS
 62
               3
  5
219
 10
-86.672266903951225
 20
804.38520849510155
 30
0.0
 11
-86.672266903951225
 21
944.3852084951011
 31
0.0
  0
LINE
  8
0
  6
CONTINUOUS
 62
               3
  5
21A
 10
-87.360079397156625
 20
942.05676462106521
 30
0.0
 11
-87.360079397156625
 21
806.71365236913698
 31
0.0
  0
ARC
  8
0
  6
CONTINUOUS
 62
               3
  5
21B
 10
228.32773309604875
 20
432.38520849510149
 30
0.0
 40
19.999999999999996
 50
0.0
 51
31.788330617027448
  0
ARC
  8
0
  6
CONTINUOUS
 62
               3
  5
21C
 10
98.327733096049315
 20
310.88520849510149
 30
0.0
 40
2.4999999999999996
 50
89.999999999930751
 51
269.99999999979229
  0
ARC
  8
0
  6
CONTINUOUS
 62
               3
  5
21D
 10
150.82773309604931
 20
310.88520849510149
 30
0.0
 40
2.4999999999999996
 50
269.99999999979229
 51
449.99999999965507
  0
ARC
  8
0
  6
CONTINUOUS
 62
               3
  5
21E
 10
195.82773309604931
 20
310.88520849510149
 30
0.0
 40
2.4999999999999996
 50
89.999999999930751
 51
269.99999999979229
  0
LINE
  8
0
  6
CONTINUOUS
 62
               3
  5
21F
 10
98.327733096049315
 20
308.38520849510149
 30
0.0
 11
150.82773309604931
 21
308.38520849510149
 31
0.0
  0
LINE
  8
0
  6
CONTINUOUS
 62
               3
  5
220
 10
195.82773309604931
 20
308.38520849510149
 30
0.0
 11
248.32773309604818
 21
308.38520849510149
 31
0.0
  0
LINE
  8
0
  6
CONTINUOUS
 62
               3
  5
221
 10
98.327733096049315
 20
313.38520849510149
 30
0.0
 11
150.82773309604931
 21
313.38520849510149
 31
0.0
  0
LINE
  8
0
  6
CONTINUOUS
 62
               3
  5
222
 10
195.82773309604931
 20
313.38520849510149
 30
0.0
 11
248.32773309604818
 21
313.38520849510149
 31
0.0
  0
ARC
  8
0
  6
CONTINUOUS
 62
               3
  5
223
 10
248.32773309604818
 20
310.88520849510149
 30
0.0
 40
2.4999999999999996
 50
269.99999999979229
 51
449.99999999965507
  0
LINE
  8
0
  6
CONTINUOUS
 62
               3
  5
224
 10
248.32773309604818
 20
313.38520849510149
 30
0.0
 11
248.32773309604875
 21
432.38520849510149
 31
0.0
  0
CIRCLE
  8
0
  6
CONTINUOUS
 62
               3
  5
225
 10
173.32773309604875
 20
385.88520849510155
 30
0.0
 40
55.499999999999865
  0
CIRCLE
  8
0
  6
CONTINUOUS
 62
               3
  5
226
 10
173.32773309604875
 20
385.88520849510155
 30
0.0
 40
51.249999999999865
  0
ARC
  8
0
  6
CONTINUOUS
 62
               3
  5
227
 10
173.32773309604875
 20
385.88520849510155
 30
0.0
 40
57.499999999999865
 50
224.99999999987045
 51
314.99999999981867
  0
LINE
  8
0
  6
CONTINUOUS
 62
               3
  5
228
 10
132.66909317782233
 20
345.22656857687514
 30
0.0
 11
131.04274758109318
 21
343.6002229801461
 31
0.0
  0
LINE
  8
0
  6
CONTINUOUS
 62
               3
  5
229
 10
213.98637301427516
 20
345.22656857687514
 30
0.0
 11
215.6127186110042
 21
343.6002229801461
 31
0.0
  0
CIRCLE
  8
0
  6
CONTINUOUS
 62
               3
  5
22A
 10
173.32773309604875
 20
385.88520849510155
 30
0.0
 40
60.999999999999879
  0
CIRCLE
  8
0
  6
CONTINUOUS
 62
               3
  5
22B
 10
173.32773309604875
 20
385.88520849510155
 30
0.0
 40
59.799999999999862
  0
LINE
  8
0
  6
CONTINUOUS
 62
               3
  5
22C
 10
101.32773309604943
 20
442.92086224795429
 30
0.0
 11
121.32773309604943
 21
442.92086224795429
 31
0.0
  0
LINE
  8
0
  6
CONTINUOUS
 62
               3
  5
22D
 10
225.32773309605102
 20
442.92086224795071
 30
0.0
 11
245.3277330960492
 21
442.92086224795429
 31
0.0
  0
LINE
  8
0
  6
CONTINUOUS
 62
               3
  5
22E
 10
141.28771909362911
 20
425.88520849510155
 30
0.0
 11
205.36774718351012
 21
425.88520849510155
 31
0.0
  0
CIRCLE
  8
0
  6
CONTINUOUS
 62
               3
  5
22F
 10
173.32773309604875
 20
385.88520849510155
 30
0.0
 40
70.0
  0
CIRCLE
  8
0
  6
CONTINUOUS
 62
               3
  5
230
 10
282.61425631235659
 20
-429.57855141429815
 30
0.0
 40
75.0
  0
CIRCLE
  8
0
  6
CONTINUOUS
 62
               3
  5
231
 10
282.61425631235659
 20
-429.57855141429815
 30
0.0
 40
52.5
  0
LINE
  8
0
  6
CONTINUOUS
 62
               3
  5
232
 10
196.40375811173135
 20
-409.57855141429815
 30
0.0
 11
210.33009483835122
 21
-409.57855141429815
 31
0.0
  0
LINE
  8
0
  6
CONTINUOUS
 62
               3
  5
233
 10
210.33009483835122
 20
-449.57855141429815
 30
0.0
 11
196.40375811173135
 21
-449.57855141429815
 31
0.0
  0
ARC
  8
0
  6
CONTINUOUS
 62
               3
  5
234
 10
282.61425631235659
 20
-429.57855141429815
 30
0.0
 40
88.5
 50
166.93897588507147
 51
193.06102411465253
  0
LINE
  8
0
  6
CONTINUOUS
 62
               3
  5
235
 10
262.61425631235659
 20
-515.78904961492299
 30
0.0
 11
262.61425631235659
 21
-501.86271288830318
 31
0.0
  0
LINE
  8
0
  6
CONTINUOUS
 62
               3
  5
236
 10
302.61425631235659
 20
-501.86271288830318
 30
0.0
 11
302.61425631235659
 21
-515.78904961492299
 31
0.0
  0
ARC
  8
0
  6
CONTINUOUS
 62
               3
  5
237
 10
282.61425631235659
 20
-429.57855141429815
 30
0.0
 40
88.5
 50
256.93897588500255
 51
283.06102411458357
  0
LINE
  8
0
  6
CONTINUOUS
 62
               3
  5
238
 10
368.82475451298126
 20
-449.57855141429815
 30
0.0
 11
354.89841778636082
 21
-449.57855141429815
 31
0.0
  0
LINE
  8
0
  6
CONTINUOUS
 62
               3
  5
239
 10
354.89841778636082
 20
-409.57855141429815
 30
0.0
 11
368.82475451298126
 21
-409.57855141429815
 31
0.0
  0
ARC
  8
0
  6
CONTINUOUS
 62
               3
  5
23A
 10
282.61425631235659
 20
-429.57855141429815
 30
0.0
 40
88.5
 50
346.93897588493354
 51
373.06102411451457
  0
LINE
  8
0
  6
CONTINUOUS
 62
               3
  5
23B
 10
302.61425631235659
 20
-343.36805321367257
 30
0.0
 11
302.61425631235659
 21
-357.29438994029312
 31
0.0
  0
LINE
  8
0
  6
CONTINUOUS
 62
               3
  5
23C
 10
262.61425631235659
 20
-357.29438994029312
 30
0.0
 11
262.61425631235659
 21
-343.36805321367257
 31
0.0
  0
ARC
  8
0
  6
CONTINUOUS
 62
               3
  5
23D
 10
282.61425631235659
 20
-429.57855141429815
 30
0.0
 40
88.5
 50
76.938975885140493
 51
103.06102411472156
  0
LINE
  8
0
  6
CONTINUOUS
 62
               3
  5
23E
 10
234.94613279149553
 20
-451.5785514142986
 30
0.0
 11
330.28237983321651
 21
-451.5785514142986
 31
0.0
  0
ARC
  8
0
  6
CONTINUOUS
 62
               3
  5
23F
 10
295.11786796173772
 20
-420.87215378667912
 30
0.0
 40
54.763804151667173
 50
141.38591763672954
 51
145.15009542084252
  0
ARC
  8
0
  6
CONTINUOUS
 62
               3
  5
240
 10
282.61425631235659
 20
-429.57855141429815
 30
0.0
 40
51.5
 50
334.7109884732011
 51
410.95932736332554
  0
ARC
  8
0
  6
CONTINUOUS
 62
               3
  5
241
 10
282.61425631235659
 20
-429.57855141429815
 30
0.0
 40
51.5
 50
129.04067263626098
 51
205.289011526385
  0
ARC
  8
0
  6
CONTINUOUS
 62
               3
  5
242
 10
282.61425631235659
 20
-429.57855141429815
 30
0.0
 40
77.5
 50
104.95524831656294
 51
128.57288309093474
  0
ARC
  8
0
  6
CONTINUOUS
 62
               3
  5
243
 10
282.61425631235659
 20
-429.57855141429815
 30
0.0
 40
77.5
 50
14.95524831663182
 51
75.044751683299182
  0
ARC
  8
0
  6
CONTINUOUS
 62
               3
  5
244
 10
282.61425631235659
 20
-429.57855141429815
 30
0.0
 40
77.5
 50
321.42711690871977
 51
345.04475168309216
  0
LINE
  8
0
  6
CONTINUOUS
 62
               3
  5
245
 10
142.61425631235659
 20
-484.57855141429815
 30
0.0
 11
143.28581243832082
 21
-484.57855141429815
 31
0.0
  0
LINE
  8
0
  6
CONTINUOUS
 62
               3
  5
246
 10
145.78581243832127
 20
-487.07855141429815
 30
0.0
 11
143.28581243832082
 21
-484.57855141429815
 31
0.0
  0
LINE
  8
0
  6
CONTINUOUS
 62
               3
  5
247
 10
142.61425631235659
 20
-374.57855141429815
 30
0.0
 11
143.28581243832082
 21
-374.57855141429815
 31
0.0
  0
LINE
  8
0
  6
CONTINUOUS
 62
               3
  5
248
 10
145.78581243832082
 20
-372.07855141429815
 30
0.0
 11
143.28581243832082
 21
-374.57855141429815
 31
0.0
  0
LINE
  8
0
  6
CONTINUOUS
 62
               3
  5
249
 10
143.28581243832082
 20
-374.57855141429815
 30
0.0
 11
143.28581243832082
 21
-484.57855141429815
 31
0.0
  0
LINE
  8
0
  6
CONTINUOUS
 62
               3
  5
24A
 10
237.12392052597863
 20
-368.88895439595655
 30
0.0
 11
145.78581243832082
 21
-372.07855141429815
 31
0.0
  0
LINE
  8
0
  6
CONTINUOUS
 62
               3
  5
24B
 10
217.77778459580554
 20
-489.59256647926583
 30
0.0
 11
145.78581243832139
 21
-487.07855141429815
 31
0.0
  0
LINE
  8
0
  6
CONTINUOUS
 62
               3
  5
24C
 10
137.61425631235659
 20
-374.75010754026226
 30
0.0
 11
137.61425631235659
 21
-484.67855141429806
 31
0.0
  0
LINE
  8
0
  6
CONTINUOUS
 62
               3
  5
24D
 10
142.61425631235659
 20
-487.17855141429806
 30
0.0
 11
142.61425631235659
 21
-371.97855141429801
 31
0.0
  0
LINE
  8
0
  6
CONTINUOUS
 62
               3
  5
24E
 10
142.61425631235659
 20
-371.97855141429801
 30
0.0
 11
140.11425631235659
 21
-371.97855141429801
 31
0.0
  0
LINE
  8
0
  6
CONTINUOUS
 62
               3
  5
24F
 10
142.61425631235659
 20
-487.17855141429806
 30
0.0
 11
140.11425631235659
 21
-487.17855141429806
 31
0.0
  0
ARC
  8
0
  6
CONTINUOUS
 62
               3
  5
250
 10
140.11425631235659
 20
-484.67855141429806
 30
0.0
 40
2.5
 50
179.9999999998615
 51
269.99999999979229
  0
ARC
  8
0
  6
CONTINUOUS
 62
               3
  5
251
 10
140.11425631235659
 20
-374.47855141429801
 30
0.0
 40
2.5
 50
89.999999999932058
 51
179.9999999998615
  0
LINE
  8
0
  6
CONTINUOUS
 62
               3
  5
252
 10
250.17585314573898
 20
-389.57855141429837
 30
0.0
 11
282.61425631235659
 21
-389.57855141429837
 31
0.0
  0
LINE
  8
0
  6
CONTINUOUS
 62
               3
  5
253
 10
282.61425631235659
 20
-389.57855141429837
 30
0.0
 11
316.61793258419527
 21
-389.57855141429837
 31
0.0
  0
LINE
  8
0
  6
CONTINUOUS
 62
               3
  5
254
 10
145.78581243832127
 20
-487.07855141429815
 30
0.0
 11
145.78581243832082
 21
-372.07855141429815
 31
0.0
  0
ARC
  8
0
  6
CONTINUOUS
 62
               3
  5
255
 10
236.94942304246615
 20
-363.89200026086093
 30
0.0
 40
5.0
 50
271.9999999997919
 51
304.80675787019362
  0
LINE
  8
0
  6
CONTINUOUS
 62
               3
  5
256
 10
337.61425631235647
 20
-569.57855141429809
 30
0.0
 11
337.61425631235647
 21
-568.90699528833375
 31
0.0
  0
LINE
  8
0
  6
CONTINUOUS
 62
               3
  5
257
 10
340.11425631235647
 20
-566.40699528833329
 30
0.0
 11
337.61425631235647
 21
-568.90699528833375
 31
0.0
  0
LINE
  8
0
  6
CONTINUOUS
 62
               3
  5
258
 10
227.61425631235647
 20
-569.57855141429809
 30
0.0
 11
227.61425631235647
 21
-568.90699528833375
 31
0.0
  0
LINE
  8
0
  6
CONTINUOUS
 62
               3
  5
259
 10
225.11425631235647
 20
-566.40699528833375
 30
0.0
 11
227.61425631235647
 21
-568.90699528833375
 31
0.0
  0
LINE
  8
0
  6
CONTINUOUS
 62
               3
  5
25A
 10
227.61425631235647
 20
-568.90699528833375
 30
0.0
 11
337.61425631235647
 21
-568.90699528833375
 31
0.0
  0
LINE
  8
0
  6
CONTINUOUS
 62
               3
  5
25B
 10
227.78581243832059
 20
-574.57855141429809
 30
0.0
 11
337.7142563123565
 21
-574.57855141429809
 31
0.0
  0
LINE
  8
0
  6
CONTINUOUS
 62
               3
  5
25C
 10
340.2142563123565
 20
-569.57855141429809
 30
0.0
 11
225.01425631235645
 21
-569.57855141429809
 31
0.0
  0
LINE
  8
0
  6
CONTINUOUS
 62
               3
  5
25D
 10
225.01425631235645
 20
-569.57855141429809
 30
0.0
 11
225.01425631235645
 21
-572.07855141429809
 31
0.0
  0
LINE
  8
0
  6
CONTINUOUS
 62
               3
  5
25E
 10
340.2142563123565
 20
-569.57855141429809
 30
0.0
 11
340.2142563123565
 21
-572.07855141429809
 31
0.0
  0
ARC
  8
0
  6
CONTINUOUS
 62
               3
  5
25F
 10
337.7142563123565
 20
-572.07855141429809
 30
0.0
 40
2.5
 50
269.99999999979354
 51
359.999999999723
  0
ARC
  8
0
  6
CONTINUOUS
 62
               3
  5
260
 10
227.51425631235645
 20
-572.07855141429809
 30
0.0
 40
2.5
 50
179.9999999998615
 51
269.99999999979354
  0
LINE
  8
0
  6
CONTINUOUS
 62
               3
  5
261
 10
340.11425631235647
 20
-566.40699528833329
 30
0.0
 11
225.11425631235647
 21
-566.40699528833375
 31
0.0
  0
LINE
  8
0
  6
CONTINUOUS
 62
               3
  5
262
 10
343.30385333069762
 20
-475.06888720067656
 30
0.0
 11
340.11425631235647
 21
-566.40699528833329
 31
0.0
  0
ARC
  8
0
  6
CONTINUOUS
 62
               3
  5
263
 10
348.30080746579313
 20
-475.24338468418915
 30
0.0
 40
5.0
 50
145.19324212946151
 51
177.99999999986429
  0
LINE
  8
0
  6
CONTINUOUS
 62
               3
  5
264
 10
222.60024124738845
 20
-494.41502313084908
 30
0.0
 11
225.11425631235647
 21
-566.40699528833375
 31
0.0
  0
ARC
  8
0
  6
CONTINUOUS
 62
               3
  5
265
 10
217.60328711229306
 20
-494.58952061436122
 30
0.0
 40
5.0
 50
1.9999999999958187
 51
87.999999999932285
  0
CIRCLE
  8
0
  6
CONTINUOUS
 62
               3
  5
266
 10
282.61425631235659
 20
-429.57855141429815
 30
0.0
 40
59.0
  0
LINE
  8
0
  6
CONTINUOUS
 62
               3
  5
267
 10
207.61425631235659
 20
-738.07798516288244
 30
0.0
 11
357.61425631235659
 21
-738.07798516288244
 31
0.0
  0
LINE
  8
0
  6
CONTINUOUS
 62
               3
  5
268
 10
194.11425631235636
 20
-748.07798516288244
 30
0.0
 11
194.11425631235636
 21
-755.07798516288199
 31
0.0
  0
LINE
  8
0
  6
CONTINUOUS
 62
               3
  5
269
 10
194.11425631235636
 20
-748.07798516288244
 30
0.0
 11
207.61425631235659
 21
-738.07798516288244
 31
0.0
  0
ARC
  8
0
  6
CONTINUOUS
 62
               3
  5
26A
 10
205.6142563123567
 20
-759.66056085783771
 30
0.0
 40
4.9999999999999991
 50
0.0
 51
66.421821521747802
  0
LINE
  8
0
  6
CONTINUOUS
 62
               3
  5
26B
 10
194.11425631235636
 20
-755.07798516288199
 30
0.0
 11
371.11425631235625
 21
-755.07798516288199
 31
0.0
  0
ARC
  8
0
  6
CONTINUOUS
 62
               3
  5
26C
 10
227.61425631235659
 20
-845.07798516288244
 30
0.0
 40
19.999999999999996
 50
148.21166938283449
 51
167.2698198615592
  0
LINE
  8
0
  6
CONTINUOUS
 62
               3
  5
26D
 10
210.6142563123567
 20
-759.66056085783771
 30
0.0
 11
210.6142563123567
 21
-834.54233141002965
 31
0.0
  0
LINE
  8
0
  6
CONTINUOUS
 62
               3
  5
26E
 10
354.61425631235647
 20
-829.54233141002919
 30
0.0
 11
354.61425631235647
 21
-759.66056085783771
 31
0.0
  0
LINE
  8
0
  6
CONTINUOUS
 62
               3
  5
26F
 10
210.6142563123567
 20
-834.54233141002965
 30
0.0
 11
354.11425631235693
 21
-834.54233141002965
 31
0.0
  0
LINE
  8
0
  6
CONTINUOUS
 62
               3
  5
270
 10
262.61425631235659
 20
-755.07798516288199
 30
0.0
 11
262.61425631235659
 21
-738.07798516288244
 31
0.0
  0
LINE
  8
0
  6
CONTINUOUS
 62
               3
  5
271
 10
302.61425631235659
 20
-738.07798516288244
 30
0.0
 11
302.61425631235659
 21
-755.07798516288199
 31
0.0
  0
LINE
  8
0
  6
CONTINUOUS
 62
               3
  5
272
 10
262.61425631235659
 20
-748.07798516288244
 30
0.0
 11
302.61425631235659
 21
-748.07798516288244
 31
0.0
  0
LINE
  8
0
  6
CONTINUOUS
 62
               3
  5
273
 10
210.33009483835122
 20
-738.07798516288244
 30
0.0
 11
210.33009483835122
 21
-755.07798516288199
 31
0.0
  0
LINE
  8
0
  6
CONTINUOUS
 62
               3
  5
274
 10
196.40375811173135
 20
-748.07798516288244
 30
0.0
 11
196.40375811173135
 21
-755.07798516288199
 31
0.0
  0
LINE
  8
0
  6
CONTINUOUS
 62
               3
  5
275
 10
194.11425631235636
 20
-748.07798516288244
 30
0.0
 11
196.40375811173135
 21
-748.07798516288244
 31
0.0
  0
LINE
  8
0
  6
CONTINUOUS
 62
               3
  5
276
 10
196.40375811173135
 20
-748.07798516288244
 30
0.0
 11
210.33009483835122
 21
-738.07798516288244
 31
0.0
  0
LINE
  8
0
  6
CONTINUOUS
 62
               3
  5
277
 10
371.11425631235625
 20
-748.07798516288244
 30
0.0
 11
371.11425631235625
 21
-755.07798516288199
 31
0.0
  0
LINE
  8
0
  6
CONTINUOUS
 62
               3
  5
278
 10
371.11425631235625
 20
-748.07798516288244
 30
0.0
 11
357.61425631235659
 21
-738.07798516288244
 31
0.0
  0
ARC
  8
0
  6
CONTINUOUS
 62
               3
  5
279
 10
359.61425631235647
 20
-759.66056085783771
 30
0.0
 40
4.9999999999999991
 50
113.5781784781135
 51
179.9999999998615
  0
LINE
  8
0
  6
CONTINUOUS
 62
               3
  5
27A
 10
354.89841778636082
 20
-738.07798516288244
 30
0.0
 11
354.89841778636082
 21
-755.07798516288199
 31
0.0
  0
LINE
  8
0
  6
CONTINUOUS
 62
               3
  5
27B
 10
368.82475451298183
 20
-748.07798516288244
 30
0.0
 11
368.82475451298183
 21
-755.07798516288199
 31
0.0
  0
LINE
  8
0
  6
CONTINUOUS
 62
               3
  5
27C
 10
371.11425631235625
 20
-748.07798516288244
 30
0.0
 11
368.82475451298183
 21
-748.07798516288244
 31
0.0
  0
LINE
  8
0
  6
CONTINUOUS
 62
               3
  5
27D
 10
368.82475451298183
 20
-748.07798516288244
 30
0.0
 11
354.89841778636082
 21
-738.07798516288244
 31
0.0
  0
ARC
  8
0
  6
CONTINUOUS
 62
               3
  5
27E
 10
217.61425631235659
 20
-966.57798516288244
 30
0.0
 40
2.4999999999999996
 50
89.999999999930751
 51
269.99999999979354
  0
ARC
  8
0
  6
CONTINUOUS
 62
               3
  5
27F
 10
357.61425631235659
 20
-966.57798516288244
 30
0.0
 40
2.4999999999999996
 50
269.99999999979354
 51
449.99999999965507
  0
LINE
  8
0
  6
CONTINUOUS
 62
               3
  5
280
 10
142.61425631235659
 20
-959.07798516288244
 30
0.0
 11
143.28581243832093
 21
-959.07798516288244
 31
0.0
  0
LINE
  8
0
  6
CONTINUOUS
 62
               3
  5
281
 10
145.78581243832105
 20
-961.57798516288176
 30
0.0
 11
143.28581243832093
 21
-959.07798516288244
 31
0.0
  0
LINE
  8
0
  6
CONTINUOUS
 62
               3
  5
282
 10
145.78581243832184
 20
-961.57798516288244
 30
0.0
 11
187.95092269459917
 21
-963.0504232587366
 31
0.0
  0
LINE
  8
0
  6
CONTINUOUS
 62
               3
  5
283
 10
206.14979021828913
 20
-979.34967458916844
 30
0.0
 11
191.31195911701934
 21
-964.51184348789911
 31
0.0
  0
ARC
  8
0
  6
CONTINUOUS
 62
               3
  5
284
 10
202.61425631235659
 20
-982.88520849510155
 30
0.0
 40
4.9999999999999991
 50
0.0
 51
44.999999999964892
  0
LINE
  8
0
  6
CONTINUOUS
 62
               3
  5
285
 10
142.61425631235659
 20
-849.07798516288244
 30
0.0
 11
143.28581243832093
 21
-849.07798516288244
 31
0.0
  0
LINE
  8
0
  6
CONTINUOUS
 62
               3
  5
286
 10
145.78581243832105
 20
-846.57798516288244
 30
0.0
 11
143.28581243832093
 21
-849.07798516288244
 31
0.0
  0
LINE
  8
0
  6
CONTINUOUS
 62
               3
  5
287
 10
145.78581243832093
 20
-846.57798516288244
 30
0.0
 11
203.40328864049525
 21
-844.56593855773008
 31
0.0
  0
LINE
  8
0
  6
CONTINUOUS
 62
               3
  5
288
 10
143.28581243832093
 20
-849.07798516288244
 30
0.0
 11
143.28581243832093
 21
-959.07798516288244
 31
0.0
  0
LINE
  8
0
  6
CONTINUOUS
 62
               3
  5
289
 10
142.61425631235659
 20
-961.67798516288235
 30
0.0
 11
142.61425631235659
 21
-846.47798516288253
 31
0.0
  0
LINE
  8
0
  6
CONTINUOUS
 62
               3
  5
28A
 10
142.61425631235659
 20
-846.47798516288253
 30
0.0
 11
140.11425631235659
 21
-846.47798516288253
 31
0.0
  0
ARC
  8
0
  6
CONTINUOUS
 62
               3
  5
28B
 10
140.11425631235659
 20
-848.97798516288253
 30
0.0
 40
2.5
 50
89.999999999932058
 51
179.99999999985891
  0
LINE
  8
0
  6
CONTINUOUS
 62
               3
  5
28C
 10
137.61425631235659
 20
-848.97798516288253
 30
0.0
 11
137.61425631235659
 21
-959.17798516288235
 31
0.0
  0
LINE
  8
0
  6
CONTINUOUS
 62
               3
  5
28D
 10
142.61425631235659
 20
-961.67798516288235
 30
0.0
 11
140.11425631235659
 21
-961.67798516288235
 31
0.0
  0
ARC
  8
0
  6
CONTINUOUS
 62
               3
  5
28E
 10
140.11425631235659
 20
-959.17798516288235
 30
0.0
 40
2.5
 50
179.99999999985891
 51
269.99999999979229
  0
LINE
  8
0
  6
CONTINUOUS
 62
               3
  5
28F
 10
145.78581243832105
 20
-846.57798516288244
 30
0.0
 11
145.78581243832184
 21
-961.57798516288244
 31
0.0
  0
ARC
  8
0
  6
CONTINUOUS
 62
               3
  5
290
 10
187.77642521108669
 20
-968.04737739383199
 30
0.0
 40
5.0
 50
44.999999999968125
 51
87.999999999932243
  0
ARC
  8
0
  6
CONTINUOUS
 62
               3
  5
291
 10
203.22879115698277
 20
-839.56898442263468
 30
0.0
 40
5.0
 50
271.9999999997919
 51
347.26981986141988
  0
CIRCLE
  8
0
  6
CONTINUOUS
 62
               3
  5
292
 10
282.61425631235659
 20
-904.07798516288244
 30
0.0
 40
48.5
  0
CIRCLE
  8
0
  6
CONTINUOUS
 62
               3
  5
293
 10
282.61425631235659
 20
-904.07798516288244
 30
0.0
 40
47.299999999999997
  0
LINE
  8
0
  6
CONTINUOUS
 62
               3
  5
294
 10
250.79445115896203
 20
-935.897790316277
 30
0.0
 11
249.16810556223288
 21
-937.52413591300615
 31
0.0
  0
LINE
  8
0
  6
CONTINUOUS
 62
               3
  5
295
 10
314.43406146575126
 20
-935.897790316277
 30
0.0
 11
316.06040706248029
 21
-937.52413591300615
 31
0.0
  0
ARC
  8
0
  6
CONTINUOUS
 62
               3
  5
296
 10
282.61425631235659
 20
-904.07798516288244
 30
0.0
 40
45.0
 50
224.99999999982739
 51
314.99999999975864
  0
CIRCLE
  8
0
  6
CONTINUOUS
 62
               3
  5
297
 10
282.61425631235659
 20
-904.07798516288244
 30
0.0
 40
57.600000000000001
  0
ARC
  8
0
  6
CONTINUOUS
 62
               3
  5
298
 10
260.11425631235716
 20
-966.57798516288244
 30
0.0
 40
2.4999999999999996
 50
269.99999999979354
 51
449.99999999965507
  0
ARC
  8
0
  6
CONTINUOUS
 62
               3
  5
299
 10
305.11425631235716
 20
-966.57798516288244
 30
0.0
 40
2.4999999999999996
 50
89.999999999929457
 51
269.99999999979354
  0
LINE
  8
0
  6
CONTINUOUS
 62
               3
  5
29A
 10
217.61425631235659
 20
-969.07798516288244
 30
0.0
 11
260.11425631235716
 21
-969.07798516288244
 31
0.0
  0
LINE
  8
0
  6
CONTINUOUS
 62
               3
  5
29B
 10
217.61425631235659
 20
-964.07798516288244
 30
0.0
 11
260.11425631235716
 21
-964.07798516288244
 31
0.0
  0
LINE
  8
0
  6
CONTINUOUS
 62
               3
  5
29C
 10
305.11425631235716
 20
-964.07798516288244
 30
0.0
 11
357.61425631235659
 21
-964.07798516288244
 31
0.0
  0
LINE
  8
0
  6
CONTINUOUS
 62
               3
  5
29D
 10
305.11425631235716
 20
-969.07798516288244
 30
0.0
 11
357.61425631235659
 21
-969.07798516288244
 31
0.0
  0
LINE
  8
0
  6
DASHED2
 62
               3
  5
29E
 10
-278.17226690395148
 20
-65.614791504898506
 30
0.0
 11
-278.17226690395148
 21
14.385208495101494
 31
0.0
  0
LINE
  8
0
  6
DASHED2
 62
               3
  5
29F
 10
-175.17226690395159
 20
-65.614791504898506
 30
0.0
 11
-175.17226690395159
 21
14.385208495101494
 31
0.0
  0
LINE
  8
0
  6
DASHED2
 62
               3
  5
2A0
 10
-678.17226690395148
 20
-65.614791504898392
 30
0.0
 11
-678.17226690395148
 21
14.385208495101608
 31
0.0
  0
LINE
  8
0
  6
DASHED2
 62
               3
  5
2A1
 10
-575.17226690395159
 20
-65.614791504898392
 30
0.0
 11
-575.17226690395159
 21
14.385208495101608
 31
0.0
  0
LINE
  8
0
  6
DASHED2
 62
               3
  5
2A2
 10
121.82773309604852
 20
-65.614791504898392
 30
0.0
 11
121.82773309604852
 21
14.385208495101608
 31
0.0
  0
LINE
  8
0
  6
DASHED2
 62
               3
  5
2A3
 10
224.82773309604841
 20
-65.614791504898392
 30
0.0
 11
224.82773309604841
 21
14.385208495101608
 31
0.0
  0
LINE
  8
0
  6
CONTINUOUS
 62
               4
  5
2A4
 10
-168.53113431744532
 20
141.60069943890181
 30
0.0
 11
-292.18426690395177
 21
245.35799738615464
 31
0.0
  0
ARC
  8
0
  6
CONTINUOUS
 62
               4
  5
2A5
 10
-1140.9445870044908
 20
-899.2004197407939
 30
0.0
 40
1424.9238755783815
 50
50.189956146228056
 51
53.440796050690921
  0
ARC
  8
0
  6
CONTINUOUS
 62
               4
  5
2A6
 10
-163.09287806691827
 20
266.15786740994776
 30
0.0
 40
130.75634311527989
 50
189.15312334015906
 51
212.7691831125899
  0
ARC
  8
0
  6
CONTINUOUS
 62
               4
  5
2A7
 10
-165.30824140440018
 20
276.29188816118807
 30
0.0
 40
134.72974192119386
 50
216.90649751117132
 51
268.62928723390132
  0
ARC
  8
0
  6
CONTINUOUS
 62
               4
  5
2A8
 10
-960.30261500245956
 20
-682.86146241590745
 30
0.0
 40
1143.0835201141012
 50
46.158732653390111
 51
50.202696616617857
  0
LINE
  8
0
  6
CONTINUOUS
 62
               4
  5
2A9
 10
-283.67226690395125
 20
34.385208495101494
 30
0.0
 11
-169.67226690395114
 21
34.385208495101494
 31
0.0
  0
LINE
  8
0
  6
CONTINUOUS
 62
               4
  5
2AA
 10
-284.6722669039508
 20
35.38520849510104
 30
0.0
 11
-168.67226690395086
 21
35.385208495101494
 31
0.0
  0
ARC
  8
0
  6
CONTINUOUS
 62
               4
  5
2AB
 10
-905.60149575307548
 20
73.712810083639113
 30
0.0
 40
359.11818398045398
 50
13.306177675720029
 51
28.552443501596613
  0
ARC
  8
0
  6
CONTINUOUS
 62
               4
  5
2AC
 10
-627.00345337394481
 20
181.95948598620834
 30
0.0
 40
73.327111796148202
 50
342.62945642104523
 51
419.83689160529798
  0
LINE
  8
0
  6
CONTINUOUS
 62
               4
  5
2AD
 10
-683.67226690395125
 20
34.385208495101608
 30
0.0
 11
-569.67226690395114
 21
34.385208495101608
 31
0.0
  0
LINE
  8
0
  6
CONTINUOUS
 62
               4
  5
2AE
 10
-684.6722669039508
 20
35.385208495101153
 30
0.0
 11
-568.6722669039508
 21
35.385208495101608
 31
0.0
  0
ARC
  8
0
  6
CONTINUOUS
 62
               4
  5
2AF
 10
158.34966014952101
 20
191.08795884151999
 30
0.0
 40
59.149634972654262
 50
186.49999999985687
 51
236.78754046650647
  0
ARC
  8
0
  6
CONTINUOUS
 62
               4
  5
2B0
 10
179.25465262674265
 20
202.93697594027168
 30
0.0
 40
81.261593956721953
 50
186.49999999985687
 51
229.0079245643665
  0
ARC
  8
0
  6
CONTINUOUS
 62
               4
  5
2B1
 10
34.009024272553461
 20
118.59945711557697
 30
0.0
 40
204.24864340422488
 50
353.49999999972903
 51
373.43680216719139
  0
ARC
  8
0
  6
CONTINUOUS
 62
               4
  5
2B2
 10
71.700034040614469
 20
120.88387418498468
 30
0.0
 40
167.18634723772169
 50
351.25933879866568
 51
375.67746336825519
  0
LINE
  8
0
  6
CONTINUOUS
 62
               4
  5
2B3
 10
116.32773309604875
 20
34.385208495101608
 30
0.0
 11
230.32773309604886
 21
34.385208495101608
 31
0.0
  0
LINE
  8
0
  6
CONTINUOUS
 62
               4
  5
2B4
 10
115.3277330960492
 20
35.385208495101153
 30
0.0
 11
231.3277330960492
 21
35.385208495101608
 31
0.0
  0
POINT
  8
0
  6
CONTINUOUS
 62
               4
  5
2B5
 10
327.11425631235659
 20
-573.97855141429818
 30
0.0
  0
POINT
  8
0
  6
CONTINUOUS
 62
               4
  5
2B6
 10
138.21425631235672
 20
-474.07855141429792
 30
0.0
  0
LINE
  8
0
  6
CONTINUOUS
 62
               4
  5
2B7
 10
359.61425631235647
 20
-834.54233141002965
 30
0.0
 11
354.61425631235647
 21
-829.54233141002965
 31
0.0
  0
ARC
  8
0
  6
CONTINUOUS
 62
               4
  5
2B8
 10
337.11425631235647
 20
-845.07798516288244
 30
0.0
 40
19.999999999999996
 50
0.0
 51
31.788330617027277
  0
LINE
  8
0
  6
CONTINUOUS
 62
               4
  5
2B9
 10
354.11425631235693
 20
-834.54233141002965
 30
0.0
 11
354.11425631235693
 21
-829.54233141002919
 31
0.0
  0
LINE
  8
0
  6
CONTINUOUS
 62
               4
  5
2BA
 10
354.61425631235647
 20
-829.54233141002965
 30
0.0
 11
354.11425631235693
 21
-829.54233141002965
 31
0.0
  0
LINE
  8
0
  6
CONTINUOUS
 62
               4
  5
2BB
 10
359.3642563123567
 20
-834.79233141002965
 30
0.0
 11
354.11425631235693
 21
-829.54233141002965
 31
0.0
  0
LINE
  8
0
  6
CONTINUOUS
 62
               4
  5
2BC
 10
359.3642563123567
 20
-834.79233141002965
 30
0.0
 11
359.61425631235647
 21
-834.54233141002965
 31
0.0
  0
LINE
  8
0
  6
CONTINUOUS
 62
               4
  5
2BD
 10
359.61425631235647
 20
-834.54233141002965
 30
0.0
 11
359.61425631235647
 21
-965.23100875999944
 31
0.0
  0
LINE
  8
0
  6
CONTINUOUS
 62
               4
  5
2BE
 10
359.3642563123567
 20
-834.79233141002965
 30
0.0
 11
359.3642563123567
 21
-964.94565165286394
 31
0.0
  0
LINE
  8
0
  6
CONTINUOUS
 62
               4
  5
2BF
 10
357.11425631235647
 20
-844.92496156576522
 30
0.0
 11
357.11425631235647
 21
-964.07798516288244
 31
0.0
  0
POINT
  8
0
  6
CONTINUOUS
 62
               4
  5
2C0
 10
138.21425631235661
 20
-859.57798516288244
 30
0.0
  0
LINE
  8
0
  6
DASHED2
 62
               4
  5
2C1
 10
-283.67226690395114
 20
474.38520849510144
 30
0.0
 11
-169.67226690395137
 21
474.38520849510144
 31
0.0
  0
LINE
  8
0
  6
DASHED2
 62
               4
  5
2C2
 10
-683.67226690395114
 20
474.38520849510149
 30
0.0
 11
-569.67226690395137
 21
474.38520849510149
 31
0.0
  0
LINE
  8
0
  6
DASHED2
 62
               4
  5
2C3
 10
116.32773309604886
 20
474.38520849510149
 30
0.0
 11
230.32773309604863
 21
474.38520849510149
 31
0.0
  0
LINE
  8
0
  6
DASHED2
 62
               4
  5
2C4
 10
225.6142563123567
 20
-803.07798516288244
 30
0.0
 11
339.61425631235647
 21
-803.07798516288244
 31
0.0
  0
LINE
  8
0
  6
DASHDOT
 62
               4
  5
2C5
 10
-226.67226690395123
 20
559.38520849510144
 30
0.0
 11
-226.6722669039512
 21
-108.61479150489851
 31
0.0
  0
LINE
  8
0
  6
DASHDOT
 62
               4
  5
2C6
 10
-384.41322216291212
 20
385.88520849510144
 30
0.0
 11
-301.67226690395108
 21
385.88520849510144
 31
0.0
  0
LINE
  8
0
  6
DASHDOT
 62
               4
  5
2C7
 10
-626.67226690395125
 20
559.38520849510155
 30
0.0
 11
-626.67226690395114
 21
-108.61479150489839
 31
0.0
  0
LINE
  8
0
  6
DASHDOT
 62
               4
  5
2C8
 10
-702.17226690395125
 20
385.88520849510155
 30
0.0
 11
-551.17226690395125
 21
385.88520849510155
 31
0.0
  0
LINE
  8
0
  6
DASHDOT
 62
               4
  5
2C9
 10
173.32773309604875
 20
559.38520849510155
 30
0.0
 11
173.32773309604886
 21
-108.61479150489839
 31
0.0
  0
LINE
  8
0
  6
DASHDOT
 62
               4
  5
2CA
 10
-226.67226690395123
 20
982.88520849510155
 30
0.0
 11
-226.67226690395123
 21
765.88520849510155
 31
0.0
  0
LINE
  8
0
  6
DASHDOT
 62
               4
  5
2CB
 10
-388.67226690395114
 20
874.38520849510155
 30
0.0
 11
-118.172266903951
 21
874.38520849510155
 31
0.0
  0
LINE
  8
0
  6
DASHDOT
 62
               4
  5
2CC
 10
-68.93131164499033
 20
385.88520849510149
 30
0.0
 11
-151.67226690395137
 21
385.88520849510149
 31
0.0
  0
LINE
  8
0
  6
DASHDOT
 62
               4
  5
2CD
 10
97.827733096048746
 20
385.88520849510155
 30
0.0
 11
248.82773309604875
 21
385.88520849510155
 31
0.0
  0
LINE
  8
0
  6
DASHDOT
 62
               4
  5
2CE
 10
282.61425631235659
 20
-321.07855141429815
 30
0.0
 11
282.61425631235659
 21
-591.62533821412444
 31
0.0
  0
LINE
  8
0
  6
DASHDOT
 62
               4
  5
2CF
 10
120.6142563123567
 20
-429.57855141429815
 30
0.0
 11
391.11425631235682
 21
-429.57855141429815
 31
0.0
  0
LINE
  8
0
  6
DASHDOT
 62
               4
  5
2D0
 10
282.61425631235659
 20
-620.17855141429823
 30
0.0
 11
282.61425631235659
 21
-496.57855141429792
 31
0.0
  0
LINE
  8
0
  6
DASHDOT
 62
               4
  5
2D1
 10
82.614256312356815
 20
-429.57855141429792
 30
0.0
 11
215.61425631235682
 21
-429.57855141429792
 31
0.0
  0
LINE
  8
0
  6
DASHDOT
 62
               4
  5
2D2
 10
351.13948108758132
 20
-904.07798516288244
 30
0.0
 11
120.88564301892836
 21
-904.07798516288244
 31
0.0
  0
LINE
  8
0
  6
DASHDOT
 62
               4
  5
2D3
 10
282.61425631235659
 20
-718.07798516288244
 30
0.0
 11
282.61425631235659
 21
-969.07798516288244
 31
0.0
  0
LINE
  8
0
  6
DASHDOT
 62
               4
  5
2D4
 10
232.61425631235659
 20
-918.57798516288244
 30
0.0
 11
332.61425631235682
 21
-918.57798516288244
 31
0.0
  0
LINE
  8
0
  6
DASHDOT
 62
               4
  5
2D5
 10
82.614256312356588
 20
-910.57798516288244
 30
0.0
 11
157.01425631235657
 21
-910.57798516288244
 31
0.0
  0
LINE
  8
0
  6
DASHDOT
 62
               4
  5
2D6
 10
-326.6722669039512
 20
-568.32319588710197
 30
0.0
 11
-326.67226690395114
 21
-414.32319588710203
 31
0.0
  0
LINE
  8
0
  6
DASHDOT
 62
               4
  5
2D7
 10
-391.17226690395114
 20
-503.82319588710203
 30
0.0
 11
-262.17226690395114
 21
-503.82319588710203
 31
0.0
  0
LINE
  8
0
  6
DASHDOT
 62
               4
  5
2D8
 10
-403.6722669039512
 20
-491.32319588710203
 30
0.0
 11
-249.6722669039512
 21
-491.32319588710203
 31
0.0
  0
LINE
  8
0
  6
DASHDOT
 62
               4
  5
2D9
 10
-139.56386252174772
 20
-503.82319588710214
 30
0.0
 11
-219.56386252174775
 21
-503.82319588710203
 31
0.0
  0
LINE
  8
0
  6
DASHDOT
 62
               4
  5
2DA
 10
-80.963862521747728
 20
-491.32319588710214
 30
0.0
 11
-179.56386252174772
 21
-491.32319588710214
 31
0.0
  0
LINE
  8
0
  6
DASHDOT
 62
               4
  5
2DB
 10
-513.78067128615464
 20
-503.82319588710203
 30
0.0
 11
-433.78067128615464
 21
-503.82319588710203
 31
0.0
  0
LINE
  8
0
  6
DASHDOT
 62
               4
  5
2DC
 10
-326.67226690395125
 20
-245.61479150489851
 30
0.0
 11
-326.67226690395125
 21
-384.21479150489853
 31
0.0
  0
LINE
  8
0
  6
DASHDOT
 62
               4
  5
2DD
 10
-572.38067128615467
 20
-491.32319588710203
 30
0.0
 11
-473.78067128615464
 21
-491.32319588710203
 31
0.0
  0
CIRCLE
  8
0
  6
DASHED
 62
               4
  5
2DE
 10
-326.6722669039512
 20
-491.32319588710203
 30
0.0
 40
53.124999999999986
  0
POINT
  8
0
  6
CONTINUOUS
 62
               5
  5
2DF
 10
-628.5659162639339
 20
-61.310023426115151
 30
0.0
  0
POINT
  8
0
  6
CONTINUOUS
 62
               5
  5
2E0
 10
171.4340837360661
 20
-61.310023426115038
 30
0.0
  0
POINT
  8
0
  6
CONTINUOUS
 62
               5
  5
2E1
 10
166.34432782231704
 20
-428.28775733940898
 30
0.0
  0
POINT
  8
0
  6
CONTINUOUS
 62
               5
  5
2E2
 10
166.34432782231693
 20
-905.36877923777138
 30
0.0
  0
TEXT
  8
0
 62
               3
  5
2E3
 10
-324.82773309604909
 20
-174.69999792918139
 30
0.0
 40
40.0
  1
横枝管に呼び８０の管を接続するときは、EMBをご使用ください。
 41
0.8
 72
               1
 11
-324.82773309604909
 21
-174.69999792918139
 31
0.0
 73
               3
  0
TEXT
  8
0
 62
               3
  5
2E4
 10
278.91685233471628
 20
-250.13218290907872
 30
0.0
 40
40.0
  1
EMB使用例
 41
0.8
 72
               1
 11
278.91685233471628
 21
-250.13218290907872
 31
0.0
 73
               3
  0
TEXT
  8
0
 62
               3
  5
2E5
 10
-326.67226690395125
 20
-575.82319588710175
 30
0.0
 40
40.0
  1
EMB_100×80
 41
0.8
 72
               1
 11
-326.67226690395125
 21
-575.82319588710175
 31
0.0
 73
               3
  0
LINE
  8
0
  6
CONTINUOUS
 62
               7
  5
2E6
 10
253.61425631235659
 20
-600.178551414298
 30
0.0
 11
311.61425631235659
 21
-600.178551414298
 31
0.0
  0
LINE
  8
0
  6
CONTINUOUS
 62
               7
  5
2E7
 10
327.11425631235659
 20
-574.57855141429809
 30
0.0
 11
238.11425631235659
 21
-574.57855141429809
 31
0.0
  0
LINE
  8
0
  6
CONTINUOUS
 62
               7
  5
2E8
 10
327.11425631235659
 20
-573.97855141429818
 30
0.0
 11
327.11425631235659
 21
-574.57855141429809
 31
0.0
  0
LINE
  8
0
  6
CONTINUOUS
 62
               7
  5
2E9
 10
239.11425631235659
 20
-516.57855141429786
 30
0.0
 11
326.11425631235659
 21
-516.57855141429786
 31
0.0
  0
LINE
  8
0
  6
CONTINUOUS
 62
               7
  5
2EA
 10
327.11425631235659
 20
-574.44409966881767
 30
0.0
 11
327.11425631235659
 21
-517.57855141429786
 31
0.0
  0
LINE
  8
0
  6
CONTINUOUS
 62
               7
  5
2EB
 10
252.61425631235659
 20
-599.178551414298
 30
0.0
 11
252.61425631235659
 21
-574.57855141429809
 31
0.0
  0
LINE
  8
0
  6
CONTINUOUS
 62
               7
  5
2EC
 10
312.61425631235659
 20
-599.178551414298
 30
0.0
 11
312.61425631235659
 21
-574.57855141429809
 31
0.0
  0
LINE
  8
0
  6
CONTINUOUS
 62
               7
  5
2ED
 10
312.61425631235659
 20
-599.178551414298
 30
0.0
 11
311.61425631235659
 21
-600.178551414298
 31
0.0
  0
LINE
  8
0
  6
CONTINUOUS
 62
               7
  5
2EE
 10
327.11425631235659
 20
-517.57855141429786
 30
0.0
 11
326.11425631235659
 21
-516.57855141429786
 31
0.0
  0
LINE
  8
0
  6
CONTINUOUS
 62
               7
  5
2EF
 10
253.61425631235659
 20
-600.178551414298
 30
0.0
 11
252.61425631235659
 21
-599.178551414298
 31
0.0
  0
LINE
  8
0
  6
CONTINUOUS
 62
               7
  5
2F0
 10
239.11425631235659
 20
-516.57855141429786
 30
0.0
 11
238.11425631235659
 21
-517.57855141429786
 31
0.0
  0
LINE
  8
0
  6
CONTINUOUS
 62
               7
  5
2F1
 10
238.11425631235659
 20
-574.44409966881767
 30
0.0
 11
238.11425631235659
 21
-517.57855141429786
 31
0.0
  0
LINE
  8
0
  6
CONTINUOUS
 62
               7
  5
2F2
 10
137.61425631235659
 20
-474.07855141429792
 30
0.0
 11
137.61425631235682
 21
-385.08378753497237
 31
0.0
  0
LINE
  8
0
  6
CONTINUOUS
 62
               7
  5
2F3
 10
138.21425631235672
 20
-474.07855141429792
 30
0.0
 11
137.61425631235659
 21
-474.07855141429792
 31
0.0
  0
LINE
  8
0
  6
CONTINUOUS
 62
               7
  5
2F4
 10
102.61425631235682
 20
-392.57855141429792
 30
0.0
 11
102.61425631235659
 21
-466.57855141429792
 31
0.0
  0
LINE
  8
0
  6
CONTINUOUS
 62
               7
  5
2F5
 10
195.61425631235682
 20
-386.07855141429815
 30
0.0
 11
195.61425631235659
 21
-473.07855141429792
 31
0.0
  0
LINE
  8
0
  6
CONTINUOUS
 62
               7
  5
2F6
 10
137.61425631235659
 20
-474.07855141429792
 30
0.0
 11
194.61425631235659
 21
-474.07855141429792
 31
0.0
  0
LINE
  8
0
  6
CONTINUOUS
 62
               7
  5
2F7
 10
103.61425631235682
 20
-391.57855141429792
 30
0.0
 11
137.61425631235682
 21
-391.57855141429792
 31
0.0
  0
LINE
  8
0
  6
CONTINUOUS
 62
               7
  5
2F8
 10
194.61425631235659
 20
-474.07855141429792
 30
0.0
 11
195.61425631235659
 21
-473.07855141429792
 31
0.0
  0
LINE
  8
0
  6
CONTINUOUS
 62
               7
  5
2F9
 10
195.61425631235682
 20
-386.07855141429815
 30
0.0
 11
194.61425631235682
 21
-385.07855141429815
 31
0.0
  0
LINE
  8
0
  6
CONTINUOUS
 62
               7
  5
2FA
 10
103.61425631235659
 20
-467.57855141429792
 30
0.0
 11
137.61425631235682
 21
-467.57855141429792
 31
0.0
  0
LINE
  8
0
  6
CONTINUOUS
 62
               7
  5
2FB
 10
103.61425631235659
 20
-467.57855141429792
 30
0.0
 11
102.61425631235659
 21
-466.57855141429792
 31
0.0
  0
LINE
  8
0
  6
CONTINUOUS
 62
               7
  5
2FC
 10
102.61425631235682
 20
-392.57855141429792
 30
0.0
 11
103.61425631235682
 21
-391.57855141429792
 31
0.0
  0
LINE
  8
0
  6
CONTINUOUS
 62
               7
  5
2FD
 10
137.61425631235682
 20
-385.07855141429792
 30
0.0
 11
194.61425631235682
 21
-385.07855141429792
 31
0.0
  0
CIRCLE
  8
0
  6
CONTINUOUS
 62
               7
  5
2FE
 10
282.61425631235659
 20
-918.57798516288244
 30
0.0
 40
25.5
  0
CIRCLE
  8
0
  6
CONTINUOUS
 62
               7
  5
2FF
 10
282.61425631235659
 20
-904.07798516288244
 30
0.0
 40
44.5
  0
CIRCLE
  8
0
  6
CONTINUOUS
 62
               7
  5
300
 10
282.61425631235659
 20
-918.57798516288244
 30
0.0
 40
30.0
  0
LINE
  8
0
  6
CONTINUOUS
 62
               7
  5
301
 10
137.61425631235659
 20
-859.57798516288244
 30
0.0
 11
137.61425631235659
 21
-948.57274904220799
 31
0.0
  0
LINE
  8
0
  6
CONTINUOUS
 62
               7
  5
302
 10
138.21425631235661
 20
-859.57798516288244
 30
0.0
 11
137.61425631235659
 21
-859.57798516288244
 31
0.0
  0
LINE
  8
0
  6
CONTINUOUS
 62
               7
  5
303
 10
102.61425631235659
 20
-947.57798516288244
 30
0.0
 11
102.61425631235659
 21
-873.57798516288244
 31
0.0
  0
LINE
  8
0
  6
CONTINUOUS
 62
               7
  5
304
 10
195.61425631235659
 20
-947.57798516288244
 30
0.0
 11
195.61425631235659
 21
-860.57798516288244
 31
0.0
  0
LINE
  8
0
  6
CONTINUOUS
 62
               7
  5
305
 10
137.61425631235659
 20
-859.57798516288244
 30
0.0
 11
194.61425631235659
 21
-859.57798516288244
 31
0.0
  0
LINE
  8
0
  6
CONTINUOUS
 62
               7
  5
306
 10
103.61425631235659
 20
-948.57798516288244
 30
0.0
 11
194.61425631235659
 21
-948.57798516288244
 31
0.0
  0
LINE
  8
0
  6
CONTINUOUS
 62
               7
  5
307
 10
194.61425631235659
 20
-859.57798516288244
 30
0.0
 11
195.61425631235659
 21
-860.57798516288244
 31
0.0
  0
LINE
  8
0
  6
CONTINUOUS
 62
               7
  5
308
 10
195.61425631235659
 20
-947.57798516288244
 30
0.0
 11
194.61425631235659
 21
-948.57798516288244
 31
0.0
  0
LINE
  8
0
  6
CONTINUOUS
 62
               7
  5
309
 10
103.61425631235659
 20
-872.57798516288244
 30
0.0
 11
137.61425631235659
 21
-872.57798516288244
 31
0.0
  0
LINE
  8
0
  6
CONTINUOUS
 62
               7
  5
30A
 10
103.61425631235659
 20
-872.57798516288244
 30
0.0
 11
102.61425631235659
 21
-873.57798516288244
 31
0.0
  0
LINE
  8
0
  6
CONTINUOUS
 62
               7
  5
30B
 10
102.61425631235659
 20
-947.57798516288244
 30
0.0
 11
103.61425631235659
 21
-948.57798516288244
 31
0.0
  0
CIRCLE
  8
0
  6
CONTINUOUS
 62
               7
  5
30C
 10
-326.67226690395114
 20
-503.82319588710203
 30
0.0
 40
44.5
  0
CIRCLE
  8
0
  6
CONTINUOUS
 62
               7
  5
30D
 10
-326.6722669039512
 20
-491.32319588710203
 30
0.0
 40
57.0
  0
CIRCLE
  8
0
  6
CONTINUOUS
 62
               7
  5
30E
 10
-326.6722669039512
 20
-503.82319588710203
 30
0.0
 40
40.625
  0
LINE
  8
0
  6
CONTINUOUS
 62
               7
  5
30F
 10
-199.56386252174781
 20
-547.32319588710197
 30
0.0
 11
-199.56386252174769
 21
-460.32319588710203
 31
0.0
  0
LINE
  8
0
  6
CONTINUOUS
 62
               7
  5
310
 10
-158.96386252174767
 20
-434.32319588710214
 30
0.0
 11
-158.96386252174779
 21
-548.3231958871022
 31
0.0
  0
LINE
  8
0
  6
CONTINUOUS
 62
               7
  5
311
 10
-100.96386252174779
 20
-547.3231958871022
 30
0.0
 11
-100.96386252174767
 21
-435.32319588710214
 31
0.0
  0
LINE
  8
0
  6
CONTINUOUS
 62
               7
  5
312
 10
-101.96386252174767
 20
-434.32319588710214
 30
0.0
 11
-158.96386252174767
 21
-434.32319588710214
 31
0.0
  0
LINE
  8
0
  6
CONTINUOUS
 62
               7
  5
313
 10
-101.96386252174779
 20
-548.3231958871022
 30
0.0
 11
-158.96386252174779
 21
-548.3231958871022
 31
0.0
  0
LINE
  8
0
  6
CONTINUOUS
 62
               7
  5
314
 10
-158.96386252174779
 20
-548.3231958871022
 30
0.0
 11
-198.56386252174778
 21
-548.32319588710197
 31
0.0
  0
LINE
  8
0
  6
CONTINUOUS
 62
               7
  5
315
 10
-158.9638625217477
 20
-459.32319588710214
 30
0.0
 11
-198.56386252174772
 21
-459.32319588710214
 31
0.0
  0
LINE
  8
0
  6
CONTINUOUS
 62
               7
  5
316
 10
-101.96386252174767
 20
-434.32319588710214
 30
0.0
 11
-100.96386252174767
 21
-435.32319588710214
 31
0.0
  0
LINE
  8
0
  6
CONTINUOUS
 62
               7
  5
317
 10
-100.96386252174779
 20
-547.3231958871022
 30
0.0
 11
-101.96386252174779
 21
-548.3231958871022
 31
0.0
  0
LINE
  8
0
  6
CONTINUOUS
 62
               7
  5
318
 10
-198.56386252174772
 20
-459.32319588710214
 30
0.0
 11
-199.56386252174769
 21
-460.32319588710203
 31
0.0
  0
LINE
  8
0
  6
CONTINUOUS
 62
               7
  5
319
 10
-199.56386252174781
 20
-547.32319588710197
 30
0.0
 11
-198.56386252174778
 21
-548.32319588710197
 31
0.0
  0
LINE
  8
0
  6
CONTINUOUS
 62
               7
  5
31A
 10
-453.78067128615464
 20
-547.32319588710197
 30
0.0
 11
-453.78067128615464
 21
-460.32319588710203
 31
0.0
  0
LINE
  8
0
  6
CONTINUOUS
 62
               7
  5
31B
 10
-494.38067128615461
 20
-434.32319588710203
 30
0.0
 11
-494.38067128615461
 21
-548.32319588710197
 31
0.0
  0
LINE
  8
0
  6
CONTINUOUS
 62
               7
  5
31C
 10
-552.38067128615467
 20
-547.32319588710197
 30
0.0
 11
-552.38067128615467
 21
-435.32319588710203
 31
0.0
  0
LINE
  8
0
  6
CONTINUOUS
 62
               7
  5
31D
 10
-551.38067128615467
 20
-434.32319588710203
 30
0.0
 11
-494.38067128615461
 21
-434.32319588710203
 31
0.0
  0
LINE
  8
0
  6
CONTINUOUS
 62
               7
  5
31E
 10
-551.38067128615467
 20
-548.32319588710197
 30
0.0
 11
-494.38067128615461
 21
-548.32319588710197
 31
0.0
  0
LINE
  8
0
  6
CONTINUOUS
 62
               7
  5
31F
 10
-494.38067128615461
 20
-548.32319588710197
 30
0.0
 11
-454.78067128615464
 21
-548.32319588710197
 31
0.0
  0
LINE
  8
0
  6
CONTINUOUS
 62
               7
  5
320
 10
-494.38067128615461
 20
-459.32319588710203
 30
0.0
 11
-454.78067128615464
 21
-459.32319588710203
 31
0.0
  0
LINE
  8
0
  6
CONTINUOUS
 62
               7
  5
321
 10
-551.38067128615467
 20
-434.32319588710203
 30
0.0
 11
-552.38067128615467
 21
-435.32319588710203
 31
0.0
  0
LINE
  8
0
  6
CONTINUOUS
 62
               7
  5
322
 10
-552.38067128615467
 20
-547.32319588710197
 30
0.0
 11
-551.38067128615467
 21
-548.32319588710197
 31
0.0
  0
LINE
  8
0
  6
CONTINUOUS
 62
               7
  5
323
 10
-454.78067128615464
 20
-459.32319588710203
 30
0.0
 11
-453.78067128615464
 21
-460.32319588710203
 31
0.0
  0
LINE
  8
0
  6
CONTINUOUS
 62
               7
  5
324
 10
-453.78067128615464
 20
-547.32319588710197
 30
0.0
 11
-454.78067128615464
 21
-548.32319588710197
 31
0.0
  0
LINE
  8
0
  6
CONTINUOUS
 62
               7
  5
325
 10
-370.17226690395125
 20
-364.21479150489853
 30
0.0
 11
-283.17226690395125
 21
-364.21479150489853
 31
0.0
  0
LINE
  8
0
  6
CONTINUOUS
 62
               7
  5
326
 10
-269.67226690395125
 20
-323.61479150489851
 30
0.0
 11
-383.67226690395125
 21
-323.61479150489851
 31
0.0
  0
LINE
  8
0
  6
CONTINUOUS
 62
               7
  5
327
 10
-382.67226690395125
 20
-265.61479150489851
 30
0.0
 11
-270.67226690395125
 21
-265.61479150489851
 31
0.0
  0
LINE
  8
0
  6
CONTINUOUS
 62
               7
  5
328
 10
-269.67226690395125
 20
-266.61479150489851
 30
0.0
 11
-269.67226690395125
 21
-323.61479150489862
 31
0.0
  0
LINE
  8
0
  6
CONTINUOUS
 62
               7
  5
329
 10
-383.67226690395125
 20
-266.61479150489851
 30
0.0
 11
-383.67226690395125
 21
-323.61479150489862
 31
0.0
  0
LINE
  8
0
  6
CONTINUOUS
 62
               7
  5
32A
 10
-371.17226690395125
 20
-323.61479150489862
 30
0.0
 11
-371.17226690395125
 21
-363.21479150489853
 31
0.0
  0
LINE
  8
0
  6
CONTINUOUS
 62
               7
  5
32B
 10
-282.17226690395125
 20
-323.61479150489862
 30
0.0
 11
-282.17226690395125
 21
-363.21479150489853
 31
0.0
  0
LINE
  8
0
  6
CONTINUOUS
 62
               7
  5
32C
 10
-269.67226690395125
 20
-266.61479150489851
 30
0.0
 11
-270.67226690395125
 21
-265.61479150489851
 31
0.0
  0
LINE
  8
0
  6
CONTINUOUS
 62
               7
  5
32D
 10
-382.67226690395125
 20
-265.61479150489851
 30
0.0
 11
-383.67226690395125
 21
-266.61479150489851
 31
0.0
  0
LINE
  8
0
  6
CONTINUOUS
 62
               7
  5
32E
 10
-282.17226690395125
 20
-363.21479150489853
 30
0.0
 11
-283.17226690395125
 21
-364.21479150489853
 31
0.0
  0
LINE
  8
0
  6
CONTINUOUS
 62
               7
  5
32F
 10
-370.17226690395125
 20
-364.21479150489853
 30
0.0
 11
-371.17226690395125
 21
-363.21479150489853
 31
0.0
  0
CIRCLE
  8
0
  6
DASHED
 62
               7
  5
330
 10
282.61425631235659
 20
-904.07798516288244
 30
0.0
 40
40.0
  0
ENDSEC
  0
EOF
