  0
SECTION
  2
HEADER
  9
$ACADVER
  1
AC1009
  9
$INSBASE
 10
0.0
 20
0.0
 30
0.0
  9
$EXTMIN
 10
-788.84000000000026
 20
-1513.7449024670252
 30
0.0
  9
$EXTMAX
 10
788.84000000000026
 20
616.47448547682211
 30
0.0
  9
$LIMMIN
 10
-838.14250000000027
 20
-1580.3142583402705
  9
$LIMMAX
 10
838.14250000000027
 20
683.0438413500674
  9
$ORTHOMODE
 70
               0
  9
$REGENMODE
 70
               1
  9
$FILLMODE
 70
               1
  9
$QTEXTMODE
 70
               0
  9
$MIRRTEXT
 70
               1
  9
$DRAGMODE
 70
               2
  9
$LTSCALE
 40
1.0
  9
$OSMODE
 70
               0
  9
$ATTMODE
 70
               1
  9
$TEXTSIZE
 40
0.2
  9
$TRACEWID
 40
0.05
  9
$TEXTSTYLE
  7
STANDARD
  9
$CLAYER
  8
0
  9
$CELTYPE
  6
CONTINUOUS
  9
$CECOLOR
 62
             256
  9
$DIMSCALE
 40
1.0
  9
$DIMASZ
 40
0.18
  9
$DIMEXO
 40
0.0625
  9
$DIMDLI
 40
0.38
  9
$DIMRND
 40
0.0
  9
$DIMDLE
 40
0.0
  9
$DIMEXE
 40
0.18
  9
$DIMTP
 40
0.0
  9
$DIMTM
 40
0.0
  9
$DIMTXT
 40
0.18
  9
$DIMCEN
 40
0.09
  9
$DIMTSZ
 40
0.0
  9
$DIMTOL
 70
               0
  9
$DIMLIM
 70
               0
  9
$DIMTIH
 70
               1
  9
$DIMTOH
 70
               1
  9
$DIMSE1
 70
               0
  9
$DIMSE2
 70
               0
  9
$DIMTAD
 70
               0
  9
$DIMZIN
 70
               0
  9
$DIMBLK
  1

  9
$DIMASO
 70
               1
  9
$DIMSHO
 70
               1
  9
$DIMPOST
  1

  9
$DIMAPOST
  1

  9
$DIMALT
 70
               0
  9
$DIMALTD
 70
               2
  9
$DIMALTF
 40
25.399999999999999
  9
$DIMLFAC
 40
1.0
  9
$DIMTOFL
 70
               0
  9
$DIMTVP
 40
0.0
  9
$DIMTIX
 70
               0
  9
$DIMSOXD
 70
               0
  9
$DIMSAH
 70
               0
  9
$DIMBLK1
  1

  9
$DIMBLK2
  1

  9
$DIMSTYLE
  2
STANDARD
  9
$DIMCLRD
 70
               0
  9
$DIMCLRE
 70
               0
  9
$DIMCLRT
 70
               0
  9
$DIMTFAC
 40
1.0
  9
$DIMGAP
 40
0.09
  9
$LUNITS
 70
               2
  9
$LUPREC
 70
               4
  9
$AXISMODE
 70
               0
  9
$AXISUNIT
 10
0.0
 20
0.0
  9
$SKETCHINC
 40
0.1
  9
$FILLETRAD
 40
0.0
  9
$AUNITS
 70
               0
  9
$AUPREC
 70
               0
  9
$MENU
  1
acad
  9
$ELEVATION
 40
0.0
  9
$PELEVATION
 40
0.0
  9
$THICKNESS
 40
0.0
  9
$LIMCHECK
 70
               0
  9
$BLIPMODE
 70
               1
  9
$CHAMFERA
 40
0.0
  9
$CHAMFERB
 40
0.0
  9
$SKPOLY
 70
               0
  9
$TDCREATE
 40
0.000000000
  9
$TDUPDATE
 40
0.000000000
  9
$TDINDWG
 40
0.0000000000
  9
$TDUSRTIMER
 40
0.0000000000
  9
$USRTIMER
 70
               1
  9
$ANGBASE
 50
0.0
  9
$ANGDIR
 70
               0
  9
$PDMODE
 70
               0
  9
$PDSIZE
 40
1.0
  9
$PLINEWID
 40
0.0
  9
$COORDS
 70
               1
  9
$SPLFRAME
 70
               0
  9
$SPLINETYPE
 70
               6
  9
$SPLINESEGS
 70
               8
  9
$ATTDIA
 70
               0
  9
$ATTREQ
 70
               1
  9
$HANDLING
 70
               1
  9
$HANDSEED
  5
3E6
  9
$SURFTAB1
 70
               6
  9
$SURFTAB2
 70
               6
  9
$SURFTYPE
 70
               6
  9
$SURFU
 70
               6
  9
$SURFV
 70
               6
  9
$UCSNAME
  2

  9
$UCSORG
 10
0.0
 20
0.0
 30
0.0
  9
$UCSXDIR
 10
1.0
 20
0.0
 30
0.0
  9
$UCSYDIR
 10
0.0
 20
1.0
 30
0.0
  9
$PUCSNAME
  2

  9
$PUCSORG
 10
0.0
 20
0.0
 30
0.0
  9
$PUCSXDIR
 10
1.0
 20
0.0
 30
0.0
  9
$PUCSYDIR
 10
0.0
 20
1.0
 30
0.0
  9
$USERI1
 70
               0
  9
$USERI2
 70
               0
  9
$USERI3
 70
               0
  9
$USERI4
 70
               0
  9
$USERI5
 70
               0
  9
$USERR1
 40
0.0
  9
$USERR2
 40
0.0
  9
$USERR3
 40
0.0
  9
$USERR4
 40
0.0
  9
$USERR5
 40
0.0
  9
$WORLDVIEW
 70
               1
  9
$SHADEDGE
 70
               3
  9
$SHADEDIF
 70
              70
  9
$TILEMODE
 70
               1
  9
$MAXACTVP
 70
              16
  9
$PINSBASE
 10
0.0
 20
0.0
 30
0.0
  9
$PLIMCHECK
 70
               0
  9
$PEXTMIN
 10
1.0000000000000000E+20
 20
1.0000000000000000E+20
 30
1.0000000000000000E+20
  9
$PEXTMAX
 10
-1.0000000000000000E+20
 20
-1.0000000000000000E+20
 30
-1.0000000000000000E+20
  9
$PLIMMIN
 10
0.0
 20
0.0
  9
$PLIMMAX
 10
12.0
 20
9.0
  9
$UNITMODE
 70
               0
  9
$VISRETAIN
 70
               0
  9
$PLINEGEN
 70
               1
  9
$PSLTSCALE
 70
               0
  9
$TREEDEPTH
 70
            3020
  9
$DWGCODEPAGE
  3
dos932
  0
ENDSEC
  0
SECTION
  2
TABLES
  0
TABLE
  2
VPORT
 70
               1
  0
VPORT
  2
*ACTIVE
 70
               0
 10
0.0
 20
0.0
 11
1.0
 21
1.0
 12
0.0
 22
-448.63520849510155
 13
0.0
 23
0.0
 14
1.0
 24
1.0
 15
0.0
 25
0.0
 16
0.0
 26
0.0
 36
1.0
 17
0.0
 27
0.0
 37
0.0
 40
2263.3580996903379
 41
0.7406185526847661
 42
50.0
 43
0.0
 44
0.0
 50
0.0
 51
0.0
 71
               0
 72
             100
 73
               1
 74
               1
 75
               0
 76
               0
 77
               0
 78
               0
  0
ENDTAB
  0
TABLE
  2
LTYPE
 70
              26
  0
LTYPE
  2
CONTINUOUS
 70
               0
  3
Solid line
 72
              65
 73
               0
 40
0.0
  0
LTYPE
  2
HIDDENX2
 70
               0
  3
CADPAC FUSION LINETYPE
 72
              65
 73
               2
 40
64.0
 49
48.0
 49
-16.0
  0
LTYPE
  2
HIDDEN
 70
               0
  3
CADPAC FUSION LINETYPE
 72
              65
 73
               2
 40
48.0
 49
32.0
 49
-16.0
  0
LTYPE
  2
HIDDEN2
 70
               0
  3
CADPAC FUSION LINETYPE
 72
              65
 73
               2
 40
40.0
 49
24.0
 49
-16.0
  0
LTYPE
  2
DASHED
 70
               0
  3
CADPAC FUSION LINETYPE
 72
              65
 73
               2
 40
48.0
 49
32.0
 49
-16.0
  0
LTYPE
  2
DASHED2
 70
               0
  3
CADPAC FUSION LINETYPE
 72
              65
 73
               2
 40
36.0
 49
24.0
 49
-12.0
  0
LTYPE
  2
DASHEDX2
 70
               0
  3
CADPAC FUSION LINETYPE
 72
              65
 73
               2
 40
72.0
 49
48.0
 49
-24.0
  0
LTYPE
  2
DOTX2
 70
               0
  3
CADPAC FUSION LINETYPE
 72
              65
 73
               2
 40
20.0
 49
0.0
 49
-20.0
  0
LTYPE
  2
DOT
 70
               0
  3
CADPAC FUSION LINETYPE
 72
              65
 73
               2
 40
16.0
 49
0.0
 49
-16.0
  0
LTYPE
  2
DOTS
 70
               0
  3
CADPAC FUSION LINETYPE
 72
              65
 73
               2
 40
16.0
 49
0.0
 49
-16.0
  0
LTYPE
  2
DOT2
 70
               0
  3
CADPAC FUSION LINETYPE
 72
              65
 73
               2
 40
12.0
 49
0.0
 49
-12.0
  0
LTYPE
  2
CENTERX2
 70
               0
  3
CADPAC FUSION LINETYPE
 72
              65
 73
               4
 40
96.0
 49
40.0
 49
-20.0
 49
16.0
 49
-20.0
  0
LTYPE
  2
CENTER
 70
               0
  3
CADPAC FUSION LINETYPE
 72
              65
 73
               4
 40
73.599999999999994
 49
32.0
 49
-16.0
 49
9.5999999999999996
 49
-16.0
  0
LTYPE
  2
CENTER2
 70
               0
  3
CADPAC FUSION LINETYPE
 72
              65
 73
               4
 40
51.200000000000003
 49
24.0
 49
-12.0
 49
3.2000000000000002
 49
-12.0
  0
LTYPE
  2
DASHDOTX2
 70
               0
  3
CADPAC FUSION LINETYPE
 72
              65
 73
               4
 40
80.0
 49
40.0
 49
-20.0
 49
0.0
 49
-20.0
  0
LTYPE
  2
DASHDOT
 70
               0
  3
CADPAC FUSION LINETYPE
 72
              65
 73
               4
 40
64.0
 49
32.0
 49
-16.0
 49
0.0
 49
-16.0
  0
LTYPE
  2
DASHDOT2
 70
               0
  3
CADPAC FUSION LINETYPE
 72
              65
 73
               4
 40
48.0
 49
24.0
 49
-12.0
 49
0.0
 49
-12.0
  0
LTYPE
  2
DIVIDEX2
 70
               0
  3
CADPAC FUSION LINETYPE
 72
              65
 73
               6
 40
100.0
 49
40.0
 49
-20.0
 49
0.0
 49
-20.0
 49
0.0
 49
-20.0
  0
LTYPE
  2
DIVIDE
 70
               0
  3
CADPAC FUSION LINETYPE
 72
              65
 73
               6
 40
80.0
 49
32.0
 49
-16.0
 49
0.0
 49
-16.0
 49
0.0
 49
-16.0
  0
LTYPE
  2
DIVIDE2
 70
               0
  3
CADPAC FUSION LINETYPE
 72
              65
 73
               6
 40
60.0
 49
24.0
 49
-12.0
 49
0.0
 49
-12.0
 49
0.0
 49
-12.0
  0
LTYPE
  2
BORDERX2
 70
               0
  3
CADPAC FUSION LINETYPE
 72
              65
 73
               6
 40
140.0
 49
40.0
 49
-20.0
 49
40.0
 49
-20.0
 49
0.0
 49
-20.0
  0
LTYPE
  2
BORDER
 70
               0
  3
CADPAC FUSION LINETYPE
 72
              65
 73
               6
 40
112.0
 49
32.0
 49
-16.0
 49
32.0
 49
-16.0
 49
0.0
 49
-16.0
  0
LTYPE
  2
BORDER2
 70
               0
  3
CADPAC FUSION LINETYPE
 72
              65
 73
               6
 40
84.0
 49
24.0
 49
-12.0
 49
24.0
 49
-12.0
 49
0.0
 49
-12.0
  0
LTYPE
  2
PHANTOMX2
 70
               0
  3
CADPAC FUSION LINETYPE
 72
              65
 73
               6
 40
120.0
 49
40.0
 49
-16.0
 49
16.0
 49
-16.0
 49
16.0
 49
-16.0
  0
LTYPE
  2
PHANTOM
 70
               0
  3
CADPAC FUSION LINETYPE
 72
              65
 73
               6
 40
99.199999999999989
 49
32.0
 49
-16.0
 49
9.5999999999999996
 49
-16.0
 49
9.5999999999999996
 49
-16.0
  0
LTYPE
  2
PHANTOM2
 70
               0
  3
CADPAC FUSION LINETYPE
 72
              65
 73
               6
 40
84.799999999999997
 49
24.0
 49
-16.0
 49
6.4000000000000004
 49
-16.0
 49
6.4000000000000004
 49
-16.0
  0
ENDTAB
  0
TABLE
  2
LAYER
 70
             256
  0
LAYER
  2
0
 70
               0
 62
               7
  6
CONTINUOUS
  0
LAYER
  2
LAYER001
 70
               0
 62
               7
  6
CONTINUOUS
  0
LAYER
  2
LAYER002
 70
               0
 62
               7
  6
CONTINUOUS
  0
LAYER
  2
LAYER003
 70
               0
 62
               7
  6
CONTINUOUS
  0
LAYER
  2
LAYER004
 70
               0
 62
               7
  6
CONTINUOUS
  0
LAYER
  2
LAYER005
 70
               0
 62
               7
  6
CONTINUOUS
  0
LAYER
  2
LAYER006
 70
               0
 62
               7
  6
CONTINUOUS
  0
LAYER
  2
LAYER007
 70
               0
 62
               7
  6
CONTINUOUS
  0
LAYER
  2
LAYER008
 70
               0
 62
               7
  6
CONTINUOUS
  0
LAYER
  2
LAYER009
 70
               0
 62
               7
  6
CONTINUOUS
  0
LAYER
  2
LAYER010
 70
               0
 62
               7
  6
CONTINUOUS
  0
LAYER
  2
LAYER011
 70
               0
 62
               7
  6
CONTINUOUS
  0
LAYER
  2
LAYER012
 70
               0
 62
               7
  6
CONTINUOUS
  0
LAYER
  2
LAYER013
 70
               0
 62
               7
  6
CONTINUOUS
  0
LAYER
  2
LAYER014
 70
               0
 62
               7
  6
CONTINUOUS
  0
LAYER
  2
LAYER015
 70
               0
 62
               7
  6
CONTINUOUS
  0
LAYER
  2
LAYER016
 70
               0
 62
               7
  6
CONTINUOUS
  0
LAYER
  2
LAYER017
 70
               0
 62
               7
  6
CONTINUOUS
  0
LAYER
  2
LAYER018
 70
               0
 62
               7
  6
CONTINUOUS
  0
LAYER
  2
LAYER019
 70
               0
 62
               7
  6
CONTINUOUS
  0
LAYER
  2
LAYER020
 70
               0
 62
               7
  6
CONTINUOUS
  0
LAYER
  2
LAYER021
 70
               0
 62
               7
  6
CONTINUOUS
  0
LAYER
  2
LAYER022
 70
               0
 62
               7
  6
CONTINUOUS
  0
LAYER
  2
LAYER023
 70
               0
 62
               7
  6
CONTINUOUS
  0
LAYER
  2
LAYER024
 70
               0
 62
               7
  6
CONTINUOUS
  0
LAYER
  2
LAYER025
 70
               0
 62
               7
  6
CONTINUOUS
  0
LAYER
  2
LAYER026
 70
               0
 62
               7
  6
CONTINUOUS
  0
LAYER
  2
LAYER027
 70
               0
 62
               7
  6
CONTINUOUS
  0
LAYER
  2
LAYER028
 70
               0
 62
               7
  6
CONTINUOUS
  0
LAYER
  2
LAYER029
 70
               0
 62
               7
  6
CONTINUOUS
  0
LAYER
  2
LAYER030
 70
               0
 62
               7
  6
CONTINUOUS
  0
LAYER
  2
LAYER031
 70
               0
 62
               7
  6
CONTINUOUS
  0
LAYER
  2
LAYER032
 70
               0
 62
               7
  6
CONTINUOUS
  0
LAYER
  2
LAYER033
 70
               0
 62
               7
  6
CONTINUOUS
  0
LAYER
  2
LAYER034
 70
               0
 62
               7
  6
CONTINUOUS
  0
LAYER
  2
LAYER035
 70
               0
 62
               7
  6
CONTINUOUS
  0
LAYER
  2
LAYER036
 70
               0
 62
               7
  6
CONTINUOUS
  0
LAYER
  2
LAYER037
 70
               0
 62
               7
  6
CONTINUOUS
  0
LAYER
  2
LAYER038
 70
               0
 62
               7
  6
CONTINUOUS
  0
LAYER
  2
LAYER039
 70
               0
 62
               7
  6
CONTINUOUS
  0
LAYER
  2
LAYER040
 70
               0
 62
               7
  6
CONTINUOUS
  0
LAYER
  2
LAYER041
 70
               0
 62
               7
  6
CONTINUOUS
  0
LAYER
  2
LAYER042
 70
               0
 62
               7
  6
CONTINUOUS
  0
LAYER
  2
LAYER043
 70
               0
 62
               7
  6
CONTINUOUS
  0
LAYER
  2
LAYER044
 70
               0
 62
               7
  6
CONTINUOUS
  0
LAYER
  2
LAYER045
 70
               0
 62
               7
  6
CONTINUOUS
  0
LAYER
  2
LAYER046
 70
               0
 62
               7
  6
CONTINUOUS
  0
LAYER
  2
LAYER047
 70
               0
 62
               7
  6
CONTINUOUS
  0
LAYER
  2
LAYER048
 70
               0
 62
               7
  6
CONTINUOUS
  0
LAYER
  2
LAYER049
 70
               0
 62
               7
  6
CONTINUOUS
  0
LAYER
  2
LAYER050
 70
               0
 62
               7
  6
CONTINUOUS
  0
LAYER
  2
LAYER051
 70
               0
 62
               7
  6
CONTINUOUS
  0
LAYER
  2
LAYER052
 70
               0
 62
               7
  6
CONTINUOUS
  0
LAYER
  2
LAYER053
 70
               0
 62
               7
  6
CONTINUOUS
  0
LAYER
  2
LAYER054
 70
               0
 62
               7
  6
CONTINUOUS
  0
LAYER
  2
LAYER055
 70
               0
 62
               7
  6
CONTINUOUS
  0
LAYER
  2
LAYER056
 70
               0
 62
               7
  6
CONTINUOUS
  0
LAYER
  2
LAYER057
 70
               0
 62
               7
  6
CONTINUOUS
  0
LAYER
  2
LAYER058
 70
               0
 62
               7
  6
CONTINUOUS
  0
LAYER
  2
LAYER059
 70
               0
 62
               7
  6
CONTINUOUS
  0
LAYER
  2
LAYER060
 70
               0
 62
               7
  6
CONTINUOUS
  0
LAYER
  2
LAYER061
 70
               0
 62
               7
  6
CONTINUOUS
  0
LAYER
  2
LAYER062
 70
               0
 62
               7
  6
CONTINUOUS
  0
LAYER
  2
LAYER063
 70
               0
 62
               7
  6
CONTINUOUS
  0
LAYER
  2
LAYER064
 70
               0
 62
               7
  6
CONTINUOUS
  0
LAYER
  2
LAYER065
 70
               0
 62
               7
  6
CONTINUOUS
  0
LAYER
  2
LAYER066
 70
               0
 62
               7
  6
CONTINUOUS
  0
LAYER
  2
LAYER067
 70
               0
 62
               7
  6
CONTINUOUS
  0
LAYER
  2
LAYER068
 70
               0
 62
               7
  6
CONTINUOUS
  0
LAYER
  2
LAYER069
 70
               0
 62
               7
  6
CONTINUOUS
  0
LAYER
  2
LAYER070
 70
               0
 62
               7
  6
CONTINUOUS
  0
LAYER
  2
LAYER071
 70
               0
 62
               7
  6
CONTINUOUS
  0
LAYER
  2
LAYER072
 70
               0
 62
               7
  6
CONTINUOUS
  0
LAYER
  2
LAYER073
 70
               0
 62
               7
  6
CONTINUOUS
  0
LAYER
  2
LAYER074
 70
               0
 62
               7
  6
CONTINUOUS
  0
LAYER
  2
LAYER075
 70
               0
 62
               7
  6
CONTINUOUS
  0
LAYER
  2
LAYER076
 70
               0
 62
               7
  6
CONTINUOUS
  0
LAYER
  2
LAYER077
 70
               0
 62
               7
  6
CONTINUOUS
  0
LAYER
  2
LAYER078
 70
               0
 62
               7
  6
CONTINUOUS
  0
LAYER
  2
LAYER079
 70
               0
 62
               7
  6
CONTINUOUS
  0
LAYER
  2
LAYER080
 70
               0
 62
               7
  6
CONTINUOUS
  0
LAYER
  2
LAYER081
 70
               0
 62
               7
  6
CONTINUOUS
  0
LAYER
  2
LAYER082
 70
               0
 62
               7
  6
CONTINUOUS
  0
LAYER
  2
LAYER083
 70
               0
 62
               7
  6
CONTINUOUS
  0
LAYER
  2
LAYER084
 70
               0
 62
               7
  6
CONTINUOUS
  0
LAYER
  2
LAYER085
 70
               0
 62
               7
  6
CONTINUOUS
  0
LAYER
  2
LAYER086
 70
               0
 62
               7
  6
CONTINUOUS
  0
LAYER
  2
LAYER087
 70
               0
 62
               7
  6
CONTINUOUS
  0
LAYER
  2
LAYER088
 70
               0
 62
               7
  6
CONTINUOUS
  0
LAYER
  2
LAYER089
 70
               0
 62
               7
  6
CONTINUOUS
  0
LAYER
  2
LAYER090
 70
               0
 62
               7
  6
CONTINUOUS
  0
LAYER
  2
LAYER091
 70
               0
 62
               7
  6
CONTINUOUS
  0
LAYER
  2
LAYER092
 70
               0
 62
               7
  6
CONTINUOUS
  0
LAYER
  2
LAYER093
 70
               0
 62
               7
  6
CONTINUOUS
  0
LAYER
  2
LAYER094
 70
               0
 62
               7
  6
CONTINUOUS
  0
LAYER
  2
LAYER095
 70
               0
 62
               7
  6
CONTINUOUS
  0
LAYER
  2
LAYER096
 70
               0
 62
               7
  6
CONTINUOUS
  0
LAYER
  2
LAYER097
 70
               0
 62
               7
  6
CONTINUOUS
  0
LAYER
  2
LAYER098
 70
               0
 62
               7
  6
CONTINUOUS
  0
LAYER
  2
LAYER099
 70
               0
 62
               7
  6
CONTINUOUS
  0
LAYER
  2
LAYER100
 70
               0
 62
               7
  6
CONTINUOUS
  0
LAYER
  2
LAYER101
 70
               0
 62
               7
  6
CONTINUOUS
  0
LAYER
  2
LAYER102
 70
               0
 62
               7
  6
CONTINUOUS
  0
LAYER
  2
LAYER103
 70
               0
 62
               7
  6
CONTINUOUS
  0
LAYER
  2
LAYER104
 70
               0
 62
               7
  6
CONTINUOUS
  0
LAYER
  2
LAYER105
 70
               0
 62
               7
  6
CONTINUOUS
  0
LAYER
  2
LAYER106
 70
               0
 62
               7
  6
CONTINUOUS
  0
LAYER
  2
LAYER107
 70
               0
 62
               7
  6
CONTINUOUS
  0
LAYER
  2
LAYER108
 70
               0
 62
               7
  6
CONTINUOUS
  0
LAYER
  2
LAYER109
 70
               0
 62
               7
  6
CONTINUOUS
  0
LAYER
  2
LAYER110
 70
               0
 62
               7
  6
CONTINUOUS
  0
LAYER
  2
LAYER111
 70
               0
 62
               7
  6
CONTINUOUS
  0
LAYER
  2
LAYER112
 70
               0
 62
               7
  6
CONTINUOUS
  0
LAYER
  2
LAYER113
 70
               0
 62
               7
  6
CONTINUOUS
  0
LAYER
  2
LAYER114
 70
               0
 62
               7
  6
CONTINUOUS
  0
LAYER
  2
LAYER115
 70
               0
 62
               7
  6
CONTINUOUS
  0
LAYER
  2
LAYER116
 70
               0
 62
               7
  6
CONTINUOUS
  0
LAYER
  2
LAYER117
 70
               0
 62
               7
  6
CONTINUOUS
  0
LAYER
  2
LAYER118
 70
               0
 62
               7
  6
CONTINUOUS
  0
LAYER
  2
LAYER119
 70
               0
 62
               7
  6
CONTINUOUS
  0
LAYER
  2
LAYER120
 70
               0
 62
               7
  6
CONTINUOUS
  0
LAYER
  2
LAYER121
 70
               0
 62
               7
  6
CONTINUOUS
  0
LAYER
  2
LAYER122
 70
               0
 62
               7
  6
CONTINUOUS
  0
LAYER
  2
LAYER123
 70
               0
 62
               7
  6
CONTINUOUS
  0
LAYER
  2
LAYER124
 70
               0
 62
               7
  6
CONTINUOUS
  0
LAYER
  2
LAYER125
 70
               0
 62
               7
  6
CONTINUOUS
  0
LAYER
  2
LAYER126
 70
               0
 62
               7
  6
CONTINUOUS
  0
LAYER
  2
LAYER127
 70
               0
 62
               7
  6
CONTINUOUS
  0
LAYER
  2
LAYER128
 70
               0
 62
               7
  6
CONTINUOUS
  0
LAYER
  2
LAYER129
 70
               0
 62
               7
  6
CONTINUOUS
  0
LAYER
  2
LAYER130
 70
               0
 62
               7
  6
CONTINUOUS
  0
LAYER
  2
LAYER131
 70
               0
 62
               7
  6
CONTINUOUS
  0
LAYER
  2
LAYER132
 70
               0
 62
               7
  6
CONTINUOUS
  0
LAYER
  2
LAYER133
 70
               0
 62
               7
  6
CONTINUOUS
  0
LAYER
  2
LAYER134
 70
               0
 62
               7
  6
CONTINUOUS
  0
LAYER
  2
LAYER135
 70
               0
 62
               7
  6
CONTINUOUS
  0
LAYER
  2
LAYER136
 70
               0
 62
               7
  6
CONTINUOUS
  0
LAYER
  2
LAYER137
 70
               0
 62
               7
  6
CONTINUOUS
  0
LAYER
  2
LAYER138
 70
               0
 62
               7
  6
CONTINUOUS
  0
LAYER
  2
LAYER139
 70
               0
 62
               7
  6
CONTINUOUS
  0
LAYER
  2
LAYER140
 70
               0
 62
               7
  6
CONTINUOUS
  0
LAYER
  2
LAYER141
 70
               0
 62
               7
  6
CONTINUOUS
  0
LAYER
  2
LAYER142
 70
               0
 62
               7
  6
CONTINUOUS
  0
LAYER
  2
LAYER143
 70
               0
 62
               7
  6
CONTINUOUS
  0
LAYER
  2
LAYER144
 70
               0
 62
               7
  6
CONTINUOUS
  0
LAYER
  2
LAYER145
 70
               0
 62
               7
  6
CONTINUOUS
  0
LAYER
  2
LAYER146
 70
               0
 62
               7
  6
CONTINUOUS
  0
LAYER
  2
LAYER147
 70
               0
 62
               7
  6
CONTINUOUS
  0
LAYER
  2
LAYER148
 70
               0
 62
               7
  6
CONTINUOUS
  0
LAYER
  2
LAYER149
 70
               0
 62
               7
  6
CONTINUOUS
  0
LAYER
  2
LAYER150
 70
               0
 62
               7
  6
CONTINUOUS
  0
LAYER
  2
LAYER151
 70
               0
 62
               7
  6
CONTINUOUS
  0
LAYER
  2
LAYER152
 70
               0
 62
               7
  6
CONTINUOUS
  0
LAYER
  2
LAYER153
 70
               0
 62
               7
  6
CONTINUOUS
  0
LAYER
  2
LAYER154
 70
               0
 62
               7
  6
CONTINUOUS
  0
LAYER
  2
LAYER155
 70
               0
 62
               7
  6
CONTINUOUS
  0
LAYER
  2
LAYER156
 70
               0
 62
               7
  6
CONTINUOUS
  0
LAYER
  2
LAYER157
 70
               0
 62
               7
  6
CONTINUOUS
  0
LAYER
  2
LAYER158
 70
               0
 62
               7
  6
CONTINUOUS
  0
LAYER
  2
LAYER159
 70
               0
 62
               7
  6
CONTINUOUS
  0
LAYER
  2
LAYER160
 70
               0
 62
               7
  6
CONTINUOUS
  0
LAYER
  2
LAYER161
 70
               0
 62
               7
  6
CONTINUOUS
  0
LAYER
  2
LAYER162
 70
               0
 62
               7
  6
CONTINUOUS
  0
LAYER
  2
LAYER163
 70
               0
 62
               7
  6
CONTINUOUS
  0
LAYER
  2
LAYER164
 70
               0
 62
               7
  6
CONTINUOUS
  0
LAYER
  2
LAYER165
 70
               0
 62
               7
  6
CONTINUOUS
  0
LAYER
  2
LAYER166
 70
               0
 62
               7
  6
CONTINUOUS
  0
LAYER
  2
LAYER167
 70
               0
 62
               7
  6
CONTINUOUS
  0
LAYER
  2
LAYER168
 70
               0
 62
               7
  6
CONTINUOUS
  0
LAYER
  2
LAYER169
 70
               0
 62
               7
  6
CONTINUOUS
  0
LAYER
  2
LAYER170
 70
               0
 62
               7
  6
CONTINUOUS
  0
LAYER
  2
LAYER171
 70
               0
 62
               7
  6
CONTINUOUS
  0
LAYER
  2
LAYER172
 70
               0
 62
               7
  6
CONTINUOUS
  0
LAYER
  2
LAYER173
 70
               0
 62
               7
  6
CONTINUOUS
  0
LAYER
  2
LAYER174
 70
               0
 62
               7
  6
CONTINUOUS
  0
LAYER
  2
LAYER175
 70
               0
 62
               7
  6
CONTINUOUS
  0
LAYER
  2
LAYER176
 70
               0
 62
               7
  6
CONTINUOUS
  0
LAYER
  2
LAYER177
 70
               0
 62
               7
  6
CONTINUOUS
  0
LAYER
  2
LAYER178
 70
               0
 62
               7
  6
CONTINUOUS
  0
LAYER
  2
LAYER179
 70
               0
 62
               7
  6
CONTINUOUS
  0
LAYER
  2
LAYER180
 70
               0
 62
               7
  6
CONTINUOUS
  0
LAYER
  2
LAYER181
 70
               0
 62
               7
  6
CONTINUOUS
  0
LAYER
  2
LAYER182
 70
               0
 62
               7
  6
CONTINUOUS
  0
LAYER
  2
LAYER183
 70
               0
 62
               7
  6
CONTINUOUS
  0
LAYER
  2
LAYER184
 70
               0
 62
               7
  6
CONTINUOUS
  0
LAYER
  2
LAYER185
 70
               0
 62
               7
  6
CONTINUOUS
  0
LAYER
  2
LAYER186
 70
               0
 62
               7
  6
CONTINUOUS
  0
LAYER
  2
LAYER187
 70
               0
 62
               7
  6
CONTINUOUS
  0
LAYER
  2
LAYER188
 70
               0
 62
               7
  6
CONTINUOUS
  0
LAYER
  2
LAYER189
 70
               0
 62
               7
  6
CONTINUOUS
  0
LAYER
  2
LAYER190
 70
               0
 62
               7
  6
CONTINUOUS
  0
LAYER
  2
LAYER191
 70
               0
 62
               7
  6
CONTINUOUS
  0
LAYER
  2
LAYER192
 70
               0
 62
               7
  6
CONTINUOUS
  0
LAYER
  2
LAYER193
 70
               0
 62
               7
  6
CONTINUOUS
  0
LAYER
  2
LAYER194
 70
               0
 62
               7
  6
CONTINUOUS
  0
LAYER
  2
LAYER195
 70
               0
 62
               7
  6
CONTINUOUS
  0
LAYER
  2
LAYER196
 70
               0
 62
               7
  6
CONTINUOUS
  0
LAYER
  2
LAYER197
 70
               0
 62
               7
  6
CONTINUOUS
  0
LAYER
  2
LAYER198
 70
               0
 62
               7
  6
CONTINUOUS
  0
LAYER
  2
LAYER199
 70
               0
 62
               7
  6
CONTINUOUS
  0
LAYER
  2
LAYER200
 70
               0
 62
               7
  6
CONTINUOUS
  0
LAYER
  2
LAYER201
 70
               0
 62
               7
  6
CONTINUOUS
  0
LAYER
  2
LAYER202
 70
               0
 62
               7
  6
CONTINUOUS
  0
LAYER
  2
LAYER203
 70
               0
 62
               7
  6
CONTINUOUS
  0
LAYER
  2
LAYER204
 70
               0
 62
               7
  6
CONTINUOUS
  0
LAYER
  2
LAYER205
 70
               0
 62
               7
  6
CONTINUOUS
  0
LAYER
  2
LAYER206
 70
               0
 62
               7
  6
CONTINUOUS
  0
LAYER
  2
LAYER207
 70
               0
 62
               7
  6
CONTINUOUS
  0
LAYER
  2
LAYER208
 70
               0
 62
               7
  6
CONTINUOUS
  0
LAYER
  2
LAYER209
 70
               0
 62
               7
  6
CONTINUOUS
  0
LAYER
  2
LAYER210
 70
               0
 62
               7
  6
CONTINUOUS
  0
LAYER
  2
LAYER211
 70
               0
 62
               7
  6
CONTINUOUS
  0
LAYER
  2
LAYER212
 70
               0
 62
               7
  6
CONTINUOUS
  0
LAYER
  2
LAYER213
 70
               0
 62
               7
  6
CONTINUOUS
  0
LAYER
  2
LAYER214
 70
               0
 62
               7
  6
CONTINUOUS
  0
LAYER
  2
LAYER215
 70
               0
 62
               7
  6
CONTINUOUS
  0
LAYER
  2
LAYER216
 70
               0
 62
               7
  6
CONTINUOUS
  0
LAYER
  2
LAYER217
 70
               0
 62
               7
  6
CONTINUOUS
  0
LAYER
  2
LAYER218
 70
               0
 62
               7
  6
CONTINUOUS
  0
LAYER
  2
LAYER219
 70
               0
 62
               7
  6
CONTINUOUS
  0
LAYER
  2
LAYER220
 70
               0
 62
               7
  6
CONTINUOUS
  0
LAYER
  2
LAYER221
 70
               0
 62
               7
  6
CONTINUOUS
  0
LAYER
  2
LAYER222
 70
               0
 62
               7
  6
CONTINUOUS
  0
LAYER
  2
LAYER223
 70
               0
 62
               7
  6
CONTINUOUS
  0
LAYER
  2
LAYER224
 70
               0
 62
               7
  6
CONTINUOUS
  0
LAYER
  2
LAYER225
 70
               0
 62
               7
  6
CONTINUOUS
  0
LAYER
  2
LAYER226
 70
               0
 62
               7
  6
CONTINUOUS
  0
LAYER
  2
LAYER227
 70
               0
 62
               7
  6
CONTINUOUS
  0
LAYER
  2
LAYER228
 70
               0
 62
               7
  6
CONTINUOUS
  0
LAYER
  2
LAYER229
 70
               0
 62
               7
  6
CONTINUOUS
  0
LAYER
  2
LAYER230
 70
               0
 62
               7
  6
CONTINUOUS
  0
LAYER
  2
LAYER231
 70
               0
 62
               7
  6
CONTINUOUS
  0
LAYER
  2
LAYER232
 70
               0
 62
               7
  6
CONTINUOUS
  0
LAYER
  2
LAYER233
 70
               0
 62
               7
  6
CONTINUOUS
  0
LAYER
  2
LAYER234
 70
               0
 62
               7
  6
CONTINUOUS
  0
LAYER
  2
LAYER235
 70
               0
 62
               7
  6
CONTINUOUS
  0
LAYER
  2
LAYER236
 70
               0
 62
               7
  6
CONTINUOUS
  0
LAYER
  2
LAYER237
 70
               0
 62
               7
  6
CONTINUOUS
  0
LAYER
  2
LAYER238
 70
               0
 62
               7
  6
CONTINUOUS
  0
LAYER
  2
LAYER239
 70
               0
 62
               7
  6
CONTINUOUS
  0
LAYER
  2
LAYER240
 70
               0
 62
               7
  6
CONTINUOUS
  0
LAYER
  2
LAYER241
 70
               0
 62
               7
  6
CONTINUOUS
  0
LAYER
  2
LAYER242
 70
               0
 62
               7
  6
CONTINUOUS
  0
LAYER
  2
LAYER243
 70
               0
 62
               7
  6
CONTINUOUS
  0
LAYER
  2
LAYER244
 70
               0
 62
               7
  6
CONTINUOUS
  0
LAYER
  2
LAYER245
 70
               0
 62
               7
  6
CONTINUOUS
  0
LAYER
  2
LAYER246
 70
               0
 62
               7
  6
CONTINUOUS
  0
LAYER
  2
LAYER247
 70
               0
 62
               7
  6
CONTINUOUS
  0
LAYER
  2
LAYER248
 70
               0
 62
               7
  6
CONTINUOUS
  0
LAYER
  2
LAYER249
 70
               0
 62
               7
  6
CONTINUOUS
  0
LAYER
  2
LAYER250
 70
               0
 62
               7
  6
CONTINUOUS
  0
LAYER
  2
LAYER251
 70
               0
 62
               7
  6
CONTINUOUS
  0
LAYER
  2
LAYER252
 70
               0
 62
               7
  6
CONTINUOUS
  0
LAYER
  2
LAYER253
 70
               0
 62
               7
  6
CONTINUOUS
  0
LAYER
  2
LAYER254
 70
               0
 62
               7
  6
CONTINUOUS
  0
LAYER
  2
LAYER255
 70
               0
 62
               7
  6
CONTINUOUS
  0
ENDTAB
  0
TABLE
  2
STYLE
 70
               1
  0
STYLE
  2
STANDARD
 70
               0
 40
0.0
 41
0.8
 50
0.0
 71
               0
 42
40.0
  3
MS PGothic.ttf
  4

  0
ENDTAB
  0
TABLE
  2
VIEW
 70
               0
  0
VIEW
  2
QQQQ
 70
               0
 40
2263.3580996903379
 10
0.0
 20
-448.63520849510155
 41
1676.2850000000005
 11
0.0
 21
0.0
 31
1.0
 12
100.0
 22
100.0
 32
0.0
 42
50.0
 43
0.0
 44
0.0
 50
0.0
 71
               0
  0
ENDTAB
  0
TABLE
  2
UCS
 70
               0
  0
ENDTAB
  0
TABLE
  2
APPID
 70
               1
  0
APPID
  2
ACAD
 70
               0
  0
ENDTAB
  0
TABLE
  2
DIMSTYLE
 70
               1
  0
DIMSTYLE
  2
STANDARD
 70
               0
  3

  4

  5

  6

  7

 40
1.0
 41
0.18
 42
0.0625
 43
0.38
 44
0.18
 45
0.0
 46
0.0
 47
0.0
 48
0.0
140
0.18
141
0.09
142
0.0
143
25.399999999999999
144
1.0
145
0.0
146
1.0
147
0.09
 71
               0
 72
               0
 73
               1
 74
               1
 75
               0
 76
               0
 77
               0
 78
               0
170
               0
171
               2
172
               0
173
               0
174
               0
175
               0
176
               0
177
               0
178
               0
  0
ENDTAB
  0
ENDSEC
  0
SECTION
  2
BLOCKS
  0
ENDSEC
  0
SECTION
  2
ENTITIES
  0
LINE
  8
0
  6
CONTINUOUS
 62
               3
  5
136
 10
-57.000000000000085
 20
-555.50872801636353
 30
0.0
 11
56.999999999999829
 21
-555.50872801636353
 31
0.0
  0
LINE
  8
0
  6
CONTINUOUS
 62
               3
  5
137
 10
-57.000000000000085
 20
-555.50872801636353
 30
0.0
 11
-57.000000000000085
 21
-455.50872801636353
 31
0.0
  0
LINE
  8
0
  6
CONTINUOUS
 62
               3
  5
138
 10
56.999999999999829
 20
-555.50872801636353
 30
0.0
 11
56.999999999999829
 21
-455.50872801636353
 31
0.0
  0
LINE
  8
0
  6
CONTINUOUS
 62
               3
  5
139
 10
-57.000000000000085
 20
-455.50872801636353
 30
0.0
 11
-58.000000000000028
 21
-454.50872801636353
 31
0.0
  0
LINE
  8
0
  6
CONTINUOUS
 62
               3
  5
13A
 10
56.999999999999829
 20
-455.50872801636353
 30
0.0
 11
57.999999999999915
 21
-454.50872801636308
 31
0.0
  0
LINE
  8
0
  6
CONTINUOUS
 62
               3
  5
13B
 10
57.999999999999915
 20
-454.50872801636308
 30
0.0
 11
58.000000000000114
 21
-443.50872801636433
 31
0.0
  0
LINE
  8
0
  6
CONTINUOUS
 62
               3
  5
13C
 10
-58.000000000000114
 20
-443.50872801636376
 30
0.0
 11
58.000000000000114
 21
-443.50872801636433
 31
0.0
  0
LINE
  8
0
  6
CONTINUOUS
 62
               3
  5
13D
 10
-58.000000000000114
 20
-443.50872801636433
 30
0.0
 11
-58.000000000000114
 21
-454.50872801636342
 31
0.0
  0
CIRCLE
  8
0
  6
CONTINUOUS
 62
               3
  5
13E
 10
0.0
 20
467.00872801636353
 30
0.0
 40
75.0
  0
CIRCLE
  8
0
  6
CONTINUOUS
 62
               3
  5
13F
 10
0.0
 20
467.00872801636353
 30
0.0
 40
52.5
  0
LINE
  8
0
  6
CONTINUOUS
 62
               3
  5
140
 10
-20.0
 20
380.79822981573841
 30
0.0
 11
-20.0
 21
394.72456654235828
 31
0.0
  0
LINE
  8
0
  6
CONTINUOUS
 62
               3
  5
141
 10
20.0
 20
394.72456654235828
 30
0.0
 11
20.0
 21
380.79822981573841
 31
0.0
  0
ARC
  8
0
  6
CONTINUOUS
 62
               3
  5
142
 10
0.0
 20
467.00872801636353
 30
0.0
 40
88.5
 50
256.93897588514983
 51
283.06102411474581
  0
LINE
  8
0
  6
CONTINUOUS
 62
               3
  5
143
 10
86.21049820062467
 20
447.00872801636353
 30
0.0
 11
72.284161474004804
 21
447.00872801636353
 31
0.0
  0
LINE
  8
0
  6
CONTINUOUS
 62
               3
  5
144
 10
72.284161474004804
 20
487.00872801636353
 30
0.0
 11
86.21049820062467
 21
487.00872801636353
 31
0.0
  0
ARC
  8
0
  6
CONTINUOUS
 62
               3
  5
145
 10
0.0
 20
467.00872801636353
 30
0.0
 40
88.5
 50
346.93897588513238
 51
373.06102411472841
  0
LINE
  8
0
  6
CONTINUOUS
 62
               3
  5
146
 10
20.0
 20
553.21922621698843
 30
0.0
 11
20.0
 21
539.29288949036788
 31
0.0
  0
LINE
  8
0
  6
CONTINUOUS
 62
               3
  5
147
 10
-20.0
 20
539.29288949036788
 30
0.0
 11
-20.0
 21
553.21922621698843
 31
0.0
  0
ARC
  8
0
  6
CONTINUOUS
 62
               3
  5
148
 10
0.0
 20
467.00872801636353
 30
0.0
 40
88.5
 50
76.938975885184576
 51
103.06102411478062
  0
LINE
  8
0
  6
CONTINUOUS
 62
               3
  5
149
 10
-86.210498200625807
 20
487.00872801636353
 30
0.0
 11
-72.284161474004804
 21
487.00872801636353
 31
0.0
  0
LINE
  8
0
  6
CONTINUOUS
 62
               3
  5
14A
 10
-72.284161474004804
 20
447.00872801636353
 30
0.0
 11
-86.210498200625807
 21
447.00872801636353
 31
0.0
  0
ARC
  8
0
  6
CONTINUOUS
 62
               3
  5
14B
 10
0.0
 20
467.00872801636353
 30
0.0
 40
88.5
 50
166.9389758851672
 51
193.0610241147632
  0
LINE
  8
0
  6
CONTINUOUS
 62
               3
  5
14C
 10
22.000000000000426
 20
419.34060449550213
 30
0.0
 11
22.000000000000455
 21
514.67685153722311
 31
0.0
  0
LINE
  8
0
  6
CONTINUOUS
 62
               3
  5
14D
 10
-40.000000000000028
 20
434.57032484974582
 30
0.0
 11
-40.000000000000014
 21
501.01240428820222
 31
0.0
  0
LINE
  8
0
  6
CONTINUOUS
 62
               3
  5
14E
 10
-140.0
 20
522.00872801636399
 30
0.0
 11
-139.3284438740352
 21
522.00872801636399
 31
0.0
  0
LINE
  8
0
  6
CONTINUOUS
 62
               3
  5
14F
 10
-136.99999999999932
 20
524.33717189039987
 30
0.0
 11
-139.3284438740352
 21
522.00872801636399
 31
0.0
  0
LINE
  8
0
  6
CONTINUOUS
 62
               3
  5
150
 10
-140.0
 20
524.33717189039987
 30
0.0
 11
-142.5
 21
524.33717189039987
 31
0.0
  0
ARC
  8
0
  6
CONTINUOUS
 62
               3
  5
151
 10
-142.5
 20
521.83717189039987
 30
0.0
 40
2.5
 50
89.999999999982862
 51
179.99999999996572
  0
LINE
  8
0
  6
CONTINUOUS
 62
               3
  5
152
 10
-140.0
 20
412.00872801636399
 30
0.0
 11
-139.3284438740352
 21
412.00872801636399
 31
0.0
  0
LINE
  8
0
  6
CONTINUOUS
 62
               3
  5
153
 10
-136.99999999999932
 20
409.68028414232856
 30
0.0
 11
-139.3284438740352
 21
412.00872801636399
 31
0.0
  0
LINE
  8
0
  6
CONTINUOUS
 62
               3
  5
154
 10
-139.3284438740352
 20
522.00872801636399
 30
0.0
 11
-139.3284438740352
 21
412.00872801636399
 31
0.0
  0
LINE
  8
0
  6
CONTINUOUS
 62
               3
  5
155
 10
-136.99999999999932
 20
409.68028414232856
 30
0.0
 11
-136.99999999999932
 21
524.33717189039987
 31
0.0
  0
LINE
  8
0
  6
CONTINUOUS
 62
               3
  5
156
 10
-140.0
 20
409.68028414232856
 30
0.0
 11
-140.0
 21
524.33717189039987
 31
0.0
  0
LINE
  8
0
  6
CONTINUOUS
 62
               3
  5
157
 10
-140.0
 20
409.68028414232856
 30
0.0
 11
-142.5
 21
409.68028414232856
 31
0.0
  0
LINE
  8
0
  6
CONTINUOUS
 62
               3
  5
158
 10
-145.0
 20
521.83717189039987
 30
0.0
 11
-145.0
 21
412.18028414232856
 31
0.0
  0
ARC
  8
0
  6
CONTINUOUS
 62
               3
  5
159
 10
-142.5
 20
412.18028414232856
 30
0.0
 40
2.5
 50
179.99999999996572
 51
269.99999999994793
  0
LINE
  8
0
  6
CONTINUOUS
 62
               3
  5
15A
 10
-45.740019903265647
 20
527.52404061917957
 30
0.0
 11
-136.99999999999932
 21
524.33717189039987
 31
0.0
  0
ARC
  8
0
  6
CONTINUOUS
 62
               3
  5
15B
 10
-45.914517386778471
 20
532.52099475427497
 30
0.0
 40
5.0
 50
271.99999999994748
 51
305.0248364943705
  0
LINE
  8
0
  6
CONTINUOUS
 62
               3
  5
15C
 10
-64.676493040970442
 20
407.15469162697775
 30
0.0
 11
-136.99999999999932
 21
409.68028414232856
 31
0.0
  0
ARC
  8
0
  6
CONTINUOUS
 62
               3
  5
15D
 10
-0.0000000000003126
 20
467.00872801636331
 30
0.0
 40
51.5
 50
64.710988473444573
 51
89.999999999982748
  0
ARC
  8
0
  6
CONTINUOUS
 62
               3
  5
15E
 10
-0.0000000000003126
 20
467.00872801636331
 30
0.0
 40
51.5
 50
269.99999999994793
 51
295.28901152648587
  0
ARC
  8
0
  6
CONTINUOUS
 62
               3
  5
15F
 10
-0.0000000000003126
 20
467.00872801636331
 30
0.0
 40
51.5
 50
219.04067263631714
 51
269.99999999994793
  0
ARC
  8
0
  6
CONTINUOUS
 62
               3
  5
160
 10
-0.0000000000003126
 20
467.00872801636331
 30
0.0
 40
51.5
 50
89.999999999982748
 51
140.9593273636132
  0
LINE
  8
0
  6
CONTINUOUS
 62
               3
  5
161
 10
54.999999999999744
 20
327.00872801636365
 30
0.0
 11
54.999999999999744
 21
327.68028414232788
 31
0.0
  0
LINE
  8
0
  6
CONTINUOUS
 62
               3
  5
162
 10
57.328443874035059
 20
330.00872801636376
 30
0.0
 11
54.999999999999744
 21
327.68028414232788
 31
0.0
  0
LINE
  8
0
  6
CONTINUOUS
 62
               3
  5
163
 10
-55.000000000000256
 20
327.00872801636376
 30
0.0
 11
-55.000000000000256
 21
327.68028414232799
 31
0.0
  0
LINE
  8
0
  6
CONTINUOUS
 62
               3
  5
164
 10
-57.32844387403614
 20
330.00872801636388
 30
0.0
 11
-55.000000000000256
 21
327.68028414232799
 31
0.0
  0
LINE
  8
0
  6
CONTINUOUS
 62
               3
  5
165
 10
-55.000000000000256
 20
327.68028414232799
 30
0.0
 11
54.999999999999744
 21
327.68028414232788
 31
0.0
  0
LINE
  8
0
  6
CONTINUOUS
 62
               3
  5
166
 10
57.328443874035059
 20
330.00872801636376
 30
0.0
 11
-57.32844387403614
 21
330.00872801636388
 31
0.0
  0
LINE
  8
0
  6
CONTINUOUS
 62
               3
  5
167
 10
-54.82844387403614
 20
322.00872801636376
 30
0.0
 11
54.828443874035059
 21
322.00872801636365
 31
0.0
  0
LINE
  8
0
  6
CONTINUOUS
 62
               3
  5
168
 10
57.328443874035059
 20
327.00872801636365
 30
0.0
 11
-57.32844387403614
 21
327.00872801636376
 31
0.0
  0
LINE
  8
0
  6
CONTINUOUS
 62
               3
  5
169
 10
-57.32844387403614
 20
327.00872801636376
 30
0.0
 11
-57.32844387403614
 21
324.50872801636376
 31
0.0
  0
LINE
  8
0
  6
CONTINUOUS
 62
               3
  5
16A
 10
57.328443874035059
 20
327.00872801636365
 30
0.0
 11
57.328443874035059
 21
324.50872801636365
 31
0.0
  0
ARC
  8
0
  6
CONTINUOUS
 62
               3
  5
16B
 10
54.828443874035059
 20
324.50872801636365
 30
0.0
 40
2.5
 50
269.99999999994782
 51
359.99999999993014
  0
ARC
  8
0
  6
CONTINUOUS
 62
               3
  5
16C
 10
-54.82844387403614
 20
324.50872801636376
 30
0.0
 40
2.5
 50
179.99999999996572
 51
269.99999999994793
  0
LINE
  8
0
  6
CONTINUOUS
 62
               3
  5
16D
 10
59.854036389386067
 20
402.33223497539427
 30
0.0
 11
57.328443874035059
 21
330.00872801636376
 31
0.0
  0
LINE
  8
0
  6
CONTINUOUS
 62
               3
  5
16E
 10
-59.85403638938746
 20
402.33223497539495
 30
0.0
 11
-57.32844387403614
 21
330.00872801636388
 31
0.0
  0
LINE
  8
0
  6
CONTINUOUS
 62
               3
  5
16F
 10
140.00000000000026
 20
522.00872801636376
 30
0.0
 11
139.32844387403546
 21
522.00872801636376
 31
0.0
  0
LINE
  8
0
  6
CONTINUOUS
 62
               3
  5
170
 10
136.99999999999957
 20
524.33717189039965
 30
0.0
 11
139.32844387403546
 21
522.00872801636376
 31
0.0
  0
LINE
  8
0
  6
CONTINUOUS
 62
               3
  5
171
 10
140.00000000000026
 20
524.33717189039965
 30
0.0
 11
142.50000000000026
 21
524.33717189039965
 31
0.0
  0
LINE
  8
0
  6
CONTINUOUS
 62
               3
  5
172
 10
48.538275305084255
 20
527.42632338731357
 30
0.0
 11
136.99999999999957
 21
524.33717189039965
 31
0.0
  0
ARC
  8
0
  6
CONTINUOUS
 62
               3
  5
173
 10
142.50000000000026
 20
521.83717189039965
 30
0.0
 40
2.5
 50
0.0
 51
89.999999999982535
  0
LINE
  8
0
  6
CONTINUOUS
 62
               3
  5
174
 10
140.00000000000026
 20
412.00872801636376
 30
0.0
 11
139.32844387403546
 21
412.00872801636376
 31
0.0
  0
LINE
  8
0
  6
CONTINUOUS
 62
               3
  5
175
 10
136.99999999999957
 20
409.68028414232856
 30
0.0
 11
139.32844387403546
 21
412.00872801636376
 31
0.0
  0
LINE
  8
0
  6
CONTINUOUS
 62
               3
  5
176
 10
139.32844387403546
 20
522.00872801636376
 30
0.0
 11
139.32844387403546
 21
412.00872801636376
 31
0.0
  0
LINE
  8
0
  6
CONTINUOUS
 62
               3
  5
177
 10
136.99999999999957
 20
409.68028414232856
 30
0.0
 11
136.99999999999957
 21
524.33717189039965
 31
0.0
  0
LINE
  8
0
  6
CONTINUOUS
 62
               3
  5
178
 10
140.00000000000026
 20
409.68028414232856
 30
0.0
 11
140.00000000000026
 21
524.33717189039965
 31
0.0
  0
LINE
  8
0
  6
CONTINUOUS
 62
               3
  5
179
 10
140.00000000000026
 20
409.68028414232856
 30
0.0
 11
142.50000000000026
 21
409.68028414232856
 31
0.0
  0
LINE
  8
0
  6
CONTINUOUS
 62
               3
  5
17A
 10
145.00000000000026
 20
521.83717189039965
 30
0.0
 11
145.00000000000026
 21
412.18028414232856
 31
0.0
  0
ARC
  8
0
  6
CONTINUOUS
 62
               3
  5
17B
 10
142.50000000000026
 20
412.18028414232856
 30
0.0
 40
2.5
 50
269.99999999994793
 51
359.99999999993014
  0
LINE
  8
0
  6
CONTINUOUS
 62
               3
  5
17C
 10
64.676493040969063
 20
407.15469162697752
 30
0.0
 11
136.99999999999957
 21
409.68028414232856
 31
0.0
  0
ARC
  8
0
  6
CONTINUOUS
 62
               3
  5
17D
 10
0.0
 20
467.00872801636353
 30
0.0
 40
77.5
 50
104.95524831662304
 51
128.77769173213508
  0
ARC
  8
0
  6
CONTINUOUS
 62
               3
  5
17E
 10
0.0
 20
467.00872801636353
 30
0.0
 40
77.5
 50
51.222308267829924
 51
75.407449397952007
  0
ARC
  8
0
  6
CONTINUOUS
 62
               3
  5
17F
 10
-64.850990524482924
 20
402.15773749188236
 30
0.0
 40
5.0
 50
1.999999999999736
 51
87.999999999983132
  0
ARC
  8
0
  6
CONTINUOUS
 62
               3
  5
180
 10
64.85099052448156
 20
402.15773749188213
 30
0.0
 40
5.0
 50
91.999999999982279
 51
177.99999999996859
  0
LINE
  8
0
  6
CONTINUOUS
 62
               3
  5
181
 10
-75.0
 20
49.491271983636494
 30
0.0
 11
74.999999999999986
 21
49.491271983636494
 31
0.0
  0
LINE
  8
0
  6
CONTINUOUS
 62
               3
  5
182
 10
-88.500000000000227
 20
39.491271983636494
 30
0.0
 11
-88.500000000000227
 21
32.491271983636835
 31
0.0
  0
LINE
  8
0
  6
CONTINUOUS
 62
               3
  5
183
 10
-88.500000000000227
 20
39.491271983636494
 30
0.0
 11
-75.0
 21
49.491271983636494
 31
0.0
  0
ARC
  8
0
  6
CONTINUOUS
 62
               3
  5
184
 10
-76.999999999999886
 20
27.908696288681114
 30
0.0
 40
4.9999999999999991
 50
0.0
 51
66.421821521759824
  0
LINE
  8
0
  6
CONTINUOUS
 62
               3
  5
185
 10
-88.500000000000227
 20
32.491271983636835
 30
0.0
 11
88.499999999999645
 21
32.491271983636835
 31
0.0
  0
LINE
  8
0
  6
CONTINUOUS
 62
               3
  5
186
 10
-71.999999999999886
 20
27.908696288681114
 30
0.0
 11
-71.999999999999886
 21
-46.973074263510725
 31
0.0
  0
LINE
  8
0
  6
CONTINUOUS
 62
               3
  5
187
 10
71.999999999999872
 20
-46.973074263493913
 30
0.0
 11
71.999999999999872
 21
27.908696288681114
 31
0.0
  0
LINE
  8
0
  6
CONTINUOUS
 62
               3
  5
188
 10
-20.0
 20
32.491271983636835
 30
0.0
 11
-20.0
 21
49.491271983636494
 31
0.0
  0
LINE
  8
0
  6
CONTINUOUS
 62
               3
  5
189
 10
20.0
 20
49.491271983636494
 30
0.0
 11
20.0
 21
32.491271983636835
 31
0.0
  0
LINE
  8
0
  6
CONTINUOUS
 62
               3
  5
18A
 10
-20.0
 20
39.491271983636494
 30
0.0
 11
20.0
 21
39.491271983636494
 31
0.0
  0
LINE
  8
0
  6
CONTINUOUS
 62
               3
  5
18B
 10
-72.284161474005373
 20
49.491271983636494
 30
0.0
 11
-72.284161474005373
 21
32.491271983636835
 31
0.0
  0
LINE
  8
0
  6
CONTINUOUS
 62
               3
  5
18C
 10
-86.210498200625238
 20
39.491271983636494
 30
0.0
 11
-86.210498200625238
 21
32.491271983636835
 31
0.0
  0
LINE
  8
0
  6
CONTINUOUS
 62
               3
  5
18D
 10
-88.500000000000227
 20
39.491271983636494
 30
0.0
 11
-86.210498200625238
 21
39.491271983636494
 31
0.0
  0
LINE
  8
0
  6
CONTINUOUS
 62
               3
  5
18E
 10
-86.210498200625238
 20
39.491271983636494
 30
0.0
 11
-72.284161474005373
 21
49.491271983636494
 31
0.0
  0
LINE
  8
0
  6
CONTINUOUS
 62
               3
  5
18F
 10
88.499999999999645
 20
39.491271983636494
 30
0.0
 11
88.499999999999645
 21
32.491271983636835
 31
0.0
  0
LINE
  8
0
  6
CONTINUOUS
 62
               3
  5
190
 10
88.499999999999645
 20
39.491271983636494
 30
0.0
 11
74.999999999999986
 21
49.491271983636494
 31
0.0
  0
ARC
  8
0
  6
CONTINUOUS
 62
               3
  5
191
 10
76.999999999999872
 20
27.908696288681114
 30
0.0
 40
4.9999999999999991
 50
113.57817847813646
 51
179.99999999989618
  0
LINE
  8
0
  6
CONTINUOUS
 62
               3
  5
192
 10
72.284161474004222
 20
49.491271983636494
 30
0.0
 11
72.284161474004222
 21
32.491271983636835
 31
0.0
  0
LINE
  8
0
  6
CONTINUOUS
 62
               3
  5
193
 10
86.210498200625224
 20
39.491271983636494
 30
0.0
 11
86.210498200625224
 21
32.491271983636835
 31
0.0
  0
LINE
  8
0
  6
CONTINUOUS
 62
               3
  5
194
 10
88.499999999999645
 20
39.491271983636494
 30
0.0
 11
86.210498200625224
 21
39.491271983636494
 31
0.0
  0
LINE
  8
0
  6
CONTINUOUS
 62
               3
  5
195
 10
86.210498200625224
 20
39.491271983636494
 30
0.0
 11
72.284161474004222
 21
49.491271983636494
 31
0.0
  0
ARC
  8
0
  6
CONTINUOUS
 62
               3
  5
196
 10
-65.0
 20
-179.00872801636351
 30
0.0
 40
2.4999999999999996
 50
89.999999999948017
 51
269.9999999998447
  0
ARC
  8
0
  6
CONTINUOUS
 62
               3
  5
197
 10
-55.0
 20
-57.508728016363506
 30
0.0
 40
19.999999999999996
 50
148.21166938286288
 51
167.26981986159129
  0
LINE
  8
0
  6
CONTINUOUS
 62
               3
  5
198
 10
-140.0
 20
-61.508728016363619
 30
0.0
 11
-139.3284438740356
 21
-61.508728016363619
 31
0.0
  0
LINE
  8
0
  6
CONTINUOUS
 62
               3
  5
199
 10
-136.82844387403554
 20
-59.008728016363392
 30
0.0
 11
-139.3284438740356
 21
-61.508728016363619
 31
0.0
  0
LINE
  8
0
  6
CONTINUOUS
 62
               3
  5
19A
 10
-136.8284438740356
 20
-59.008728016363449
 30
0.0
 11
-79.210967671861312
 21
-56.996681411211199
 31
0.0
  0
LINE
  8
0
  6
CONTINUOUS
 62
               3
  5
19B
 10
-140.0
 20
-58.908728016363483
 30
0.0
 11
-142.5
 21
-58.908728016363483
 31
0.0
  0
ARC
  8
0
  6
CONTINUOUS
 62
               3
  5
19C
 10
-142.5
 20
-61.408728016363483
 30
0.0
 40
2.5
 50
89.999999999948344
 51
179.99999999989603
  0
ARC
  8
0
  6
CONTINUOUS
 62
               3
  5
19D
 10
-79.385465155373808
 20
-51.999727276115749
 30
0.0
 40
5.0
 50
271.99999999984334
 51
347.26981986148633
  0
LINE
  8
0
  6
CONTINUOUS
 62
               3
  5
19E
 10
-140.0
 20
-171.50872801636351
 30
0.0
 11
-139.3284438740356
 21
-171.50872801636351
 31
0.0
  0
LINE
  8
0
  6
CONTINUOUS
 62
               3
  5
19F
 10
-136.82844387403554
 20
-174.00872801636277
 30
0.0
 11
-139.3284438740356
 21
-171.50872801636351
 31
0.0
  0
LINE
  8
0
  6
CONTINUOUS
 62
               3
  5
1A0
 10
-139.3284438740356
 20
-61.508728016363619
 30
0.0
 11
-139.3284438740356
 21
-171.50872801636351
 31
0.0
  0
LINE
  8
0
  6
CONTINUOUS
 62
               3
  5
1A1
 10
-140.0
 20
-174.1087280163635
 30
0.0
 11
-140.0
 21
-58.908728016363483
 31
0.0
  0
LINE
  8
0
  6
CONTINUOUS
 62
               3
  5
1A2
 10
-145.0
 20
-61.408728016363483
 30
0.0
 11
-145.0
 21
-171.6087280163635
 31
0.0
  0
LINE
  8
0
  6
CONTINUOUS
 62
               3
  5
1A3
 10
-140.0
 20
-174.1087280163635
 30
0.0
 11
-142.5
 21
-174.1087280163635
 31
0.0
  0
ARC
  8
0
  6
CONTINUOUS
 62
               3
  5
1A4
 10
-142.5
 20
-171.6087280163635
 30
0.0
 40
2.5
 50
179.99999999989603
 51
269.99999999984499
  0
LINE
  8
0
  6
CONTINUOUS
 62
               3
  5
1A5
 10
-136.82844387403554
 20
-59.008728016363392
 30
0.0
 11
-136.8284438740348
 21
-174.00872801636351
 31
0.0
  0
LINE
  8
0
  6
CONTINUOUS
 62
               3
  5
1A6
 10
-136.8284438740348
 20
-174.00872801636351
 30
0.0
 11
-94.663333617757388
 21
-175.48116611221755
 31
0.0
  0
ARC
  8
0
  6
CONTINUOUS
 62
               3
  5
1A7
 10
-94.837831101269927
 20
-180.478120247313
 30
0.0
 40
5.0
 50
44.999999999974911
 51
87.999999999948912
  0
LINE
  8
0
  6
CONTINUOUS
 62
               3
  5
1A8
 10
-91.30229719533618
 20
-176.94258634138129
 30
0.0
 11
-76.464466094067262
 21
-191.78041744264979
 31
0.0
  0
LINE
  8
0
  6
CONTINUOUS
 62
               3
  5
1A9
 10
-65.0
 20
-176.52084503835502
 30
0.0
 11
-22.254158002493853
 21
-176.52084503835502
 31
0.0
  0
ARC
  8
0
  6
CONTINUOUS
 62
               3
  5
1AA
 10
54.999999999999986
 20
-57.508728016363506
 30
0.0
 40
19.999999999999996
 50
12.730180138373983
 51
31.788330617102318
  0
ARC
  8
0
  6
CONTINUOUS
 62
               3
  5
1AB
 10
79.385465155373808
 20
-51.999727276115749
 30
0.0
 40
5.0
 50
192.73018013840914
 51
268.00000000005218
  0
ARC
  8
0
  6
CONTINUOUS
 62
               3
  5
1AC
 10
64.999999999999986
 20
-179.00872801636351
 30
0.0
 40
2.4999999999999996
 50
270.00000000005082
 51
449.99999999994742
  0
LINE
  8
0
  6
CONTINUOUS
 62
               3
  5
1AD
 10
140.0
 20
-61.508728016363619
 30
0.0
 11
139.3284438740356
 21
-61.508728016363619
 31
0.0
  0
LINE
  8
0
  6
CONTINUOUS
 62
               3
  5
1AE
 10
136.82844387403554
 20
-59.008728016363392
 30
0.0
 11
139.3284438740356
 21
-61.508728016363619
 31
0.0
  0
LINE
  8
0
  6
CONTINUOUS
 62
               3
  5
1AF
 10
140.0
 20
-58.908728016363483
 30
0.0
 11
142.5
 21
-58.908728016363483
 31
0.0
  0
ARC
  8
0
  6
CONTINUOUS
 62
               3
  5
1B0
 10
142.5
 20
-61.408728016363483
 30
0.0
 40
2.5
 50
0.000000000069046
 51
90.000000000016726
  0
LINE
  8
0
  6
CONTINUOUS
 62
               3
  5
1B1
 10
140.0
 20
-171.50872801636351
 30
0.0
 11
139.3284438740356
 21
-171.50872801636351
 31
0.0
  0
LINE
  8
0
  6
CONTINUOUS
 62
               3
  5
1B2
 10
136.82844387403554
 20
-174.00872801636277
 30
0.0
 11
139.3284438740356
 21
-171.50872801636351
 31
0.0
  0
LINE
  8
0
  6
CONTINUOUS
 62
               3
  5
1B3
 10
139.3284438740356
 20
-61.508728016363619
 30
0.0
 11
139.3284438740356
 21
-171.50872801636351
 31
0.0
  0
LINE
  8
0
  6
CONTINUOUS
 62
               3
  5
1B4
 10
140.0
 20
-174.1087280163635
 30
0.0
 11
140.0
 21
-58.908728016363483
 31
0.0
  0
LINE
  8
0
  6
CONTINUOUS
 62
               3
  5
1B5
 10
145.0
 20
-61.408728016363483
 30
0.0
 11
145.0
 21
-171.6087280163635
 31
0.0
  0
LINE
  8
0
  6
CONTINUOUS
 62
               3
  5
1B6
 10
140.0
 20
-174.1087280163635
 30
0.0
 11
142.5
 21
-174.1087280163635
 31
0.0
  0
ARC
  8
0
  6
CONTINUOUS
 62
               3
  5
1B7
 10
142.5
 20
-171.6087280163635
 30
0.0
 40
2.5
 50
270.00000000005082
 51
359.9999999999992
  0
LINE
  8
0
  6
CONTINUOUS
 62
               3
  5
1B8
 10
136.82844387403554
 20
-59.008728016363392
 30
0.0
 11
136.8284438740348
 21
-174.00872801636351
 31
0.0
  0
LINE
  8
0
  6
CONTINUOUS
 62
               3
  5
1B9
 10
136.8284438740356
 20
-59.008728016363449
 30
0.0
 11
79.210967671861269
 21
-56.996681411211199
 31
0.0
  0
ARC
  8
0
  6
CONTINUOUS
 62
               3
  5
1BA
 10
-65.0
 20
-179.00872801636351
 30
0.0
 40
2.4999999999999996
 50
89.999999999948017
 51
269.9999999998447
  0
CIRCLE
  8
0
  6
CONTINUOUS
 62
               3
  5
1BB
 10
0.0000000000000426
 20
-116.50872801636342
 30
0.0
 40
57.5
  0
ARC
  8
0
  6
CONTINUOUS
 62
               3
  5
1BC
 10
-22.500000000000014
 20
-179.00872801636351
 30
0.0
 40
2.4999999999999996
 50
269.9999999998447
 51
449.99999999991297
  0
ARC
  8
0
  6
CONTINUOUS
 62
               3
  5
1BD
 10
22.499999999999986
 20
-179.00872801636351
 30
0.0
 40
2.4999999999999996
 50
89.999999999982606
 51
269.99999999984465
  0
LINE
  8
0
  6
CONTINUOUS
 62
               3
  5
1BE
 10
22.499999999999986
 20
-176.50872801636351
 30
0.0
 11
64.999999999998479
 21
-176.50872801636351
 31
0.0
  0
LINE
  8
0
  6
CONTINUOUS
 62
               3
  5
1BF
 10
22.499999999999986
 20
-181.50872801636351
 30
0.0
 11
65.000000000004476
 21
-181.50872801636351
 31
0.0
  0
LINE
  8
0
  6
CONTINUOUS
 62
               3
  5
1C0
 10
-65.000000000004505
 20
-181.50872801636351
 30
0.0
 11
-22.500000000000014
 21
-181.50872801636351
 31
0.0
  0
LINE
  8
0
  6
CONTINUOUS
 62
               3
  5
1C1
 10
-64.999999999998494
 20
-176.50872801636351
 30
0.0
 11
-22.500000000000014
 21
-176.50872801636351
 31
0.0
  0
ARC
  8
0
  6
CONTINUOUS
 62
               3
  5
1C2
 10
94.837831101269941
 20
-180.478120247313
 30
0.0
 40
5.0
 50
92.000000000016328
 51
134.99999999999039
  0
LINE
  8
0
  6
CONTINUOUS
 62
               3
  5
1C3
 10
91.30229719533618
 20
-176.94258634138129
 30
0.0
 11
76.464466094067248
 21
-191.78041744264976
 31
0.0
  0
LINE
  8
0
  6
CONTINUOUS
 62
               3
  5
1C4
 10
136.8284438740348
 20
-174.00872801636351
 30
0.0
 11
94.663333617757402
 21
-175.48116611221755
 31
0.0
  0
ARC
  8
0
  6
CONTINUOUS
 62
               3
  5
1C5
 10
-79.999999999999986
 20
-195.31595134858262
 30
0.0
 40
4.9999999999999991
 50
0.0
 51
44.99999999999207
  0
LINE
  8
0
  6
CONTINUOUS
 62
               3
  5
1C6
 10
-74.999999999999986
 20
-195.31595134858262
 30
0.0
 11
-75.0
 21
-294.50872801636331
 31
0.0
  0
LINE
  8
0
  6
CONTINUOUS
 62
               3
  5
1C7
 10
74.999999999999986
 20
-195.31595134858262
 30
0.0
 11
74.999999999999986
 21
-294.50872801636331
 31
0.0
  0
LINE
  8
0
  6
CONTINUOUS
 62
               3
  5
1C8
 10
-74.999999999999957
 20
-294.37720441924648
 30
0.0
 11
58.949000000000112
 21
-294.37720441924614
 31
0.0
  0
LINE
  8
0
  6
CONTINUOUS
 62
               3
  5
1C9
 10
71.756366543539272
 20
-294.37720441924614
 30
0.0
 11
74.999999999999474
 21
-294.37720441924614
 31
0.0
  0
ARC
  8
0
  6
CONTINUOUS
 62
               3
  5
1CA
 10
-278.92922884912474
 20
-416.04960283070909
 30
0.0
 40
359.11818398045398
 50
13.303286818137401
 51
28.552443501612977
  0
ARC
  8
0
  6
CONTINUOUS
 62
               3
  5
1CB
 10
-0.3311864699940799
 20
-307.80292692813987
 30
0.0
 40
73.327111796148202
 50
342.62945642124168
 51
419.8368916055386
  0
ARC
  8
0
  6
CONTINUOUS
 62
               3
  5
1CC
 10
79.999999999999986
 20
-195.31595134858262
 30
0.0
 40
4.9999999999999991
 50
134.99999999999193
 51
179.99999999996507
  0
LINE
  8
0
  6
CONTINUOUS
 62
               3
  5
1CD
 10
58.000000000000114
 20
-443.50872801636376
 30
0.0
 11
74.999999999999986
 21
-294.50872801636331
 31
0.0
  0
LINE
  8
0
  6
CONTINUOUS
 62
               3
  5
1CE
 10
-58.000000000000114
 20
-443.50872801636376
 30
0.0
 11
-75.0
 21
-294.50872801636331
 31
0.0
  0
LINE
  8
0
  6
CONTINUOUS
 62
               3
  5
1CF
 10
-71.999999999999886
 20
-41.973074263517873
 30
0.0
 11
-11.727000000000217
 21
-41.973074263510838
 31
0.0
  0
LINE
  8
0
  6
CONTINUOUS
 62
               3
  5
1D0
 10
11.726999999999604
 20
-41.973074263510838
 30
0.0
 11
71.999999999989527
 21
-41.973074263501076
 31
0.0
  0
LINE
  8
0
  6
CONTINUOUS
 62
               3
  5
1D1
 10
745.0
 20
49.491271983636494
 30
0.0
 11
595.0
 21
49.491271983636494
 31
0.0
  0
LINE
  8
0
  6
CONTINUOUS
 62
               3
  5
1D2
 10
758.50000000000023
 20
39.491271983636494
 30
0.0
 11
758.50000000000023
 21
32.491271983636835
 31
0.0
  0
LINE
  8
0
  6
CONTINUOUS
 62
               3
  5
1D3
 10
758.50000000000023
 20
39.491271983636494
 30
0.0
 11
745.0
 21
49.491271983636494
 31
0.0
  0
ARC
  8
0
  6
CONTINUOUS
 62
               3
  5
1D4
 10
746.99999999999977
 20
27.908696288681114
 30
0.0
 40
4.9999999999999991
 50
113.57817847813624
 51
179.99999999989618
  0
LINE
  8
0
  6
CONTINUOUS
 62
               3
  5
1D5
 10
758.50000000000023
 20
32.491271983636835
 30
0.0
 11
581.49999999999977
 21
32.491271983636835
 31
0.0
  0
LINE
  8
0
  6
CONTINUOUS
 62
               3
  5
1D6
 10
598.0
 20
-46.973074263510725
 30
0.0
 11
598.0
 21
27.908696288681114
 31
0.0
  0
LINE
  8
0
  6
CONTINUOUS
 62
               3
  5
1D7
 10
690.0
 20
32.491271983636835
 30
0.0
 11
690.0
 21
49.491271983636494
 31
0.0
  0
LINE
  8
0
  6
CONTINUOUS
 62
               3
  5
1D8
 10
650.0
 20
49.491271983636494
 30
0.0
 11
650.0
 21
32.491271983636835
 31
0.0
  0
LINE
  8
0
  6
CONTINUOUS
 62
               3
  5
1D9
 10
690.0
 20
39.491271983636494
 30
0.0
 11
650.0
 21
39.491271983636494
 31
0.0
  0
LINE
  8
0
  6
CONTINUOUS
 62
               3
  5
1DA
 10
742.2841614740048
 20
49.491271983636494
 30
0.0
 11
742.2841614740048
 21
32.491271983636835
 31
0.0
  0
LINE
  8
0
  6
CONTINUOUS
 62
               3
  5
1DB
 10
756.21049820062512
 20
39.491271983636494
 30
0.0
 11
756.21049820062512
 21
32.491271983636835
 31
0.0
  0
LINE
  8
0
  6
CONTINUOUS
 62
               3
  5
1DC
 10
758.50000000000023
 20
39.491271983636494
 30
0.0
 11
756.21049820062512
 21
39.491271983636494
 31
0.0
  0
LINE
  8
0
  6
CONTINUOUS
 62
               3
  5
1DD
 10
756.21049820062512
 20
39.491271983636494
 30
0.0
 11
742.2841614740048
 21
49.491271983636494
 31
0.0
  0
LINE
  8
0
  6
CONTINUOUS
 62
               3
  5
1DE
 10
581.49999999999977
 20
39.491271983636494
 30
0.0
 11
581.49999999999977
 21
32.491271983636835
 31
0.0
  0
LINE
  8
0
  6
CONTINUOUS
 62
               3
  5
1DF
 10
581.49999999999977
 20
39.491271983636494
 30
0.0
 11
595.0
 21
49.491271983636494
 31
0.0
  0
ARC
  8
0
  6
CONTINUOUS
 62
               3
  5
1E0
 10
593.0
 20
27.908696288681114
 30
0.0
 40
4.9999999999999991
 50
0.0
 51
66.421821521759668
  0
LINE
  8
0
  6
CONTINUOUS
 62
               3
  5
1E1
 10
597.7158385259952
 20
49.491271983636494
 30
0.0
 11
597.7158385259952
 21
32.491271983636835
 31
0.0
  0
LINE
  8
0
  6
CONTINUOUS
 62
               3
  5
1E2
 10
583.78950179937465
 20
39.491271983636494
 30
0.0
 11
583.78950179937465
 21
32.491271983636835
 31
0.0
  0
LINE
  8
0
  6
CONTINUOUS
 62
               3
  5
1E3
 10
581.49999999999977
 20
39.491271983636494
 30
0.0
 11
583.78950179937465
 21
39.491271983636494
 31
0.0
  0
LINE
  8
0
  6
CONTINUOUS
 62
               3
  5
1E4
 10
583.78950179937465
 20
39.491271983636494
 30
0.0
 11
597.7158385259952
 21
49.491271983636494
 31
0.0
  0
LINE
  8
0
  6
CONTINUOUS
 62
               3
  5
1E5
 10
681.72700000000009
 20
-46.973074263510725
 30
0.0
 11
598.0
 21
-46.973074263510725
 31
0.0
  0
ARC
  8
0
  6
CONTINUOUS
 62
               3
  5
1E6
 10
745.0
 20
-179.00872801636353
 30
0.0
 40
2.4999999999999996
 50
269.99999999984567
 51
449.99999999974102
  0
LINE
  8
0
  6
CONTINUOUS
 62
               3
  5
1E7
 10
692.50000000000068
 20
-176.50872801636353
 30
0.0
 11
745.0
 21
-176.50872801636353
 31
0.0
  0
LINE
  8
0
  6
CONTINUOUS
 62
               3
  5
1E8
 10
692.49999999999613
 20
-181.50872801636353
 30
0.0
 11
745.00000000000034
 21
-181.50872801636353
 31
0.0
  0
ARC
  8
0
  6
CONTINUOUS
 62
               3
  5
1E9
 10
692.50000000000068
 20
-179.00872801636353
 30
0.0
 40
2.4999999999999996
 50
89.999999999981569
 51
269.99999999984567
  0
ARC
  8
0
  6
CONTINUOUS
 62
               3
  5
1EA
 10
647.49999999999955
 20
-179.00872801636353
 30
0.0
 40
2.4999999999999996
 50
270.0000000000515
 51
449.99999999991297
  0
ARC
  8
0
  6
CONTINUOUS
 62
               3
  5
1EB
 10
615.0
 20
-57.50872801636352
 30
0.0
 40
19.999999999999996
 50
148.21166938286285
 51
167.26981986159126
  0
ARC
  8
0
  6
CONTINUOUS
 62
               3
  5
1EC
 10
590.61453484462618
 20
-51.999727276115763
 30
0.0
 40
5.0
 50
271.99999999984402
 51
347.26981986148633
  0
LINE
  8
0
  6
CONTINUOUS
 62
               3
  5
1ED
 10
530.0
 20
-61.508728016363634
 30
0.0
 11
530.67155612596434
 21
-61.508728016363634
 31
0.0
  0
LINE
  8
0
  6
CONTINUOUS
 62
               3
  5
1EE
 10
533.17155612596457
 20
-59.008728016363406
 30
0.0
 11
530.67155612596434
 21
-61.508728016363634
 31
0.0
  0
LINE
  8
0
  6
CONTINUOUS
 62
               3
  5
1EF
 10
530.0
 20
-58.908728016363497
 30
0.0
 11
527.5
 21
-58.908728016363497
 31
0.0
  0
ARC
  8
0
  6
CONTINUOUS
 62
               3
  5
1F0
 10
527.5
 20
-61.408728016363497
 30
0.0
 40
2.5
 50
89.999999999948997
 51
179.99999999989603
  0
LINE
  8
0
  6
CONTINUOUS
 62
               3
  5
1F1
 10
533.17155612596434
 20
-59.008728016363463
 30
0.0
 11
590.78903232813877
 21
-56.996681411211213
 31
0.0
  0
LINE
  8
0
  6
CONTINUOUS
 62
               3
  5
1F2
 10
530.0
 20
-171.50872801636353
 30
0.0
 11
530.67155612596434
 21
-171.50872801636353
 31
0.0
  0
LINE
  8
0
  6
CONTINUOUS
 62
               3
  5
1F3
 10
533.17155612596457
 20
-174.0087280163628
 30
0.0
 11
530.67155612596434
 21
-171.50872801636353
 31
0.0
  0
LINE
  8
0
  6
CONTINUOUS
 62
               3
  5
1F4
 10
530.67155612596434
 20
-61.508728016363634
 30
0.0
 11
530.67155612596434
 21
-171.50872801636353
 31
0.0
  0
LINE
  8
0
  6
CONTINUOUS
 62
               3
  5
1F5
 10
530.0
 20
-174.1087280163635
 30
0.0
 11
530.0
 21
-58.908728016363497
 31
0.0
  0
LINE
  8
0
  6
CONTINUOUS
 62
               3
  5
1F6
 10
525.0
 20
-61.408728016363497
 30
0.0
 11
525.0
 21
-171.6087280163635
 31
0.0
  0
LINE
  8
0
  6
CONTINUOUS
 62
               3
  5
1F7
 10
530.0
 20
-174.1087280163635
 30
0.0
 11
527.5
 21
-174.1087280163635
 31
0.0
  0
ARC
  8
0
  6
CONTINUOUS
 62
               3
  5
1F8
 10
527.5
 20
-171.6087280163635
 30
0.0
 40
2.5
 50
179.99999999989603
 51
269.99999999984436
  0
LINE
  8
0
  6
CONTINUOUS
 62
               3
  5
1F9
 10
533.17155612596457
 20
-59.008728016363406
 30
0.0
 11
533.17155612596525
 21
-174.00872801636353
 31
0.0
  0
ARC
  8
0
  6
CONTINUOUS
 62
               3
  5
1FA
 10
590.0
 20
-195.31595134858264
 30
0.0
 40
4.9999999999999991
 50
0.0
 51
44.999999999973426
  0
ARC
  8
0
  6
CONTINUOUS
 62
               3
  5
1FB
 10
575.16216889873022
 20
-180.47812024731303
 30
0.0
 40
5.0
 50
44.999999999975259
 51
87.999999999949225
  0
LINE
  8
0
  6
CONTINUOUS
 62
               3
  5
1FC
 10
578.69770280466378
 20
-176.94258634138129
 30
0.0
 11
583.2638444796462
 21
-181.50872801636353
 31
0.0
  0
LINE
  8
0
  6
CONTINUOUS
 62
               3
  5
1FD
 10
593.53553390593243
 20
-191.78041744264954
 30
0.0
 11
583.2638444796462
 21
-181.50872801636353
 31
0.0
  0
LINE
  8
0
  6
CONTINUOUS
 62
               3
  5
1FE
 10
533.17155612596525
 20
-174.00872801636353
 30
0.0
 11
575.33666638224258
 21
-175.48116611221758
 31
0.0
  0
ARC
  8
0
  6
CONTINUOUS
 62
               3
  5
1FF
 10
605.0
 20
-179.00872801636353
 30
0.0
 40
2.4999999999999996
 50
89.99999999994769
 51
269.99999999984567
  0
ARC
  8
0
  6
CONTINUOUS
 62
               3
  5
200
 10
615.0
 20
-57.50872801636352
 30
0.0
 40
19.999999999999996
 50
148.21166938293177
 51
167.26981986165492
  0
LINE
  8
0
  6
CONTINUOUS
 62
               3
  5
201
 10
595.0
 20
-294.35570441924619
 30
0.0
 11
595.0
 21
-195.31595134858264
 31
0.0
  0
LINE
  8
0
  6
CONTINUOUS
 62
               3
  5
202
 10
647.49999999999955
 20
-176.50872801636353
 30
0.0
 11
605.0
 21
-176.50872801636351
 31
0.0
  0
LINE
  8
0
  6
CONTINUOUS
 62
               3
  5
203
 10
647.499999999995
 20
-181.50872801636353
 30
0.0
 11
604.99999999999557
 21
-181.50872801636353
 31
0.0
  0
ARC
  8
0
  6
CONTINUOUS
 62
               3
  5
204
 10
745.0
 20
-179.00872801636351
 30
0.0
 40
2.4999999999999996
 50
269.99999999984567
 51
449.99999999974102
  0
LINE
  8
0
  6
CONTINUOUS
 62
               3
  5
205
 10
746.99999999999989
 20
-46.973074263510711
 30
0.0
 11
741.99999999999989
 21
-41.973074263510711
 31
0.0
  0
LINE
  8
0
  6
CONTINUOUS
 62
               3
  5
206
 10
746.99999999999989
 20
-180.50872801636328
 30
0.0
 11
746.99999999999989
 21
-294.62229624661859
 31
0.0
  0
ARC
  8
0
  6
CONTINUOUS
 62
               3
  5
207
 10
724.49999999999989
 20
-57.508728016363506
 30
0.0
 40
19.999999999999996
 50
0.0
 51
31.78833061703353
  0
LINE
  8
0
  6
CONTINUOUS
 62
               3
  5
208
 10
741.50000000000034
 20
-46.973074263510711
 30
0.0
 11
741.50000000000034
 21
-41.973074263510142
 31
0.0
  0
LINE
  8
0
  6
CONTINUOUS
 62
               3
  5
209
 10
741.99999999999989
 20
-41.973074263510711
 30
0.0
 11
741.50000000000034
 21
-41.973074263510711
 31
0.0
  0
LINE
  8
0
  6
CONTINUOUS
 62
               3
  5
20A
 10
746.75000000000011
 20
-47.223074263510711
 30
0.0
 11
741.50000000000034
 21
-41.973074263510711
 31
0.0
  0
LINE
  8
0
  6
CONTINUOUS
 62
               3
  5
20B
 10
746.75000000000011
 20
-180.79408512349934
 30
0.0
 11
746.75000000000011
 21
-294.60810021783652
 31
0.0
  0
LINE
  8
0
  6
CONTINUOUS
 62
               3
  5
20C
 10
746.99999999999989
 20
-46.973074263510711
 30
0.0
 11
746.99999999999989
 21
-177.50872801636339
 31
0.0
  0
LINE
  8
0
  6
CONTINUOUS
 62
               3
  5
20D
 10
746.75000000000011
 20
-47.223074263510711
 30
0.0
 11
746.75000000000011
 21
-177.2233709092279
 31
0.0
  0
LINE
  8
0
  6
CONTINUOUS
 62
               3
  5
20E
 10
744.49999999999989
 20
-57.508728016363506
 30
0.0
 11
744.49999999999989
 21
-176.50872801636351
 31
0.0
  0
LINE
  8
0
  6
CONTINUOUS
 62
               3
  5
20F
 10
744.49676513364977
 20
-294.50872801636331
 30
0.0
 11
746.99999999999989
 21
-294.62229624661859
 31
0.0
  0
LINE
  8
0
  6
CONTINUOUS
 62
               3
  5
210
 10
741.99999999999977
 20
27.908696288681114
 30
0.0
 11
741.99999999999977
 21
-41.973074263510711
 31
0.0
  0
LINE
  8
0
  6
CONTINUOUS
 62
               3
  5
211
 10
741.50000000000034
 20
-46.973074263510725
 30
0.0
 11
681.72700000000009
 21
-46.973074263510725
 31
0.0
  0
LINE
  8
0
  6
CONTINUOUS
 62
               3
  5
212
 10
744.49999999999989
 20
-181.50872801636353
 30
0.0
 11
744.49999999999989
 21
-294.48033595879906
 31
0.0
  0
LINE
  8
0
  6
CONTINUOUS
 62
               3
  5
213
 10
728.14113258650593
 20
-348.1402134754461
 30
0.0
 11
604.4879999999996
 21
-244.38291552819334
 31
0.0
  0
ARC
  8
0
  6
CONTINUOUS
 62
               3
  5
214
 10
-244.27232010053945
 20
-1388.9413326551421
 30
0.0
 40
1424.9238755783815
 50
50.18995614625684
 51
53.440796050721552
  0
ARC
  8
0
  6
CONTINUOUS
 62
               3
  5
215
 10
733.57938883703298
 20
-223.58304550440022
 30
0.0
 40
130.75634311527989
 50
189.15312334026754
 51
212.76918311271191
  0
ARC
  8
0
  6
CONTINUOUS
 62
               3
  5
216
 10
731.36402549955108
 20
-213.4490247531599
 30
0.0
 40
134.72974192119386
 50
216.90649751129573
 51
268.62928723405531
  0
ARC
  8
0
  6
CONTINUOUS
 62
               3
  5
217
 10
-63.630348098508193
 20
-1172.6023753302552
 30
0.0
 40
1143.0835201141012
 50
46.158732653416578
 51
50.202696616646634
  0
LINE
  8
0
  6
CONTINUOUS
 62
               3
  5
218
 10
668.02716671984922
 20
-294.50872801636331
 30
0.0
 11
744.49676513364977
 21
-294.50872801636331
 31
0.0
  0
LINE
  8
0
  6
CONTINUOUS
 62
               3
  5
219
 10
595.0
 20
-294.50872801636331
 30
0.0
 11
623.63189220794311
 21
-294.50872801636331
 31
0.0
  0
CIRCLE
  8
0
  6
CONTINUOUS
 62
               3
  5
21A
 10
-670.00000000000023
 20
-116.50872801636342
 30
0.0
 40
57.5
  0
LINE
  8
0
  6
CONTINUOUS
 62
               3
  5
21B
 10
612.0
 20
-443.5627894860354
 30
0.0
 11
595.0
 21
-294.35570441924619
 31
0.0
  0
LINE
  8
0
  6
CONTINUOUS
 62
               3
  5
21C
 10
746.99999999999989
 20
-294.62229624661859
 30
0.0
 11
730.27177560034886
 21
-441.23695241601479
 31
0.0
  0
LINE
  8
0
  6
CONTINUOUS
 62
               3
  5
21D
 10
746.75000000000011
 20
-294.60810021783652
 30
0.0
 11
729.99427455367879
 21
-441.46412997604966
 31
0.0
  0
LINE
  8
0
  6
CONTINUOUS
 62
               3
  5
21E
 10
744.49999999999989
 20
-294.48033595879906
 30
0.0
 11
727.49676513365046
 21
-443.50872801636376
 31
0.0
  0
LINE
  8
0
  6
CONTINUOUS
 62
               3
  5
21F
 10
612.99999999999989
 20
-555.50872801636353
 30
0.0
 11
726.99999999999977
 21
-555.50872801636353
 31
0.0
  0
LINE
  8
0
  6
CONTINUOUS
 62
               3
  5
220
 10
612.99999999999989
 20
-555.50872801636353
 30
0.0
 11
612.99999999999989
 21
-455.50872801636353
 31
0.0
  0
LINE
  8
0
  6
CONTINUOUS
 62
               3
  5
221
 10
726.99999999999977
 20
-555.50872801636353
 30
0.0
 11
726.99999999999977
 21
-455.50872801636353
 31
0.0
  0
LINE
  8
0
  6
CONTINUOUS
 62
               3
  5
222
 10
612.99999999999989
 20
-455.50872801636353
 30
0.0
 11
612.0
 21
-454.50872801636353
 31
0.0
  0
LINE
  8
0
  6
CONTINUOUS
 62
               3
  5
223
 10
726.99999999999977
 20
-455.50872801636353
 30
0.0
 11
727.99999999999989
 21
-454.50872801636308
 31
0.0
  0
LINE
  8
0
  6
CONTINUOUS
 62
               3
  5
224
 10
727.99999999999989
 20
-454.50872801636308
 30
0.0
 11
728.00000000000011
 21
-443.50872801636433
 31
0.0
  0
LINE
  8
0
  6
CONTINUOUS
 62
               3
  5
225
 10
611.99999999999989
 20
-443.50872801636376
 30
0.0
 11
728.00000000000011
 21
-443.50872801636433
 31
0.0
  0
LINE
  8
0
  6
CONTINUOUS
 62
               3
  5
226
 10
611.99999999999989
 20
-443.50872801636433
 30
0.0
 11
611.99999999999989
 21
-454.50872801636342
 31
0.0
  0
LINE
  8
0
  6
CONTINUOUS
 62
               3
  5
227
 10
730.27177560034886
 20
-441.23695241601479
 30
0.0
 11
727.49676513365046
 21
-443.50872801636376
 31
0.0
  0
LINE
  8
0
  6
CONTINUOUS
 62
               3
  5
228
 10
729.99427455367879
 20
-441.46412997604966
 30
0.0
 11
728.00000000000011
 21
-443.50872801636433
 31
0.0
  0
LINE
  8
0
  6
CONTINUOUS
 62
               3
  5
229
 10
-745.0
 20
49.491271983636494
 30
0.0
 11
-595.0
 21
49.491271983636494
 31
0.0
  0
LINE
  8
0
  6
CONTINUOUS
 62
               3
  5
22A
 10
-758.50000000000023
 20
39.491271983636494
 30
0.0
 11
-758.50000000000023
 21
32.491271983636835
 31
0.0
  0
LINE
  8
0
  6
CONTINUOUS
 62
               3
  5
22B
 10
-758.50000000000023
 20
39.491271983636494
 30
0.0
 11
-745.0
 21
49.491271983636494
 31
0.0
  0
ARC
  8
0
  6
CONTINUOUS
 62
               3
  5
22C
 10
-746.99999999999977
 20
27.908696288681114
 30
0.0
 40
4.9999999999999991
 50
0.000000000069046
 51
66.421821521829202
  0
LINE
  8
0
  6
CONTINUOUS
 62
               3
  5
22D
 10
-758.50000000000023
 20
32.491271983636835
 30
0.0
 11
-581.49999999999977
 21
32.491271983636835
 31
0.0
  0
LINE
  8
0
  6
CONTINUOUS
 62
               3
  5
22E
 10
-598.0
 20
-46.973074263510725
 30
0.0
 11
-598.0
 21
27.908696288681114
 31
0.0
  0
LINE
  8
0
  6
CONTINUOUS
 62
               3
  5
22F
 10
-690.0
 20
32.491271983636835
 30
0.0
 11
-690.0
 21
49.491271983636494
 31
0.0
  0
LINE
  8
0
  6
CONTINUOUS
 62
               3
  5
230
 10
-650.0
 20
49.491271983636494
 30
0.0
 11
-650.0
 21
32.491271983636835
 31
0.0
  0
LINE
  8
0
  6
CONTINUOUS
 62
               3
  5
231
 10
-690.0
 20
39.491271983636494
 30
0.0
 11
-650.0
 21
39.491271983636494
 31
0.0
  0
LINE
  8
0
  6
CONTINUOUS
 62
               3
  5
232
 10
-742.2841614740048
 20
49.491271983636494
 30
0.0
 11
-742.2841614740048
 21
32.491271983636835
 31
0.0
  0
LINE
  8
0
  6
CONTINUOUS
 62
               3
  5
233
 10
-756.21049820062512
 20
39.491271983636494
 30
0.0
 11
-756.21049820062512
 21
32.491271983636835
 31
0.0
  0
LINE
  8
0
  6
CONTINUOUS
 62
               3
  5
234
 10
-758.50000000000023
 20
39.491271983636494
 30
0.0
 11
-756.21049820062512
 21
39.491271983636494
 31
0.0
  0
LINE
  8
0
  6
CONTINUOUS
 62
               3
  5
235
 10
-756.21049820062512
 20
39.491271983636494
 30
0.0
 11
-742.2841614740048
 21
49.491271983636494
 31
0.0
  0
LINE
  8
0
  6
CONTINUOUS
 62
               3
  5
236
 10
-581.49999999999977
 20
39.491271983636494
 30
0.0
 11
-581.49999999999977
 21
32.491271983636835
 31
0.0
  0
LINE
  8
0
  6
CONTINUOUS
 62
               3
  5
237
 10
-581.49999999999977
 20
39.491271983636494
 30
0.0
 11
-595.0
 21
49.491271983636494
 31
0.0
  0
ARC
  8
0
  6
CONTINUOUS
 62
               3
  5
238
 10
-593.0
 20
27.908696288681114
 30
0.0
 40
4.9999999999999991
 50
113.57817847820577
 51
179.99999999996518
  0
LINE
  8
0
  6
CONTINUOUS
 62
               3
  5
239
 10
-597.7158385259952
 20
49.491271983636494
 30
0.0
 11
-597.7158385259952
 21
32.491271983636835
 31
0.0
  0
LINE
  8
0
  6
CONTINUOUS
 62
               3
  5
23A
 10
-583.78950179937465
 20
39.491271983636494
 30
0.0
 11
-583.78950179937465
 21
32.491271983636835
 31
0.0
  0
LINE
  8
0
  6
CONTINUOUS
 62
               3
  5
23B
 10
-581.49999999999977
 20
39.491271983636494
 30
0.0
 11
-583.78950179937465
 21
39.491271983636494
 31
0.0
  0
LINE
  8
0
  6
CONTINUOUS
 62
               3
  5
23C
 10
-583.78950179937465
 20
39.491271983636494
 30
0.0
 11
-597.7158385259952
 21
49.491271983636494
 31
0.0
  0
LINE
  8
0
  6
CONTINUOUS
 62
               3
  5
23D
 10
-681.72700000000009
 20
-46.973074263510725
 30
0.0
 11
-598.0
 21
-46.973074263510725
 31
0.0
  0
ARC
  8
0
  6
CONTINUOUS
 62
               3
  5
23E
 10
-745.0
 20
-179.00872801636353
 30
0.0
 40
2.4999999999999996
 50
90.00000000015352
 51
270.0000000000515
  0
LINE
  8
0
  6
CONTINUOUS
 62
               3
  5
23F
 10
-692.50000000000068
 20
-176.50872801636353
 30
0.0
 11
-745.0
 21
-176.50872801636353
 31
0.0
  0
LINE
  8
0
  6
CONTINUOUS
 62
               3
  5
240
 10
-692.49999999999613
 20
-181.50872801636353
 30
0.0
 11
-745.00000000000034
 21
-181.50872801636353
 31
0.0
  0
ARC
  8
0
  6
CONTINUOUS
 62
               3
  5
241
 10
-692.50000000000068
 20
-179.00872801636353
 30
0.0
 40
2.4999999999999996
 50
270.0000000000515
 51
449.99999999991297
  0
ARC
  8
0
  6
CONTINUOUS
 62
               3
  5
242
 10
-647.49999999999955
 20
-179.00872801636353
 30
0.0
 40
2.4999999999999996
 50
89.999999999981569
 51
269.99999999984567
  0
ARC
  8
0
  6
CONTINUOUS
 62
               3
  5
243
 10
-615.0
 20
-57.50872801636352
 30
0.0
 40
19.999999999999996
 50
12.730180138373971
 51
31.788330617102307
  0
ARC
  8
0
  6
CONTINUOUS
 62
               3
  5
244
 10
-590.61453484462618
 20
-51.999727276115763
 30
0.0
 40
5.0
 50
192.730180138409
 51
268.00000000005178
  0
LINE
  8
0
  6
CONTINUOUS
 62
               3
  5
245
 10
-530.0
 20
-61.508728016363634
 30
0.0
 11
-530.67155612596434
 21
-61.508728016363634
 31
0.0
  0
LINE
  8
0
  6
CONTINUOUS
 62
               3
  5
246
 10
-533.17155612596457
 20
-59.008728016363406
 30
0.0
 11
-530.67155612596434
 21
-61.508728016363634
 31
0.0
  0
LINE
  8
0
  6
CONTINUOUS
 62
               3
  5
247
 10
-530.0
 20
-58.908728016363497
 30
0.0
 11
-527.5
 21
-58.908728016363497
 31
0.0
  0
ARC
  8
0
  6
CONTINUOUS
 62
               3
  5
248
 10
-527.5
 20
-61.408728016363497
 30
0.0
 40
2.5
 50
0.000000000069046
 51
90.000000000018048
  0
LINE
  8
0
  6
CONTINUOUS
 62
               3
  5
249
 10
-533.17155612596434
 20
-59.008728016363463
 30
0.0
 11
-590.78903232813877
 21
-56.996681411211213
 31
0.0
  0
LINE
  8
0
  6
CONTINUOUS
 62
               3
  5
24A
 10
-530.0
 20
-171.50872801636353
 30
0.0
 11
-530.67155612596434
 21
-171.50872801636353
 31
0.0
  0
LINE
  8
0
  6
CONTINUOUS
 62
               3
  5
24B
 10
-533.17155612596457
 20
-174.0087280163628
 30
0.0
 11
-530.67155612596434
 21
-171.50872801636353
 31
0.0
  0
LINE
  8
0
  6
CONTINUOUS
 62
               3
  5
24C
 10
-530.67155612596434
 20
-61.508728016363634
 30
0.0
 11
-530.67155612596434
 21
-171.50872801636353
 31
0.0
  0
LINE
  8
0
  6
CONTINUOUS
 62
               3
  5
24D
 10
-530.0
 20
-174.1087280163635
 30
0.0
 11
-530.0
 21
-58.908728016363497
 31
0.0
  0
LINE
  8
0
  6
CONTINUOUS
 62
               3
  5
24E
 10
-525.0
 20
-61.408728016363497
 30
0.0
 11
-525.0
 21
-171.6087280163635
 31
0.0
  0
LINE
  8
0
  6
CONTINUOUS
 62
               3
  5
24F
 10
-530.0
 20
-174.1087280163635
 30
0.0
 11
-527.5
 21
-174.1087280163635
 31
0.0
  0
ARC
  8
0
  6
CONTINUOUS
 62
               3
  5
250
 10
-527.5
 20
-171.6087280163635
 30
0.0
 40
2.5
 50
270.0000000000515
 51
359.9999999999992
  0
LINE
  8
0
  6
CONTINUOUS
 62
               3
  5
251
 10
-533.17155612596457
 20
-59.008728016363406
 30
0.0
 11
-533.17155612596525
 21
-174.00872801636353
 31
0.0
  0
ARC
  8
0
  6
CONTINUOUS
 62
               3
  5
252
 10
-590.0
 20
-195.31595134858264
 30
0.0
 40
4.9999999999999991
 50
134.99999999999235
 51
179.99999999996507
  0
ARC
  8
0
  6
CONTINUOUS
 62
               3
  5
253
 10
-575.16216889873022
 20
-180.47812024731303
 30
0.0
 40
5.0
 50
92.000000000016485
 51
134.99999999999071
  0
LINE
  8
0
  6
CONTINUOUS
 62
               3
  5
254
 10
-578.69770280466378
 20
-176.94258634138129
 30
0.0
 11
-583.2638444796462
 21
-181.50872801636353
 31
0.0
  0
LINE
  8
0
  6
CONTINUOUS
 62
               3
  5
255
 10
-593.53553390593243
 20
-191.78041744264954
 30
0.0
 11
-583.2638444796462
 21
-181.50872801636353
 31
0.0
  0
LINE
  8
0
  6
CONTINUOUS
 62
               3
  5
256
 10
-533.17155612596525
 20
-174.00872801636353
 30
0.0
 11
-575.33666638224258
 21
-175.48116611221758
 31
0.0
  0
ARC
  8
0
  6
CONTINUOUS
 62
               3
  5
257
 10
-605.0
 20
-179.00872801636353
 30
0.0
 40
2.4999999999999996
 50
270.0000000000515
 51
449.99999999994691
  0
ARC
  8
0
  6
CONTINUOUS
 62
               3
  5
258
 10
-615.0
 20
-57.50872801636352
 30
0.0
 40
19.999999999999996
 50
12.730180138310326
 51
31.78833061703353
  0
LINE
  8
0
  6
CONTINUOUS
 62
               3
  5
259
 10
-595.0
 20
-294.35570441924619
 30
0.0
 11
-595.0
 21
-195.31595134858264
 31
0.0
  0
LINE
  8
0
  6
CONTINUOUS
 62
               3
  5
25A
 10
-647.49999999999955
 20
-176.50872801636353
 30
0.0
 11
-605.0
 21
-176.50872801636351
 31
0.0
  0
LINE
  8
0
  6
CONTINUOUS
 62
               3
  5
25B
 10
-647.499999999995
 20
-181.50872801636353
 30
0.0
 11
-604.99999999999557
 21
-181.50872801636353
 31
0.0
  0
ARC
  8
0
  6
CONTINUOUS
 62
               3
  5
25C
 10
-745.0
 20
-179.00872801636351
 30
0.0
 40
2.4999999999999996
 50
90.00000000015352
 51
270.0000000000515
  0
LINE
  8
0
  6
CONTINUOUS
 62
               3
  5
25D
 10
-746.99999999999989
 20
-46.973074263510711
 30
0.0
 11
-741.99999999999989
 21
-41.973074263510711
 31
0.0
  0
LINE
  8
0
  6
CONTINUOUS
 62
               3
  5
25E
 10
-746.99999999999989
 20
-180.50872801636328
 30
0.0
 11
-746.99999999999989
 21
-294.62229624661859
 31
0.0
  0
ARC
  8
0
  6
CONTINUOUS
 62
               3
  5
25F
 10
-724.49999999999989
 20
-57.508728016363506
 30
0.0
 40
19.999999999999996
 50
148.21166938293177
 51
179.99999999996518
  0
LINE
  8
0
  6
CONTINUOUS
 62
               3
  5
260
 10
-741.50000000000034
 20
-46.973074263510711
 30
0.0
 11
-741.50000000000034
 21
-41.973074263510142
 31
0.0
  0
LINE
  8
0
  6
CONTINUOUS
 62
               3
  5
261
 10
-741.99999999999989
 20
-41.973074263510711
 30
0.0
 11
-741.50000000000034
 21
-41.973074263510711
 31
0.0
  0
LINE
  8
0
  6
CONTINUOUS
 62
               3
  5
262
 10
-746.75000000000011
 20
-47.223074263510711
 30
0.0
 11
-741.50000000000034
 21
-41.973074263510711
 31
0.0
  0
LINE
  8
0
  6
CONTINUOUS
 62
               3
  5
263
 10
-746.75000000000011
 20
-180.79408512349934
 30
0.0
 11
-746.75000000000011
 21
-294.60810021783652
 31
0.0
  0
LINE
  8
0
  6
CONTINUOUS
 62
               3
  5
264
 10
-746.99999999999989
 20
-46.973074263510711
 30
0.0
 11
-746.99999999999989
 21
-177.50872801636339
 31
0.0
  0
LINE
  8
0
  6
CONTINUOUS
 62
               3
  5
265
 10
-746.75000000000011
 20
-47.223074263510711
 30
0.0
 11
-746.75000000000011
 21
-177.2233709092279
 31
0.0
  0
LINE
  8
0
  6
CONTINUOUS
 62
               3
  5
266
 10
-744.49999999999989
 20
-57.508728016363506
 30
0.0
 11
-744.49999999999989
 21
-176.50872801636351
 31
0.0
  0
LINE
  8
0
  6
CONTINUOUS
 62
               3
  5
267
 10
-744.49676513364977
 20
-294.50872801636331
 30
0.0
 11
-746.99999999999989
 21
-294.62229624661859
 31
0.0
  0
LINE
  8
0
  6
CONTINUOUS
 62
               3
  5
268
 10
-741.99999999999977
 20
27.908696288681114
 30
0.0
 11
-741.99999999999977
 21
-41.973074263510711
 31
0.0
  0
LINE
  8
0
  6
CONTINUOUS
 62
               3
  5
269
 10
-741.50000000000034
 20
-46.973074263510725
 30
0.0
 11
-681.72700000000009
 21
-46.973074263510725
 31
0.0
  0
LINE
  8
0
  6
CONTINUOUS
 62
               3
  5
26A
 10
-744.49999999999989
 20
-181.50872801636353
 30
0.0
 11
-744.49999999999989
 21
-294.48033595879906
 31
0.0
  0
LINE
  8
0
  6
CONTINUOUS
 62
               3
  5
26B
 10
-595.0
 20
-294.50872801636331
 30
0.0
 11
-746.99999999999989
 21
-294.50872801636331
 31
0.0
  0
LINE
  8
0
  6
CONTINUOUS
 62
               3
  5
26C
 10
-612.0
 20
-443.5627894860354
 30
0.0
 11
-595.0
 21
-294.35570441924619
 31
0.0
  0
LINE
  8
0
  6
CONTINUOUS
 62
               3
  5
26D
 10
-746.99999999999989
 20
-294.62229624661859
 30
0.0
 11
-730.27177560034886
 21
-441.23695241601479
 31
0.0
  0
LINE
  8
0
  6
CONTINUOUS
 62
               3
  5
26E
 10
-746.75000000000011
 20
-294.60810021783652
 30
0.0
 11
-729.99427455367879
 21
-441.46412997604966
 31
0.0
  0
LINE
  8
0
  6
CONTINUOUS
 62
               3
  5
26F
 10
-744.49999999999989
 20
-294.48033595879906
 30
0.0
 11
-727.49676513365046
 21
-443.50872801636376
 31
0.0
  0
LINE
  8
0
  6
CONTINUOUS
 62
               3
  5
270
 10
-612.99999999999989
 20
-555.50872801636353
 30
0.0
 11
-726.99999999999977
 21
-555.50872801636353
 31
0.0
  0
LINE
  8
0
  6
CONTINUOUS
 62
               3
  5
271
 10
-612.99999999999989
 20
-555.50872801636353
 30
0.0
 11
-612.99999999999989
 21
-455.50872801636353
 31
0.0
  0
LINE
  8
0
  6
CONTINUOUS
 62
               3
  5
272
 10
-726.99999999999977
 20
-555.50872801636353
 30
0.0
 11
-726.99999999999977
 21
-455.50872801636353
 31
0.0
  0
LINE
  8
0
  6
CONTINUOUS
 62
               3
  5
273
 10
-612.99999999999989
 20
-455.50872801636353
 30
0.0
 11
-612.0
 21
-454.50872801636353
 31
0.0
  0
LINE
  8
0
  6
CONTINUOUS
 62
               3
  5
274
 10
-726.99999999999977
 20
-455.50872801636353
 30
0.0
 11
-727.99999999999989
 21
-454.50872801636308
 31
0.0
  0
LINE
  8
0
  6
CONTINUOUS
 62
               3
  5
275
 10
-727.99999999999989
 20
-454.50872801636308
 30
0.0
 11
-728.00000000000011
 21
-443.50872801636433
 31
0.0
  0
LINE
  8
0
  6
CONTINUOUS
 62
               3
  5
276
 10
-611.99999999999989
 20
-443.50872801636376
 30
0.0
 11
-728.00000000000011
 21
-443.50872801636433
 31
0.0
  0
LINE
  8
0
  6
CONTINUOUS
 62
               3
  5
277
 10
-611.99999999999989
 20
-443.50872801636433
 30
0.0
 11
-611.99999999999989
 21
-454.50872801636342
 31
0.0
  0
LINE
  8
0
  6
CONTINUOUS
 62
               3
  5
278
 10
-730.27177560034886
 20
-441.23695241601479
 30
0.0
 11
-727.49676513365046
 21
-443.50872801636376
 31
0.0
  0
LINE
  8
0
  6
CONTINUOUS
 62
               3
  5
279
 10
-729.99427455367879
 20
-441.46412997604966
 30
0.0
 11
-728.00000000000011
 21
-443.50872801636433
 31
0.0
  0
LINE
  8
0
  6
CONTINUOUS
 62
               3
  5
27A
 10
-667.98355189309586
 20
-396.70158774217623
 30
0.0
 11
-710.17400000000009
 21
-323.62558802691984
 31
0.0
  0
ARC
  8
0
  6
CONTINUOUS
 62
               3
  5
27B
 10
-466.55846191223816
 20
-231.69142467667876
 30
0.0
 40
260.38513933920774
 50
200.67520123180259
 51
219.32479876795571
  0
ARC
  8
0
  6
CONTINUOUS
 62
               3
  5
27C
 10
-1307.1274256398419
 20
-716.99414215725483
 30
0.0
 40
714.90713506142345
 50
26.616707427983258
 51
33.383292571982153
  0
LINE
  8
0
  6
CONTINUOUS
 62
               3
  5
27D
 10
-643.2126429075206
 20
-88.508728016363534
 30
0.0
 11
-696.78735709247962
 21
-88.508728016363534
 31
0.0
  0
CIRCLE
  8
0
  6
CONTINUOUS
 62
               3
  5
27E
 10
-670.00000000000023
 20
-116.50872801636342
 30
0.0
 40
48.5
  0
CIRCLE
  8
0
  6
CONTINUOUS
 62
               3
  5
27F
 10
-670.00000000000023
 20
-116.50872801636342
 30
0.0
 40
47.299999999999997
  0
LINE
  8
0
  6
CONTINUOUS
 62
               3
  5
280
 10
-701.81980515339478
 20
-148.32853316975797
 30
0.0
 11
-703.44615075012393
 21
-149.95487876648713
 31
0.0
  0
LINE
  8
0
  6
CONTINUOUS
 62
               3
  5
281
 10
-638.18019484660545
 20
-148.32853316975797
 30
0.0
 11
-636.55384924987629
 21
-149.95487876648701
 31
0.0
  0
ARC
  8
0
  6
CONTINUOUS
 62
               3
  5
282
 10
-670.00000000000023
 20
-116.50872801636342
 30
0.0
 40
45.0
 50
224.99999999987045
 51
314.99999999981878
  0
CIRCLE
  8
0
  6
CONTINUOUS
 62
               3
  5
283
 10
-670.00000000000023
 20
-116.50872801636342
 30
0.0
 40
43.0
  0
CIRCLE
  8
0
  6
CONTINUOUS
 62
               3
  5
284
 10
-0.0000000000003126
 20
467.00872801636331
 30
0.0
 40
59.0
  0
CIRCLE
  8
0
  6
CONTINUOUS
 62
               3
  5
285
 10
-670.00000000000023
 20
-116.50872801636342
 30
0.0
 40
38.75
  0
LINE
  8
0
  6
CONTINUOUS
 62
               3
  5
286
 10
696.7873570924794
 20
-88.508728016363648
 30
0.0
 11
643.2126429075206
 21
-88.508728016363648
 31
0.0
  0
CIRCLE
  8
0
  6
CONTINUOUS
 62
               3
  5
287
 10
670.0
 20
-116.50872801636353
 30
0.0
 40
48.5
  0
CIRCLE
  8
0
  6
CONTINUOUS
 62
               3
  5
288
 10
670.0
 20
-116.50872801636353
 30
0.0
 40
38.75
  0
CIRCLE
  8
0
  6
CONTINUOUS
 62
               3
  5
289
 10
670.0
 20
-116.50872801636353
 30
0.0
 40
47.299999999999997
  0
LINE
  8
0
  6
CONTINUOUS
 62
               3
  5
28A
 10
638.18019484660545
 20
-148.32853316975809
 30
0.0
 11
636.55384924987629
 21
-149.95487876648724
 31
0.0
  0
LINE
  8
0
  6
CONTINUOUS
 62
               3
  5
28B
 10
701.81980515339467
 20
-148.32853316975809
 30
0.0
 11
703.44615075012371
 21
-149.95487876648713
 31
0.0
  0
ARC
  8
0
  6
CONTINUOUS
 62
               3
  5
28C
 10
670.0
 20
-116.50872801636353
 30
0.0
 40
45.0
 50
224.99999999987045
 51
314.99999999981878
  0
CIRCLE
  8
0
  6
CONTINUOUS
 62
               3
  5
28D
 10
670.0
 20
-116.50872801636353
 30
0.0
 40
43.0
  0
CIRCLE
  8
0
  6
CONTINUOUS
 62
               3
  5
28E
 10
670.0
 20
-116.50872801636353
 30
0.0
 40
57.600000000000001
  0
LINE
  8
0
  6
CONTINUOUS
 62
               3
  5
28F
 10
26.787357092479624
 20
-88.508728016363534
 30
0.0
 11
-26.787357092479397
 21
-88.508728016363534
 31
0.0
  0
CIRCLE
  8
0
  6
CONTINUOUS
 62
               3
  5
290
 10
0.0
 20
-116.50872801636342
 30
0.0
 40
48.5
  0
CIRCLE
  8
0
  6
CONTINUOUS
 62
               3
  5
291
 10
0.0
 20
-116.50872801636342
 30
0.0
 40
47.299999999999997
  0
LINE
  8
0
  6
CONTINUOUS
 62
               3
  5
292
 10
-31.819805153394555
 20
-148.32853316975797
 30
0.0
 11
-33.446150750123707
 21
-149.95487876648713
 31
0.0
  0
LINE
  8
0
  6
CONTINUOUS
 62
               3
  5
293
 10
31.819805153394782
 20
-148.32853316975797
 30
0.0
 11
33.446150750123934
 21
-149.95487876648701
 31
0.0
  0
ARC
  8
0
  6
CONTINUOUS
 62
               3
  5
294
 10
0.0
 20
-116.50872801636342
 30
0.0
 40
45.0
 50
224.99999999987045
 51
314.99999999981878
  0
CIRCLE
  8
0
  6
CONTINUOUS
 62
               3
  5
295
 10
0.0
 20
-116.50872801636342
 30
0.0
 40
43.0
  0
CIRCLE
  8
0
  6
CONTINUOUS
 62
               3
  5
296
 10
0.0
 20
-116.50872801636342
 30
0.0
 40
38.75
  0
CIRCLE
  8
0
  6
CONTINUOUS
 62
               3
  5
297
 10
609.28652321630784
 20
-919.47248792576295
 30
0.0
 40
75.0
  0
CIRCLE
  8
0
  6
CONTINUOUS
 62
               3
  5
298
 10
609.28652321630784
 20
-919.47248792576295
 30
0.0
 40
52.5
  0
LINE
  8
0
  6
CONTINUOUS
 62
               3
  5
299
 10
523.0760250156826
 20
-899.47248792576295
 30
0.0
 11
537.00236174230247
 21
-899.47248792576295
 31
0.0
  0
LINE
  8
0
  6
CONTINUOUS
 62
               3
  5
29A
 10
537.00236174230247
 20
-939.47248792576295
 30
0.0
 11
523.0760250156826
 21
-939.47248792576295
 31
0.0
  0
ARC
  8
0
  6
CONTINUOUS
 62
               3
  5
29B
 10
609.28652321630784
 20
-919.47248792576295
 30
0.0
 40
88.5
 50
166.93897588513528
 51
193.06102411472631
  0
LINE
  8
0
  6
CONTINUOUS
 62
               3
  5
29C
 10
589.28652321630784
 20
-1005.6829861263878
 30
0.0
 11
589.28652321630784
 21
-991.75664939976798
 31
0.0
  0
LINE
  8
0
  6
CONTINUOUS
 62
               3
  5
29D
 10
629.28652321630784
 20
-991.75664939976798
 30
0.0
 11
629.28652321630784
 21
-1005.6829861263878
 31
0.0
  0
ARC
  8
0
  6
CONTINUOUS
 62
               3
  5
29E
 10
609.28652321630784
 20
-919.47248792576295
 30
0.0
 40
88.5
 50
256.93897588510077
 51
283.06102411469175
  0
LINE
  8
0
  6
CONTINUOUS
 62
               3
  5
29F
 10
695.49702141693251
 20
-939.47248792576295
 30
0.0
 11
681.57068469031208
 21
-939.47248792576295
 31
0.0
  0
LINE
  8
0
  6
CONTINUOUS
 62
               3
  5
2A0
 10
681.57068469031208
 20
-899.47248792576295
 30
0.0
 11
695.49702141693251
 21
-899.47248792576295
 31
0.0
  0
ARC
  8
0
  6
CONTINUOUS
 62
               3
  5
2A1
 10
609.28652321630784
 20
-919.47248792576295
 30
0.0
 40
88.5
 50
346.9389758850661
 51
373.06102411465713
  0
LINE
  8
0
  6
CONTINUOUS
 62
               3
  5
2A2
 10
629.28652321630784
 20
-833.26198972513737
 30
0.0
 11
629.28652321630784
 21
-847.18832645175792
 31
0.0
  0
LINE
  8
0
  6
CONTINUOUS
 62
               3
  5
2A3
 10
589.28652321630784
 20
-847.18832645175792
 30
0.0
 11
589.28652321630784
 21
-833.26198972513737
 31
0.0
  0
ARC
  8
0
  6
CONTINUOUS
 62
               3
  5
2A4
 10
609.28652321630784
 20
-919.47248792576295
 30
0.0
 40
88.5
 50
76.938975885169896
 51
103.06102411476094
  0
LINE
  8
0
  6
CONTINUOUS
 62
               3
  5
2A5
 10
561.61839969544678
 20
-941.4724879257634
 30
0.0
 11
656.95464673716776
 21
-941.4724879257634
 31
0.0
  0
ARC
  8
0
  6
CONTINUOUS
 62
               3
  5
2A6
 10
621.79013486568897
 20
-910.76609029814392
 30
0.0
 40
54.763804151667173
 50
141.3859176367836
 51
145.15009542089808
  0
ARC
  8
0
  6
CONTINUOUS
 62
               3
  5
2A7
 10
609.28652321630784
 20
-919.47248792576295
 30
0.0
 40
51.5
 50
334.71098847332905
 51
410.9593273634826
  0
ARC
  8
0
  6
CONTINUOUS
 62
               3
  5
2A8
 10
609.28652321630784
 20
-919.47248792576295
 30
0.0
 40
51.5
 50
129.04067263631032
 51
205.28901152646336
  0
ARC
  8
0
  6
CONTINUOUS
 62
               3
  5
2A9
 10
609.28652321630784
 20
-919.47248792576295
 30
0.0
 40
77.5
 50
104.955248316603
 51
128.57288309098388
  0
ARC
  8
0
  6
CONTINUOUS
 62
               3
  5
2AA
 10
609.28652321630784
 20
-919.47248792576295
 30
0.0
 40
77.5
 50
14.955248316637585
 51
75.044751683327831
  0
ARC
  8
0
  6
CONTINUOUS
 62
               3
  5
2AB
 10
609.28652321630784
 20
-919.47248792576295
 30
0.0
 40
77.5
 50
321.42711690884255
 51
345.04475168322404
  0
LINE
  8
0
  6
CONTINUOUS
 62
               3
  5
2AC
 10
469.28652321630784
 20
-974.47248792576295
 30
0.0
 11
469.95807934227207
 21
-974.47248792576295
 31
0.0
  0
LINE
  8
0
  6
CONTINUOUS
 62
               3
  5
2AD
 10
472.45807934227253
 20
-976.97248792576295
 30
0.0
 11
469.95807934227207
 21
-974.47248792576295
 31
0.0
  0
LINE
  8
0
  6
CONTINUOUS
 62
               3
  5
2AE
 10
469.28652321630784
 20
-864.47248792576295
 30
0.0
 11
469.95807934227207
 21
-864.47248792576295
 31
0.0
  0
LINE
  8
0
  6
CONTINUOUS
 62
               3
  5
2AF
 10
472.45807934227207
 20
-861.97248792576295
 30
0.0
 11
469.95807934227207
 21
-864.47248792576295
 31
0.0
  0
LINE
  8
0
  6
CONTINUOUS
 62
               3
  5
2B0
 10
469.95807934227207
 20
-864.47248792576295
 30
0.0
 11
469.95807934227207
 21
-974.47248792576295
 31
0.0
  0
LINE
  8
0
  6
CONTINUOUS
 62
               3
  5
2B1
 10
563.79618742992989
 20
-858.78289090742135
 30
0.0
 11
472.45807934227207
 21
-861.97248792576295
 31
0.0
  0
LINE
  8
0
  6
CONTINUOUS
 62
               3
  5
2B2
 10
544.4500514997568
 20
-979.48650299073063
 30
0.0
 11
472.45807934227264
 21
-976.97248792576295
 31
0.0
  0
LINE
  8
0
  6
CONTINUOUS
 62
               3
  5
2B3
 10
464.28652321630784
 20
-864.64404405172706
 30
0.0
 11
464.28652321630784
 21
-974.57248792576297
 31
0.0
  0
LINE
  8
0
  6
CONTINUOUS
 62
               3
  5
2B4
 10
469.28652321630784
 20
-977.07248792576297
 30
0.0
 11
469.28652321630784
 21
-861.87248792576293
 31
0.0
  0
LINE
  8
0
  6
CONTINUOUS
 62
               3
  5
2B5
 10
469.28652321630784
 20
-861.87248792576293
 30
0.0
 11
466.78652321630784
 21
-861.87248792576293
 31
0.0
  0
LINE
  8
0
  6
CONTINUOUS
 62
               3
  5
2B6
 10
469.28652321630784
 20
-977.07248792576297
 30
0.0
 11
466.78652321630784
 21
-977.07248792576297
 31
0.0
  0
ARC
  8
0
  6
CONTINUOUS
 62
               3
  5
2B7
 10
466.78652321630784
 20
-974.57248792576297
 30
0.0
 40
2.5
 50
179.99999999993088
 51
269.99999999989649
  0
ARC
  8
0
  6
CONTINUOUS
 62
               3
  5
2B8
 10
466.78652321630784
 20
-864.37248792576293
 30
0.0
 40
2.5
 50
89.999999999965596
 51
179.99999999993088
  0
LINE
  8
0
  6
CONTINUOUS
 62
               3
  5
2B9
 10
576.84812004969024
 20
-879.47248792576318
 30
0.0
 11
609.28652321630784
 21
-879.47248792576318
 31
0.0
  0
LINE
  8
0
  6
CONTINUOUS
 62
               3
  5
2BA
 10
609.28652321630784
 20
-879.47248792576318
 30
0.0
 11
643.29019948814653
 21
-879.47248792576318
 31
0.0
  0
LINE
  8
0
  6
CONTINUOUS
 62
               3
  5
2BB
 10
472.45807934227253
 20
-976.97248792576295
 30
0.0
 11
472.45807934227207
 21
-861.97248792576295
 31
0.0
  0
ARC
  8
0
  6
CONTINUOUS
 62
               3
  5
2BC
 10
563.6216899464174
 20
-853.78593677232584
 30
0.0
 40
5.0
 50
271.99999999989558
 51
304.80675787031049
  0
LINE
  8
0
  6
CONTINUOUS
 62
               3
  5
2BD
 10
664.28652321630773
 20
-1059.4724879257628
 30
0.0
 11
664.28652321630773
 21
-1058.8009317997985
 31
0.0
  0
LINE
  8
0
  6
CONTINUOUS
 62
               3
  5
2BE
 10
666.78652321630773
 20
-1056.300931799798
 30
0.0
 11
664.28652321630773
 21
-1058.8009317997985
 31
0.0
  0
LINE
  8
0
  6
CONTINUOUS
 62
               3
  5
2BF
 10
554.28652321630773
 20
-1059.4724879257628
 30
0.0
 11
554.28652321630773
 21
-1058.8009317997985
 31
0.0
  0
LINE
  8
0
  6
CONTINUOUS
 62
               3
  5
2C0
 10
551.78652321630773
 20
-1056.3009317997985
 30
0.0
 11
554.28652321630773
 21
-1058.8009317997985
 31
0.0
  0
LINE
  8
0
  6
CONTINUOUS
 62
               3
  5
2C1
 10
554.28652321630773
 20
-1058.8009317997985
 30
0.0
 11
664.28652321630773
 21
-1058.8009317997985
 31
0.0
  0
LINE
  8
0
  6
CONTINUOUS
 62
               3
  5
2C2
 10
554.45807934227184
 20
-1064.4724879257628
 30
0.0
 11
664.38652321630775
 21
-1064.4724879257628
 31
0.0
  0
LINE
  8
0
  6
CONTINUOUS
 62
               3
  5
2C3
 10
666.88652321630775
 20
-1059.4724879257628
 30
0.0
 11
551.68652321630771
 21
-1059.4724879257628
 31
0.0
  0
LINE
  8
0
  6
CONTINUOUS
 62
               3
  5
2C4
 10
551.68652321630771
 20
-1059.4724879257628
 30
0.0
 11
551.68652321630771
 21
-1061.9724879257628
 31
0.0
  0
LINE
  8
0
  6
CONTINUOUS
 62
               3
  5
2C5
 10
666.88652321630775
 20
-1059.4724879257628
 30
0.0
 11
666.88652321630775
 21
-1061.9724879257628
 31
0.0
  0
ARC
  8
0
  6
CONTINUOUS
 62
               3
  5
2C6
 10
664.38652321630775
 20
-1061.9724879257628
 30
0.0
 40
2.5
 50
269.99999999989615
 51
359.99999999986142
  0
ARC
  8
0
  6
CONTINUOUS
 62
               3
  5
2C7
 10
554.18652321630771
 20
-1061.9724879257628
 30
0.0
 40
2.5
 50
179.99999999993057
 51
269.99999999989626
  0
LINE
  8
0
  6
CONTINUOUS
 62
               3
  5
2C8
 10
666.78652321630773
 20
-1056.300931799798
 30
0.0
 11
551.78652321630773
 21
-1056.3009317997985
 31
0.0
  0
LINE
  8
0
  6
CONTINUOUS
 62
               3
  5
2C9
 10
669.97612023464887
 20
-964.96282371214147
 30
0.0
 11
666.78652321630773
 21
-1056.300931799798
 31
0.0
  0
ARC
  8
0
  6
CONTINUOUS
 62
               3
  5
2CA
 10
674.97307436974438
 20
-965.13732119565395
 30
0.0
 40
5.0
 50
145.19324212951597
 51
177.9999999999317
  0
LINE
  8
0
  6
CONTINUOUS
 62
               3
  5
2CB
 10
549.27250815133971
 20
-984.30895964231388
 30
0.0
 11
551.78652321630773
 21
-1056.3009317997985
 31
0.0
  0
ARC
  8
0
  6
CONTINUOUS
 62
               3
  5
2CC
 10
544.27555401624431
 20
-984.48345712582613
 30
0.0
 40
5.0
 50
1.9999999999967224
 51
87.999999999966334
  0
LINE
  8
0
  6
CONTINUOUS
 62
               3
  5
2CD
 10
534.28652321630784
 20
-1227.9719216743474
 30
0.0
 11
684.28652321630784
 21
-1227.9719216743474
 31
0.0
  0
LINE
  8
0
  6
CONTINUOUS
 62
               3
  5
2CE
 10
520.78652321630761
 20
-1237.9719216743474
 30
0.0
 11
520.78652321630761
 21
-1244.971921674347
 31
0.0
  0
LINE
  8
0
  6
CONTINUOUS
 62
               3
  5
2CF
 10
520.78652321630761
 20
-1237.9719216743474
 30
0.0
 11
534.28652321630784
 21
-1227.9719216743474
 31
0.0
  0
ARC
  8
0
  6
CONTINUOUS
 62
               3
  5
2D0
 10
532.28652321630796
 20
-1249.5544973693027
 30
0.0
 40
4.9999999999999991
 50
0.0
 51
66.4218215217725
  0
LINE
  8
0
  6
CONTINUOUS
 62
               3
  5
2D1
 10
520.78652321630761
 20
-1244.971921674347
 30
0.0
 11
697.7865232163075
 21
-1244.971921674347
 31
0.0
  0
ARC
  8
0
  6
CONTINUOUS
 62
               3
  5
2D2
 10
554.28652321630784
 20
-1334.9719216743474
 30
0.0
 40
19.999999999999996
 50
148.21166938289122
 51
167.2698198616232
  0
LINE
  8
0
  6
CONTINUOUS
 62
               3
  5
2D3
 10
537.28652321630796
 20
-1249.5544973693027
 30
0.0
 11
537.28652321630796
 21
-1324.4362679214946
 31
0.0
  0
LINE
  8
0
  6
CONTINUOUS
 62
               3
  5
2D4
 10
681.28652321630773
 20
-1319.4362679214942
 30
0.0
 11
681.28652321630773
 21
-1249.5544973693027
 31
0.0
  0
LINE
  8
0
  6
CONTINUOUS
 62
               3
  5
2D5
 10
537.28652321630796
 20
-1324.4362679214946
 30
0.0
 11
680.78652321630818
 21
-1324.4362679214946
 31
0.0
  0
LINE
  8
0
  6
CONTINUOUS
 62
               3
  5
2D6
 10
589.28652321630784
 20
-1244.971921674347
 30
0.0
 11
589.28652321630784
 21
-1227.9719216743474
 31
0.0
  0
LINE
  8
0
  6
CONTINUOUS
 62
               3
  5
2D7
 10
629.28652321630784
 20
-1227.9719216743474
 30
0.0
 11
629.28652321630784
 21
-1244.971921674347
 31
0.0
  0
LINE
  8
0
  6
CONTINUOUS
 62
               3
  5
2D8
 10
589.28652321630784
 20
-1237.9719216743474
 30
0.0
 11
629.28652321630784
 21
-1237.9719216743474
 31
0.0
  0
LINE
  8
0
  6
CONTINUOUS
 62
               3
  5
2D9
 10
537.00236174230247
 20
-1227.9719216743474
 30
0.0
 11
537.00236174230247
 21
-1244.971921674347
 31
0.0
  0
LINE
  8
0
  6
CONTINUOUS
 62
               3
  5
2DA
 10
523.0760250156826
 20
-1237.9719216743474
 30
0.0
 11
523.0760250156826
 21
-1244.971921674347
 31
0.0
  0
LINE
  8
0
  6
CONTINUOUS
 62
               3
  5
2DB
 10
520.78652321630761
 20
-1237.9719216743474
 30
0.0
 11
523.0760250156826
 21
-1237.9719216743474
 31
0.0
  0
LINE
  8
0
  6
CONTINUOUS
 62
               3
  5
2DC
 10
523.0760250156826
 20
-1237.9719216743474
 30
0.0
 11
537.00236174230247
 21
-1227.9719216743474
 31
0.0
  0
LINE
  8
0
  6
CONTINUOUS
 62
               3
  5
2DD
 10
697.7865232163075
 20
-1237.9719216743474
 30
0.0
 11
697.7865232163075
 21
-1244.971921674347
 31
0.0
  0
LINE
  8
0
  6
CONTINUOUS
 62
               3
  5
2DE
 10
697.7865232163075
 20
-1237.9719216743474
 30
0.0
 11
684.28652321630784
 21
-1227.9719216743474
 31
0.0
  0
ARC
  8
0
  6
CONTINUOUS
 62
               3
  5
2DF
 10
686.28652321630773
 20
-1249.5544973693027
 30
0.0
 40
4.9999999999999991
 50
113.57817847815815
 51
179.99999999993057
  0
LINE
  8
0
  6
CONTINUOUS
 62
               3
  5
2E0
 10
681.57068469031208
 20
-1227.9719216743474
 30
0.0
 11
681.57068469031208
 21
-1244.971921674347
 31
0.0
  0
LINE
  8
0
  6
CONTINUOUS
 62
               3
  5
2E1
 10
695.49702141693308
 20
-1237.9719216743474
 30
0.0
 11
695.49702141693308
 21
-1244.971921674347
 31
0.0
  0
LINE
  8
0
  6
CONTINUOUS
 62
               3
  5
2E2
 10
697.7865232163075
 20
-1237.9719216743474
 30
0.0
 11
695.49702141693308
 21
-1237.9719216743474
 31
0.0
  0
LINE
  8
0
  6
CONTINUOUS
 62
               3
  5
2E3
 10
695.49702141693308
 20
-1237.9719216743474
 30
0.0
 11
681.57068469031208
 21
-1227.9719216743474
 31
0.0
  0
ARC
  8
0
  6
CONTINUOUS
 62
               3
  5
2E4
 10
544.28652321630784
 20
-1456.4719216743474
 30
0.0
 40
2.4999999999999996
 50
89.999999999965354
 51
269.99999999989632
  0
ARC
  8
0
  6
CONTINUOUS
 62
               3
  5
2E5
 10
684.28652321630784
 20
-1456.4719216743474
 30
0.0
 40
2.4999999999999996
 50
269.99999999989649
 51
449.99999999982703
  0
LINE
  8
0
  6
CONTINUOUS
 62
               3
  5
2E6
 10
469.28652321630784
 20
-1448.9719216743474
 30
0.0
 11
469.95807934227219
 21
-1448.9719216743474
 31
0.0
  0
LINE
  8
0
  6
CONTINUOUS
 62
               3
  5
2E7
 10
472.4580793422723
 20
-1451.4719216743465
 30
0.0
 11
469.95807934227219
 21
-1448.9719216743474
 31
0.0
  0
LINE
  8
0
  6
CONTINUOUS
 62
               3
  5
2E8
 10
472.45807934227309
 20
-1451.4719216743474
 30
0.0
 11
514.62318959855043
 21
-1452.9443597702016
 31
0.0
  0
LINE
  8
0
  6
CONTINUOUS
 62
               3
  5
2E9
 10
532.82205712224038
 20
-1469.2436111006332
 30
0.0
 11
517.9842260209706
 21
-1454.4057799993639
 31
0.0
  0
ARC
  8
0
  6
CONTINUOUS
 62
               3
  5
2EA
 10
529.28652321630784
 20
-1472.7791450065665
 30
0.0
 40
4.9999999999999991
 50
0.0
 51
44.99999999998176
  0
LINE
  8
0
  6
CONTINUOUS
 62
               3
  5
2EB
 10
469.28652321630784
 20
-1338.9719216743474
 30
0.0
 11
469.95807934227219
 21
-1338.9719216743474
 31
0.0
  0
LINE
  8
0
  6
CONTINUOUS
 62
               3
  5
2EC
 10
472.4580793422723
 20
-1336.4719216743474
 30
0.0
 11
469.95807934227219
 21
-1338.9719216743474
 31
0.0
  0
LINE
  8
0
  6
CONTINUOUS
 62
               3
  5
2ED
 10
472.45807934227219
 20
-1336.4719216743474
 30
0.0
 11
530.0755555444465
 21
-1334.4598750691948
 31
0.0
  0
LINE
  8
0
  6
CONTINUOUS
 62
               3
  5
2EE
 10
469.95807934227219
 20
-1338.9719216743474
 30
0.0
 11
469.95807934227219
 21
-1448.9719216743474
 31
0.0
  0
LINE
  8
0
  6
CONTINUOUS
 62
               3
  5
2EF
 10
469.28652321630784
 20
-1451.5719216743473
 30
0.0
 11
469.28652321630784
 21
-1336.3719216743475
 31
0.0
  0
LINE
  8
0
  6
CONTINUOUS
 62
               3
  5
2F0
 10
469.28652321630784
 20
-1336.3719216743475
 30
0.0
 11
466.78652321630784
 21
-1336.3719216743475
 31
0.0
  0
ARC
  8
0
  6
CONTINUOUS
 62
               3
  5
2F1
 10
466.78652321630784
 20
-1338.8719216743475
 30
0.0
 40
2.5
 50
89.999999999965596
 51
179.99999999993057
  0
LINE
  8
0
  6
CONTINUOUS
 62
               3
  5
2F2
 10
464.28652321630784
 20
-1338.8719216743475
 30
0.0
 11
464.28652321630784
 21
-1449.0719216743473
 31
0.0
  0
LINE
  8
0
  6
CONTINUOUS
 62
               3
  5
2F3
 10
469.28652321630784
 20
-1451.5719216743473
 30
0.0
 11
466.78652321630784
 21
-1451.5719216743473
 31
0.0
  0
ARC
  8
0
  6
CONTINUOUS
 62
               3
  5
2F4
 10
466.78652321630784
 20
-1449.0719216743473
 30
0.0
 40
2.5
 50
179.99999999993057
 51
269.99999999989649
  0
LINE
  8
0
  6
CONTINUOUS
 62
               3
  5
2F5
 10
472.4580793422723
 20
-1336.4719216743474
 30
0.0
 11
472.45807934227309
 21
-1451.4719216743474
 31
0.0
  0
ARC
  8
0
  6
CONTINUOUS
 62
               3
  5
2F6
 10
514.44869211503794
 20
-1457.9413139052967
 30
0.0
 40
5.0
 50
44.999999999983494
 51
87.999999999965766
  0
ARC
  8
0
  6
CONTINUOUS
 62
               3
  5
2F7
 10
529.90105806093402
 20
-1329.4629209340997
 30
0.0
 40
5.0
 50
271.99999999989535
 51
347.26981986155278
  0
CIRCLE
  8
0
  6
CONTINUOUS
 62
               3
  5
2F8
 10
609.28652321630784
 20
-1393.9719216743474
 30
0.0
 40
48.5
  0
CIRCLE
  8
0
  6
CONTINUOUS
 62
               3
  5
2F9
 10
609.28652321630784
 20
-1393.9719216743474
 30
0.0
 40
47.299999999999997
  0
LINE
  8
0
  6
CONTINUOUS
 62
               3
  5
2FA
 10
577.46671806291329
 20
-1425.791726827742
 30
0.0
 11
575.84037246618414
 21
-1427.4180724244711
 31
0.0
  0
LINE
  8
0
  6
CONTINUOUS
 62
               3
  5
2FB
 10
641.10632836970251
 20
-1425.791726827742
 30
0.0
 11
642.73267396643155
 21
-1427.4180724244711
 31
0.0
  0
ARC
  8
0
  6
CONTINUOUS
 62
               3
  5
2FC
 10
609.28652321630784
 20
-1393.9719216743474
 30
0.0
 40
45.0
 50
224.99999999991346
 51
314.99999999987898
  0
CIRCLE
  8
0
  6
CONTINUOUS
 62
               3
  5
2FD
 10
609.28652321630784
 20
-1393.9719216743474
 30
0.0
 40
57.600000000000001
  0
ARC
  8
0
  6
CONTINUOUS
 62
               3
  5
2FE
 10
586.78652321630841
 20
-1456.4719216743474
 30
0.0
 40
2.4999999999999996
 50
269.99999999989626
 51
449.99999999982697
  0
ARC
  8
0
  6
CONTINUOUS
 62
               3
  5
2FF
 10
631.78652321630841
 20
-1456.4719216743474
 30
0.0
 40
2.4999999999999996
 50
89.999999999965439
 51
269.99999999989615
  0
LINE
  8
0
  6
CONTINUOUS
 62
               3
  5
300
 10
544.28652321630784
 20
-1458.9719216743474
 30
0.0
 11
586.78652321630841
 21
-1458.9719216743474
 31
0.0
  0
LINE
  8
0
  6
CONTINUOUS
 62
               3
  5
301
 10
544.28652321630784
 20
-1453.9719216743474
 30
0.0
 11
586.78652321630841
 21
-1453.9719216743474
 31
0.0
  0
LINE
  8
0
  6
CONTINUOUS
 62
               3
  5
302
 10
631.78652321630841
 20
-1453.9719216743474
 30
0.0
 11
684.28652321630784
 21
-1453.9719216743474
 31
0.0
  0
LINE
  8
0
  6
CONTINUOUS
 62
               3
  5
303
 10
631.78652321630841
 20
-1458.9719216743474
 30
0.0
 11
684.28652321630784
 21
-1458.9719216743474
 31
0.0
  0
CIRCLE
  8
0
  6
CONTINUOUS
 62
               3
  5
304
 10
609.28652321630784
 20
-919.47248792576295
 30
0.0
 40
59.0
  0
LINE
  8
0
  6
DASHED2
 62
               3
  5
305
 10
51.499999999999687
 20
-555.50872801636353
 30
0.0
 11
51.499999999999687
 21
-475.50872801636353
 31
0.0
  0
LINE
  8
0
  6
DASHED2
 62
               3
  5
306
 10
-51.500000000000227
 20
-555.50872801636353
 30
0.0
 11
-51.500000000000227
 21
-475.50872801636353
 31
0.0
  0
LINE
  8
0
  6
DASHED2
 62
               3
  5
307
 10
721.49999999999966
 20
-555.50872801636353
 30
0.0
 11
721.49999999999966
 21
-475.50872801636353
 31
0.0
  0
LINE
  8
0
  6
DASHED2
 62
               3
  5
308
 10
618.49999999999977
 20
-555.50872801636353
 30
0.0
 11
618.49999999999977
 21
-475.50872801636353
 31
0.0
  0
LINE
  8
0
  6
DASHED2
 62
               3
  5
309
 10
-721.49999999999966
 20
-555.50872801636353
 30
0.0
 11
-721.49999999999966
 21
-475.50872801636353
 31
0.0
  0
LINE
  8
0
  6
DASHED2
 62
               3
  5
30A
 10
-618.49999999999977
 20
-555.50872801636353
 30
0.0
 11
-618.49999999999977
 21
-475.50872801636353
 31
0.0
  0
LINE
  8
0
  6
CONTINUOUS
 62
               4
  5
30B
 10
-57.000000000000085
 20
-455.50872801636353
 30
0.0
 11
56.999999999999829
 21
-455.50872801636353
 31
0.0
  0
LINE
  8
0
  6
CONTINUOUS
 62
               4
  5
30C
 10
-58.000000000000028
 20
-454.50872801636353
 30
0.0
 11
57.999999999999915
 21
-454.50872801636308
 31
0.0
  0
LINE
  8
0
  6
CONTINUOUS
 62
               4
  5
30D
 10
-8.2170000000002261
 20
-198.39790713383479
 30
0.0
 11
-8.2170000000002261
 21
-443.71581308315257
 31
0.0
  0
LINE
  8
0
  6
CONTINUOUS
 62
               4
  5
30E
 10
8.2169999999996293
 20
-198.39790713383479
 30
0.0
 11
8.2169999999996293
 21
-443.71581308315257
 31
0.0
  0
LINE
  8
0
  6
CONTINUOUS
 62
               4
  5
30F
 10
-6.0000000000002416
 20
-193.39790713383479
 30
0.0
 11
-6.0000000000002416
 21
-441.44403748280354
 31
0.0
  0
LINE
  8
0
  6
CONTINUOUS
 62
               4
  5
310
 10
5.9999999999996447
 20
-441.44403748280354
 30
0.0
 11
5.9999999999996447
 21
-193.39790713383479
 31
0.0
  0
LINE
  8
0
  6
CONTINUOUS
 62
               4
  5
311
 10
8.2169999999996293
 20
-294.50872801636336
 30
0.0
 11
-8.2170000000002261
 21
-294.50872801636336
 31
0.0
  0
LINE
  8
0
  6
CONTINUOUS
 62
               4
  5
312
 10
-6.0000000000002416
 20
-441.44403748280354
 30
0.0
 11
5.9999999999996447
 21
-441.44403748280354
 31
0.0
  0
LINE
  8
0
  6
CONTINUOUS
 62
               4
  5
313
 10
-8.2170000000002261
 20
-443.71581308315257
 30
0.0
 11
-6.0000000000002416
 21
-441.44403748280354
 31
0.0
  0
LINE
  8
0
  6
CONTINUOUS
 62
               4
  5
314
 10
5.9999999999996447
 20
-441.44403748280354
 30
0.0
 11
8.2169999999996293
 21
-443.71581308315257
 31
0.0
  0
ARC
  8
0
  6
CONTINUOUS
 62
               4
  5
315
 10
-13.217000000000226
 20
-198.39790713383479
 30
0.0
 40
5.0
 50
0.0
 51
89.99999999998262
  0
ARC
  8
0
  6
CONTINUOUS
 62
               4
  5
316
 10
13.216999999999629
 20
-198.39790713383479
 30
0.0
 40
5.0
 50
89.999999999982606
 51
179.99999999996507
  0
ARC
  8
0
  6
CONTINUOUS
 62
               4
  5
317
 10
-25.783965811966155
 20
-52.508728016363634
 30
0.0
 40
17.566965811965957
 50
0.0
 51
36.851448659223813
  0
LINE
  8
0
  6
CONTINUOUS
 62
               4
  5
318
 10
11.727000000000189
 20
-36.973074263510838
 30
0.0
 11
-11.727000000000217
 21
-36.973074263510838
 31
0.0
  0
ARC
  8
0
  6
CONTINUOUS
 62
               4
  5
319
 10
25.783965811965558
 20
-52.508728016363634
 30
0.0
 40
17.566965811965957
 50
143.14855134074139
 51
179.99999999996521
  0
LINE
  8
0
  6
CONTINUOUS
 62
               4
  5
31A
 10
-11.727000000000217
 20
-41.973074263510838
 30
0.0
 11
-11.727000000000217
 21
-36.973074263510838
 31
0.0
  0
LINE
  8
0
  6
CONTINUOUS
 62
               4
  5
31B
 10
11.727000000000189
 20
-41.973074263510838
 30
0.0
 11
11.727000000000189
 21
-36.973074263510838
 31
0.0
  0
LINE
  8
0
  6
CONTINUOUS
 62
               4
  5
31C
 10
-11.727000000000217
 20
-36.973074263510838
 30
0.0
 11
-6.0000000000002416
 21
-41.973074263510838
 31
0.0
  0
LINE
  8
0
  6
CONTINUOUS
 62
               4
  5
31D
 10
5.9999999999996447
 20
-41.973074263510838
 30
0.0
 11
11.727000000000189
 21
-36.973074263510838
 31
0.0
  0
LINE
  8
0
  6
CONTINUOUS
 62
               4
  5
31E
 10
-6.0000000000002416
 20
-41.973074263510838
 30
0.0
 11
5.9999999999996447
 21
-41.973074263510838
 31
0.0
  0
LINE
  8
0
  6
CONTINUOUS
 62
               4
  5
31F
 10
5.9999999999996447
 20
-57.508728016363634
 30
0.0
 11
5.9999999999996447
 21
-41.973074263510838
 31
0.0
  0
LINE
  8
0
  6
CONTINUOUS
 62
               4
  5
320
 10
-6.0000000000002416
 20
-41.973074263510838
 30
0.0
 11
-6.0000000000002416
 21
-57.508728016363634
 31
0.0
  0
ARC
  8
0
  6
CONTINUOUS
 62
               4
  5
321
 10
-13.217000000000255
 20
-52.508728016363634
 30
0.0
 40
5.0
 50
269.99999999994782
 51
359.99999999993048
  0
ARC
  8
0
  6
CONTINUOUS
 62
               4
  5
322
 10
13.216999999999601
 20
-52.508728016363634
 30
0.0
 40
5.0
 50
179.99999999996524
 51
269.99999999994782
  0
LINE
  8
0
  6
CONTINUOUS
 62
               4
  5
323
 10
746.75000000000011
 20
-47.223074263510711
 30
0.0
 11
746.99999999999989
 21
-46.973074263510711
 31
0.0
  0
LINE
  8
0
  6
CONTINUOUS
 62
               4
  5
324
 10
612.99999999999989
 20
-455.50872801636353
 30
0.0
 11
726.99999999999977
 21
-455.50872801636353
 31
0.0
  0
LINE
  8
0
  6
CONTINUOUS
 62
               4
  5
325
 10
612.0
 20
-454.50872801636353
 30
0.0
 11
727.99999999999989
 21
-454.50872801636308
 31
0.0
  0
LINE
  8
0
  6
CONTINUOUS
 62
               4
  5
326
 10
-746.75000000000011
 20
-47.223074263510711
 30
0.0
 11
-746.99999999999989
 21
-46.973074263510711
 31
0.0
  0
LINE
  8
0
  6
CONTINUOUS
 62
               4
  5
327
 10
-612.99999999999989
 20
-455.50872801636353
 30
0.0
 11
-726.99999999999977
 21
-455.50872801636353
 31
0.0
  0
LINE
  8
0
  6
CONTINUOUS
 62
               4
  5
328
 10
-612.0
 20
-454.50872801636353
 30
0.0
 11
-727.99999999999989
 21
-454.50872801636308
 31
0.0
  0
POINT
  8
0
  6
CONTINUOUS
 62
               4
  5
329
 10
-247.03776905046868
 20
-932.65692349755398
 30
0.0
  0
POINT
  8
0
  6
CONTINUOUS
 62
               4
  5
32A
 10
-537.23776905046861
 20
-932.65692349755375
 30
0.0
  0
POINT
  8
0
  6
CONTINUOUS
 62
               4
  5
32B
 10
-349.58372644623523
 20
-824.58903942851896
 30
0.0
  0
POINT
  8
0
  6
CONTINUOUS
 62
               4
  5
32C
 10
242.83392368588102
 20
-932.65692349755398
 30
0.0
  0
POINT
  8
0
  6
CONTINUOUS
 62
               4
  5
32D
 10
-1.0781087646048491
 20
-932.65692349755398
 30
0.0
  0
POINT
  8
0
  6
CONTINUOUS
 62
               4
  5
32E
 10
165.3779074606382
 20
-844.70090727231116
 30
0.0
  0
LINE
  8
0
  6
CONTINUOUS
 62
               4
  5
32F
 10
686.28652321630773
 20
-1324.4362679214946
 30
0.0
 11
681.28652321630773
 21
-1319.4362679214946
 31
0.0
  0
ARC
  8
0
  6
CONTINUOUS
 62
               4
  5
330
 10
663.78652321630773
 20
-1334.9719216743474
 30
0.0
 40
19.999999999999996
 50
0.0
 51
31.788330617039573
  0
LINE
  8
0
  6
CONTINUOUS
 62
               4
  5
331
 10
680.78652321630818
 20
-1324.4362679214946
 30
0.0
 11
680.78652321630818
 21
-1319.4362679214942
 31
0.0
  0
LINE
  8
0
  6
CONTINUOUS
 62
               4
  5
332
 10
681.28652321630773
 20
-1319.4362679214946
 30
0.0
 11
680.78652321630818
 21
-1319.4362679214946
 31
0.0
  0
LINE
  8
0
  6
CONTINUOUS
 62
               4
  5
333
 10
686.03652321630796
 20
-1324.6862679214946
 30
0.0
 11
680.78652321630818
 21
-1319.4362679214946
 31
0.0
  0
LINE
  8
0
  6
CONTINUOUS
 62
               4
  5
334
 10
686.03652321630796
 20
-1324.6862679214946
 30
0.0
 11
686.28652321630773
 21
-1324.4362679214946
 31
0.0
  0
LINE
  8
0
  6
CONTINUOUS
 62
               4
  5
335
 10
686.28652321630773
 20
-1324.4362679214946
 30
0.0
 11
686.28652321630773
 21
-1455.1249452714642
 31
0.0
  0
LINE
  8
0
  6
CONTINUOUS
 62
               4
  5
336
 10
686.03652321630796
 20
-1324.6862679214946
 30
0.0
 11
686.03652321630796
 21
-1454.8395881643287
 31
0.0
  0
LINE
  8
0
  6
CONTINUOUS
 62
               4
  5
337
 10
683.78652321630773
 20
-1334.8188980772302
 30
0.0
 11
683.78652321630773
 21
-1453.9719216743474
 31
0.0
  0
POINT
  8
0
  6
CONTINUOUS
 62
               4
  5
338
 10
653.78652321630784
 20
-1063.8724879257629
 30
0.0
  0
POINT
  8
0
  6
CONTINUOUS
 62
               4
  5
339
 10
464.88652321630786
 20
-1349.4719216743474
 30
0.0
  0
POINT
  8
0
  6
CONTINUOUS
 62
               4
  5
33A
 10
464.88652321630798
 20
-963.97248792576272
 30
0.0
  0
LINE
  8
0
  6
DASHED2
 62
               4
  5
33B
 10
-56.999999999999886
 20
-15.50872801636352
 30
0.0
 11
56.999999999999886
 21
-15.50872801636352
 31
0.0
  0
LINE
  8
0
  6
DASHED2
 62
               4
  5
33C
 10
613.0
 20
-15.50872801636352
 30
0.0
 11
726.99999999999977
 21
-15.50872801636352
 31
0.0
  0
LINE
  8
0
  6
DASHED2
 62
               4
  5
33D
 10
-613.0
 20
-15.50872801636352
 30
0.0
 11
-726.99999999999977
 21
-15.50872801636352
 31
0.0
  0
LINE
  8
0
  6
DASHED2
 62
               4
  5
33E
 10
552.28652321630796
 20
-1292.9719216743474
 30
0.0
 11
666.28652321630773
 21
-1292.9719216743474
 31
0.0
  0
ARC
  8
0
  6
DIVIDE
 62
               4
  5
33F
 10
615.0
 20
-57.50872801636352
 30
0.0
 40
28.499999999999996
 50
179.27151833763236
 51
179.99999999996524
  0
ARC
  8
0
  6
DIVIDE
 62
               4
  5
340
 10
-615.0
 20
-57.50872801636352
 30
0.0
 40
28.499999999999996
 50
0.0
 51
0.7284816623328368
  0
LINE
  8
0
  6
DASHDOT
 62
               4
  5
341
 10
670.0
 20
69.491271983636494
 30
0.0
 11
670.0
 21
-575.50872801636353
 31
0.0
  0
LINE
  8
0
  6
DASHDOT
 62
               4
  5
342
 10
0.0
 20
69.491271983636494
 30
0.0
 11
0.0
 21
-575.50872801636353
 31
0.0
  0
LINE
  8
0
  6
DASHDOT
 62
               4
  5
343
 10
-670.0
 20
69.491271983636494
 30
0.0
 11
-670.0
 21
-575.50872801636353
 31
0.0
  0
LINE
  8
0
  6
DASHDOT
 62
               4
  5
344
 10
190.00000000000023
 20
467.00872801636331
 30
0.0
 11
-190.00000000000023
 21
467.00872801636353
 31
0.0
  0
LINE
  8
0
  6
DASHDOT
 62
               4
  5
345
 10
0.0000000000000036
 20
277.00872801636308
 30
0.0
 11
0.0000000000000071
 21
575.50872801636353
 31
0.0
  0
LINE
  8
0
  6
DASHDOT
 62
               4
  5
346
 10
-80.886986854698534
 20
-116.33717189039984
 30
0.0
 11
-165.0
 21
-116.33717189039976
 31
0.0
  0
LINE
  8
0
  6
DASHDOT
 62
               4
  5
347
 10
-747.50000000000023
 20
-116.50872801636342
 30
0.0
 11
-592.50000000000023
 21
-116.50872801636342
 31
0.0
  0
LINE
  8
0
  6
DASHDOT
 62
               4
  5
348
 10
747.60000000000002
 20
-116.50872801636353
 30
0.0
 11
591.45361517899482
 21
-116.50872801636351
 31
0.0
  0
LINE
  8
0
  6
DASHDOT
 62
               4
  5
349
 10
597.49110023849596
 20
-116.50872801636348
 30
0.0
 11
508.27138670657177
 21
-116.50872801636348
 31
0.0
  0
LINE
  8
0
  6
DASHDOT
 62
               4
  5
34A
 10
-77.5
 20
-116.50872801636342
 30
0.0
 11
77.5
 21
-116.50872801636342
 31
0.0
  0
LINE
  8
0
  6
DASHDOT
 62
               4
  5
34B
 10
80.886986854698534
 20
-116.33717189039984
 30
0.0
 11
165.0
 21
-116.33717189039976
 31
0.0
  0
LINE
  8
0
  6
DASHDOT
 62
               4
  5
34C
 10
-589.11301314530147
 20
-116.33717189039984
 30
0.0
 11
-505.0
 21
-116.33717189039976
 31
0.0
  0
LINE
  8
0
  6
DASHDOT
 62
               4
  5
34D
 10
-392.13776905046871
 20
-1041.6569234975541
 30
0.0
 11
-392.13776905046859
 21
-912.65692349755398
 31
0.0
  0
LINE
  8
0
  6
DASHDOT
 62
               4
  5
34E
 10
-450.13776905046871
 20
-983.65692349755398
 30
0.0
 11
-334.13776905046871
 21
-983.65692349755398
 31
0.0
  0
LINE
  8
0
  6
DASHDOT
 62
               4
  5
34F
 10
-461.94094753457614
 20
-977.15692349755398
 30
0.0
 11
-327.63776905046871
 21
-977.15692349755398
 31
0.0
  0
LINE
  8
0
  6
DASHDOT
 62
               4
  5
350
 10
-268.23776905046861
 20
-977.15692349755398
 30
0.0
 11
-169.63776905046871
 21
-977.15692349755398
 31
0.0
  0
LINE
  8
0
  6
DASHDOT
 62
               4
  5
351
 10
-302.63776905046871
 20
-983.65692349755398
 30
0.0
 11
-228.23776905046873
 21
-983.65692349755398
 31
0.0
  0
LINE
  8
0
  6
DASHDOT
 62
               4
  5
352
 10
-516.03776905046857
 20
-977.15692349755375
 30
0.0
 11
-614.63776905046871
 21
-977.15692349755352
 31
0.0
  0
LINE
  8
0
  6
DASHDOT
 62
               4
  5
353
 10
-481.63776905046871
 20
-983.65692349755375
 30
0.0
 11
-556.03776905046857
 21
-983.65692349755375
 31
0.0
  0
LINE
  8
0
  6
DASHDOT
 62
               4
  5
354
 10
-394.08372644623523
 20
-880.18903942851887
 30
0.0
 11
-394.08372644623523
 21
-747.18903942851887
 31
0.0
  0
LINE
  8
0
  6
DASHDOT
 62
               4
  5
355
 10
221.63392368588097
 20
-977.15692349755398
 30
0.0
 11
320.23392368588111
 21
-977.15692349755398
 31
0.0
  0
LINE
  8
0
  6
DASHDOT
 62
               4
  5
356
 10
196.63392368588097
 20
-991.65692349755398
 30
0.0
 11
261.63392368588097
 21
-991.65692349755398
 31
0.0
  0
LINE
  8
0
  6
DASHDOT
 62
               4
  5
357
 10
70.877907460637971
 20
-991.65692349755398
 30
0.0
 11
170.8779074606382
 21
-991.65692349755398
 31
0.0
  0
LINE
  8
0
  6
DASHDOT
 62
               4
  5
358
 10
120.87790746063797
 20
-1041.6569234975541
 30
0.0
 11
120.8779074606382
 21
-912.65692349755398
 31
0.0
  0
LINE
  8
0
  6
DASHDOT
 62
               4
  5
359
 10
56.377907460637971
 20
-977.15692349755398
 30
0.0
 11
190.92191724058921
 21
-977.15692349755398
 31
0.0
  0
LINE
  8
0
  6
DASHDOT
 62
               4
  5
35A
 10
20.121891235395196
 20
-977.15692349755398
 30
0.0
 11
-78.478108764604826
 21
-977.15692349755398
 31
0.0
  0
LINE
  8
0
  6
DASHDOT
 62
               4
  5
35B
 10
45.121891235395196
 20
-991.65692349755398
 30
0.0
 11
-19.878108764604804
 21
-991.65692349755398
 31
0.0
  0
LINE
  8
0
  6
DASHDOT
 62
               4
  5
35C
 10
120.8779074606382
 20
-890.9009072723112
 30
0.0
 11
120.8779074606382
 21
-767.30090727231106
 31
0.0
  0
LINE
  8
0
  6
DASHDOT
 62
               4
  5
35D
 10
609.28652321630784
 20
-810.97248792576295
 30
0.0
 11
609.28652321630784
 21
-1081.5192747255892
 31
0.0
  0
LINE
  8
0
  6
DASHDOT
 62
               4
  5
35E
 10
447.28652321630796
 20
-919.47248792576295
 30
0.0
 11
717.78652321630807
 21
-919.47248792576295
 31
0.0
  0
LINE
  8
0
  6
DASHDOT
 62
               4
  5
35F
 10
677.81174799153257
 20
-1393.9719216743474
 30
0.0
 11
447.55790992287962
 21
-1393.9719216743474
 31
0.0
  0
LINE
  8
0
  6
DASHDOT
 62
               4
  5
360
 10
609.28652321630784
 20
-1207.9719216743474
 30
0.0
 11
609.28652321630784
 21
-1458.9719216743474
 31
0.0
  0
LINE
  8
0
  6
DASHDOT
 62
               4
  5
361
 10
559.28652321630784
 20
-1408.4719216743474
 30
0.0
 11
659.28652321630807
 21
-1408.4719216743474
 31
0.0
  0
LINE
  8
0
  6
DASHDOT
 62
               4
  5
362
 10
609.28652321630784
 20
-1110.0724879257632
 30
0.0
 11
609.28652321630784
 21
-986.47248792576283
 31
0.0
  0
LINE
  8
0
  6
DASHDOT
 62
               4
  5
363
 10
409.28652321630784
 20
-1400.4719216743474
 30
0.0
 11
483.68652321630782
 21
-1400.4719216743474
 31
0.0
  0
LINE
  8
0
  6
DASHDOT
 62
               4
  5
364
 10
409.28652321630807
 20
-919.47248792576272
 30
0.0
 11
542.28652321630807
 21
-919.47248792576272
 31
0.0
  0
POINT
  8
0
  6
CONTINUOUS
 62
               5
  5
365
 10
-0.0000000000003126
 20
467.00872801636331
 30
0.0
  0
POINT
  8
0
  6
CONTINUOUS
 62
               5
  5
366
 10
-10.07084895242653
 20
417.35706663992562
 30
0.0
  0
POINT
  8
0
  6
CONTINUOUS
 62
               5
  5
367
 10
-392.13776905046871
 20
-977.15692349755398
 30
0.0
  0
POINT
  8
0
  6
CONTINUOUS
 62
               5
  5
368
 10
-218.90769754050837
 20
-978.44771757244291
 30
0.0
  0
POINT
  8
0
  6
CONTINUOUS
 62
               5
  5
369
 10
-565.36784056042893
 20
-978.44771757244268
 30
0.0
  0
POINT
  8
0
  6
CONTINUOUS
 62
               5
  5
36A
 10
-395.37452052112428
 20
-796.45896791855864
 30
0.0
  0
POINT
  8
0
  6
CONTINUOUS
 62
               5
  5
36B
 10
493.01659472626818
 20
-1395.2627157492361
 30
0.0
  0
POINT
  8
0
  6
CONTINUOUS
 62
               5
  5
36C
 10
493.01659472626829
 20
-918.18169385087378
 30
0.0
  0
CIRCLE
  8
0
  6
CONTINUOUS
 62
               7
  5
36D
 10
-392.13776905046871
 20
-983.65692349755398
 30
0.0
 40
38.0
  0
CIRCLE
  8
0
  6
CONTINUOUS
 62
               7
  5
36E
 10
-392.13776905046871
 20
-983.65692349755398
 30
0.0
 40
33.5
  0
LINE
  8
0
  6
CONTINUOUS
 62
               7
  5
36F
 10
-247.63776905046871
 20
-932.65692349755398
 30
0.0
 11
-247.63776905046871
 21
-1021.6516873768795
 31
0.0
  0
LINE
  8
0
  6
CONTINUOUS
 62
               7
  5
370
 10
-247.03776905046868
 20
-932.65692349755398
 30
0.0
 11
-247.63776905046871
 21
-932.65692349755398
 31
0.0
  0
LINE
  8
0
  6
CONTINUOUS
 62
               7
  5
371
 10
-282.63776905046871
 20
-1020.656923497554
 30
0.0
 11
-282.63776905046871
 21
-946.65692349755398
 31
0.0
  0
LINE
  8
0
  6
CONTINUOUS
 62
               7
  5
372
 10
-189.63776905046871
 20
-1020.656923497554
 30
0.0
 11
-189.63776905046871
 21
-933.65692349755398
 31
0.0
  0
LINE
  8
0
  6
CONTINUOUS
 62
               7
  5
373
 10
-247.63776905046871
 20
-932.65692349755398
 30
0.0
 11
-190.63776905046871
 21
-932.65692349755398
 31
0.0
  0
LINE
  8
0
  6
CONTINUOUS
 62
               7
  5
374
 10
-281.63776905046871
 20
-1021.656923497554
 30
0.0
 11
-190.63776905046871
 21
-1021.656923497554
 31
0.0
  0
LINE
  8
0
  6
CONTINUOUS
 62
               7
  5
375
 10
-190.63776905046871
 20
-932.65692349755398
 30
0.0
 11
-189.63776905046871
 21
-933.65692349755398
 31
0.0
  0
LINE
  8
0
  6
CONTINUOUS
 62
               7
  5
376
 10
-189.63776905046871
 20
-1020.656923497554
 30
0.0
 11
-190.63776905046871
 21
-1021.656923497554
 31
0.0
  0
LINE
  8
0
  6
CONTINUOUS
 62
               7
  5
377
 10
-281.63776905046871
 20
-945.65692349755398
 30
0.0
 11
-247.63776905046871
 21
-945.65692349755398
 31
0.0
  0
CIRCLE
  8
0
  6
CONTINUOUS
 62
               7
  5
378
 10
-392.13776905046871
 20
-977.15692349755398
 30
0.0
 40
44.5
  0
LINE
  8
0
  6
CONTINUOUS
 62
               7
  5
379
 10
-281.63776905046871
 20
-945.65692349755398
 30
0.0
 11
-282.63776905046871
 21
-946.65692349755398
 31
0.0
  0
LINE
  8
0
  6
CONTINUOUS
 62
               7
  5
37A
 10
-282.63776905046871
 20
-1020.656923497554
 30
0.0
 11
-281.63776905046871
 21
-1021.656923497554
 31
0.0
  0
LINE
  8
0
  6
CONTINUOUS
 62
               7
  5
37B
 10
-536.63776905046859
 20
-932.65692349755375
 30
0.0
 11
-536.63776905046871
 21
-1021.6516873768793
 31
0.0
  0
LINE
  8
0
  6
CONTINUOUS
 62
               7
  5
37C
 10
-537.23776905046861
 20
-932.65692349755375
 30
0.0
 11
-536.63776905046859
 21
-932.65692349755375
 31
0.0
  0
LINE
  8
0
  6
CONTINUOUS
 62
               7
  5
37D
 10
-501.63776905046871
 20
-1020.6569234975537
 30
0.0
 11
-501.63776905046859
 21
-946.65692349755375
 31
0.0
  0
LINE
  8
0
  6
CONTINUOUS
 62
               7
  5
37E
 10
-594.63776905046871
 20
-1020.6569234975537
 30
0.0
 11
-594.63776905046859
 21
-933.65692349755375
 31
0.0
  0
LINE
  8
0
  6
CONTINUOUS
 62
               7
  5
37F
 10
-536.63776905046859
 20
-932.65692349755375
 30
0.0
 11
-593.63776905046859
 21
-932.65692349755375
 31
0.0
  0
LINE
  8
0
  6
CONTINUOUS
 62
               7
  5
380
 10
-502.63776905046871
 20
-1021.6569234975537
 30
0.0
 11
-593.63776905046871
 21
-1021.6569234975537
 31
0.0
  0
LINE
  8
0
  6
CONTINUOUS
 62
               7
  5
381
 10
-593.63776905046859
 20
-932.65692349755375
 30
0.0
 11
-594.63776905046859
 21
-933.65692349755375
 31
0.0
  0
LINE
  8
0
  6
CONTINUOUS
 62
               7
  5
382
 10
-594.63776905046871
 20
-1020.6569234975537
 30
0.0
 11
-593.63776905046871
 21
-1021.6569234975537
 31
0.0
  0
LINE
  8
0
  6
CONTINUOUS
 62
               7
  5
383
 10
-502.63776905046859
 20
-945.65692349755375
 30
0.0
 11
-536.63776905046859
 21
-945.65692349755375
 31
0.0
  0
LINE
  8
0
  6
CONTINUOUS
 62
               7
  5
384
 10
-502.63776905046859
 20
-945.65692349755375
 30
0.0
 11
-501.63776905046859
 21
-946.65692349755375
 31
0.0
  0
LINE
  8
0
  6
CONTINUOUS
 62
               7
  5
385
 10
-501.63776905046871
 20
-1020.6569234975537
 30
0.0
 11
-502.63776905046871
 21
-1021.6569234975537
 31
0.0
  0
LINE
  8
0
  6
CONTINUOUS
 62
               7
  5
386
 10
-349.58372644623523
 20
-825.1890394285191
 30
0.0
 11
-438.57849032556078
 21
-825.18903942851887
 31
0.0
  0
LINE
  8
0
  6
CONTINUOUS
 62
               7
  5
387
 10
-349.58372644623523
 20
-824.58903942851896
 30
0.0
 11
-349.58372644623523
 21
-825.1890394285191
 31
0.0
  0
LINE
  8
0
  6
CONTINUOUS
 62
               7
  5
388
 10
-431.08372644623523
 20
-860.18903942851887
 30
0.0
 11
-357.08372644623523
 21
-860.1890394285191
 31
0.0
  0
LINE
  8
0
  6
CONTINUOUS
 62
               7
  5
389
 10
-437.58372644623512
 20
-767.18903942851887
 30
0.0
 11
-350.58372644623523
 21
-767.1890394285191
 31
0.0
  0
LINE
  8
0
  6
CONTINUOUS
 62
               7
  5
38A
 10
-349.58372644623523
 20
-825.1890394285191
 30
0.0
 11
-349.58372644623523
 21
-768.1890394285191
 31
0.0
  0
LINE
  8
0
  6
CONTINUOUS
 62
               7
  5
38B
 10
-432.08372644623523
 20
-859.18903942851887
 30
0.0
 11
-432.08372644623523
 21
-825.18903942851887
 31
0.0
  0
LINE
  8
0
  6
CONTINUOUS
 62
               7
  5
38C
 10
-349.58372644623523
 20
-768.1890394285191
 30
0.0
 11
-350.58372644623523
 21
-767.1890394285191
 31
0.0
  0
LINE
  8
0
  6
CONTINUOUS
 62
               7
  5
38D
 10
-437.58372644623512
 20
-767.18903942851887
 30
0.0
 11
-438.58372644623512
 21
-768.18903942851887
 31
0.0
  0
LINE
  8
0
  6
CONTINUOUS
 62
               7
  5
38E
 10
-356.08372644623523
 20
-859.1890394285191
 30
0.0
 11
-356.08372644623523
 21
-825.18903942851887
 31
0.0
  0
LINE
  8
0
  6
CONTINUOUS
 62
               7
  5
38F
 10
-356.08372644623523
 20
-859.1890394285191
 30
0.0
 11
-357.08372644623523
 21
-860.1890394285191
 31
0.0
  0
LINE
  8
0
  6
CONTINUOUS
 62
               7
  5
390
 10
-431.08372644623523
 20
-860.18903942851887
 30
0.0
 11
-432.08372644623523
 21
-859.18903942851887
 31
0.0
  0
LINE
  8
0
  6
CONTINUOUS
 62
               7
  5
391
 10
-438.58372644623523
 20
-825.18903942851887
 30
0.0
 11
-438.58372644623523
 21
-768.18903942851887
 31
0.0
  0
LINE
  8
0
  6
CONTINUOUS
 62
               7
  5
392
 10
216.63392368588097
 20
-1020.656923497554
 30
0.0
 11
216.63392368588097
 21
-962.65692349755398
 31
0.0
  0
LINE
  8
0
  6
CONTINUOUS
 62
               7
  5
393
 10
242.23392368588088
 20
-932.65692349755398
 30
0.0
 11
242.23392368588088
 21
-1021.656923497554
 31
0.0
  0
LINE
  8
0
  6
CONTINUOUS
 62
               7
  5
394
 10
242.83392368588102
 20
-932.65692349755398
 30
0.0
 11
242.23392368588088
 21
-932.65692349755398
 31
0.0
  0
LINE
  8
0
  6
CONTINUOUS
 62
               7
  5
395
 10
300.23392368588111
 20
-1020.656923497554
 30
0.0
 11
300.23392368588111
 21
-933.65692349755398
 31
0.0
  0
CIRCLE
  8
0
  6
CONTINUOUS
 62
               7
  5
396
 10
120.87790746063797
 20
-991.65692349755398
 30
0.0
 40
30.0
  0
CIRCLE
  8
0
  6
CONTINUOUS
 62
               7
  5
397
 10
120.87790746063797
 20
-991.65692349755398
 30
0.0
 40
25.5
  0
CIRCLE
  8
0
  6
CONTINUOUS
 62
               7
  5
398
 10
120.87790746063797
 20
-977.15692349755398
 30
0.0
 40
44.5
  0
LINE
  8
0
  6
CONTINUOUS
 62
               7
  5
399
 10
242.3683754313613
 20
-932.65692349755398
 30
0.0
 11
299.23392368588111
 21
-932.65692349755398
 31
0.0
  0
LINE
  8
0
  6
CONTINUOUS
 62
               7
  5
39A
 10
217.63392368588097
 20
-1021.656923497554
 30
0.0
 11
299.23392368588111
 21
-1021.656923497554
 31
0.0
  0
LINE
  8
0
  6
CONTINUOUS
 62
               7
  5
39B
 10
217.63392368588097
 20
-961.65692349755398
 30
0.0
 11
242.23392368588088
 21
-961.65692349755398
 31
0.0
  0
LINE
  8
0
  6
CONTINUOUS
 62
               7
  5
39C
 10
217.63392368588097
 20
-961.65692349755398
 30
0.0
 11
216.63392368588097
 21
-962.65692349755398
 31
0.0
  0
LINE
  8
0
  6
CONTINUOUS
 62
               7
  5
39D
 10
299.23392368588111
 20
-932.65692349755398
 30
0.0
 11
300.23392368588111
 21
-933.65692349755398
 31
0.0
  0
LINE
  8
0
  6
CONTINUOUS
 62
               7
  5
39E
 10
216.63392368588097
 20
-1020.656923497554
 30
0.0
 11
217.63392368588097
 21
-1021.656923497554
 31
0.0
  0
LINE
  8
0
  6
CONTINUOUS
 62
               7
  5
39F
 10
300.23392368588111
 20
-1020.656923497554
 30
0.0
 11
299.23392368588111
 21
-1021.656923497554
 31
0.0
  0
LINE
  8
0
  6
CONTINUOUS
 62
               7
  5
3A0
 10
25.121891235395196
 20
-1020.656923497554
 30
0.0
 11
25.121891235395196
 21
-962.65692349755398
 31
0.0
  0
LINE
  8
0
  6
CONTINUOUS
 62
               7
  5
3A1
 10
-0.4781087646048263
 20
-932.65692349755398
 30
0.0
 11
-0.4781087646048263
 21
-1021.656923497554
 31
0.0
  0
LINE
  8
0
  6
CONTINUOUS
 62
               7
  5
3A2
 10
-1.0781087646048491
 20
-932.65692349755398
 30
0.0
 11
-0.4781087646048263
 21
-932.65692349755398
 31
0.0
  0
LINE
  8
0
  6
CONTINUOUS
 62
               7
  5
3A3
 10
-58.478108764604826
 20
-1020.656923497554
 30
0.0
 11
-58.478108764604826
 21
-933.65692349755398
 31
0.0
  0
LINE
  8
0
  6
CONTINUOUS
 62
               7
  5
3A4
 10
-0.6125605100851317
 20
-932.65692349755398
 30
0.0
 11
-57.478108764604826
 21
-932.65692349755398
 31
0.0
  0
LINE
  8
0
  6
CONTINUOUS
 62
               7
  5
3A5
 10
24.121891235395196
 20
-1021.656923497554
 30
0.0
 11
-57.478108764604826
 21
-1021.656923497554
 31
0.0
  0
LINE
  8
0
  6
CONTINUOUS
 62
               7
  5
3A6
 10
24.121891235395196
 20
-961.65692349755398
 30
0.0
 11
-0.4781087646048263
 21
-961.65692349755398
 31
0.0
  0
LINE
  8
0
  6
CONTINUOUS
 62
               7
  5
3A7
 10
24.121891235395196
 20
-961.65692349755398
 30
0.0
 11
25.121891235395196
 21
-962.65692349755398
 31
0.0
  0
LINE
  8
0
  6
CONTINUOUS
 62
               7
  5
3A8
 10
-57.478108764604826
 20
-932.65692349755398
 30
0.0
 11
-58.478108764604826
 21
-933.65692349755398
 31
0.0
  0
LINE
  8
0
  6
CONTINUOUS
 62
               7
  5
3A9
 10
25.121891235395196
 20
-1020.656923497554
 30
0.0
 11
24.121891235395196
 21
-1021.656923497554
 31
0.0
  0
LINE
  8
0
  6
CONTINUOUS
 62
               7
  5
3AA
 10
-58.478108764604826
 20
-1020.656923497554
 30
0.0
 11
-57.478108764604826
 21
-1021.656923497554
 31
0.0
  0
LINE
  8
0
  6
CONTINUOUS
 62
               7
  5
3AB
 10
91.877907460638198
 20
-870.9009072723112
 30
0.0
 11
149.8779074606382
 21
-870.9009072723112
 31
0.0
  0
LINE
  8
0
  6
CONTINUOUS
 62
               7
  5
3AC
 10
165.3779074606382
 20
-845.30090727231106
 30
0.0
 11
76.377907460638198
 21
-845.30090727231106
 31
0.0
  0
LINE
  8
0
  6
CONTINUOUS
 62
               7
  5
3AD
 10
165.3779074606382
 20
-844.70090727231116
 30
0.0
 11
165.3779074606382
 21
-845.30090727231106
 31
0.0
  0
LINE
  8
0
  6
CONTINUOUS
 62
               7
  5
3AE
 10
77.377907460638198
 20
-787.30090727231106
 30
0.0
 11
164.3779074606382
 21
-787.30090727231106
 31
0.0
  0
LINE
  8
0
  6
CONTINUOUS
 62
               7
  5
3AF
 10
165.3779074606382
 20
-845.16645552683087
 30
0.0
 11
165.3779074606382
 21
-788.30090727231106
 31
0.0
  0
LINE
  8
0
  6
CONTINUOUS
 62
               7
  5
3B0
 10
90.877907460638198
 20
-869.9009072723112
 30
0.0
 11
90.877907460638198
 21
-845.30090727231106
 31
0.0
  0
LINE
  8
0
  6
CONTINUOUS
 62
               7
  5
3B1
 10
150.8779074606382
 20
-869.9009072723112
 30
0.0
 11
150.8779074606382
 21
-845.30090727231106
 31
0.0
  0
LINE
  8
0
  6
CONTINUOUS
 62
               7
  5
3B2
 10
150.8779074606382
 20
-869.9009072723112
 30
0.0
 11
149.8779074606382
 21
-870.9009072723112
 31
0.0
  0
LINE
  8
0
  6
CONTINUOUS
 62
               7
  5
3B3
 10
165.3779074606382
 20
-788.30090727231106
 30
0.0
 11
164.3779074606382
 21
-787.30090727231106
 31
0.0
  0
LINE
  8
0
  6
CONTINUOUS
 62
               7
  5
3B4
 10
91.877907460638198
 20
-870.9009072723112
 30
0.0
 11
90.877907460638198
 21
-869.9009072723112
 31
0.0
  0
LINE
  8
0
  6
CONTINUOUS
 62
               7
  5
3B5
 10
77.377907460638198
 20
-787.30090727231106
 30
0.0
 11
76.377907460638198
 21
-788.30090727231106
 31
0.0
  0
LINE
  8
0
  6
CONTINUOUS
 62
               7
  5
3B6
 10
76.377907460638198
 20
-845.16645552683065
 30
0.0
 11
76.377907460638198
 21
-788.30090727231106
 31
0.0
  0
CIRCLE
  8
0
  6
CONTINUOUS
 62
               7
  5
3B7
 10
609.28652321630784
 20
-1408.4719216743474
 30
0.0
 40
25.5
  0
CIRCLE
  8
0
  6
CONTINUOUS
 62
               7
  5
3B8
 10
609.28652321630784
 20
-1393.9719216743474
 30
0.0
 40
44.5
  0
CIRCLE
  8
0
  6
CONTINUOUS
 62
               7
  5
3B9
 10
609.28652321630784
 20
-1408.4719216743474
 30
0.0
 40
30.0
  0
LINE
  8
0
  6
CONTINUOUS
 62
               7
  5
3BA
 10
580.28652321630784
 20
-1090.0724879257627
 30
0.0
 11
638.28652321630784
 21
-1090.0724879257627
 31
0.0
  0
LINE
  8
0
  6
CONTINUOUS
 62
               7
  5
3BB
 10
653.78652321630784
 20
-1064.4724879257628
 30
0.0
 11
564.78652321630784
 21
-1064.4724879257628
 31
0.0
  0
LINE
  8
0
  6
CONTINUOUS
 62
               7
  5
3BC
 10
653.78652321630784
 20
-1063.8724879257629
 30
0.0
 11
653.78652321630784
 21
-1064.4724879257628
 31
0.0
  0
LINE
  8
0
  6
CONTINUOUS
 62
               7
  5
3BD
 10
565.78652321630784
 20
-1006.4724879257628
 30
0.0
 11
652.78652321630784
 21
-1006.4724879257628
 31
0.0
  0
LINE
  8
0
  6
CONTINUOUS
 62
               7
  5
3BE
 10
653.78652321630784
 20
-1064.3380361802824
 30
0.0
 11
653.78652321630784
 21
-1007.4724879257628
 31
0.0
  0
LINE
  8
0
  6
CONTINUOUS
 62
               7
  5
3BF
 10
579.28652321630784
 20
-1089.0724879257627
 30
0.0
 11
579.28652321630784
 21
-1064.4724879257628
 31
0.0
  0
LINE
  8
0
  6
CONTINUOUS
 62
               7
  5
3C0
 10
639.28652321630784
 20
-1089.0724879257627
 30
0.0
 11
639.28652321630784
 21
-1064.4724879257628
 31
0.0
  0
LINE
  8
0
  6
CONTINUOUS
 62
               7
  5
3C1
 10
639.28652321630784
 20
-1089.0724879257627
 30
0.0
 11
638.28652321630784
 21
-1090.0724879257627
 31
0.0
  0
LINE
  8
0
  6
CONTINUOUS
 62
               7
  5
3C2
 10
653.78652321630784
 20
-1007.4724879257628
 30
0.0
 11
652.78652321630784
 21
-1006.4724879257628
 31
0.0
  0
LINE
  8
0
  6
CONTINUOUS
 62
               7
  5
3C3
 10
580.28652321630784
 20
-1090.0724879257627
 30
0.0
 11
579.28652321630784
 21
-1089.0724879257627
 31
0.0
  0
LINE
  8
0
  6
CONTINUOUS
 62
               7
  5
3C4
 10
565.78652321630784
 20
-1006.4724879257628
 30
0.0
 11
564.78652321630784
 21
-1007.4724879257628
 31
0.0
  0
LINE
  8
0
  6
CONTINUOUS
 62
               7
  5
3C5
 10
564.78652321630784
 20
-1064.3380361802824
 30
0.0
 11
564.78652321630784
 21
-1007.4724879257628
 31
0.0
  0
LINE
  8
0
  6
CONTINUOUS
 62
               7
  5
3C6
 10
464.28652321630784
 20
-1349.4719216743474
 30
0.0
 11
464.28652321630784
 21
-1438.466685553673
 31
0.0
  0
LINE
  8
0
  6
CONTINUOUS
 62
               7
  5
3C7
 10
464.88652321630786
 20
-1349.4719216743474
 30
0.0
 11
464.28652321630784
 21
-1349.4719216743474
 31
0.0
  0
LINE
  8
0
  6
CONTINUOUS
 62
               7
  5
3C8
 10
429.28652321630784
 20
-1437.4719216743474
 30
0.0
 11
429.28652321630784
 21
-1363.4719216743474
 31
0.0
  0
LINE
  8
0
  6
CONTINUOUS
 62
               7
  5
3C9
 10
522.28652321630784
 20
-1437.4719216743474
 30
0.0
 11
522.28652321630784
 21
-1350.4719216743474
 31
0.0
  0
LINE
  8
0
  6
CONTINUOUS
 62
               7
  5
3CA
 10
464.28652321630784
 20
-1349.4719216743474
 30
0.0
 11
521.28652321630784
 21
-1349.4719216743474
 31
0.0
  0
LINE
  8
0
  6
CONTINUOUS
 62
               7
  5
3CB
 10
430.28652321630784
 20
-1438.4719216743474
 30
0.0
 11
521.28652321630784
 21
-1438.4719216743474
 31
0.0
  0
LINE
  8
0
  6
CONTINUOUS
 62
               7
  5
3CC
 10
521.28652321630784
 20
-1349.4719216743474
 30
0.0
 11
522.28652321630784
 21
-1350.4719216743474
 31
0.0
  0
LINE
  8
0
  6
CONTINUOUS
 62
               7
  5
3CD
 10
522.28652321630784
 20
-1437.4719216743474
 30
0.0
 11
521.28652321630784
 21
-1438.4719216743474
 31
0.0
  0
LINE
  8
0
  6
CONTINUOUS
 62
               7
  5
3CE
 10
430.28652321630784
 20
-1362.4719216743474
 30
0.0
 11
464.28652321630784
 21
-1362.4719216743474
 31
0.0
  0
LINE
  8
0
  6
CONTINUOUS
 62
               7
  5
3CF
 10
430.28652321630784
 20
-1362.4719216743474
 30
0.0
 11
429.28652321630784
 21
-1363.4719216743474
 31
0.0
  0
LINE
  8
0
  6
CONTINUOUS
 62
               7
  5
3D0
 10
429.28652321630784
 20
-1437.4719216743474
 30
0.0
 11
430.28652321630784
 21
-1438.4719216743474
 31
0.0
  0
LINE
  8
0
  6
CONTINUOUS
 62
               7
  5
3D1
 10
464.28652321630784
 20
-963.97248792576272
 30
0.0
 11
464.28652321630807
 21
-874.97772404643717
 31
0.0
  0
LINE
  8
0
  6
CONTINUOUS
 62
               7
  5
3D2
 10
464.88652321630798
 20
-963.97248792576272
 30
0.0
 11
464.28652321630784
 21
-963.97248792576272
 31
0.0
  0
LINE
  8
0
  6
CONTINUOUS
 62
               7
  5
3D3
 10
429.28652321630807
 20
-882.47248792576272
 30
0.0
 11
429.28652321630784
 21
-956.47248792576272
 31
0.0
  0
LINE
  8
0
  6
CONTINUOUS
 62
               7
  5
3D4
 10
522.28652321630807
 20
-875.97248792576295
 30
0.0
 11
522.28652321630784
 21
-962.97248792576272
 31
0.0
  0
LINE
  8
0
  6
CONTINUOUS
 62
               7
  5
3D5
 10
464.28652321630784
 20
-963.97248792576272
 30
0.0
 11
521.28652321630784
 21
-963.97248792576272
 31
0.0
  0
LINE
  8
0
  6
CONTINUOUS
 62
               7
  5
3D6
 10
430.28652321630807
 20
-881.47248792576272
 30
0.0
 11
464.28652321630807
 21
-881.47248792576272
 31
0.0
  0
LINE
  8
0
  6
CONTINUOUS
 62
               7
  5
3D7
 10
521.28652321630784
 20
-963.97248792576272
 30
0.0
 11
522.28652321630784
 21
-962.97248792576272
 31
0.0
  0
LINE
  8
0
  6
CONTINUOUS
 62
               7
  5
3D8
 10
522.28652321630807
 20
-875.97248792576295
 30
0.0
 11
521.28652321630807
 21
-874.97248792576295
 31
0.0
  0
LINE
  8
0
  6
CONTINUOUS
 62
               7
  5
3D9
 10
430.28652321630784
 20
-957.47248792576272
 30
0.0
 11
464.28652321630807
 21
-957.47248792576272
 31
0.0
  0
LINE
  8
0
  6
CONTINUOUS
 62
               7
  5
3DA
 10
430.28652321630784
 20
-957.47248792576272
 30
0.0
 11
429.28652321630784
 21
-956.47248792576272
 31
0.0
  0
LINE
  8
0
  6
CONTINUOUS
 62
               7
  5
3DB
 10
429.28652321630807
 20
-882.47248792576272
 30
0.0
 11
430.28652321630807
 21
-881.47248792576272
 31
0.0
  0
LINE
  8
0
  6
CONTINUOUS
 62
               7
  5
3DC
 10
464.28652321630807
 20
-874.97248792576272
 30
0.0
 11
521.28652321630807
 21
-874.97248792576272
 31
0.0
  0
CIRCLE
  8
0
  6
DASHED
 62
               7
  5
3DD
 10
-392.13776905046871
 20
-977.15692349755398
 30
0.0
 40
40.0
  0
CIRCLE
  8
0
  6
DASHED
 62
               7
  5
3DE
 10
120.87790746063797
 20
-977.15692349755398
 30
0.0
 40
40.0
  0
CIRCLE
  8
0
  6
DASHED
 62
               7
  5
3DF
 10
609.28652321630784
 20
-1393.9719216743474
 30
0.0
 40
40.0
  0
TEXT
  8
0
 62
               3
  5
3E0
 10
-392.13776905046871
 20
-1061.6569234975536
 30
0.0
 40
40.0
  1
EMB_80×65
 41
0.8
 72
               1
 11
-392.13776905046871
 21
-1061.6569234975536
 31
0.0
 73
               3
  0
TEXT
  8
0
 62
               3
  5
3E1
 10
120.87790746063797
 20
-1061.6569234975541
 30
0.0
 40
40.0
  1
EMB_80×50
 41
0.8
 72
               1
 11
120.87790746063797
 21
-1061.6569234975541
 31
0.0
 73
               3
  0
TEXT
  8
0
 62
               3
  5
3E2
 10
605.58911923866754
 20
-740.02611942054364
 30
0.0
 40
40.0
  1
EMB使用例
 41
0.8
 72
               1
 11
605.58911923866754
 21
-740.02611942054364
 31
0.0
 73
               3
  0
TEXT
  8
0
 62
               3
  5
3E3
 10
-123.7427040908909
 20
-685.66598352020412
 30
0.0
 40
35.0
  1
横枝管に呼び６５、５０の管を接続するときは、EMBをご使用ください。
 41
0.8
 72
               1
 11
-123.7427040908909
 21
-685.66598352020412
 31
0.0
 73
               3
  0
ENDSEC
  0
EOF
