  0
SECTION
  2
HEADER
  9
$ACADVER
  1
AC1009
  9
$INSBASE
 10
0.0
 20
0.0
 30
0.0
  9
$EXTMIN
 10
-716.62573046432578
 20
-1500.5858253300069
 30
0.0
  9
$EXTMAX
 10
745.91225368063419
 20
751.81540833980409
 30
0.0
  9
$LIMMIN
 10
-762.33004246885582
 20
-1570.9733638821886
  9
$LIMMAX
 10
791.61656568516423
 20
822.20294689198568
  9
$ORTHOMODE
 70
               0
  9
$REGENMODE
 70
               1
  9
$FILLMODE
 70
               1
  9
$QTEXTMODE
 70
               0
  9
$MIRRTEXT
 70
               1
  9
$DRAGMODE
 70
               2
  9
$LTSCALE
 40
1.0
  9
$OSMODE
 70
               0
  9
$ATTMODE
 70
               1
  9
$TEXTSIZE
 40
0.2
  9
$TRACEWID
 40
0.05
  9
$TEXTSTYLE
  7
STANDARD
  9
$CLAYER
  8
0
  9
$CELTYPE
  6
CONTINUOUS
  9
$CECOLOR
 62
             256
  9
$DIMSCALE
 40
1.0
  9
$DIMASZ
 40
0.18
  9
$DIMEXO
 40
0.0625
  9
$DIMDLI
 40
0.38
  9
$DIMRND
 40
0.0
  9
$DIMDLE
 40
0.0
  9
$DIMEXE
 40
0.18
  9
$DIMTP
 40
0.0
  9
$DIMTM
 40
0.0
  9
$DIMTXT
 40
0.18
  9
$DIMCEN
 40
0.09
  9
$DIMTSZ
 40
0.0
  9
$DIMTOL
 70
               0
  9
$DIMLIM
 70
               0
  9
$DIMTIH
 70
               1
  9
$DIMTOH
 70
               1
  9
$DIMSE1
 70
               0
  9
$DIMSE2
 70
               0
  9
$DIMTAD
 70
               0
  9
$DIMZIN
 70
               0
  9
$DIMBLK
  1

  9
$DIMASO
 70
               1
  9
$DIMSHO
 70
               1
  9
$DIMPOST
  1

  9
$DIMAPOST
  1

  9
$DIMALT
 70
               0
  9
$DIMALTD
 70
               2
  9
$DIMALTF
 40
25.399999999999999
  9
$DIMLFAC
 40
1.0
  9
$DIMTOFL
 70
               0
  9
$DIMTVP
 40
0.0
  9
$DIMTIX
 70
               0
  9
$DIMSOXD
 70
               0
  9
$DIMSAH
 70
               0
  9
$DIMBLK1
  1

  9
$DIMBLK2
  1

  9
$DIMSTYLE
  2
STANDARD
  9
$DIMCLRD
 70
               0
  9
$DIMCLRE
 70
               0
  9
$DIMCLRT
 70
               0
  9
$DIMTFAC
 40
1.0
  9
$DIMGAP
 40
0.09
  9
$LUNITS
 70
               2
  9
$LUPREC
 70
               4
  9
$AXISMODE
 70
               0
  9
$AXISUNIT
 10
0.0
 20
0.0
  9
$SKETCHINC
 40
0.1
  9
$FILLETRAD
 40
0.0
  9
$AUNITS
 70
               0
  9
$AUPREC
 70
               0
  9
$MENU
  1
acad
  9
$ELEVATION
 40
0.0
  9
$PELEVATION
 40
0.0
  9
$THICKNESS
 40
0.0
  9
$LIMCHECK
 70
               0
  9
$BLIPMODE
 70
               1
  9
$CHAMFERA
 40
0.0
  9
$CHAMFERB
 40
0.0
  9
$SKPOLY
 70
               0
  9
$TDCREATE
 40
0.000000000
  9
$TDUPDATE
 40
0.000000000
  9
$TDINDWG
 40
0.0000000000
  9
$TDUSRTIMER
 40
0.0000000000
  9
$USRTIMER
 70
               1
  9
$ANGBASE
 50
0.0
  9
$ANGDIR
 70
               0
  9
$PDMODE
 70
               0
  9
$PDSIZE
 40
1.0
  9
$PLINEWID
 40
0.0
  9
$COORDS
 70
               1
  9
$SPLFRAME
 70
               0
  9
$SPLINETYPE
 70
               6
  9
$SPLINESEGS
 70
               8
  9
$ATTDIA
 70
               0
  9
$ATTREQ
 70
               1
  9
$HANDLING
 70
               1
  9
$HANDSEED
  5
3A4
  9
$SURFTAB1
 70
               6
  9
$SURFTAB2
 70
               6
  9
$SURFTYPE
 70
               6
  9
$SURFU
 70
               6
  9
$SURFV
 70
               6
  9
$UCSNAME
  2

  9
$UCSORG
 10
0.0
 20
0.0
 30
0.0
  9
$UCSXDIR
 10
1.0
 20
0.0
 30
0.0
  9
$UCSYDIR
 10
0.0
 20
1.0
 30
0.0
  9
$PUCSNAME
  2

  9
$PUCSORG
 10
0.0
 20
0.0
 30
0.0
  9
$PUCSXDIR
 10
1.0
 20
0.0
 30
0.0
  9
$PUCSYDIR
 10
0.0
 20
1.0
 30
0.0
  9
$USERI1
 70
               0
  9
$USERI2
 70
               0
  9
$USERI3
 70
               0
  9
$USERI4
 70
               0
  9
$USERI5
 70
               0
  9
$USERR1
 40
0.0
  9
$USERR2
 40
0.0
  9
$USERR3
 40
0.0
  9
$USERR4
 40
0.0
  9
$USERR5
 40
0.0
  9
$WORLDVIEW
 70
               1
  9
$SHADEDGE
 70
               3
  9
$SHADEDIF
 70
              70
  9
$TILEMODE
 70
               1
  9
$MAXACTVP
 70
              16
  9
$PINSBASE
 10
0.0
 20
0.0
 30
0.0
  9
$PLIMCHECK
 70
               0
  9
$PEXTMIN
 10
1.0000000000000000E+20
 20
1.0000000000000000E+20
 30
1.0000000000000000E+20
  9
$PEXTMAX
 10
-1.0000000000000000E+20
 20
-1.0000000000000000E+20
 30
-1.0000000000000000E+20
  9
$PLIMMIN
 10
0.0
 20
0.0
  9
$PLIMMAX
 10
12.0
 20
9.0
  9
$UNITMODE
 70
               0
  9
$VISRETAIN
 70
               0
  9
$PLINEGEN
 70
               1
  9
$PSLTSCALE
 70
               0
  9
$TREEDEPTH
 70
            3020
  9
$DWGCODEPAGE
  3
dos932
  0
ENDSEC
  0
SECTION
  2
TABLES
  0
TABLE
  2
VPORT
 70
               1
  0
VPORT
  2
*ACTIVE
 70
               0
 10
0.0
 20
0.0
 11
1.0
 21
1.0
 12
14.643261608154205
 22
-374.38520849510144
 13
0.0
 23
0.0
 14
1.0
 24
1.0
 15
0.0
 25
0.0
 16
0.0
 26
0.0
 36
1.0
 17
0.0
 27
0.0
 37
0.0
 40
2393.1763107741745
 41
0.6493239136448454
 42
50.0
 43
0.0
 44
0.0
 50
0.0
 51
0.0
 71
               0
 72
             100
 73
               1
 74
               1
 75
               0
 76
               0
 77
               0
 78
               0
  0
ENDTAB
  0
TABLE
  2
LTYPE
 70
              26
  0
LTYPE
  2
CONTINUOUS
 70
               0
  3
Solid line
 72
              65
 73
               0
 40
0.0
  0
LTYPE
  2
HIDDENX2
 70
               0
  3
CADPAC FUSION LINETYPE
 72
              65
 73
               2
 40
80.0
 49
60.0
 49
-20.0
  0
LTYPE
  2
HIDDEN
 70
               0
  3
CADPAC FUSION LINETYPE
 72
              65
 73
               2
 40
60.0
 49
40.0
 49
-20.0
  0
LTYPE
  2
HIDDEN2
 70
               0
  3
CADPAC FUSION LINETYPE
 72
              65
 73
               2
 40
50.0
 49
30.0
 49
-20.0
  0
LTYPE
  2
DASHED
 70
               0
  3
CADPAC FUSION LINETYPE
 72
              65
 73
               2
 40
60.0
 49
40.0
 49
-20.0
  0
LTYPE
  2
DASHED2
 70
               0
  3
CADPAC FUSION LINETYPE
 72
              65
 73
               2
 40
45.0
 49
30.0
 49
-15.0
  0
LTYPE
  2
DASHEDX2
 70
               0
  3
CADPAC FUSION LINETYPE
 72
              65
 73
               2
 40
90.0
 49
60.0
 49
-30.0
  0
LTYPE
  2
DOTX2
 70
               0
  3
CADPAC FUSION LINETYPE
 72
              65
 73
               2
 40
25.0
 49
0.0
 49
-25.0
  0
LTYPE
  2
DOT
 70
               0
  3
CADPAC FUSION LINETYPE
 72
              65
 73
               2
 40
20.0
 49
0.0
 49
-20.0
  0
LTYPE
  2
DOTS
 70
               0
  3
CADPAC FUSION LINETYPE
 72
              65
 73
               2
 40
20.0
 49
0.0
 49
-20.0
  0
LTYPE
  2
DOT2
 70
               0
  3
CADPAC FUSION LINETYPE
 72
              65
 73
               2
 40
15.0
 49
0.0
 49
-15.0
  0
LTYPE
  2
CENTERX2
 70
               0
  3
CADPAC FUSION LINETYPE
 72
              65
 73
               4
 40
120.0
 49
50.0
 49
-25.0
 49
20.0
 49
-25.0
  0
LTYPE
  2
CENTER
 70
               0
  3
CADPAC FUSION LINETYPE
 72
              65
 73
               4
 40
92.0
 49
40.0
 49
-20.0
 49
12.0
 49
-20.0
  0
LTYPE
  2
CENTER2
 70
               0
  3
CADPAC FUSION LINETYPE
 72
              65
 73
               4
 40
64.0
 49
30.0
 49
-15.0
 49
4.0
 49
-15.0
  0
LTYPE
  2
DASHDOTX2
 70
               0
  3
CADPAC FUSION LINETYPE
 72
              65
 73
               4
 40
100.0
 49
50.0
 49
-25.0
 49
0.0
 49
-25.0
  0
LTYPE
  2
DASHDOT
 70
               0
  3
CADPAC FUSION LINETYPE
 72
              65
 73
               4
 40
80.0
 49
40.0
 49
-20.0
 49
0.0
 49
-20.0
  0
LTYPE
  2
DASHDOT2
 70
               0
  3
CADPAC FUSION LINETYPE
 72
              65
 73
               4
 40
60.0
 49
30.0
 49
-15.0
 49
0.0
 49
-15.0
  0
LTYPE
  2
DIVIDEX2
 70
               0
  3
CADPAC FUSION LINETYPE
 72
              65
 73
               6
 40
125.0
 49
50.0
 49
-25.0
 49
0.0
 49
-25.0
 49
0.0
 49
-25.0
  0
LTYPE
  2
DIVIDE
 70
               0
  3
CADPAC FUSION LINETYPE
 72
              65
 73
               6
 40
100.0
 49
40.0
 49
-20.0
 49
0.0
 49
-20.0
 49
0.0
 49
-20.0
  0
LTYPE
  2
DIVIDE2
 70
               0
  3
CADPAC FUSION LINETYPE
 72
              65
 73
               6
 40
75.0
 49
30.0
 49
-15.0
 49
0.0
 49
-15.0
 49
0.0
 49
-15.0
  0
LTYPE
  2
BORDERX2
 70
               0
  3
CADPAC FUSION LINETYPE
 72
              65
 73
               6
 40
175.0
 49
50.0
 49
-25.0
 49
50.0
 49
-25.0
 49
0.0
 49
-25.0
  0
LTYPE
  2
BORDER
 70
               0
  3
CADPAC FUSION LINETYPE
 72
              65
 73
               6
 40
140.0
 49
40.0
 49
-20.0
 49
40.0
 49
-20.0
 49
0.0
 49
-20.0
  0
LTYPE
  2
BORDER2
 70
               0
  3
CADPAC FUSION LINETYPE
 72
              65
 73
               6
 40
105.0
 49
30.0
 49
-15.0
 49
30.0
 49
-15.0
 49
0.0
 49
-15.0
  0
LTYPE
  2
PHANTOMX2
 70
               0
  3
CADPAC FUSION LINETYPE
 72
              65
 73
               6
 40
150.0
 49
50.0
 49
-20.0
 49
20.0
 49
-20.0
 49
20.0
 49
-20.0
  0
LTYPE
  2
PHANTOM
 70
               0
  3
CADPAC FUSION LINETYPE
 72
              65
 73
               6
 40
124.0
 49
40.0
 49
-20.0
 49
12.0
 49
-20.0
 49
12.0
 49
-20.0
  0
LTYPE
  2
PHANTOM2
 70
               0
  3
CADPAC FUSION LINETYPE
 72
              65
 73
               6
 40
106.0
 49
30.0
 49
-20.0
 49
8.0
 49
-20.0
 49
8.0
 49
-20.0
  0
ENDTAB
  0
TABLE
  2
LAYER
 70
             256
  0
LAYER
  2
0
 70
               0
 62
               7
  6
CONTINUOUS
  0
LAYER
  2
LAYER001
 70
               0
 62
               7
  6
CONTINUOUS
  0
LAYER
  2
LAYER002
 70
               0
 62
               7
  6
CONTINUOUS
  0
LAYER
  2
LAYER003
 70
               0
 62
               7
  6
CONTINUOUS
  0
LAYER
  2
LAYER004
 70
               0
 62
               7
  6
CONTINUOUS
  0
LAYER
  2
LAYER005
 70
               0
 62
               7
  6
CONTINUOUS
  0
LAYER
  2
LAYER006
 70
               0
 62
               7
  6
CONTINUOUS
  0
LAYER
  2
LAYER007
 70
               0
 62
               7
  6
CONTINUOUS
  0
LAYER
  2
LAYER008
 70
               0
 62
               7
  6
CONTINUOUS
  0
LAYER
  2
LAYER009
 70
               0
 62
               7
  6
CONTINUOUS
  0
LAYER
  2
LAYER010
 70
               0
 62
               7
  6
CONTINUOUS
  0
LAYER
  2
LAYER011
 70
               0
 62
               7
  6
CONTINUOUS
  0
LAYER
  2
LAYER012
 70
               0
 62
               7
  6
CONTINUOUS
  0
LAYER
  2
LAYER013
 70
               0
 62
               7
  6
CONTINUOUS
  0
LAYER
  2
LAYER014
 70
               0
 62
               7
  6
CONTINUOUS
  0
LAYER
  2
LAYER015
 70
               0
 62
               7
  6
CONTINUOUS
  0
LAYER
  2
LAYER016
 70
               0
 62
               7
  6
CONTINUOUS
  0
LAYER
  2
LAYER017
 70
               0
 62
               7
  6
CONTINUOUS
  0
LAYER
  2
LAYER018
 70
               0
 62
               7
  6
CONTINUOUS
  0
LAYER
  2
LAYER019
 70
               0
 62
               7
  6
CONTINUOUS
  0
LAYER
  2
LAYER020
 70
               0
 62
               7
  6
CONTINUOUS
  0
LAYER
  2
LAYER021
 70
               0
 62
               7
  6
CONTINUOUS
  0
LAYER
  2
LAYER022
 70
               0
 62
               7
  6
CONTINUOUS
  0
LAYER
  2
LAYER023
 70
               0
 62
               7
  6
CONTINUOUS
  0
LAYER
  2
LAYER024
 70
               0
 62
               7
  6
CONTINUOUS
  0
LAYER
  2
LAYER025
 70
               0
 62
               7
  6
CONTINUOUS
  0
LAYER
  2
LAYER026
 70
               0
 62
               7
  6
CONTINUOUS
  0
LAYER
  2
LAYER027
 70
               0
 62
               7
  6
CONTINUOUS
  0
LAYER
  2
LAYER028
 70
               0
 62
               7
  6
CONTINUOUS
  0
LAYER
  2
LAYER029
 70
               0
 62
               7
  6
CONTINUOUS
  0
LAYER
  2
LAYER030
 70
               0
 62
               7
  6
CONTINUOUS
  0
LAYER
  2
LAYER031
 70
               0
 62
               7
  6
CONTINUOUS
  0
LAYER
  2
LAYER032
 70
               0
 62
               7
  6
CONTINUOUS
  0
LAYER
  2
LAYER033
 70
               0
 62
               7
  6
CONTINUOUS
  0
LAYER
  2
LAYER034
 70
               0
 62
               7
  6
CONTINUOUS
  0
LAYER
  2
LAYER035
 70
               0
 62
               7
  6
CONTINUOUS
  0
LAYER
  2
LAYER036
 70
               0
 62
               7
  6
CONTINUOUS
  0
LAYER
  2
LAYER037
 70
               0
 62
               7
  6
CONTINUOUS
  0
LAYER
  2
LAYER038
 70
               0
 62
               7
  6
CONTINUOUS
  0
LAYER
  2
LAYER039
 70
               0
 62
               7
  6
CONTINUOUS
  0
LAYER
  2
LAYER040
 70
               0
 62
               7
  6
CONTINUOUS
  0
LAYER
  2
LAYER041
 70
               0
 62
               7
  6
CONTINUOUS
  0
LAYER
  2
LAYER042
 70
               0
 62
               7
  6
CONTINUOUS
  0
LAYER
  2
LAYER043
 70
               0
 62
               7
  6
CONTINUOUS
  0
LAYER
  2
LAYER044
 70
               0
 62
               7
  6
CONTINUOUS
  0
LAYER
  2
LAYER045
 70
               0
 62
               7
  6
CONTINUOUS
  0
LAYER
  2
LAYER046
 70
               0
 62
               7
  6
CONTINUOUS
  0
LAYER
  2
LAYER047
 70
               0
 62
               7
  6
CONTINUOUS
  0
LAYER
  2
LAYER048
 70
               0
 62
               7
  6
CONTINUOUS
  0
LAYER
  2
LAYER049
 70
               0
 62
               7
  6
CONTINUOUS
  0
LAYER
  2
LAYER050
 70
               0
 62
               7
  6
CONTINUOUS
  0
LAYER
  2
LAYER051
 70
               0
 62
               7
  6
CONTINUOUS
  0
LAYER
  2
LAYER052
 70
               0
 62
               7
  6
CONTINUOUS
  0
LAYER
  2
LAYER053
 70
               0
 62
               7
  6
CONTINUOUS
  0
LAYER
  2
LAYER054
 70
               0
 62
               7
  6
CONTINUOUS
  0
LAYER
  2
LAYER055
 70
               0
 62
               7
  6
CONTINUOUS
  0
LAYER
  2
LAYER056
 70
               0
 62
               7
  6
CONTINUOUS
  0
LAYER
  2
LAYER057
 70
               0
 62
               7
  6
CONTINUOUS
  0
LAYER
  2
LAYER058
 70
               0
 62
               7
  6
CONTINUOUS
  0
LAYER
  2
LAYER059
 70
               0
 62
               7
  6
CONTINUOUS
  0
LAYER
  2
LAYER060
 70
               0
 62
               7
  6
CONTINUOUS
  0
LAYER
  2
LAYER061
 70
               0
 62
               7
  6
CONTINUOUS
  0
LAYER
  2
LAYER062
 70
               0
 62
               7
  6
CONTINUOUS
  0
LAYER
  2
LAYER063
 70
               0
 62
               7
  6
CONTINUOUS
  0
LAYER
  2
LAYER064
 70
               0
 62
               7
  6
CONTINUOUS
  0
LAYER
  2
LAYER065
 70
               0
 62
               7
  6
CONTINUOUS
  0
LAYER
  2
LAYER066
 70
               0
 62
               7
  6
CONTINUOUS
  0
LAYER
  2
LAYER067
 70
               0
 62
               7
  6
CONTINUOUS
  0
LAYER
  2
LAYER068
 70
               0
 62
               7
  6
CONTINUOUS
  0
LAYER
  2
LAYER069
 70
               0
 62
               7
  6
CONTINUOUS
  0
LAYER
  2
LAYER070
 70
               0
 62
               7
  6
CONTINUOUS
  0
LAYER
  2
LAYER071
 70
               0
 62
               7
  6
CONTINUOUS
  0
LAYER
  2
LAYER072
 70
               0
 62
               7
  6
CONTINUOUS
  0
LAYER
  2
LAYER073
 70
               0
 62
               7
  6
CONTINUOUS
  0
LAYER
  2
LAYER074
 70
               0
 62
               7
  6
CONTINUOUS
  0
LAYER
  2
LAYER075
 70
               0
 62
               7
  6
CONTINUOUS
  0
LAYER
  2
LAYER076
 70
               0
 62
               7
  6
CONTINUOUS
  0
LAYER
  2
LAYER077
 70
               0
 62
               7
  6
CONTINUOUS
  0
LAYER
  2
LAYER078
 70
               0
 62
               7
  6
CONTINUOUS
  0
LAYER
  2
LAYER079
 70
               0
 62
               7
  6
CONTINUOUS
  0
LAYER
  2
LAYER080
 70
               0
 62
               7
  6
CONTINUOUS
  0
LAYER
  2
LAYER081
 70
               0
 62
               7
  6
CONTINUOUS
  0
LAYER
  2
LAYER082
 70
               0
 62
               7
  6
CONTINUOUS
  0
LAYER
  2
LAYER083
 70
               0
 62
               7
  6
CONTINUOUS
  0
LAYER
  2
LAYER084
 70
               0
 62
               7
  6
CONTINUOUS
  0
LAYER
  2
LAYER085
 70
               0
 62
               7
  6
CONTINUOUS
  0
LAYER
  2
LAYER086
 70
               0
 62
               7
  6
CONTINUOUS
  0
LAYER
  2
LAYER087
 70
               0
 62
               7
  6
CONTINUOUS
  0
LAYER
  2
LAYER088
 70
               0
 62
               7
  6
CONTINUOUS
  0
LAYER
  2
LAYER089
 70
               0
 62
               7
  6
CONTINUOUS
  0
LAYER
  2
LAYER090
 70
               0
 62
               7
  6
CONTINUOUS
  0
LAYER
  2
LAYER091
 70
               0
 62
               7
  6
CONTINUOUS
  0
LAYER
  2
LAYER092
 70
               0
 62
               7
  6
CONTINUOUS
  0
LAYER
  2
LAYER093
 70
               0
 62
               7
  6
CONTINUOUS
  0
LAYER
  2
LAYER094
 70
               0
 62
               7
  6
CONTINUOUS
  0
LAYER
  2
LAYER095
 70
               0
 62
               7
  6
CONTINUOUS
  0
LAYER
  2
LAYER096
 70
               0
 62
               7
  6
CONTINUOUS
  0
LAYER
  2
LAYER097
 70
               0
 62
               7
  6
CONTINUOUS
  0
LAYER
  2
LAYER098
 70
               0
 62
               7
  6
CONTINUOUS
  0
LAYER
  2
LAYER099
 70
               0
 62
               7
  6
CONTINUOUS
  0
LAYER
  2
LAYER100
 70
               0
 62
               7
  6
CONTINUOUS
  0
LAYER
  2
LAYER101
 70
               0
 62
               7
  6
CONTINUOUS
  0
LAYER
  2
LAYER102
 70
               0
 62
               7
  6
CONTINUOUS
  0
LAYER
  2
LAYER103
 70
               0
 62
               7
  6
CONTINUOUS
  0
LAYER
  2
LAYER104
 70
               0
 62
               7
  6
CONTINUOUS
  0
LAYER
  2
LAYER105
 70
               0
 62
               7
  6
CONTINUOUS
  0
LAYER
  2
LAYER106
 70
               0
 62
               7
  6
CONTINUOUS
  0
LAYER
  2
LAYER107
 70
               0
 62
               7
  6
CONTINUOUS
  0
LAYER
  2
LAYER108
 70
               0
 62
               7
  6
CONTINUOUS
  0
LAYER
  2
LAYER109
 70
               0
 62
               7
  6
CONTINUOUS
  0
LAYER
  2
LAYER110
 70
               0
 62
               7
  6
CONTINUOUS
  0
LAYER
  2
LAYER111
 70
               0
 62
               7
  6
CONTINUOUS
  0
LAYER
  2
LAYER112
 70
               0
 62
               7
  6
CONTINUOUS
  0
LAYER
  2
LAYER113
 70
               0
 62
               7
  6
CONTINUOUS
  0
LAYER
  2
LAYER114
 70
               0
 62
               7
  6
CONTINUOUS
  0
LAYER
  2
LAYER115
 70
               0
 62
               7
  6
CONTINUOUS
  0
LAYER
  2
LAYER116
 70
               0
 62
               7
  6
CONTINUOUS
  0
LAYER
  2
LAYER117
 70
               0
 62
               7
  6
CONTINUOUS
  0
LAYER
  2
LAYER118
 70
               0
 62
               7
  6
CONTINUOUS
  0
LAYER
  2
LAYER119
 70
               0
 62
               7
  6
CONTINUOUS
  0
LAYER
  2
LAYER120
 70
               0
 62
               7
  6
CONTINUOUS
  0
LAYER
  2
LAYER121
 70
               0
 62
               7
  6
CONTINUOUS
  0
LAYER
  2
LAYER122
 70
               0
 62
               7
  6
CONTINUOUS
  0
LAYER
  2
LAYER123
 70
               0
 62
               7
  6
CONTINUOUS
  0
LAYER
  2
LAYER124
 70
               0
 62
               7
  6
CONTINUOUS
  0
LAYER
  2
LAYER125
 70
               0
 62
               7
  6
CONTINUOUS
  0
LAYER
  2
LAYER126
 70
               0
 62
               7
  6
CONTINUOUS
  0
LAYER
  2
LAYER127
 70
               0
 62
               7
  6
CONTINUOUS
  0
LAYER
  2
LAYER128
 70
               0
 62
               7
  6
CONTINUOUS
  0
LAYER
  2
LAYER129
 70
               0
 62
               7
  6
CONTINUOUS
  0
LAYER
  2
LAYER130
 70
               0
 62
               7
  6
CONTINUOUS
  0
LAYER
  2
LAYER131
 70
               0
 62
               7
  6
CONTINUOUS
  0
LAYER
  2
LAYER132
 70
               0
 62
               7
  6
CONTINUOUS
  0
LAYER
  2
LAYER133
 70
               0
 62
               7
  6
CONTINUOUS
  0
LAYER
  2
LAYER134
 70
               0
 62
               7
  6
CONTINUOUS
  0
LAYER
  2
LAYER135
 70
               0
 62
               7
  6
CONTINUOUS
  0
LAYER
  2
LAYER136
 70
               0
 62
               7
  6
CONTINUOUS
  0
LAYER
  2
LAYER137
 70
               0
 62
               7
  6
CONTINUOUS
  0
LAYER
  2
LAYER138
 70
               0
 62
               7
  6
CONTINUOUS
  0
LAYER
  2
LAYER139
 70
               0
 62
               7
  6
CONTINUOUS
  0
LAYER
  2
LAYER140
 70
               0
 62
               7
  6
CONTINUOUS
  0
LAYER
  2
LAYER141
 70
               0
 62
               7
  6
CONTINUOUS
  0
LAYER
  2
LAYER142
 70
               0
 62
               7
  6
CONTINUOUS
  0
LAYER
  2
LAYER143
 70
               0
 62
               7
  6
CONTINUOUS
  0
LAYER
  2
LAYER144
 70
               0
 62
               7
  6
CONTINUOUS
  0
LAYER
  2
LAYER145
 70
               0
 62
               7
  6
CONTINUOUS
  0
LAYER
  2
LAYER146
 70
               0
 62
               7
  6
CONTINUOUS
  0
LAYER
  2
LAYER147
 70
               0
 62
               7
  6
CONTINUOUS
  0
LAYER
  2
LAYER148
 70
               0
 62
               7
  6
CONTINUOUS
  0
LAYER
  2
LAYER149
 70
               0
 62
               7
  6
CONTINUOUS
  0
LAYER
  2
LAYER150
 70
               0
 62
               7
  6
CONTINUOUS
  0
LAYER
  2
LAYER151
 70
               0
 62
               7
  6
CONTINUOUS
  0
LAYER
  2
LAYER152
 70
               0
 62
               7
  6
CONTINUOUS
  0
LAYER
  2
LAYER153
 70
               0
 62
               7
  6
CONTINUOUS
  0
LAYER
  2
LAYER154
 70
               0
 62
               7
  6
CONTINUOUS
  0
LAYER
  2
LAYER155
 70
               0
 62
               7
  6
CONTINUOUS
  0
LAYER
  2
LAYER156
 70
               0
 62
               7
  6
CONTINUOUS
  0
LAYER
  2
LAYER157
 70
               0
 62
               7
  6
CONTINUOUS
  0
LAYER
  2
LAYER158
 70
               0
 62
               7
  6
CONTINUOUS
  0
LAYER
  2
LAYER159
 70
               0
 62
               7
  6
CONTINUOUS
  0
LAYER
  2
LAYER160
 70
               0
 62
               7
  6
CONTINUOUS
  0
LAYER
  2
LAYER161
 70
               0
 62
               7
  6
CONTINUOUS
  0
LAYER
  2
LAYER162
 70
               0
 62
               7
  6
CONTINUOUS
  0
LAYER
  2
LAYER163
 70
               0
 62
               7
  6
CONTINUOUS
  0
LAYER
  2
LAYER164
 70
               0
 62
               7
  6
CONTINUOUS
  0
LAYER
  2
LAYER165
 70
               0
 62
               7
  6
CONTINUOUS
  0
LAYER
  2
LAYER166
 70
               0
 62
               7
  6
CONTINUOUS
  0
LAYER
  2
LAYER167
 70
               0
 62
               7
  6
CONTINUOUS
  0
LAYER
  2
LAYER168
 70
               0
 62
               7
  6
CONTINUOUS
  0
LAYER
  2
LAYER169
 70
               0
 62
               7
  6
CONTINUOUS
  0
LAYER
  2
LAYER170
 70
               0
 62
               7
  6
CONTINUOUS
  0
LAYER
  2
LAYER171
 70
               0
 62
               7
  6
CONTINUOUS
  0
LAYER
  2
LAYER172
 70
               0
 62
               7
  6
CONTINUOUS
  0
LAYER
  2
LAYER173
 70
               0
 62
               7
  6
CONTINUOUS
  0
LAYER
  2
LAYER174
 70
               0
 62
               7
  6
CONTINUOUS
  0
LAYER
  2
LAYER175
 70
               0
 62
               7
  6
CONTINUOUS
  0
LAYER
  2
LAYER176
 70
               0
 62
               7
  6
CONTINUOUS
  0
LAYER
  2
LAYER177
 70
               0
 62
               7
  6
CONTINUOUS
  0
LAYER
  2
LAYER178
 70
               0
 62
               7
  6
CONTINUOUS
  0
LAYER
  2
LAYER179
 70
               0
 62
               7
  6
CONTINUOUS
  0
LAYER
  2
LAYER180
 70
               0
 62
               7
  6
CONTINUOUS
  0
LAYER
  2
LAYER181
 70
               0
 62
               7
  6
CONTINUOUS
  0
LAYER
  2
LAYER182
 70
               0
 62
               7
  6
CONTINUOUS
  0
LAYER
  2
LAYER183
 70
               0
 62
               7
  6
CONTINUOUS
  0
LAYER
  2
LAYER184
 70
               0
 62
               7
  6
CONTINUOUS
  0
LAYER
  2
LAYER185
 70
               0
 62
               7
  6
CONTINUOUS
  0
LAYER
  2
LAYER186
 70
               0
 62
               7
  6
CONTINUOUS
  0
LAYER
  2
LAYER187
 70
               0
 62
               7
  6
CONTINUOUS
  0
LAYER
  2
LAYER188
 70
               0
 62
               7
  6
CONTINUOUS
  0
LAYER
  2
LAYER189
 70
               0
 62
               7
  6
CONTINUOUS
  0
LAYER
  2
LAYER190
 70
               0
 62
               7
  6
CONTINUOUS
  0
LAYER
  2
LAYER191
 70
               0
 62
               7
  6
CONTINUOUS
  0
LAYER
  2
LAYER192
 70
               0
 62
               7
  6
CONTINUOUS
  0
LAYER
  2
LAYER193
 70
               0
 62
               7
  6
CONTINUOUS
  0
LAYER
  2
LAYER194
 70
               0
 62
               7
  6
CONTINUOUS
  0
LAYER
  2
LAYER195
 70
               0
 62
               7
  6
CONTINUOUS
  0
LAYER
  2
LAYER196
 70
               0
 62
               7
  6
CONTINUOUS
  0
LAYER
  2
LAYER197
 70
               0
 62
               7
  6
CONTINUOUS
  0
LAYER
  2
LAYER198
 70
               0
 62
               7
  6
CONTINUOUS
  0
LAYER
  2
LAYER199
 70
               0
 62
               7
  6
CONTINUOUS
  0
LAYER
  2
LAYER200
 70
               0
 62
               7
  6
CONTINUOUS
  0
LAYER
  2
LAYER201
 70
               0
 62
               7
  6
CONTINUOUS
  0
LAYER
  2
LAYER202
 70
               0
 62
               7
  6
CONTINUOUS
  0
LAYER
  2
LAYER203
 70
               0
 62
               7
  6
CONTINUOUS
  0
LAYER
  2
LAYER204
 70
               0
 62
               7
  6
CONTINUOUS
  0
LAYER
  2
LAYER205
 70
               0
 62
               7
  6
CONTINUOUS
  0
LAYER
  2
LAYER206
 70
               0
 62
               7
  6
CONTINUOUS
  0
LAYER
  2
LAYER207
 70
               0
 62
               7
  6
CONTINUOUS
  0
LAYER
  2
LAYER208
 70
               0
 62
               7
  6
CONTINUOUS
  0
LAYER
  2
LAYER209
 70
               0
 62
               7
  6
CONTINUOUS
  0
LAYER
  2
LAYER210
 70
               0
 62
               7
  6
CONTINUOUS
  0
LAYER
  2
LAYER211
 70
               0
 62
               7
  6
CONTINUOUS
  0
LAYER
  2
LAYER212
 70
               0
 62
               7
  6
CONTINUOUS
  0
LAYER
  2
LAYER213
 70
               0
 62
               7
  6
CONTINUOUS
  0
LAYER
  2
LAYER214
 70
               0
 62
               7
  6
CONTINUOUS
  0
LAYER
  2
LAYER215
 70
               0
 62
               7
  6
CONTINUOUS
  0
LAYER
  2
LAYER216
 70
               0
 62
               7
  6
CONTINUOUS
  0
LAYER
  2
LAYER217
 70
               0
 62
               7
  6
CONTINUOUS
  0
LAYER
  2
LAYER218
 70
               0
 62
               7
  6
CONTINUOUS
  0
LAYER
  2
LAYER219
 70
               0
 62
               7
  6
CONTINUOUS
  0
LAYER
  2
LAYER220
 70
               0
 62
               7
  6
CONTINUOUS
  0
LAYER
  2
LAYER221
 70
               0
 62
               7
  6
CONTINUOUS
  0
LAYER
  2
LAYER222
 70
               0
 62
               7
  6
CONTINUOUS
  0
LAYER
  2
LAYER223
 70
               0
 62
               7
  6
CONTINUOUS
  0
LAYER
  2
LAYER224
 70
               0
 62
               7
  6
CONTINUOUS
  0
LAYER
  2
LAYER225
 70
               0
 62
               7
  6
CONTINUOUS
  0
LAYER
  2
LAYER226
 70
               0
 62
               7
  6
CONTINUOUS
  0
LAYER
  2
LAYER227
 70
               0
 62
               7
  6
CONTINUOUS
  0
LAYER
  2
LAYER228
 70
               0
 62
               7
  6
CONTINUOUS
  0
LAYER
  2
LAYER229
 70
               0
 62
               7
  6
CONTINUOUS
  0
LAYER
  2
LAYER230
 70
               0
 62
               7
  6
CONTINUOUS
  0
LAYER
  2
LAYER231
 70
               0
 62
               7
  6
CONTINUOUS
  0
LAYER
  2
LAYER232
 70
               0
 62
               7
  6
CONTINUOUS
  0
LAYER
  2
LAYER233
 70
               0
 62
               7
  6
CONTINUOUS
  0
LAYER
  2
LAYER234
 70
               0
 62
               7
  6
CONTINUOUS
  0
LAYER
  2
LAYER235
 70
               0
 62
               7
  6
CONTINUOUS
  0
LAYER
  2
LAYER236
 70
               0
 62
               7
  6
CONTINUOUS
  0
LAYER
  2
LAYER237
 70
               0
 62
               7
  6
CONTINUOUS
  0
LAYER
  2
LAYER238
 70
               0
 62
               7
  6
CONTINUOUS
  0
LAYER
  2
LAYER239
 70
               0
 62
               7
  6
CONTINUOUS
  0
LAYER
  2
LAYER240
 70
               0
 62
               7
  6
CONTINUOUS
  0
LAYER
  2
LAYER241
 70
               0
 62
               7
  6
CONTINUOUS
  0
LAYER
  2
LAYER242
 70
               0
 62
               7
  6
CONTINUOUS
  0
LAYER
  2
LAYER243
 70
               0
 62
               7
  6
CONTINUOUS
  0
LAYER
  2
LAYER244
 70
               0
 62
               7
  6
CONTINUOUS
  0
LAYER
  2
LAYER245
 70
               0
 62
               7
  6
CONTINUOUS
  0
LAYER
  2
LAYER246
 70
               0
 62
               7
  6
CONTINUOUS
  0
LAYER
  2
LAYER247
 70
               0
 62
               7
  6
CONTINUOUS
  0
LAYER
  2
LAYER248
 70
               0
 62
               7
  6
CONTINUOUS
  0
LAYER
  2
LAYER249
 70
               0
 62
               7
  6
CONTINUOUS
  0
LAYER
  2
LAYER250
 70
               0
 62
               7
  6
CONTINUOUS
  0
LAYER
  2
LAYER251
 70
               0
 62
               7
  6
CONTINUOUS
  0
LAYER
  2
LAYER252
 70
               0
 62
               7
  6
CONTINUOUS
  0
LAYER
  2
LAYER253
 70
               0
 62
               7
  6
CONTINUOUS
  0
LAYER
  2
LAYER254
 70
               0
 62
               7
  6
CONTINUOUS
  0
LAYER
  2
LAYER255
 70
               0
 62
               7
  6
CONTINUOUS
  0
ENDTAB
  0
TABLE
  2
STYLE
 70
               1
  0
STYLE
  2
STANDARD
 70
               0
 40
0.0
 41
0.8
 50
0.0
 71
               0
 42
40.0
  3
MS PGothic.ttf
  4

  0
ENDTAB
  0
TABLE
  2
VIEW
 70
               0
  0
VIEW
  2
QQQQ
 70
               0
 40
2393.1763107741745
 10
14.643261608154205
 20
-374.38520849510144
 41
1553.9466081540199
 11
0.0
 21
0.0
 31
1.0
 12
100.0
 22
100.0
 32
0.0
 42
50.0
 43
0.0
 44
0.0
 50
0.0
 71
               0
  0
ENDTAB
  0
TABLE
  2
UCS
 70
               0
  0
ENDTAB
  0
TABLE
  2
APPID
 70
               1
  0
APPID
  2
ACAD
 70
               0
  0
ENDTAB
  0
TABLE
  2
DIMSTYLE
 70
               1
  0
DIMSTYLE
  2
STANDARD
 70
               0
  3

  4

  5

  6

  7

 40
1.0
 41
0.18
 42
0.0625
 43
0.38
 44
0.18
 45
0.0
 46
0.0
 47
0.0
 48
0.0
140
0.18
141
0.09
142
0.0
143
25.399999999999999
144
1.0
145
0.0
146
1.0
147
0.09
 71
               0
 72
               0
 73
               1
 74
               1
 75
               0
 76
               0
 77
               0
 78
               0
170
               0
171
               2
172
               0
173
               0
174
               0
175
               0
176
               0
177
               0
178
               0
  0
ENDTAB
  0
ENDSEC
  0
SECTION
  2
BLOCKS
  0
ENDSEC
  0
SECTION
  2
ENTITIES
  0
CIRCLE
  8
0
  6
CONTINUOUS
 62
               3
  5
136
 10
0.0
 20
600.0
 30
0.0
 40
75.0
  0
CIRCLE
  8
0
  6
CONTINUOUS
 62
               3
  5
137
 10
0.0
 20
600.0
 30
0.0
 40
52.5
  0
LINE
  8
0
  6
CONTINUOUS
 62
               3
  5
138
 10
-86.210498200625238
 20
620.0
 30
0.0
 11
-72.284161474005373
 21
620.0
 31
0.0
  0
LINE
  8
0
  6
CONTINUOUS
 62
               3
  5
139
 10
-72.284161474005373
 20
580.0
 30
0.0
 11
-86.210498200625238
 21
580.0
 31
0.0
  0
ARC
  8
0
  6
CONTINUOUS
 62
               3
  5
13A
 10
0.0
 20
600.0
 30
0.0
 40
88.5
 50
166.93897588513528
 51
193.06102411472631
  0
LINE
  8
0
  6
CONTINUOUS
 62
               3
  5
13B
 10
-20.000000000000004
 20
513.7895017993751
 30
0.0
 11
-20.000000000000004
 21
527.71583852599497
 31
0.0
  0
LINE
  8
0
  6
CONTINUOUS
 62
               3
  5
13C
 10
20.0
 20
527.71583852599497
 30
0.0
 11
20.0
 21
513.7895017993751
 31
0.0
  0
ARC
  8
0
  6
CONTINUOUS
 62
               3
  5
13D
 10
0.0
 20
600.0
 30
0.0
 40
88.5
 50
256.93897588510077
 51
283.06102411469175
  0
LINE
  8
0
  6
CONTINUOUS
 62
               3
  5
13E
 10
86.210498200624656
 20
580.0
 30
0.0
 11
72.284161474004236
 21
580.0
 31
0.0
  0
LINE
  8
0
  6
CONTINUOUS
 62
               3
  5
13F
 10
72.284161474004236
 20
620.0
 30
0.0
 11
86.210498200624656
 21
620.0
 31
0.0
  0
ARC
  8
0
  6
CONTINUOUS
 62
               3
  5
140
 10
0.0
 20
600.0
 30
0.0
 40
88.5
 50
346.9389758850661
 51
373.06102411465713
  0
LINE
  8
0
  6
CONTINUOUS
 62
               3
  5
141
 10
20.0
 20
686.21049820062558
 30
0.0
 11
20.0
 21
672.28416147400503
 31
0.0
  0
LINE
  8
0
  6
CONTINUOUS
 62
               3
  5
142
 10
-20.000000000000004
 20
672.28416147400503
 30
0.0
 11
-20.000000000000004
 21
686.21049820062558
 31
0.0
  0
ARC
  8
0
  6
CONTINUOUS
 62
               3
  5
143
 10
0.0
 20
600.0
 30
0.0
 40
88.5
 50
76.938975885169896
 51
103.06102411476094
  0
LINE
  8
0
  6
CONTINUOUS
 62
               3
  5
144
 10
-47.668123520861059
 20
577.99999999999955
 30
0.0
 11
47.668123520859922
 21
577.99999999999955
 31
0.0
  0
ARC
  8
0
  6
CONTINUOUS
 62
               3
  5
145
 10
12.503611649381128
 20
608.70639762761903
 30
0.0
 40
54.763804151667173
 50
141.3859176367836
 51
145.15009542089808
  0
ARC
  8
0
  6
CONTINUOUS
 62
               3
  5
146
 10
0.0
 20
600.0
 30
0.0
 40
51.5
 50
334.71098847332905
 51
410.9593273634826
  0
ARC
  8
0
  6
CONTINUOUS
 62
               3
  5
147
 10
0.0
 20
600.0
 30
0.0
 40
51.5
 50
129.04067263631032
 51
205.28901152646336
  0
ARC
  8
0
  6
CONTINUOUS
 62
               3
  5
148
 10
0.0
 20
600.0
 30
0.0
 40
77.5
 50
104.955248316603
 51
128.57288309098388
  0
ARC
  8
0
  6
CONTINUOUS
 62
               3
  5
149
 10
0.0
 20
600.0
 30
0.0
 40
77.5
 50
14.955248316637585
 51
75.044751683327831
  0
ARC
  8
0
  6
CONTINUOUS
 62
               3
  5
14A
 10
0.0
 20
600.0
 30
0.0
 40
77.5
 50
321.42711690884255
 51
345.04475168322404
  0
LINE
  8
0
  6
CONTINUOUS
 62
               3
  5
14B
 10
-140.0
 20
545.0
 30
0.0
 11
-139.32844387403577
 21
545.0
 31
0.0
  0
LINE
  8
0
  6
CONTINUOUS
 62
               3
  5
14C
 10
-136.82844387403532
 20
542.5
 30
0.0
 11
-139.32844387403577
 21
545.0
 31
0.0
  0
LINE
  8
0
  6
CONTINUOUS
 62
               3
  5
14D
 10
-140.0
 20
655.0
 30
0.0
 11
-139.32844387403577
 21
655.0
 31
0.0
  0
LINE
  8
0
  6
CONTINUOUS
 62
               3
  5
14E
 10
-136.82844387403577
 20
657.5
 30
0.0
 11
-139.32844387403577
 21
655.0
 31
0.0
  0
LINE
  8
0
  6
CONTINUOUS
 62
               3
  5
14F
 10
-139.32844387403577
 20
655.0
 30
0.0
 11
-139.32844387403577
 21
545.0
 31
0.0
  0
LINE
  8
0
  6
CONTINUOUS
 62
               3
  5
150
 10
-45.490335786377912
 20
660.6895970183416
 30
0.0
 11
-136.82844387403577
 21
657.5
 31
0.0
  0
LINE
  8
0
  6
CONTINUOUS
 62
               3
  5
151
 10
-64.836471716551074
 20
539.98598493503232
 30
0.0
 11
-136.82844387403526
 21
542.5
 31
0.0
  0
LINE
  8
0
  6
CONTINUOUS
 62
               3
  5
152
 10
-145.0
 20
654.82844387403588
 30
0.0
 11
-145.0
 21
544.89999999999998
 31
0.0
  0
LINE
  8
0
  6
CONTINUOUS
 62
               3
  5
153
 10
-140.0
 20
542.39999999999998
 30
0.0
 11
-140.0
 21
657.60000000000002
 31
0.0
  0
LINE
  8
0
  6
CONTINUOUS
 62
               3
  5
154
 10
-140.0
 20
657.60000000000002
 30
0.0
 11
-142.5
 21
657.60000000000002
 31
0.0
  0
LINE
  8
0
  6
CONTINUOUS
 62
               3
  5
155
 10
-140.0
 20
542.39999999999998
 30
0.0
 11
-142.5
 21
542.39999999999998
 31
0.0
  0
ARC
  8
0
  6
CONTINUOUS
 62
               3
  5
156
 10
-142.5
 20
544.89999999999998
 30
0.0
 40
2.5
 50
179.99999999993088
 51
269.99999999989649
  0
ARC
  8
0
  6
CONTINUOUS
 62
               3
  5
157
 10
-142.5
 20
655.10000000000002
 30
0.0
 40
2.5
 50
89.999999999965596
 51
179.99999999993088
  0
LINE
  8
0
  6
CONTINUOUS
 62
               3
  5
158
 10
-32.438403166617604
 20
639.99999999999977
 30
0.0
 11
0.0
 21
639.99999999999977
 31
0.0
  0
LINE
  8
0
  6
CONTINUOUS
 62
               3
  5
159
 10
0.0
 20
639.99999999999977
 30
0.0
 11
34.003676271838685
 21
639.99999999999977
 31
0.0
  0
LINE
  8
0
  6
CONTINUOUS
 62
               3
  5
15A
 10
-136.82844387403532
 20
542.5
 30
0.0
 11
-136.82844387403577
 21
657.5
 31
0.0
  0
ARC
  8
0
  6
CONTINUOUS
 62
               3
  5
15B
 10
-45.66483326989043
 20
665.68655115343711
 30
0.0
 40
5.0
 50
271.99999999989558
 51
304.80675787031049
  0
LINE
  8
0
  6
CONTINUOUS
 62
               3
  5
15C
 10
54.999999999999886
 20
460.00000000000011
 30
0.0
 11
54.999999999999886
 21
460.67155612596434
 31
0.0
  0
LINE
  8
0
  6
CONTINUOUS
 62
               3
  5
15D
 10
57.499999999999858
 20
463.1715561259648
 30
0.0
 11
54.999999999999886
 21
460.67155612596434
 31
0.0
  0
LINE
  8
0
  6
CONTINUOUS
 62
               3
  5
15E
 10
-55.000000000000107
 20
460.00000000000011
 30
0.0
 11
-55.000000000000107
 21
460.67155612596434
 31
0.0
  0
LINE
  8
0
  6
CONTINUOUS
 62
               3
  5
15F
 10
-57.500000000000107
 20
463.17155612596434
 30
0.0
 11
-55.000000000000107
 21
460.67155612596434
 31
0.0
  0
LINE
  8
0
  6
CONTINUOUS
 62
               3
  5
160
 10
-55.000000000000107
 20
460.67155612596434
 30
0.0
 11
54.999999999999886
 21
460.67155612596434
 31
0.0
  0
LINE
  8
0
  6
CONTINUOUS
 62
               3
  5
161
 10
-54.82844387403599
 20
455.00000000000011
 30
0.0
 11
55.099999999999895
 21
455.00000000000011
 31
0.0
  0
LINE
  8
0
  6
CONTINUOUS
 62
               3
  5
162
 10
57.599999999999895
 20
460.00000000000011
 30
0.0
 11
-57.600000000000108
 21
460.00000000000011
 31
0.0
  0
LINE
  8
0
  6
CONTINUOUS
 62
               3
  5
163
 10
-57.600000000000108
 20
460.00000000000011
 30
0.0
 11
-57.600000000000108
 21
457.50000000000011
 31
0.0
  0
LINE
  8
0
  6
CONTINUOUS
 62
               3
  5
164
 10
57.599999999999895
 20
460.00000000000011
 30
0.0
 11
57.599999999999895
 21
457.50000000000011
 31
0.0
  0
ARC
  8
0
  6
CONTINUOUS
 62
               3
  5
165
 10
55.099999999999895
 20
457.50000000000011
 30
0.0
 40
2.5
 50
269.99999999989615
 51
359.99999999986142
  0
ARC
  8
0
  6
CONTINUOUS
 62
               3
  5
166
 10
-55.100000000000108
 20
457.50000000000011
 30
0.0
 40
2.5
 50
179.99999999993057
 51
269.99999999989626
  0
LINE
  8
0
  6
CONTINUOUS
 62
               3
  5
167
 10
57.499999999999858
 20
463.1715561259648
 30
0.0
 11
-57.500000000000107
 21
463.17155612596434
 31
0.0
  0
LINE
  8
0
  6
CONTINUOUS
 62
               3
  5
168
 10
60.689597018341061
 20
554.50966421362148
 30
0.0
 11
57.499999999999886
 21
463.1715561259648
 31
0.0
  0
ARC
  8
0
  6
CONTINUOUS
 62
               3
  5
169
 10
65.686551153436554
 20
554.33516673010899
 30
0.0
 40
5.0
 50
145.19324212951597
 51
177.9999999999317
  0
LINE
  8
0
  6
CONTINUOUS
 62
               3
  5
16A
 10
-60.014015064968085
 20
535.16352828344907
 30
0.0
 11
-57.500000000000107
 21
463.17155612596434
 31
0.0
  0
ARC
  8
0
  6
CONTINUOUS
 62
               3
  5
16B
 10
-65.01096920006357
 20
534.98903079993681
 30
0.0
 40
5.0
 50
1.9999999999967224
 51
87.999999999966334
  0
LINE
  8
0
  6
CONTINUOUS
 62
               3
  5
16C
 10
-75.0
 20
65.0
 30
0.0
 11
75.0
 21
65.0
 31
0.0
  0
LINE
  8
0
  6
CONTINUOUS
 62
               3
  5
16D
 10
-88.500000000000227
 20
55.0
 30
0.0
 11
-88.500000000000227
 21
48.000000000000341
 31
0.0
  0
LINE
  8
0
  6
CONTINUOUS
 62
               3
  5
16E
 10
-88.500000000000227
 20
55.0
 30
0.0
 11
-75.0
 21
65.0
 31
0.0
  0
ARC
  8
0
  6
CONTINUOUS
 62
               3
  5
16F
 10
-76.999999999999886
 20
43.417424305044619
 30
0.0
 40
4.9999999999999991
 50
0.0
 51
66.4218215217725
  0
LINE
  8
0
  6
CONTINUOUS
 62
               3
  5
170
 10
-88.500000000000227
 20
48.000000000000341
 30
0.0
 11
88.499999999999645
 21
48.000000000000341
 31
0.0
  0
ARC
  8
0
  6
CONTINUOUS
 62
               3
  5
171
 10
-55.0
 20
-42.0
 30
0.0
 40
19.999999999999996
 50
148.21166938289122
 51
167.2698198616232
  0
LINE
  8
0
  6
CONTINUOUS
 62
               3
  5
172
 10
-71.999999999999886
 20
43.417424305044619
 30
0.0
 11
-71.999999999999886
 21
-31.464346247147205
 31
0.0
  0
LINE
  8
0
  6
CONTINUOUS
 62
               3
  5
173
 10
71.999999999999886
 20
-26.464346247146636
 30
0.0
 11
71.999999999999886
 21
43.417424305044619
 31
0.0
  0
LINE
  8
0
  6
CONTINUOUS
 62
               3
  5
174
 10
-58.000000000000114
 20
-428.00000000000028
 30
0.0
 11
-75.0
 21
-278.99999999999983
 31
0.0
  0
LINE
  8
0
  6
CONTINUOUS
 62
               3
  5
175
 10
-74.999999999999986
 20
-179.80722333221911
 30
0.0
 11
-75.0
 21
-278.99999999999983
 31
0.0
  0
LINE
  8
0
  6
CONTINUOUS
 62
               3
  5
176
 10
-71.999999999999886
 20
-31.464346247147205
 30
0.0
 11
71.500000000000341
 21
-31.464346247147205
 31
0.0
  0
LINE
  8
0
  6
CONTINUOUS
 62
               3
  5
177
 10
-20.000000000000004
 20
48.000000000000341
 30
0.0
 11
-20.000000000000004
 21
65.0
 31
0.0
  0
LINE
  8
0
  6
CONTINUOUS
 62
               3
  5
178
 10
20.0
 20
65.0
 30
0.0
 11
20.0
 21
48.000000000000341
 31
0.0
  0
LINE
  8
0
  6
CONTINUOUS
 62
               3
  5
179
 10
-20.000000000000004
 20
55.0
 30
0.0
 11
20.0
 21
55.0
 31
0.0
  0
LINE
  8
0
  6
CONTINUOUS
 62
               3
  5
17A
 10
-72.284161474005373
 20
65.0
 30
0.0
 11
-72.284161474005373
 21
48.000000000000341
 31
0.0
  0
LINE
  8
0
  6
CONTINUOUS
 62
               3
  5
17B
 10
-86.210498200625238
 20
55.0
 30
0.0
 11
-86.210498200625238
 21
48.000000000000341
 31
0.0
  0
LINE
  8
0
  6
CONTINUOUS
 62
               3
  5
17C
 10
-88.500000000000227
 20
55.0
 30
0.0
 11
-86.210498200625238
 21
55.0
 31
0.0
  0
LINE
  8
0
  6
CONTINUOUS
 62
               3
  5
17D
 10
-86.210498200625238
 20
55.0
 30
0.0
 11
-72.284161474005373
 21
65.0
 31
0.0
  0
LINE
  8
0
  6
CONTINUOUS
 62
               3
  5
17E
 10
88.499999999999645
 20
55.0
 30
0.0
 11
88.499999999999645
 21
48.000000000000341
 31
0.0
  0
LINE
  8
0
  6
CONTINUOUS
 62
               3
  5
17F
 10
88.499999999999645
 20
55.0
 30
0.0
 11
75.0
 21
65.0
 31
0.0
  0
ARC
  8
0
  6
CONTINUOUS
 62
               3
  5
180
 10
76.999999999999886
 20
43.417424305044619
 30
0.0
 40
4.9999999999999991
 50
113.57817847815815
 51
179.99999999993057
  0
LINE
  8
0
  6
CONTINUOUS
 62
               3
  5
181
 10
72.284161474004236
 20
65.0
 30
0.0
 11
72.284161474004236
 21
48.000000000000341
 31
0.0
  0
LINE
  8
0
  6
CONTINUOUS
 62
               3
  5
182
 10
86.210498200625224
 20
55.0
 30
0.0
 11
86.210498200625224
 21
48.000000000000341
 31
0.0
  0
LINE
  8
0
  6
CONTINUOUS
 62
               3
  5
183
 10
88.499999999999645
 20
55.0
 30
0.0
 11
86.210498200625224
 21
55.0
 31
0.0
  0
LINE
  8
0
  6
CONTINUOUS
 62
               3
  5
184
 10
86.210498200625224
 20
55.0
 30
0.0
 11
72.284161474004236
 21
65.0
 31
0.0
  0
ARC
  8
0
  6
CONTINUOUS
 62
               3
  5
185
 10
-65.0
 20
-163.5
 30
0.0
 40
2.4999999999999996
 50
89.999999999965354
 51
269.99999999989632
  0
ARC
  8
0
  6
CONTINUOUS
 62
               3
  5
186
 10
75.0
 20
-163.5
 30
0.0
 40
2.4999999999999996
 50
269.99999999989649
 51
449.99999999982703
  0
LINE
  8
0
  6
CONTINUOUS
 62
               3
  5
187
 10
-75.0
 20
-278.99999999999983
 30
0.0
 11
-46.36810779205689
 21
-278.99999999999983
 31
0.0
  0
LINE
  8
0
  6
CONTINUOUS
 62
               3
  5
188
 10
-1.9728332801508941
 20
-278.99999999999983
 30
0.0
 11
74.496765133649774
 21
-278.99999999999983
 31
0.0
  0
LINE
  8
0
  6
CONTINUOUS
 62
               3
  5
189
 10
-140.0
 20
-156.0
 30
0.0
 11
-139.3284438740356
 21
-156.0
 31
0.0
  0
LINE
  8
0
  6
CONTINUOUS
 62
               3
  5
18A
 10
-136.82844387403554
 20
-158.49999999999926
 30
0.0
 11
-139.3284438740356
 21
-156.0
 31
0.0
  0
LINE
  8
0
  6
CONTINUOUS
 62
               3
  5
18B
 10
-136.8284438740348
 20
-158.5
 30
0.0
 11
-94.663333617757388
 21
-159.97243809585405
 31
0.0
  0
LINE
  8
0
  6
CONTINUOUS
 62
               3
  5
18C
 10
-76.464466094067504
 20
-176.271689426286
 30
0.0
 11
-91.302297195337246
 21
-161.43385832501673
 31
0.0
  0
ARC
  8
0
  6
CONTINUOUS
 62
               3
  5
18D
 10
-79.999999999999986
 20
-179.80722333221911
 30
0.0
 40
4.9999999999999991
 50
0.0
 51
44.99999999998176
  0
LINE
  8
0
  6
CONTINUOUS
 62
               3
  5
18E
 10
-140.0
 20
-46.000000000000114
 30
0.0
 11
-139.3284438740356
 21
-46.000000000000114
 31
0.0
  0
LINE
  8
0
  6
CONTINUOUS
 62
               3
  5
18F
 10
-136.82844387403554
 20
-43.499999999999915
 30
0.0
 11
-139.3284438740356
 21
-46.000000000000114
 31
0.0
  0
LINE
  8
0
  6
CONTINUOUS
 62
               3
  5
190
 10
-136.8284438740356
 20
-43.499999999999943
 30
0.0
 11
-79.210967671861312
 21
-41.487953394847693
 31
0.0
  0
LINE
  8
0
  6
CONTINUOUS
 62
               3
  5
191
 10
-139.3284438740356
 20
-46.000000000000114
 30
0.0
 11
-139.3284438740356
 21
-156.0
 31
0.0
  0
LINE
  8
0
  6
CONTINUOUS
 62
               3
  5
192
 10
-140.0
 20
-158.59999999999999
 30
0.0
 11
-140.0
 21
-43.400000000000006
 31
0.0
  0
LINE
  8
0
  6
CONTINUOUS
 62
               3
  5
193
 10
-140.0
 20
-43.400000000000006
 30
0.0
 11
-142.5
 21
-43.400000000000006
 31
0.0
  0
ARC
  8
0
  6
CONTINUOUS
 62
               3
  5
194
 10
-142.5
 20
-45.900000000000006
 30
0.0
 40
2.5
 50
89.999999999965596
 51
179.99999999993057
  0
LINE
  8
0
  6
CONTINUOUS
 62
               3
  5
195
 10
-145.0
 20
-45.900000000000006
 30
0.0
 11
-145.0
 21
-156.09999999999999
 31
0.0
  0
LINE
  8
0
  6
CONTINUOUS
 62
               3
  5
196
 10
-140.0
 20
-158.59999999999999
 30
0.0
 11
-142.5
 21
-158.59999999999999
 31
0.0
  0
ARC
  8
0
  6
CONTINUOUS
 62
               3
  5
197
 10
-142.5
 20
-156.09999999999999
 30
0.0
 40
2.5
 50
179.99999999993057
 51
269.99999999989649
  0
LINE
  8
0
  6
CONTINUOUS
 62
               3
  5
198
 10
-136.82844387403554
 20
-43.499999999999915
 30
0.0
 11
-136.8284438740348
 21
-158.5
 31
0.0
  0
ARC
  8
0
  6
CONTINUOUS
 62
               3
  5
199
 10
-94.837831101269927
 20
-164.9693922309495
 30
0.0
 40
5.0
 50
44.999999999983494
 51
87.999999999965766
  0
ARC
  8
0
  6
CONTINUOUS
 62
               3
  5
19A
 10
-79.385465155373808
 20
-36.490999259752243
 30
0.0
 40
5.0
 50
271.99999999989535
 51
347.26981986155278
  0
LINE
  8
0
  6
CONTINUOUS
 62
               3
  5
19B
 10
26.787357092479454
 20
-73.000000000000114
 30
0.0
 11
-26.787357092479454
 21
-73.000000000000114
 31
0.0
  0
CIRCLE
  8
0
  6
CONTINUOUS
 62
               3
  5
19C
 10
0.0
 20
-101.0
 30
0.0
 40
48.5
  0
CIRCLE
  8
0
  6
CONTINUOUS
 62
               3
  5
19D
 10
0.0
 20
-101.0
 30
0.0
 40
38.75
  0
CIRCLE
  8
0
  6
CONTINUOUS
 62
               3
  5
19E
 10
0.0
 20
-101.0
 30
0.0
 40
47.299999999999997
  0
LINE
  8
0
  6
CONTINUOUS
 62
               3
  5
19F
 10
-31.819805153394611
 20
-132.81980515339455
 30
0.0
 11
-33.446150750123707
 21
-134.44615075012371
 31
0.0
  0
LINE
  8
0
  6
CONTINUOUS
 62
               3
  5
1A0
 10
31.819805153394668
 20
-132.81980515339455
 30
0.0
 11
33.446150750123763
 21
-134.44615075012359
 31
0.0
  0
ARC
  8
0
  6
CONTINUOUS
 62
               3
  5
1A1
 10
0.0
 20
-101.0
 30
0.0
 40
45.0
 50
224.99999999991346
 51
314.99999999987898
  0
CIRCLE
  8
0
  6
CONTINUOUS
 62
               3
  5
1A2
 10
0.0
 20
-101.0
 30
0.0
 40
43.0
  0
CIRCLE
  8
0
  6
CONTINUOUS
 62
               3
  5
1A3
 10
0.0
 20
-101.0
 30
0.0
 40
57.600000000000001
  0
ARC
  8
0
  6
CONTINUOUS
 62
               3
  5
1A4
 10
-22.499999999999432
 20
-163.5
 30
0.0
 40
2.4999999999999996
 50
269.99999999989626
 51
449.99999999982697
  0
ARC
  8
0
  6
CONTINUOUS
 62
               3
  5
1A5
 10
22.500000000000568
 20
-163.5
 30
0.0
 40
2.4999999999999996
 50
89.999999999965439
 51
269.99999999989615
  0
LINE
  8
0
  6
CONTINUOUS
 62
               3
  5
1A6
 10
-65.0
 20
-166.0
 30
0.0
 11
-22.499999999999432
 21
-166.0
 31
0.0
  0
LINE
  8
0
  6
CONTINUOUS
 62
               3
  5
1A7
 10
-65.0
 20
-161.0
 30
0.0
 11
-22.499999999999432
 21
-161.0
 31
0.0
  0
LINE
  8
0
  6
CONTINUOUS
 62
               3
  5
1A8
 10
22.500000000000568
 20
-161.0
 30
0.0
 11
75.0
 21
-161.0
 31
0.0
  0
LINE
  8
0
  6
CONTINUOUS
 62
               3
  5
1A9
 10
22.500000000000568
 20
-166.0
 30
0.0
 11
75.0
 21
-166.0
 31
0.0
  0
LINE
  8
0
  6
CONTINUOUS
 62
               3
  5
1AA
 10
-58.000000000000114
 20
-427.99999999999972
 30
0.0
 11
58.000000000000114
 21
-428.00000000000028
 31
0.0
  0
LINE
  8
0
  6
CONTINUOUS
 62
               3
  5
1AB
 10
-57.0
 20
-540.0
 30
0.0
 11
57.000000000000085
 21
-540.0
 31
0.0
  0
LINE
  8
0
  6
CONTINUOUS
 62
               3
  5
1AC
 10
-57.0
 20
-540.0
 30
0.0
 11
-57.0
 21
-440.0
 31
0.0
  0
LINE
  8
0
  6
CONTINUOUS
 62
               3
  5
1AD
 10
-57.0
 20
-440.0
 30
0.0
 11
-57.999999999999545
 21
-439.00000000000045
 31
0.0
  0
LINE
  8
0
  6
CONTINUOUS
 62
               3
  5
1AE
 10
57.000000000000085
 20
-540.0
 30
0.0
 11
57.000000000000057
 21
-440.0
 31
0.0
  0
LINE
  8
0
  6
CONTINUOUS
 62
               3
  5
1AF
 10
57.000000000000057
 20
-440.0
 30
0.0
 11
57.999999999999602
 21
-439.00000000000045
 31
0.0
  0
LINE
  8
0
  6
CONTINUOUS
 62
               3
  5
1B0
 10
58.000000000000114
 20
-438.9999999999992
 30
0.0
 11
58.000000000000114
 21
-428.00000000000028
 31
0.0
  0
LINE
  8
0
  6
CONTINUOUS
 62
               3
  5
1B1
 10
-58.000000000000114
 20
-428.00000000000028
 30
0.0
 11
-58.000000000000114
 21
-439.0
 31
0.0
  0
LINE
  8
0
  6
CONTINUOUS
 62
               3
  5
1B2
 10
-674.99999999999943
 20
65.0
 30
0.0
 11
-525.0
 21
65.0
 31
0.0
  0
LINE
  8
0
  6
CONTINUOUS
 62
               3
  5
1B3
 10
-688.49999999999966
 20
55.0
 30
0.0
 11
-688.49999999999966
 21
48.000000000000341
 31
0.0
  0
LINE
  8
0
  6
CONTINUOUS
 62
               3
  5
1B4
 10
-688.49999999999966
 20
55.0
 30
0.0
 11
-674.99999999999943
 21
65.0
 31
0.0
  0
ARC
  8
0
  6
CONTINUOUS
 62
               3
  5
1B5
 10
-676.99999999999932
 20
43.417424305044619
 30
0.0
 40
4.9999999999999991
 50
0.0
 51
66.4218215217725
  0
LINE
  8
0
  6
CONTINUOUS
 62
               3
  5
1B6
 10
-688.49999999999966
 20
48.000000000000341
 30
0.0
 11
-511.49999999999977
 21
48.000000000000341
 31
0.0
  0
ARC
  8
0
  6
CONTINUOUS
 62
               3
  5
1B7
 10
-654.99999999999943
 20
-42.0
 30
0.0
 40
19.999999999999996
 50
148.21166938289124
 51
179.99999999993088
  0
LINE
  8
0
  6
CONTINUOUS
 62
               3
  5
1B8
 10
-671.99999999999932
 20
43.417424305044619
 30
0.0
 11
-671.99999999999932
 21
-31.464346247147205
 31
0.0
  0
LINE
  8
0
  6
CONTINUOUS
 62
               3
  5
1B9
 10
-527.99999999999955
 20
-31.464346247147205
 30
0.0
 11
-527.99999999999955
 21
43.417424305044619
 31
0.0
  0
LINE
  8
0
  6
CONTINUOUS
 62
               3
  5
1BA
 10
-657.99999999999955
 20
-428.00000000000028
 30
0.0
 11
-674.99999999999943
 21
-278.99999999999983
 31
0.0
  0
LINE
  8
0
  6
CONTINUOUS
 62
               3
  5
1BB
 10
-674.99999999999943
 20
-166.0
 30
0.0
 11
-674.99999999999943
 21
-278.99999999999983
 31
0.0
  0
LINE
  8
0
  6
CONTINUOUS
 62
               3
  5
1BC
 10
-671.99999999999932
 20
-31.464346247147205
 30
0.0
 11
-527.99999999999955
 21
-31.464346247147205
 31
0.0
  0
LINE
  8
0
  6
CONTINUOUS
 62
               3
  5
1BD
 10
-619.99999999999943
 20
48.000000000000341
 30
0.0
 11
-619.99999999999943
 21
65.0
 31
0.0
  0
LINE
  8
0
  6
CONTINUOUS
 62
               3
  5
1BE
 10
-580.0
 20
65.0
 30
0.0
 11
-580.0
 21
48.000000000000341
 31
0.0
  0
LINE
  8
0
  6
CONTINUOUS
 62
               3
  5
1BF
 10
-619.99999999999943
 20
55.0
 30
0.0
 11
-580.0
 21
55.0
 31
0.0
  0
LINE
  8
0
  6
CONTINUOUS
 62
               3
  5
1C0
 10
-672.28416147400367
 20
65.0
 30
0.0
 11
-672.28416147400367
 21
48.000000000000341
 31
0.0
  0
LINE
  8
0
  6
CONTINUOUS
 62
               3
  5
1C1
 10
-686.21049820062467
 20
55.0
 30
0.0
 11
-686.21049820062467
 21
48.000000000000341
 31
0.0
  0
LINE
  8
0
  6
CONTINUOUS
 62
               3
  5
1C2
 10
-688.49999999999966
 20
55.0
 30
0.0
 11
-686.21049820062467
 21
55.0
 31
0.0
  0
LINE
  8
0
  6
CONTINUOUS
 62
               3
  5
1C3
 10
-686.21049820062467
 20
55.0
 30
0.0
 11
-672.28416147400367
 21
65.0
 31
0.0
  0
LINE
  8
0
  6
CONTINUOUS
 62
               3
  5
1C4
 10
-511.49999999999977
 20
55.0
 30
0.0
 11
-511.49999999999977
 21
48.000000000000341
 31
0.0
  0
LINE
  8
0
  6
CONTINUOUS
 62
               3
  5
1C5
 10
-511.49999999999977
 20
55.0
 30
0.0
 11
-525.0
 21
65.0
 31
0.0
  0
ARC
  8
0
  6
CONTINUOUS
 62
               3
  5
1C6
 10
-522.99999999999955
 20
43.417424305044619
 30
0.0
 40
4.9999999999999991
 50
113.57817847815822
 51
179.99999999993057
  0
LINE
  8
0
  6
CONTINUOUS
 62
               3
  5
1C7
 10
-527.71583852599463
 20
65.0
 30
0.0
 11
-527.71583852599463
 21
48.000000000000341
 31
0.0
  0
LINE
  8
0
  6
CONTINUOUS
 62
               3
  5
1C8
 10
-513.78950179937419
 20
55.0
 30
0.0
 11
-513.78950179937419
 21
48.000000000000341
 31
0.0
  0
LINE
  8
0
  6
CONTINUOUS
 62
               3
  5
1C9
 10
-511.49999999999977
 20
55.0
 30
0.0
 11
-513.78950179937419
 21
55.0
 31
0.0
  0
LINE
  8
0
  6
CONTINUOUS
 62
               3
  5
1CA
 10
-513.78950179937419
 20
55.0
 30
0.0
 11
-527.71583852599463
 21
65.0
 31
0.0
  0
ARC
  8
0
  6
CONTINUOUS
 62
               3
  5
1CB
 10
-674.99999999999943
 20
-163.5
 30
0.0
 40
2.4999999999999996
 50
89.999999999965283
 51
269.99999999989649
  0
LINE
  8
0
  6
CONTINUOUS
 62
               3
  5
1CC
 10
-674.99999999999943
 20
-42.0
 30
0.0
 11
-674.99999999999943
 21
-161.0
 31
0.0
  0
LINE
  8
0
  6
CONTINUOUS
 62
               3
  5
1CD
 10
-674.99999999999943
 20
-278.99999999999983
 30
0.0
 11
-541.05099999999936
 21
-278.99999999999955
 31
0.0
  0
LINE
  8
0
  6
CONTINUOUS
 62
               3
  5
1CE
 10
-528.2436334564602
 20
-278.99999999999955
 30
0.0
 11
-525.0
 21
-278.99999999999955
 31
0.0
  0
ARC
  8
0
  6
CONTINUOUS
 62
               3
  5
1CF
 10
-622.49999999999943
 20
-163.5
 30
0.0
 40
2.4999999999999996
 50
269.99999999989615
 51
449.99999999982703
  0
ARC
  8
0
  6
CONTINUOUS
 62
               3
  5
1D0
 10
-577.49999999999943
 20
-163.5
 30
0.0
 40
2.4999999999999996
 50
89.999999999965439
 51
269.99999999989626
  0
LINE
  8
0
  6
CONTINUOUS
 62
               3
  5
1D1
 10
-674.99999999999943
 20
-166.0
 30
0.0
 11
-622.49999999999943
 21
-166.0
 31
0.0
  0
LINE
  8
0
  6
CONTINUOUS
 62
               3
  5
1D2
 10
-674.99999999999943
 20
-161.0
 30
0.0
 11
-622.49999999999943
 21
-161.0
 31
0.0
  0
LINE
  8
0
  6
CONTINUOUS
 62
               3
  5
1D3
 10
-573.21264290752049
 20
-73.000000000000114
 30
0.0
 11
-626.7873570924794
 21
-73.000000000000114
 31
0.0
  0
CIRCLE
  8
0
  6
CONTINUOUS
 62
               3
  5
1D4
 10
-600.0
 20
-101.0
 30
0.0
 40
48.5
  0
CIRCLE
  8
0
  6
CONTINUOUS
 62
               3
  5
1D5
 10
-600.0
 20
-101.0
 30
0.0
 40
38.75
  0
CIRCLE
  8
0
  6
CONTINUOUS
 62
               3
  5
1D6
 10
-600.0
 20
-101.0
 30
0.0
 40
47.299999999999997
  0
LINE
  8
0
  6
CONTINUOUS
 62
               3
  5
1D7
 10
-631.81980515339455
 20
-132.81980515339455
 30
0.0
 11
-633.44615075012371
 21
-134.44615075012371
 31
0.0
  0
LINE
  8
0
  6
CONTINUOUS
 62
               3
  5
1D8
 10
-568.18019484660533
 20
-132.81980515339455
 30
0.0
 11
-566.55384924987618
 21
-134.44615075012359
 31
0.0
  0
ARC
  8
0
  6
CONTINUOUS
 62
               3
  5
1D9
 10
-600.0
 20
-101.0
 30
0.0
 40
45.0
 50
224.99999999991346
 51
314.99999999987898
  0
CIRCLE
  8
0
  6
CONTINUOUS
 62
               3
  5
1DA
 10
-600.0
 20
-101.0
 30
0.0
 40
43.0
  0
CIRCLE
  8
0
  6
CONTINUOUS
 62
               3
  5
1DB
 10
-600.0
 20
-101.0
 30
0.0
 40
57.600000000000001
  0
LINE
  8
0
  6
CONTINUOUS
 62
               3
  5
1DC
 10
-541.99999999999932
 20
-428.00000000000028
 30
0.0
 11
-529.4519090192988
 21
-318.01967316915028
 31
0.0
  0
LINE
  8
0
  6
CONTINUOUS
 62
               3
  5
1DD
 10
-527.39985704623837
 20
-300.03404116997245
 30
0.0
 11
-525.0
 21
-278.99999999999955
 31
0.0
  0
LINE
  8
0
  6
CONTINUOUS
 62
               3
  5
1DE
 10
-459.99999999999994
 20
-156.0
 30
0.0
 11
-460.67155612596434
 21
-156.0
 31
0.0
  0
LINE
  8
0
  6
CONTINUOUS
 62
               3
  5
1DF
 10
-463.1715561259644
 20
-158.49999999999926
 30
0.0
 11
-460.67155612596434
 21
-156.0
 31
0.0
  0
LINE
  8
0
  6
CONTINUOUS
 62
               3
  5
1E0
 10
-459.99999999999994
 20
-158.59999999999997
 30
0.0
 11
-457.49999999999994
 21
-158.59999999999997
 31
0.0
  0
ARC
  8
0
  6
CONTINUOUS
 62
               3
  5
1E1
 10
-457.49999999999994
 20
-156.09999999999997
 30
0.0
 40
2.5
 50
269.99999999989649
 51
359.99999999986176
  0
ARC
  8
0
  6
CONTINUOUS
 62
               3
  5
1E2
 10
-535.0
 20
-163.5
 30
0.0
 40
2.4999999999999996
 50
269.99999999989632
 51
449.99999999982691
  0
LINE
  8
0
  6
CONTINUOUS
 62
               3
  5
1E3
 10
-463.17155612596514
 20
-158.5
 30
0.0
 11
-505.33666638224258
 21
-159.97243809585405
 31
0.0
  0
LINE
  8
0
  6
CONTINUOUS
 62
               3
  5
1E4
 10
-523.53553390593243
 20
-176.271689426286
 30
0.0
 11
-508.6977028046627
 21
-161.43385832501673
 31
0.0
  0
ARC
  8
0
  6
CONTINUOUS
 62
               3
  5
1E5
 10
-520.0
 20
-179.80722333221911
 30
0.0
 40
4.9999999999999991
 50
134.99999999994904
 51
179.99999999993088
  0
ARC
  8
0
  6
CONTINUOUS
 62
               3
  5
1E6
 10
-505.16216889873004
 20
-164.9693922309495
 30
0.0
 40
5.0
 50
91.999999999964984
 51
134.99999999994745
  0
LINE
  8
0
  6
CONTINUOUS
 62
               3
  5
1E7
 10
-459.99999999999994
 20
-46.000000000000085
 30
0.0
 11
-460.67155612596434
 21
-46.000000000000085
 31
0.0
  0
LINE
  8
0
  6
CONTINUOUS
 62
               3
  5
1E8
 10
-463.1715561259644
 20
-43.499999999999886
 30
0.0
 11
-460.67155612596434
 21
-46.000000000000085
 31
0.0
  0
LINE
  8
0
  6
CONTINUOUS
 62
               3
  5
1E9
 10
-460.67155612596434
 20
-46.000000000000085
 30
0.0
 11
-460.67155612596434
 21
-156.0
 31
0.0
  0
LINE
  8
0
  6
CONTINUOUS
 62
               3
  5
1EA
 10
-459.99999999999994
 20
-158.59999999999997
 30
0.0
 11
-459.99999999999994
 21
-43.399999999999977
 31
0.0
  0
LINE
  8
0
  6
CONTINUOUS
 62
               3
  5
1EB
 10
-459.99999999999994
 20
-43.399999999999977
 30
0.0
 11
-457.49999999999994
 21
-43.399999999999977
 31
0.0
  0
ARC
  8
0
  6
CONTINUOUS
 62
               3
  5
1EC
 10
-457.49999999999994
 20
-45.899999999999977
 30
0.0
 40
2.5
 50
0.0
 51
89.999999999965596
  0
LINE
  8
0
  6
CONTINUOUS
 62
               3
  5
1ED
 10
-454.99999999999994
 20
-45.899999999999977
 30
0.0
 11
-454.99999999999994
 21
-156.09999999999997
 31
0.0
  0
LINE
  8
0
  6
CONTINUOUS
 62
               3
  5
1EE
 10
-463.1715561259644
 20
-43.499999999999886
 30
0.0
 11
-463.17155612596514
 21
-158.5
 31
0.0
  0
LINE
  8
0
  6
CONTINUOUS
 62
               3
  5
1EF
 10
-463.17155612596434
 20
-43.499999999999915
 30
0.0
 11
-520.78903232813866
 21
-41.487953394847693
 31
0.0
  0
ARC
  8
0
  6
CONTINUOUS
 62
               3
  5
1F0
 10
-520.61453484462618
 20
-36.490999259752243
 30
0.0
 40
5.0
 50
192.73018013823969
 51
267.99999999989711
  0
ARC
  8
0
  6
CONTINUOUS
 62
               3
  5
1F1
 10
-545.0
 20
-42.0
 30
0.0
 40
19.999999999999996
 50
12.730180138307707
 51
31.788330617039573
  0
LINE
  8
0
  6
CONTINUOUS
 62
               3
  5
1F2
 10
-577.49999999999943
 20
-161.0
 30
0.0
 11
-535.0
 21
-161.0
 31
0.0
  0
LINE
  8
0
  6
CONTINUOUS
 62
               3
  5
1F3
 10
-577.49999999999943
 20
-166.0
 30
0.0
 11
-535.0
 21
-166.0
 31
0.0
  0
LINE
  8
0
  6
CONTINUOUS
 62
               3
  5
1F4
 10
-525.0
 20
-278.99999999999983
 30
0.0
 11
-525.00000000000045
 21
-179.80722333221914
 31
0.0
  0
LINE
  8
0
  6
CONTINUOUS
 62
               3
  5
1F5
 10
-657.99999999999955
 20
-427.99999999999972
 30
0.0
 11
-541.99999999999932
 21
-428.00000000000028
 31
0.0
  0
LINE
  8
0
  6
CONTINUOUS
 62
               3
  5
1F6
 10
-657.0
 20
-540.0
 30
0.0
 11
-542.99999999999989
 21
-540.0
 31
0.0
  0
LINE
  8
0
  6
CONTINUOUS
 62
               3
  5
1F7
 10
-657.0
 20
-540.0
 30
0.0
 11
-657.0
 21
-440.0
 31
0.0
  0
LINE
  8
0
  6
CONTINUOUS
 62
               3
  5
1F8
 10
-657.0
 20
-440.0
 30
0.0
 11
-657.99999999999955
 21
-439.00000000000045
 31
0.0
  0
LINE
  8
0
  6
CONTINUOUS
 62
               3
  5
1F9
 10
-542.99999999999989
 20
-540.0
 30
0.0
 11
-542.99999999999989
 21
-440.0
 31
0.0
  0
LINE
  8
0
  6
CONTINUOUS
 62
               3
  5
1FA
 10
-542.99999999999989
 20
-440.0
 30
0.0
 11
-542.00000000000034
 21
-439.00000000000045
 31
0.0
  0
LINE
  8
0
  6
CONTINUOUS
 62
               3
  5
1FB
 10
-541.99999999999989
 20
-438.9999999999992
 30
0.0
 11
-541.99999999999989
 21
-428.00000000000028
 31
0.0
  0
LINE
  8
0
  6
CONTINUOUS
 62
               3
  5
1FC
 10
-658.00000000000011
 20
-428.00000000000028
 30
0.0
 11
-658.00000000000011
 21
-439.0
 31
0.0
  0
LINE
  8
0
  6
CONTINUOUS
 62
               3
  5
1FD
 10
675.0
 20
65.0
 30
0.0
 11
525.0
 21
65.0
 31
0.0
  0
LINE
  8
0
  6
CONTINUOUS
 62
               3
  5
1FE
 10
688.50000000000023
 20
55.0
 30
0.0
 11
688.50000000000023
 21
48.000000000000341
 31
0.0
  0
LINE
  8
0
  6
CONTINUOUS
 62
               3
  5
1FF
 10
688.50000000000023
 20
55.0
 30
0.0
 11
675.0
 21
65.0
 31
0.0
  0
ARC
  8
0
  6
CONTINUOUS
 62
               3
  5
200
 10
676.99999999999989
 20
43.417424305044619
 30
0.0
 40
4.9999999999999991
 50
113.57817847815815
 51
179.99999999993057
  0
LINE
  8
0
  6
CONTINUOUS
 62
               3
  5
201
 10
688.50000000000023
 20
48.000000000000341
 30
0.0
 11
511.49999999999977
 21
48.000000000000341
 31
0.0
  0
ARC
  8
0
  6
CONTINUOUS
 62
               3
  5
202
 10
655.0
 20
-42.000000000000028
 30
0.0
 40
19.999999999999996
 50
0.0
 51
31.788330617039573
  0
LINE
  8
0
  6
CONTINUOUS
 62
               3
  5
203
 10
671.99999999999989
 20
43.417424305044619
 30
0.0
 11
671.99999999999989
 21
-31.464346247147233
 31
0.0
  0
LINE
  8
0
  6
CONTINUOUS
 62
               3
  5
204
 10
528.00000000000011
 20
-31.464346247147233
 30
0.0
 11
528.00000000000011
 21
43.417424305044619
 31
0.0
  0
LINE
  8
0
  6
CONTINUOUS
 62
               3
  5
205
 10
658.00000000000011
 20
-428.00000000000023
 30
0.0
 11
675.0
 21
-278.99999999999989
 31
0.0
  0
LINE
  8
0
  6
CONTINUOUS
 62
               3
  5
206
 10
541.99999999999989
 20
-428.00000000000023
 30
0.0
 11
525.0
 21
-278.99999999999989
 31
0.0
  0
LINE
  8
0
  6
CONTINUOUS
 62
               3
  5
207
 10
675.0
 20
-166.0
 30
0.0
 11
675.0
 21
-278.99999999999989
 31
0.0
  0
LINE
  8
0
  6
CONTINUOUS
 62
               3
  5
208
 10
620.0
 20
48.000000000000341
 30
0.0
 11
620.0
 21
65.0
 31
0.0
  0
LINE
  8
0
  6
CONTINUOUS
 62
               3
  5
209
 10
580.0
 20
65.0
 30
0.0
 11
580.0
 21
48.000000000000341
 31
0.0
  0
LINE
  8
0
  6
CONTINUOUS
 62
               3
  5
20A
 10
620.0
 20
55.0
 30
0.0
 11
580.0
 21
55.0
 31
0.0
  0
LINE
  8
0
  6
CONTINUOUS
 62
               3
  5
20B
 10
672.2841614740048
 20
65.0
 30
0.0
 11
672.2841614740048
 21
48.000000000000341
 31
0.0
  0
LINE
  8
0
  6
CONTINUOUS
 62
               3
  5
20C
 10
686.21049820062524
 20
55.0
 30
0.0
 11
686.21049820062524
 21
48.000000000000341
 31
0.0
  0
LINE
  8
0
  6
CONTINUOUS
 62
               3
  5
20D
 10
688.50000000000023
 20
55.0
 30
0.0
 11
686.21049820062524
 21
55.0
 31
0.0
  0
LINE
  8
0
  6
CONTINUOUS
 62
               3
  5
20E
 10
686.21049820062524
 20
55.0
 30
0.0
 11
672.2841614740048
 21
65.0
 31
0.0
  0
LINE
  8
0
  6
CONTINUOUS
 62
               3
  5
20F
 10
511.49999999999977
 20
55.0
 30
0.0
 11
511.49999999999977
 21
48.000000000000341
 31
0.0
  0
LINE
  8
0
  6
CONTINUOUS
 62
               3
  5
210
 10
511.49999999999977
 20
55.0
 30
0.0
 11
525.0
 21
65.0
 31
0.0
  0
ARC
  8
0
  6
CONTINUOUS
 62
               3
  5
211
 10
523.00000000000011
 20
43.417424305044619
 30
0.0
 40
4.9999999999999991
 50
0.0
 51
66.4218215217725
  0
LINE
  8
0
  6
CONTINUOUS
 62
               3
  5
212
 10
527.7158385259952
 20
65.0
 30
0.0
 11
527.7158385259952
 21
48.000000000000341
 31
0.0
  0
LINE
  8
0
  6
CONTINUOUS
 62
               3
  5
213
 10
513.78950179937476
 20
55.0
 30
0.0
 11
513.78950179937476
 21
48.000000000000341
 31
0.0
  0
LINE
  8
0
  6
CONTINUOUS
 62
               3
  5
214
 10
511.49999999999977
 20
55.0
 30
0.0
 11
513.78950179937476
 21
55.0
 31
0.0
  0
LINE
  8
0
  6
CONTINUOUS
 62
               3
  5
215
 10
513.78950179937476
 20
55.0
 30
0.0
 11
527.7158385259952
 21
65.0
 31
0.0
  0
LINE
  8
0
  6
CONTINUOUS
 62
               3
  5
216
 10
671.99999999999989
 20
-31.464346247147233
 30
0.0
 11
611.7270000000002
 21
-31.464346247147233
 31
0.0
  0
LINE
  8
0
  6
CONTINUOUS
 62
               3
  5
217
 10
588.2729999999998
 20
-31.464346247147233
 30
0.0
 11
528.00000000000011
 21
-31.464346247147233
 31
0.0
  0
ARC
  8
0
  6
CONTINUOUS
 62
               3
  5
218
 10
675.0
 20
-163.5
 30
0.0
 40
2.4999999999999996
 50
269.99999999989649
 51
449.99999999982703
  0
LINE
  8
0
  6
CONTINUOUS
 62
               3
  5
219
 10
608.21699999999964
 20
-161.0
 30
0.0
 11
675.0
 21
-161.0
 31
0.0
  0
LINE
  8
0
  6
CONTINUOUS
 62
               3
  5
21A
 10
608.21699999999964
 20
-166.0
 30
0.0
 11
675.0
 21
-166.0
 31
0.0
  0
LINE
  8
0
  6
CONTINUOUS
 62
               3
  5
21B
 10
675.0
 20
-278.99999999999989
 30
0.0
 11
608.21699999999964
 21
-278.99999999999989
 31
0.0
  0
LINE
  8
0
  6
CONTINUOUS
 62
               3
  5
21C
 10
591.78299999999979
 20
-278.99999999999989
 30
0.0
 11
525.0
 21
-278.99999999999989
 31
0.0
  0
LINE
  8
0
  6
CONTINUOUS
 62
               3
  5
21D
 10
675.0
 20
-42.000000000000028
 30
0.0
 11
675.0
 21
-161.0
 31
0.0
  0
LINE
  8
0
  6
CONTINUOUS
 62
               3
  5
21E
 10
460.0
 20
-156.0
 30
0.0
 11
460.6715561259644
 21
-156.0
 31
0.0
  0
LINE
  8
0
  6
CONTINUOUS
 62
               3
  5
21F
 10
463.17155612596446
 20
-158.49999999999926
 30
0.0
 11
460.6715561259644
 21
-156.0
 31
0.0
  0
LINE
  8
0
  6
CONTINUOUS
 62
               3
  5
220
 10
460.0
 20
-46.000000000000114
 30
0.0
 11
460.6715561259644
 21
-46.000000000000114
 31
0.0
  0
LINE
  8
0
  6
CONTINUOUS
 62
               3
  5
221
 10
463.17155612596446
 20
-43.499999999999915
 30
0.0
 11
460.6715561259644
 21
-46.000000000000114
 31
0.0
  0
LINE
  8
0
  6
CONTINUOUS
 62
               3
  5
222
 10
460.6715561259644
 20
-46.000000000000114
 30
0.0
 11
460.6715561259644
 21
-156.0
 31
0.0
  0
LINE
  8
0
  6
CONTINUOUS
 62
               3
  5
223
 10
460.0
 20
-158.59999999999999
 30
0.0
 11
460.0
 21
-43.400000000000006
 31
0.0
  0
LINE
  8
0
  6
CONTINUOUS
 62
               3
  5
224
 10
460.0
 20
-43.400000000000006
 30
0.0
 11
457.5
 21
-43.400000000000006
 31
0.0
  0
ARC
  8
0
  6
CONTINUOUS
 62
               3
  5
225
 10
457.5
 20
-45.900000000000006
 30
0.0
 40
2.5
 50
89.999999999965596
 51
179.99999999993057
  0
LINE
  8
0
  6
CONTINUOUS
 62
               3
  5
226
 10
455.0
 20
-45.900000000000006
 30
0.0
 11
455.0
 21
-156.09999999999999
 31
0.0
  0
LINE
  8
0
  6
CONTINUOUS
 62
               3
  5
227
 10
460.0
 20
-158.59999999999999
 30
0.0
 11
457.5
 21
-158.59999999999999
 31
0.0
  0
ARC
  8
0
  6
CONTINUOUS
 62
               3
  5
228
 10
457.5
 20
-156.09999999999999
 30
0.0
 40
2.5
 50
179.99999999993057
 51
269.99999999989649
  0
LINE
  8
0
  6
CONTINUOUS
 62
               3
  5
229
 10
463.17155612596446
 20
-43.499999999999915
 30
0.0
 11
463.1715561259652
 21
-158.5
 31
0.0
  0
ARC
  8
0
  6
CONTINUOUS
 62
               3
  5
22A
 10
535.0
 20
-163.5
 30
0.0
 40
2.4999999999999996
 50
89.999999999965354
 51
269.99999999989632
  0
LINE
  8
0
  6
CONTINUOUS
 62
               3
  5
22B
 10
463.1715561259652
 20
-158.5
 30
0.0
 11
505.33666638224264
 21
-159.97243809585405
 31
0.0
  0
LINE
  8
0
  6
CONTINUOUS
 62
               3
  5
22C
 10
523.53553390593254
 20
-176.271689426286
 30
0.0
 11
508.69770280466275
 21
-161.43385832501673
 31
0.0
  0
ARC
  8
0
  6
CONTINUOUS
 62
               3
  5
22D
 10
520.0
 20
-179.80722333221911
 30
0.0
 40
4.9999999999999991
 50
0.0
 51
44.99999999998176
  0
ARC
  8
0
  6
CONTINUOUS
 62
               3
  5
22E
 10
505.1621688987301
 20
-164.9693922309495
 30
0.0
 40
5.0
 50
44.999999999983494
 51
87.999999999965766
  0
ARC
  8
0
  6
CONTINUOUS
 62
               3
  5
22F
 10
545.0
 20
-42.0
 30
0.0
 40
19.999999999999996
 50
148.21166938289122
 51
167.2698198616232
  0
LINE
  8
0
  6
CONTINUOUS
 62
               3
  5
230
 10
463.1715561259644
 20
-43.499999999999943
 30
0.0
 11
520.78903232813866
 21
-41.487953394847693
 31
0.0
  0
ARC
  8
0
  6
CONTINUOUS
 62
               3
  5
231
 10
520.61453484462618
 20
-36.490999259752243
 30
0.0
 40
5.0
 50
271.99999999989535
 51
347.26981986155278
  0
LINE
  8
0
  6
CONTINUOUS
 62
               3
  5
232
 10
535.0
 20
-166.0
 30
0.0
 11
591.93835546658477
 21
-166.0
 31
0.0
  0
LINE
  8
0
  6
CONTINUOUS
 62
               3
  5
233
 10
535.0
 20
-161.0
 30
0.0
 11
591.78299999999979
 21
-161.0
 31
0.0
  0
LINE
  8
0
  6
CONTINUOUS
 62
               3
  5
234
 10
525.0
 20
-278.99999999999989
 30
0.0
 11
525.0
 21
-179.80722333221911
 31
0.0
  0
LINE
  8
0
  6
CONTINUOUS
 62
               3
  5
235
 10
658.00000000000011
 20
-427.99999999999966
 30
0.0
 11
541.99999999999989
 21
-428.00000000000023
 31
0.0
  0
LINE
  8
0
  6
CONTINUOUS
 62
               3
  5
236
 10
543.0
 20
-540.0
 30
0.0
 11
657.00000000000011
 21
-540.0
 31
0.0
  0
LINE
  8
0
  6
CONTINUOUS
 62
               3
  5
237
 10
543.0
 20
-540.0
 30
0.0
 11
543.0
 21
-440.0
 31
0.0
  0
LINE
  8
0
  6
CONTINUOUS
 62
               3
  5
238
 10
543.0
 20
-440.0
 30
0.0
 11
542.00000000000045
 21
-439.00000000000045
 31
0.0
  0
LINE
  8
0
  6
CONTINUOUS
 62
               3
  5
239
 10
657.00000000000011
 20
-540.0
 30
0.0
 11
657.00000000000011
 21
-440.0
 31
0.0
  0
LINE
  8
0
  6
CONTINUOUS
 62
               3
  5
23A
 10
657.00000000000011
 20
-440.0
 30
0.0
 11
657.99999999999966
 21
-439.00000000000045
 31
0.0
  0
LINE
  8
0
  6
CONTINUOUS
 62
               3
  5
23B
 10
658.00000000000011
 20
-438.9999999999992
 30
0.0
 11
658.00000000000011
 21
-428.00000000000028
 31
0.0
  0
LINE
  8
0
  6
CONTINUOUS
 62
               3
  5
23C
 10
541.99999999999989
 20
-428.00000000000028
 30
0.0
 11
541.99999999999989
 21
-439.0
 31
0.0
  0
CIRCLE
  8
0
  6
CONTINUOUS
 62
               3
  5
23D
 10
0.0
 20
600.0
 30
0.0
 40
59.0
  0
CIRCLE
  8
0
  6
CONTINUOUS
 62
               3
  5
23E
 10
609.28652321630784
 20
-903.96375990939941
 30
0.0
 40
75.0
  0
CIRCLE
  8
0
  6
CONTINUOUS
 62
               3
  5
23F
 10
609.28652321630784
 20
-903.96375990939941
 30
0.0
 40
52.5
  0
LINE
  8
0
  6
CONTINUOUS
 62
               3
  5
240
 10
523.0760250156826
 20
-883.96375990939941
 30
0.0
 11
537.00236174230247
 21
-883.96375990939941
 31
0.0
  0
LINE
  8
0
  6
CONTINUOUS
 62
               3
  5
241
 10
537.00236174230247
 20
-923.96375990939941
 30
0.0
 11
523.0760250156826
 21
-923.96375990939941
 31
0.0
  0
ARC
  8
0
  6
CONTINUOUS
 62
               3
  5
242
 10
609.28652321630784
 20
-903.96375990939941
 30
0.0
 40
88.5
 50
166.93897588513528
 51
193.06102411472631
  0
LINE
  8
0
  6
CONTINUOUS
 62
               3
  5
243
 10
589.28652321630784
 20
-990.17425811002431
 30
0.0
 11
589.28652321630784
 21
-976.24792138340445
 31
0.0
  0
LINE
  8
0
  6
CONTINUOUS
 62
               3
  5
244
 10
629.28652321630784
 20
-976.24792138340445
 30
0.0
 11
629.28652321630784
 21
-990.17425811002431
 31
0.0
  0
ARC
  8
0
  6
CONTINUOUS
 62
               3
  5
245
 10
609.28652321630784
 20
-903.96375990939941
 30
0.0
 40
88.5
 50
256.93897588510077
 51
283.06102411469175
  0
LINE
  8
0
  6
CONTINUOUS
 62
               3
  5
246
 10
695.49702141693251
 20
-923.96375990939941
 30
0.0
 11
681.57068469031208
 21
-923.96375990939941
 31
0.0
  0
LINE
  8
0
  6
CONTINUOUS
 62
               3
  5
247
 10
681.57068469031208
 20
-883.96375990939941
 30
0.0
 11
695.49702141693251
 21
-883.96375990939941
 31
0.0
  0
ARC
  8
0
  6
CONTINUOUS
 62
               3
  5
248
 10
609.28652321630784
 20
-903.96375990939941
 30
0.0
 40
88.5
 50
346.9389758850661
 51
373.06102411465713
  0
LINE
  8
0
  6
CONTINUOUS
 62
               3
  5
249
 10
629.28652321630784
 20
-817.75326170877383
 30
0.0
 11
629.28652321630784
 21
-831.67959843539438
 31
0.0
  0
LINE
  8
0
  6
CONTINUOUS
 62
               3
  5
24A
 10
589.28652321630784
 20
-831.67959843539438
 30
0.0
 11
589.28652321630784
 21
-817.75326170877383
 31
0.0
  0
ARC
  8
0
  6
CONTINUOUS
 62
               3
  5
24B
 10
609.28652321630784
 20
-903.96375990939941
 30
0.0
 40
88.5
 50
76.938975885169896
 51
103.06102411476094
  0
LINE
  8
0
  6
CONTINUOUS
 62
               3
  5
24C
 10
561.61839969544678
 20
-925.96375990939987
 30
0.0
 11
656.95464673716776
 21
-925.96375990939987
 31
0.0
  0
ARC
  8
0
  6
CONTINUOUS
 62
               3
  5
24D
 10
621.79013486568897
 20
-895.25736228178039
 30
0.0
 40
54.763804151667173
 50
141.3859176367836
 51
145.15009542089808
  0
ARC
  8
0
  6
CONTINUOUS
 62
               3
  5
24E
 10
609.28652321630784
 20
-903.96375990939941
 30
0.0
 40
51.5
 50
334.71098847332905
 51
410.9593273634826
  0
ARC
  8
0
  6
CONTINUOUS
 62
               3
  5
24F
 10
609.28652321630784
 20
-903.96375990939941
 30
0.0
 40
51.5
 50
129.04067263631032
 51
205.28901152646336
  0
ARC
  8
0
  6
CONTINUOUS
 62
               3
  5
250
 10
609.28652321630784
 20
-903.96375990939941
 30
0.0
 40
77.5
 50
104.955248316603
 51
128.57288309098388
  0
ARC
  8
0
  6
CONTINUOUS
 62
               3
  5
251
 10
609.28652321630784
 20
-903.96375990939941
 30
0.0
 40
77.5
 50
14.955248316637585
 51
75.044751683327831
  0
ARC
  8
0
  6
CONTINUOUS
 62
               3
  5
252
 10
609.28652321630784
 20
-903.96375990939941
 30
0.0
 40
77.5
 50
321.42711690884255
 51
345.04475168322404
  0
LINE
  8
0
  6
CONTINUOUS
 62
               3
  5
253
 10
469.28652321630784
 20
-958.96375990939941
 30
0.0
 11
469.95807934227207
 21
-958.96375990939941
 31
0.0
  0
LINE
  8
0
  6
CONTINUOUS
 62
               3
  5
254
 10
472.45807934227253
 20
-961.46375990939941
 30
0.0
 11
469.95807934227207
 21
-958.96375990939941
 31
0.0
  0
LINE
  8
0
  6
CONTINUOUS
 62
               3
  5
255
 10
469.28652321630784
 20
-848.96375990939941
 30
0.0
 11
469.95807934227207
 21
-848.96375990939941
 31
0.0
  0
LINE
  8
0
  6
CONTINUOUS
 62
               3
  5
256
 10
472.45807934227207
 20
-846.46375990939941
 30
0.0
 11
469.95807934227207
 21
-848.96375990939941
 31
0.0
  0
LINE
  8
0
  6
CONTINUOUS
 62
               3
  5
257
 10
469.95807934227207
 20
-848.96375990939941
 30
0.0
 11
469.95807934227207
 21
-958.96375990939941
 31
0.0
  0
LINE
  8
0
  6
CONTINUOUS
 62
               3
  5
258
 10
563.79618742992989
 20
-843.27416289105781
 30
0.0
 11
472.45807934227207
 21
-846.46375990939941
 31
0.0
  0
LINE
  8
0
  6
CONTINUOUS
 62
               3
  5
259
 10
544.4500514997568
 20
-963.97777497436709
 30
0.0
 11
472.45807934227264
 21
-961.46375990939941
 31
0.0
  0
LINE
  8
0
  6
CONTINUOUS
 62
               3
  5
25A
 10
464.28652321630784
 20
-849.13531603536353
 30
0.0
 11
464.28652321630784
 21
-959.06375990939944
 31
0.0
  0
LINE
  8
0
  6
CONTINUOUS
 62
               3
  5
25B
 10
469.28652321630784
 20
-961.56375990939944
 30
0.0
 11
469.28652321630784
 21
-846.36375990939939
 31
0.0
  0
LINE
  8
0
  6
CONTINUOUS
 62
               3
  5
25C
 10
469.28652321630784
 20
-846.36375990939939
 30
0.0
 11
466.78652321630784
 21
-846.36375990939939
 31
0.0
  0
LINE
  8
0
  6
CONTINUOUS
 62
               3
  5
25D
 10
469.28652321630784
 20
-961.56375990939944
 30
0.0
 11
466.78652321630784
 21
-961.56375990939944
 31
0.0
  0
ARC
  8
0
  6
CONTINUOUS
 62
               3
  5
25E
 10
466.78652321630784
 20
-959.06375990939944
 30
0.0
 40
2.5
 50
179.99999999993088
 51
269.99999999989649
  0
ARC
  8
0
  6
CONTINUOUS
 62
               3
  5
25F
 10
466.78652321630784
 20
-848.86375990939939
 30
0.0
 40
2.5
 50
89.999999999965596
 51
179.99999999993088
  0
LINE
  8
0
  6
CONTINUOUS
 62
               3
  5
260
 10
576.84812004969024
 20
-863.96375990939964
 30
0.0
 11
609.28652321630784
 21
-863.96375990939964
 31
0.0
  0
LINE
  8
0
  6
CONTINUOUS
 62
               3
  5
261
 10
609.28652321630784
 20
-863.96375990939964
 30
0.0
 11
643.29019948814653
 21
-863.96375990939964
 31
0.0
  0
LINE
  8
0
  6
CONTINUOUS
 62
               3
  5
262
 10
472.45807934227253
 20
-961.46375990939941
 30
0.0
 11
472.45807934227207
 21
-846.46375990939941
 31
0.0
  0
ARC
  8
0
  6
CONTINUOUS
 62
               3
  5
263
 10
563.6216899464174
 20
-838.27720875596231
 30
0.0
 40
5.0
 50
271.99999999989558
 51
304.80675787031049
  0
LINE
  8
0
  6
CONTINUOUS
 62
               3
  5
264
 10
664.28652321630773
 20
-1043.9637599093994
 30
0.0
 11
664.28652321630773
 21
-1043.2922037834351
 31
0.0
  0
LINE
  8
0
  6
CONTINUOUS
 62
               3
  5
265
 10
666.78652321630773
 20
-1040.7922037834346
 30
0.0
 11
664.28652321630773
 21
-1043.2922037834351
 31
0.0
  0
LINE
  8
0
  6
CONTINUOUS
 62
               3
  5
266
 10
554.28652321630773
 20
-1043.9637599093994
 30
0.0
 11
554.28652321630773
 21
-1043.2922037834351
 31
0.0
  0
LINE
  8
0
  6
CONTINUOUS
 62
               3
  5
267
 10
551.78652321630773
 20
-1040.7922037834351
 30
0.0
 11
554.28652321630773
 21
-1043.2922037834351
 31
0.0
  0
LINE
  8
0
  6
CONTINUOUS
 62
               3
  5
268
 10
554.28652321630773
 20
-1043.2922037834351
 30
0.0
 11
664.28652321630773
 21
-1043.2922037834351
 31
0.0
  0
LINE
  8
0
  6
CONTINUOUS
 62
               3
  5
269
 10
554.45807934227184
 20
-1048.9637599093994
 30
0.0
 11
664.38652321630775
 21
-1048.9637599093994
 31
0.0
  0
LINE
  8
0
  6
CONTINUOUS
 62
               3
  5
26A
 10
666.88652321630775
 20
-1043.9637599093994
 30
0.0
 11
551.68652321630771
 21
-1043.9637599093994
 31
0.0
  0
LINE
  8
0
  6
CONTINUOUS
 62
               3
  5
26B
 10
551.68652321630771
 20
-1043.9637599093994
 30
0.0
 11
551.68652321630771
 21
-1046.4637599093994
 31
0.0
  0
LINE
  8
0
  6
CONTINUOUS
 62
               3
  5
26C
 10
666.88652321630775
 20
-1043.9637599093994
 30
0.0
 11
666.88652321630775
 21
-1046.4637599093994
 31
0.0
  0
ARC
  8
0
  6
CONTINUOUS
 62
               3
  5
26D
 10
664.38652321630775
 20
-1046.4637599093994
 30
0.0
 40
2.5
 50
269.99999999989615
 51
359.99999999986142
  0
ARC
  8
0
  6
CONTINUOUS
 62
               3
  5
26E
 10
554.18652321630771
 20
-1046.4637599093994
 30
0.0
 40
2.5
 50
179.99999999993057
 51
269.99999999989626
  0
LINE
  8
0
  6
CONTINUOUS
 62
               3
  5
26F
 10
666.78652321630773
 20
-1040.7922037834346
 30
0.0
 11
551.78652321630773
 21
-1040.7922037834351
 31
0.0
  0
LINE
  8
0
  6
CONTINUOUS
 62
               3
  5
270
 10
669.97612023464887
 20
-949.45409569577794
 30
0.0
 11
666.78652321630773
 21
-1040.7922037834346
 31
0.0
  0
ARC
  8
0
  6
CONTINUOUS
 62
               3
  5
271
 10
674.97307436974438
 20
-949.62859317929042
 30
0.0
 40
5.0
 50
145.19324212951597
 51
177.9999999999317
  0
LINE
  8
0
  6
CONTINUOUS
 62
               3
  5
272
 10
549.27250815133971
 20
-968.80023162595035
 30
0.0
 11
551.78652321630773
 21
-1040.7922037834351
 31
0.0
  0
ARC
  8
0
  6
CONTINUOUS
 62
               3
  5
273
 10
544.27555401624431
 20
-968.9747291094626
 30
0.0
 40
5.0
 50
1.9999999999967224
 51
87.999999999966334
  0
LINE
  8
0
  6
CONTINUOUS
 62
               3
  5
274
 10
534.28652321630784
 20
-1212.4631936579838
 30
0.0
 11
684.28652321630784
 21
-1212.4631936579838
 31
0.0
  0
LINE
  8
0
  6
CONTINUOUS
 62
               3
  5
275
 10
520.78652321630761
 20
-1222.4631936579838
 30
0.0
 11
520.78652321630761
 21
-1229.4631936579833
 31
0.0
  0
LINE
  8
0
  6
CONTINUOUS
 62
               3
  5
276
 10
520.78652321630761
 20
-1222.4631936579838
 30
0.0
 11
534.28652321630784
 21
-1212.4631936579838
 31
0.0
  0
ARC
  8
0
  6
CONTINUOUS
 62
               3
  5
277
 10
532.28652321630796
 20
-1234.045769352939
 30
0.0
 40
4.9999999999999991
 50
0.0
 51
66.4218215217725
  0
LINE
  8
0
  6
CONTINUOUS
 62
               3
  5
278
 10
520.78652321630761
 20
-1229.4631936579833
 30
0.0
 11
697.7865232163075
 21
-1229.4631936579833
 31
0.0
  0
ARC
  8
0
  6
CONTINUOUS
 62
               3
  5
279
 10
554.28652321630784
 20
-1319.4631936579838
 30
0.0
 40
19.999999999999996
 50
148.21166938289122
 51
167.2698198616232
  0
LINE
  8
0
  6
CONTINUOUS
 62
               3
  5
27A
 10
537.28652321630796
 20
-1234.045769352939
 30
0.0
 11
537.28652321630796
 21
-1308.927539905131
 31
0.0
  0
LINE
  8
0
  6
CONTINUOUS
 62
               3
  5
27B
 10
681.28652321630773
 20
-1303.9275399051305
 30
0.0
 11
681.28652321630773
 21
-1234.045769352939
 31
0.0
  0
LINE
  8
0
  6
CONTINUOUS
 62
               3
  5
27C
 10
537.28652321630796
 20
-1308.927539905131
 30
0.0
 11
680.78652321630818
 21
-1308.927539905131
 31
0.0
  0
LINE
  8
0
  6
CONTINUOUS
 62
               3
  5
27D
 10
589.28652321630784
 20
-1229.4631936579833
 30
0.0
 11
589.28652321630784
 21
-1212.4631936579838
 31
0.0
  0
LINE
  8
0
  6
CONTINUOUS
 62
               3
  5
27E
 10
629.28652321630784
 20
-1212.4631936579838
 30
0.0
 11
629.28652321630784
 21
-1229.4631936579833
 31
0.0
  0
LINE
  8
0
  6
CONTINUOUS
 62
               3
  5
27F
 10
589.28652321630784
 20
-1222.4631936579838
 30
0.0
 11
629.28652321630784
 21
-1222.4631936579838
 31
0.0
  0
LINE
  8
0
  6
CONTINUOUS
 62
               3
  5
280
 10
537.00236174230247
 20
-1212.4631936579838
 30
0.0
 11
537.00236174230247
 21
-1229.4631936579833
 31
0.0
  0
LINE
  8
0
  6
CONTINUOUS
 62
               3
  5
281
 10
523.0760250156826
 20
-1222.4631936579838
 30
0.0
 11
523.0760250156826
 21
-1229.4631936579833
 31
0.0
  0
LINE
  8
0
  6
CONTINUOUS
 62
               3
  5
282
 10
520.78652321630761
 20
-1222.4631936579838
 30
0.0
 11
523.0760250156826
 21
-1222.4631936579838
 31
0.0
  0
LINE
  8
0
  6
CONTINUOUS
 62
               3
  5
283
 10
523.0760250156826
 20
-1222.4631936579838
 30
0.0
 11
537.00236174230247
 21
-1212.4631936579838
 31
0.0
  0
LINE
  8
0
  6
CONTINUOUS
 62
               3
  5
284
 10
697.7865232163075
 20
-1222.4631936579838
 30
0.0
 11
697.7865232163075
 21
-1229.4631936579833
 31
0.0
  0
LINE
  8
0
  6
CONTINUOUS
 62
               3
  5
285
 10
697.7865232163075
 20
-1222.4631936579838
 30
0.0
 11
684.28652321630784
 21
-1212.4631936579838
 31
0.0
  0
ARC
  8
0
  6
CONTINUOUS
 62
               3
  5
286
 10
686.28652321630773
 20
-1234.045769352939
 30
0.0
 40
4.9999999999999991
 50
113.57817847815815
 51
179.99999999993057
  0
LINE
  8
0
  6
CONTINUOUS
 62
               3
  5
287
 10
681.57068469031208
 20
-1212.4631936579838
 30
0.0
 11
681.57068469031208
 21
-1229.4631936579833
 31
0.0
  0
LINE
  8
0
  6
CONTINUOUS
 62
               3
  5
288
 10
695.49702141693308
 20
-1222.4631936579838
 30
0.0
 11
695.49702141693308
 21
-1229.4631936579833
 31
0.0
  0
LINE
  8
0
  6
CONTINUOUS
 62
               3
  5
289
 10
697.7865232163075
 20
-1222.4631936579838
 30
0.0
 11
695.49702141693308
 21
-1222.4631936579838
 31
0.0
  0
LINE
  8
0
  6
CONTINUOUS
 62
               3
  5
28A
 10
695.49702141693308
 20
-1222.4631936579838
 30
0.0
 11
681.57068469031208
 21
-1212.4631936579838
 31
0.0
  0
ARC
  8
0
  6
CONTINUOUS
 62
               3
  5
28B
 10
544.28652321630784
 20
-1440.9631936579838
 30
0.0
 40
2.4999999999999996
 50
89.999999999965354
 51
269.99999999989632
  0
ARC
  8
0
  6
CONTINUOUS
 62
               3
  5
28C
 10
684.28652321630784
 20
-1440.9631936579838
 30
0.0
 40
2.4999999999999996
 50
269.99999999989649
 51
449.99999999982703
  0
LINE
  8
0
  6
CONTINUOUS
 62
               3
  5
28D
 10
469.28652321630784
 20
-1433.4631936579838
 30
0.0
 11
469.95807934227219
 21
-1433.4631936579838
 31
0.0
  0
LINE
  8
0
  6
CONTINUOUS
 62
               3
  5
28E
 10
472.4580793422723
 20
-1435.9631936579831
 30
0.0
 11
469.95807934227219
 21
-1433.4631936579838
 31
0.0
  0
LINE
  8
0
  6
CONTINUOUS
 62
               3
  5
28F
 10
472.45807934227309
 20
-1435.9631936579838
 30
0.0
 11
514.62318959855043
 21
-1437.4356317538379
 31
0.0
  0
LINE
  8
0
  6
CONTINUOUS
 62
               3
  5
290
 10
532.82205712224038
 20
-1453.7348830842698
 30
0.0
 11
517.9842260209706
 21
-1438.8970519830004
 31
0.0
  0
ARC
  8
0
  6
CONTINUOUS
 62
               3
  5
291
 10
529.28652321630784
 20
-1457.2704169902029
 30
0.0
 40
4.9999999999999991
 50
0.0
 51
44.99999999998176
  0
LINE
  8
0
  6
CONTINUOUS
 62
               3
  5
292
 10
469.28652321630784
 20
-1323.4631936579838
 30
0.0
 11
469.95807934227219
 21
-1323.4631936579838
 31
0.0
  0
LINE
  8
0
  6
CONTINUOUS
 62
               3
  5
293
 10
472.4580793422723
 20
-1320.9631936579838
 30
0.0
 11
469.95807934227219
 21
-1323.4631936579838
 31
0.0
  0
LINE
  8
0
  6
CONTINUOUS
 62
               3
  5
294
 10
472.45807934227219
 20
-1320.9631936579838
 30
0.0
 11
530.0755555444465
 21
-1318.9511470528314
 31
0.0
  0
LINE
  8
0
  6
CONTINUOUS
 62
               3
  5
295
 10
469.95807934227219
 20
-1323.4631936579838
 30
0.0
 11
469.95807934227219
 21
-1433.4631936579838
 31
0.0
  0
LINE
  8
0
  6
CONTINUOUS
 62
               3
  5
296
 10
469.28652321630784
 20
-1436.0631936579837
 30
0.0
 11
469.28652321630784
 21
-1320.8631936579839
 31
0.0
  0
LINE
  8
0
  6
CONTINUOUS
 62
               3
  5
297
 10
469.28652321630784
 20
-1320.8631936579839
 30
0.0
 11
466.78652321630784
 21
-1320.8631936579839
 31
0.0
  0
ARC
  8
0
  6
CONTINUOUS
 62
               3
  5
298
 10
466.78652321630784
 20
-1323.3631936579839
 30
0.0
 40
2.5
 50
89.999999999965596
 51
179.99999999993057
  0
LINE
  8
0
  6
CONTINUOUS
 62
               3
  5
299
 10
464.28652321630784
 20
-1323.3631936579839
 30
0.0
 11
464.28652321630784
 21
-1433.5631936579837
 31
0.0
  0
LINE
  8
0
  6
CONTINUOUS
 62
               3
  5
29A
 10
469.28652321630784
 20
-1436.0631936579837
 30
0.0
 11
466.78652321630784
 21
-1436.0631936579837
 31
0.0
  0
ARC
  8
0
  6
CONTINUOUS
 62
               3
  5
29B
 10
466.78652321630784
 20
-1433.5631936579837
 30
0.0
 40
2.5
 50
179.99999999993057
 51
269.99999999989649
  0
LINE
  8
0
  6
CONTINUOUS
 62
               3
  5
29C
 10
472.4580793422723
 20
-1320.9631936579838
 30
0.0
 11
472.45807934227309
 21
-1435.9631936579838
 31
0.0
  0
ARC
  8
0
  6
CONTINUOUS
 62
               3
  5
29D
 10
514.44869211503794
 20
-1442.4325858889333
 30
0.0
 40
5.0
 50
44.999999999983494
 51
87.999999999965766
  0
ARC
  8
0
  6
CONTINUOUS
 62
               3
  5
29E
 10
529.90105806093402
 20
-1313.954192917736
 30
0.0
 40
5.0
 50
271.99999999989535
 51
347.26981986155278
  0
CIRCLE
  8
0
  6
CONTINUOUS
 62
               3
  5
29F
 10
609.28652321630784
 20
-1378.4631936579838
 30
0.0
 40
48.5
  0
CIRCLE
  8
0
  6
CONTINUOUS
 62
               3
  5
2A0
 10
609.28652321630784
 20
-1378.4631936579838
 30
0.0
 40
47.299999999999997
  0
LINE
  8
0
  6
CONTINUOUS
 62
               3
  5
2A1
 10
577.46671806291329
 20
-1410.2829988113783
 30
0.0
 11
575.84037246618414
 21
-1411.9093444081075
 31
0.0
  0
LINE
  8
0
  6
CONTINUOUS
 62
               3
  5
2A2
 10
641.10632836970251
 20
-1410.2829988113783
 30
0.0
 11
642.73267396643155
 21
-1411.9093444081075
 31
0.0
  0
ARC
  8
0
  6
CONTINUOUS
 62
               3
  5
2A3
 10
609.28652321630784
 20
-1378.4631936579838
 30
0.0
 40
45.0
 50
224.99999999991346
 51
314.99999999987898
  0
CIRCLE
  8
0
  6
CONTINUOUS
 62
               3
  5
2A4
 10
609.28652321630784
 20
-1378.4631936579838
 30
0.0
 40
57.600000000000001
  0
ARC
  8
0
  6
CONTINUOUS
 62
               3
  5
2A5
 10
586.78652321630841
 20
-1440.9631936579838
 30
0.0
 40
2.4999999999999996
 50
269.99999999989626
 51
449.99999999982697
  0
ARC
  8
0
  6
CONTINUOUS
 62
               3
  5
2A6
 10
631.78652321630841
 20
-1440.9631936579838
 30
0.0
 40
2.4999999999999996
 50
89.999999999965439
 51
269.99999999989615
  0
LINE
  8
0
  6
CONTINUOUS
 62
               3
  5
2A7
 10
544.28652321630784
 20
-1443.4631936579838
 30
0.0
 11
586.78652321630841
 21
-1443.4631936579838
 31
0.0
  0
LINE
  8
0
  6
CONTINUOUS
 62
               3
  5
2A8
 10
544.28652321630784
 20
-1438.4631936579838
 30
0.0
 11
586.78652321630841
 21
-1438.4631936579838
 31
0.0
  0
LINE
  8
0
  6
CONTINUOUS
 62
               3
  5
2A9
 10
631.78652321630841
 20
-1438.4631936579838
 30
0.0
 11
684.28652321630784
 21
-1438.4631936579838
 31
0.0
  0
LINE
  8
0
  6
CONTINUOUS
 62
               3
  5
2AA
 10
631.78652321630841
 20
-1443.4631936579838
 30
0.0
 11
684.28652321630784
 21
-1443.4631936579838
 31
0.0
  0
CIRCLE
  8
0
  6
CONTINUOUS
 62
               3
  5
2AB
 10
609.28652321630784
 20
-903.96375990939941
 30
0.0
 40
59.0
  0
LINE
  8
0
  6
DASHED2
 62
               3
  5
2AC
 10
-51.500000000000227
 20
-540.0
 30
0.0
 11
-51.500000000000227
 21
-460.0
 31
0.0
  0
LINE
  8
0
  6
DASHED2
 62
               3
  5
2AD
 10
51.499999999999659
 20
-540.0
 30
0.0
 11
51.499999999999659
 21
-460.0
 31
0.0
  0
LINE
  8
0
  6
DASHED2
 62
               3
  5
2AE
 10
-651.50000000000023
 20
-540.0
 30
0.0
 11
-651.50000000000023
 21
-460.0
 31
0.0
  0
LINE
  8
0
  6
DASHED2
 62
               3
  5
2AF
 10
-548.50000000000034
 20
-540.0
 30
0.0
 11
-548.50000000000034
 21
-460.0
 31
0.0
  0
LINE
  8
0
  6
DASHED2
 62
               3
  5
2B0
 10
548.49999999999977
 20
-540.0
 30
0.0
 11
548.49999999999977
 21
-460.0
 31
0.0
  0
LINE
  8
0
  6
DASHED2
 62
               3
  5
2B1
 10
651.49999999999966
 20
-540.0
 30
0.0
 11
651.49999999999966
 21
-460.0
 31
0.0
  0
LINE
  8
0
  6
DASHDOT
 62
               4
  5
2B2
 10
0.0
 20
708.5
 30
0.0
 11
0.0000000000000178
 21
437.95321320017365
 31
0.0
  0
LINE
  8
0
  6
DASHDOT
 62
               4
  5
2B3
 10
-161.99999999999989
 20
600.0
 30
0.0
 11
108.50000000000023
 21
600.0
 31
0.0
  0
LINE
  8
0
  6
DASHDOT
 62
               4
  5
2B4
 10
0.0
 20
85.0
 30
0.0
 11
0.0000000000000426
 21
-583.0
 31
0.0
  0
LINE
  8
0
  6
DASHDOT
 62
               4
  5
2B5
 10
68.525224775224729
 20
-101.0
 30
0.0
 11
-161.72861329342825
 21
-100.99999999999997
 31
0.0
  0
LINE
  8
0
  6
DASHDOT
 62
               4
  5
2B6
 10
-600.0
 20
85.0
 30
0.0
 11
-599.99999999999989
 21
-583.0
 31
0.0
  0
LINE
  8
0
  6
DASHDOT
 62
               4
  5
2B7
 10
-436.02420933259771
 20
-101.0
 30
0.0
 11
-668.1755744255745
 21
-101.0
 31
0.0
  0
LINE
  8
0
  6
DASHDOT
 62
               4
  5
2B8
 10
600.0
 20
85.0
 30
0.0
 11
600.0
 21
-583.0
 31
0.0
  0
LINE
  8
0
  6
DASHDOT
 62
               4
  5
2B9
 10
527.49110023849596
 20
-100.99999999999997
 30
0.0
 11
438.27138670657177
 21
-100.99999999999997
 31
0.0
  0
LINE
  8
0
  6
DASHDOT
 62
               4
  5
2BA
 10
-392.13776905046871
 20
-1026.1481954811904
 30
0.0
 11
-392.13776905046859
 21
-897.14819548119044
 31
0.0
  0
LINE
  8
0
  6
DASHDOT
 62
               4
  5
2BB
 10
-450.13776905046871
 20
-968.14819548119044
 30
0.0
 11
-334.13776905046871
 21
-968.14819548119044
 31
0.0
  0
LINE
  8
0
  6
DASHDOT
 62
               4
  5
2BC
 10
-461.94094753457614
 20
-961.64819548119044
 30
0.0
 11
-327.63776905046871
 21
-961.64819548119044
 31
0.0
  0
LINE
  8
0
  6
DASHDOT
 62
               4
  5
2BD
 10
-268.23776905046861
 20
-961.64819548119044
 30
0.0
 11
-169.63776905046871
 21
-961.64819548119044
 31
0.0
  0
LINE
  8
0
  6
DASHDOT
 62
               4
  5
2BE
 10
-302.63776905046871
 20
-968.14819548119044
 30
0.0
 11
-228.23776905046873
 21
-968.14819548119044
 31
0.0
  0
LINE
  8
0
  6
DASHDOT
 62
               4
  5
2BF
 10
-516.03776905046857
 20
-961.64819548119021
 30
0.0
 11
-614.63776905046871
 21
-961.64819548118999
 31
0.0
  0
LINE
  8
0
  6
DASHDOT
 62
               4
  5
2C0
 10
-481.63776905046871
 20
-968.14819548119021
 30
0.0
 11
-556.03776905046857
 21
-968.14819548119021
 31
0.0
  0
LINE
  8
0
  6
DASHDOT
 62
               4
  5
2C1
 10
-394.08372644623523
 20
-864.68031141215533
 30
0.0
 11
-394.08372644623523
 21
-731.68031141215533
 31
0.0
  0
LINE
  8
0
  6
DASHDOT
 62
               4
  5
2C2
 10
221.63392368588097
 20
-961.64819548119044
 30
0.0
 11
320.23392368588111
 21
-961.64819548119044
 31
0.0
  0
LINE
  8
0
  6
DASHDOT
 62
               4
  5
2C3
 10
196.63392368588097
 20
-976.14819548119044
 30
0.0
 11
261.63392368588097
 21
-976.14819548119044
 31
0.0
  0
LINE
  8
0
  6
DASHDOT
 62
               4
  5
2C4
 10
70.877907460637971
 20
-976.14819548119044
 30
0.0
 11
170.8779074606382
 21
-976.14819548119044
 31
0.0
  0
LINE
  8
0
  6
DASHDOT
 62
               4
  5
2C5
 10
120.87790746063797
 20
-1026.1481954811904
 30
0.0
 11
120.8779074606382
 21
-897.14819548119044
 31
0.0
  0
LINE
  8
0
  6
DASHDOT
 62
               4
  5
2C6
 10
56.377907460637971
 20
-961.64819548119044
 30
0.0
 11
190.92191724058921
 21
-961.64819548119044
 31
0.0
  0
LINE
  8
0
  6
DASHDOT
 62
               4
  5
2C7
 10
20.121891235395196
 20
-961.64819548119044
 30
0.0
 11
-78.478108764604826
 21
-961.64819548119044
 31
0.0
  0
LINE
  8
0
  6
DASHDOT
 62
               4
  5
2C8
 10
45.121891235395196
 20
-976.14819548119044
 30
0.0
 11
-19.878108764604804
 21
-976.14819548119044
 31
0.0
  0
LINE
  8
0
  6
DASHDOT
 62
               4
  5
2C9
 10
120.8779074606382
 20
-875.39217925594767
 30
0.0
 11
120.8779074606382
 21
-751.79217925594753
 31
0.0
  0
LINE
  8
0
  6
DASHDOT
 62
               4
  5
2CA
 10
609.28652321630784
 20
-795.46375990939941
 30
0.0
 11
609.28652321630784
 21
-1066.0105467092258
 31
0.0
  0
LINE
  8
0
  6
DASHDOT
 62
               4
  5
2CB
 10
447.28652321630796
 20
-903.96375990939941
 30
0.0
 11
717.78652321630807
 21
-903.96375990939941
 31
0.0
  0
LINE
  8
0
  6
DASHDOT
 62
               4
  5
2CC
 10
677.81174799153257
 20
-1378.4631936579838
 30
0.0
 11
447.55790992287962
 21
-1378.4631936579838
 31
0.0
  0
LINE
  8
0
  6
DASHDOT
 62
               4
  5
2CD
 10
609.28652321630784
 20
-1192.4631936579838
 30
0.0
 11
609.28652321630784
 21
-1443.4631936579838
 31
0.0
  0
LINE
  8
0
  6
DASHDOT
 62
               4
  5
2CE
 10
559.28652321630784
 20
-1392.9631936579838
 30
0.0
 11
659.28652321630807
 21
-1392.9631936579838
 31
0.0
  0
LINE
  8
0
  6
DASHDOT
 62
               4
  5
2CF
 10
609.28652321630784
 20
-1094.5637599093996
 30
0.0
 11
609.28652321630784
 21
-970.9637599093993
 31
0.0
  0
LINE
  8
0
  6
DASHDOT
 62
               4
  5
2D0
 10
409.28652321630784
 20
-1384.9631936579838
 30
0.0
 11
483.68652321630782
 21
-1384.9631936579838
 31
0.0
  0
LINE
  8
0
  6
DASHDOT
 62
               4
  5
2D1
 10
409.28652321630807
 20
-903.96375990939919
 30
0.0
 11
542.28652321630807
 21
-903.96375990939919
 31
0.0
  0
LINE
  8
0
  6
CONTINUOUS
 62
               4
  5
2D2
 10
76.999999999999886
 20
-31.464346247147205
 30
0.0
 11
71.999999999999886
 21
-26.464346247147205
 31
0.0
  0
LINE
  8
0
  6
CONTINUOUS
 62
               4
  5
2D3
 10
76.999999999999886
 20
-165.15302359711688
 30
0.0
 11
76.999999999999886
 21
-279.11356823025505
 31
0.0
  0
LINE
  8
0
  6
CONTINUOUS
 62
               4
  5
2D4
 10
76.999999999999886
 20
-279.11356823025505
 30
0.0
 11
60.27177560034886
 21
-425.72822439965125
 31
0.0
  0
ARC
  8
0
  6
CONTINUOUS
 62
               4
  5
2D5
 10
54.499999999999886
 20
-42.0
 30
0.0
 40
19.999999999999996
 50
0.0
 51
31.788330617039573
  0
LINE
  8
0
  6
CONTINUOUS
 62
               4
  5
2D6
 10
71.500000000000341
 20
-31.464346247147205
 30
0.0
 11
71.500000000000341
 21
-26.464346247146636
 31
0.0
  0
LINE
  8
0
  6
CONTINUOUS
 62
               4
  5
2D7
 10
71.999999999999886
 20
-26.464346247147205
 30
0.0
 11
71.500000000000341
 21
-26.464346247147205
 31
0.0
  0
LINE
  8
0
  6
CONTINUOUS
 62
               4
  5
2D8
 10
76.750000000000114
 20
-31.714346247147205
 30
0.0
 11
71.500000000000341
 21
-26.464346247147205
 31
0.0
  0
LINE
  8
0
  6
CONTINUOUS
 62
               4
  5
2D9
 10
76.750000000000114
 20
-31.714346247147205
 30
0.0
 11
76.999999999999886
 21
-31.464346247147205
 31
0.0
  0
LINE
  8
0
  6
CONTINUOUS
 62
               4
  5
2DA
 10
74.499999999999886
 20
-166.15302359711711
 30
0.0
 11
74.499999999999886
 21
-278.97160794243553
 31
0.0
  0
LINE
  8
0
  6
CONTINUOUS
 62
               4
  5
2DB
 10
76.750000000000114
 20
-165.43838070425295
 30
0.0
 11
76.750000000000114
 21
-279.09937220147305
 31
0.0
  0
LINE
  8
0
  6
CONTINUOUS
 62
               4
  5
2DC
 10
74.499999999999886
 20
-278.97160794243553
 30
0.0
 11
57.496765133650456
 21
-428.00000000000028
 31
0.0
  0
LINE
  8
0
  6
CONTINUOUS
 62
               4
  5
2DD
 10
74.496765133649774
 20
-278.99999999999983
 30
0.0
 11
76.999999999999886
 21
-279.11356823025505
 31
0.0
  0
LINE
  8
0
  6
CONTINUOUS
 62
               4
  5
2DE
 10
76.750000000000114
 20
-279.09937220147305
 30
0.0
 11
59.994274553678792
 21
-425.95540195968613
 31
0.0
  0
LINE
  8
0
  6
CONTINUOUS
 62
               4
  5
2DF
 10
76.999999999999886
 20
-31.464346247147205
 30
0.0
 11
76.999999999999886
 21
-162.153023597117
 31
0.0
  0
LINE
  8
0
  6
CONTINUOUS
 62
               4
  5
2E0
 10
76.750000000000114
 20
-31.714346247147205
 30
0.0
 11
76.750000000000114
 21
-161.8676664899815
 31
0.0
  0
LINE
  8
0
  6
CONTINUOUS
 62
               4
  5
2E1
 10
74.499999999999886
 20
-41.846976402882888
 30
0.0
 11
74.499999999999886
 21
-161.0
 31
0.0
  0
LINE
  8
0
  6
CONTINUOUS
 62
               4
  5
2E2
 10
58.141132586505933
 20
-332.78450905619968
 30
0.0
 11
-65.512000000000512
 21
-229.0272111089468
 31
0.0
  0
ARC
  8
0
  6
CONTINUOUS
 62
               4
  5
2E3
 10
-914.27232010053956
 20
-1373.5856282358955
 30
0.0
 40
1424.9238755783815
 50
50.189956146247241
 51
53.440796050711342
  0
ARC
  8
0
  6
CONTINUOUS
 62
               4
  5
2E4
 10
63.57938883703298
 20
-208.22734108515374
 30
0.0
 40
130.75634311527989
 50
189.15312334023136
 51
212.76918311267124
  0
ARC
  8
0
  6
CONTINUOUS
 62
               4
  5
2E5
 10
61.364025499551076
 20
-198.09332033391343
 30
0.0
 40
134.72974192119386
 50
216.90649751125426
 51
268.62928723400398
  0
ARC
  8
0
  6
CONTINUOUS
 62
               4
  5
2E6
 10
-733.63034809850831
 20
-1157.2466709110088
 30
0.0
 40
1143.0835201141012
 50
46.15873265340776
 51
50.202696616637041
  0
LINE
  8
0
  6
CONTINUOUS
 62
               4
  5
2E7
 10
58.000000000000114
 20
-427.99999999999972
 30
0.0
 11
60.27177560034886
 21
-425.72822439965125
 31
0.0
  0
LINE
  8
0
  6
CONTINUOUS
 62
               4
  5
2E8
 10
57.496765133650456
 20
-428.00000000000028
 30
0.0
 11
60.27177560034886
 21
-425.72822439965125
 31
0.0
  0
LINE
  8
0
  6
CONTINUOUS
 62
               4
  5
2E9
 10
-57.0
 20
-440.0
 30
0.0
 11
57.000000000000085
 21
-440.0
 31
0.0
  0
LINE
  8
0
  6
CONTINUOUS
 62
               4
  5
2EA
 10
-57.999999999999545
 20
-439.00000000000045
 30
0.0
 11
58.000000000000398
 21
-439.0
 31
0.0
  0
ARC
  8
0
  6
CONTINUOUS
 62
               4
  5
2EB
 10
-878.92922884912423
 20
-400.67239841146238
 30
0.0
 40
359.11818398045398
 50
13.30617767572512
 51
28.552443501607524
  0
ARC
  8
0
  6
CONTINUOUS
 62
               4
  5
2EC
 10
-600.33118646999355
 20
-292.42572250889316
 30
0.0
 40
73.327111796148202
 50
342.6294564211762
 51
419.83689160545839
  0
LINE
  8
0
  6
CONTINUOUS
 62
               4
  5
2ED
 10
-657.0
 20
-440.0
 30
0.0
 11
-542.99999999999989
 21
-440.0
 31
0.0
  0
LINE
  8
0
  6
CONTINUOUS
 62
               4
  5
2EE
 10
-657.99999999999955
 20
-439.00000000000045
 30
0.0
 11
-541.99999999999955
 21
-439.0
 31
0.0
  0
ARC
  8
0
  6
CONTINUOUS
 62
               4
  5
2EF
 10
574.21603418803386
 20
-42.000000000000028
 30
0.0
 40
17.566965811965957
 50
0.0
 51
36.85144865921675
  0
LINE
  8
0
  6
CONTINUOUS
 62
               4
  5
2F0
 10
611.7270000000002
 20
-26.464346247147233
 30
0.0
 11
588.2729999999998
 21
-26.464346247147233
 31
0.0
  0
ARC
  8
0
  6
CONTINUOUS
 62
               4
  5
2F1
 10
625.78396581196557
 20
-42.000000000000028
 30
0.0
 40
17.566965811965957
 50
143.14855134071405
 51
179.99999999993082
  0
LINE
  8
0
  6
CONTINUOUS
 62
               4
  5
2F2
 10
588.2729999999998
 20
-31.464346247147233
 30
0.0
 11
588.2729999999998
 21
-26.464346247147233
 31
0.0
  0
LINE
  8
0
  6
CONTINUOUS
 62
               4
  5
2F3
 10
611.7270000000002
 20
-31.464346247147233
 30
0.0
 11
611.7270000000002
 21
-26.464346247147233
 31
0.0
  0
LINE
  8
0
  6
CONTINUOUS
 62
               4
  5
2F4
 10
588.2729999999998
 20
-26.464346247147233
 30
0.0
 11
593.99999999999977
 21
-31.464346247147233
 31
0.0
  0
LINE
  8
0
  6
CONTINUOUS
 62
               4
  5
2F5
 10
605.99999999999966
 20
-31.464346247147233
 30
0.0
 11
611.7270000000002
 21
-26.464346247147233
 31
0.0
  0
LINE
  8
0
  6
CONTINUOUS
 62
               4
  5
2F6
 10
593.99999999999977
 20
-31.464346247147233
 30
0.0
 11
605.99999999999966
 21
-31.464346247147233
 31
0.0
  0
LINE
  8
0
  6
CONTINUOUS
 62
               4
  5
2F7
 10
605.99999999999966
 20
-161.99999999999989
 30
0.0
 11
593.99999999999977
 21
-161.99999999999989
 31
0.0
  0
ARC
  8
0
  6
CONTINUOUS
 62
               4
  5
2F8
 10
591.93835546658477
 20
-163.4140798484666
 30
0.0
 40
2.4999999999999996
 50
34.446185822131049
 51
93.562780573759412
  0
ARC
  8
0
  6
CONTINUOUS
 62
               4
  5
2F9
 10
608.06164453341523
 20
-163.4140798484666
 30
0.0
 40
2.4999999999999996
 50
86.437219426171509
 51
145.5538141777995
  0
LINE
  8
0
  6
CONTINUOUS
 62
               4
  5
2FA
 10
605.99999999999966
 20
-164.99999999999977
 30
0.0
 11
593.99999999999977
 21
-164.99999999999977
 31
0.0
  0
ARC
  8
0
  6
CONTINUOUS
 62
               4
  5
2FB
 10
591.93835546658477
 20
-163.5859201515334
 30
0.0
 40
2.4999999999999996
 50
266.43721942610216
 51
325.55381417773032
  0
ARC
  8
0
  6
CONTINUOUS
 62
               4
  5
2FC
 10
608.06164453341523
 20
-163.5859201515334
 30
0.0
 40
2.4999999999999996
 50
214.44618582206195
 51
273.56278057369013
  0
LINE
  8
0
  6
CONTINUOUS
 62
               4
  5
2FD
 10
591.78299999999979
 20
-166.0
 30
0.0
 11
591.78299999999979
 21
-428.00000000000023
 31
0.0
  0
LINE
  8
0
  6
CONTINUOUS
 62
               4
  5
2FE
 10
608.21699999999964
 20
-166.0859201515334
 30
0.0
 11
608.21699999999964
 21
-428.00000000000023
 31
0.0
  0
LINE
  8
0
  6
CONTINUOUS
 62
               4
  5
2FF
 10
593.99999999999977
 20
-164.99999999999977
 30
0.0
 11
593.99999999999977
 21
-425.72822439965125
 31
0.0
  0
LINE
  8
0
  6
CONTINUOUS
 62
               4
  5
300
 10
605.99999999999966
 20
-425.72822439965125
 30
0.0
 11
605.99999999999966
 21
-164.99999999999977
 31
0.0
  0
LINE
  8
0
  6
CONTINUOUS
 62
               4
  5
301
 10
608.21699999999964
 20
-278.99999999999989
 30
0.0
 11
591.78299999999979
 21
-278.99999999999989
 31
0.0
  0
LINE
  8
0
  6
CONTINUOUS
 62
               4
  5
302
 10
591.78299999999979
 20
-42.000000000000028
 30
0.0
 11
591.78299999999979
 21
-161.0
 31
0.0
  0
LINE
  8
0
  6
CONTINUOUS
 62
               4
  5
303
 10
608.21699999999964
 20
-42.000000000000028
 30
0.0
 11
608.21699999999964
 21
-161.0
 31
0.0
  0
LINE
  8
0
  6
CONTINUOUS
 62
               4
  5
304
 10
605.99999999999966
 20
-161.99999999999989
 30
0.0
 11
605.99999999999966
 21
-31.464346247147233
 31
0.0
  0
LINE
  8
0
  6
CONTINUOUS
 62
               4
  5
305
 10
593.99999999999977
 20
-31.464346247147233
 30
0.0
 11
593.99999999999977
 21
-161.99999999999989
 31
0.0
  0
ARC
  8
0
  6
CONTINUOUS
 62
               4
  5
306
 10
585.02192705347227
 20
-283.2972496535815
 30
0.0
 40
59.149634972654262
 50
186.49999999992821
 51
236.78754046659694
  0
ARC
  8
0
  6
CONTINUOUS
 62
               4
  5
307
 10
605.92691953069391
 20
-271.44823255482981
 30
0.0
 40
81.261593956721953
 50
186.49999999992821
 51
229.00792456445404
  0
ARC
  8
0
  6
CONTINUOUS
 62
               4
  5
308
 10
460.68129117650471
 20
-355.78575137952453
 30
0.0
 40
204.24864340422488
 50
353.49999999986409
 51
373.43680216733406
  0
ARC
  8
0
  6
CONTINUOUS
 62
               4
  5
309
 10
498.37230094456572
 20
-353.50133431011682
 30
0.0
 40
167.18634723772169
 50
351.25933879879983
 51
375.67746336839878
  0
LINE
  8
0
  6
CONTINUOUS
 62
               4
  5
30A
 10
593.99999999999977
 20
-425.72822439965125
 30
0.0
 11
605.99999999999966
 21
-425.72822439965125
 31
0.0
  0
LINE
  8
0
  6
CONTINUOUS
 62
               4
  5
30B
 10
591.78299999999979
 20
-428.00000000000023
 30
0.0
 11
593.99999999999977
 21
-425.72822439965125
 31
0.0
  0
LINE
  8
0
  6
CONTINUOUS
 62
               4
  5
30C
 10
605.99999999999966
 20
-425.72822439965125
 30
0.0
 11
608.21699999999964
 21
-428.00000000000023
 31
0.0
  0
LINE
  8
0
  6
CONTINUOUS
 62
               4
  5
30D
 10
543.0
 20
-440.0
 30
0.0
 11
657.00000000000011
 21
-440.0
 31
0.0
  0
LINE
  8
0
  6
CONTINUOUS
 62
               4
  5
30E
 10
542.00000000000045
 20
-439.00000000000045
 30
0.0
 11
658.00000000000045
 21
-439.0
 31
0.0
  0
POINT
  8
0
  6
CONTINUOUS
 62
               4
  5
30F
 10
-247.03776905046868
 20
-917.14819548119044
 30
0.0
  0
POINT
  8
0
  6
CONTINUOUS
 62
               4
  5
310
 10
-537.23776905046861
 20
-917.14819548119021
 30
0.0
  0
POINT
  8
0
  6
CONTINUOUS
 62
               4
  5
311
 10
-349.58372644623523
 20
-809.08031141215542
 30
0.0
  0
POINT
  8
0
  6
CONTINUOUS
 62
               4
  5
312
 10
242.83392368588102
 20
-917.14819548119044
 30
0.0
  0
POINT
  8
0
  6
CONTINUOUS
 62
               4
  5
313
 10
-1.0781087646048491
 20
-917.14819548119044
 30
0.0
  0
POINT
  8
0
  6
CONTINUOUS
 62
               4
  5
314
 10
165.3779074606382
 20
-829.19217925594762
 30
0.0
  0
LINE
  8
0
  6
CONTINUOUS
 62
               4
  5
315
 10
686.28652321630773
 20
-1308.927539905131
 30
0.0
 11
681.28652321630773
 21
-1303.927539905131
 31
0.0
  0
ARC
  8
0
  6
CONTINUOUS
 62
               4
  5
316
 10
663.78652321630773
 20
-1319.4631936579838
 30
0.0
 40
19.999999999999996
 50
0.0
 51
31.788330617039573
  0
LINE
  8
0
  6
CONTINUOUS
 62
               4
  5
317
 10
680.78652321630818
 20
-1308.927539905131
 30
0.0
 11
680.78652321630818
 21
-1303.9275399051305
 31
0.0
  0
LINE
  8
0
  6
CONTINUOUS
 62
               4
  5
318
 10
681.28652321630773
 20
-1303.927539905131
 30
0.0
 11
680.78652321630818
 21
-1303.927539905131
 31
0.0
  0
LINE
  8
0
  6
CONTINUOUS
 62
               4
  5
319
 10
686.03652321630796
 20
-1309.177539905131
 30
0.0
 11
680.78652321630818
 21
-1303.927539905131
 31
0.0
  0
LINE
  8
0
  6
CONTINUOUS
 62
               4
  5
31A
 10
686.03652321630796
 20
-1309.177539905131
 30
0.0
 11
686.28652321630773
 21
-1308.927539905131
 31
0.0
  0
LINE
  8
0
  6
CONTINUOUS
 62
               4
  5
31B
 10
686.28652321630773
 20
-1308.927539905131
 30
0.0
 11
686.28652321630773
 21
-1439.6162172551008
 31
0.0
  0
LINE
  8
0
  6
CONTINUOUS
 62
               4
  5
31C
 10
686.03652321630796
 20
-1309.177539905131
 30
0.0
 11
686.03652321630796
 21
-1439.3308601479653
 31
0.0
  0
LINE
  8
0
  6
CONTINUOUS
 62
               4
  5
31D
 10
683.78652321630773
 20
-1319.3101700608665
 30
0.0
 11
683.78652321630773
 21
-1438.4631936579838
 31
0.0
  0
POINT
  8
0
  6
CONTINUOUS
 62
               4
  5
31E
 10
653.78652321630784
 20
-1048.3637599093995
 30
0.0
  0
POINT
  8
0
  6
CONTINUOUS
 62
               4
  5
31F
 10
464.88652321630786
 20
-1333.9631936579838
 30
0.0
  0
POINT
  8
0
  6
CONTINUOUS
 62
               4
  5
320
 10
464.88652321630798
 20
-948.46375990939919
 30
0.0
  0
LINE
  8
0
  6
DASHED2
 62
               4
  5
321
 10
-56.999999999999886
 20
0.0
 30
0.0
 11
56.999999999999886
 21
0.0
 31
0.0
  0
LINE
  8
0
  6
DASHED2
 62
               4
  5
322
 10
-656.99999999999989
 20
0.0
 30
0.0
 11
-543.00000000000011
 21
0.0
 31
0.0
  0
LINE
  8
0
  6
DASHED2
 62
               4
  5
323
 10
543.00000000000011
 20
0.0
 30
0.0
 11
656.99999999999989
 21
0.0
 31
0.0
  0
LINE
  8
0
  6
DASHED2
 62
               4
  5
324
 10
552.28652321630796
 20
-1277.4631936579838
 30
0.0
 11
666.28652321630773
 21
-1277.4631936579838
 31
0.0
  0
POINT
  8
0
  6
CONTINUOUS
 62
               5
  5
325
 10
-392.13776905046871
 20
-961.64819548119044
 30
0.0
  0
POINT
  8
0
  6
CONTINUOUS
 62
               5
  5
326
 10
-218.90769754050837
 20
-962.93898955607938
 30
0.0
  0
POINT
  8
0
  6
CONTINUOUS
 62
               5
  5
327
 10
-565.36784056042893
 20
-962.93898955607915
 30
0.0
  0
POINT
  8
0
  6
CONTINUOUS
 62
               5
  5
328
 10
-395.37452052112428
 20
-780.95023990219511
 30
0.0
  0
POINT
  8
0
  6
CONTINUOUS
 62
               5
  5
329
 10
493.01659472626818
 20
-1379.7539877328727
 30
0.0
  0
POINT
  8
0
  6
CONTINUOUS
 62
               5
  5
32A
 10
493.01659472626829
 20
-902.67296583451025
 30
0.0
  0
CIRCLE
  8
0
  6
CONTINUOUS
 62
               7
  5
32B
 10
-392.13776905046871
 20
-968.14819548119044
 30
0.0
 40
38.0
  0
CIRCLE
  8
0
  6
CONTINUOUS
 62
               7
  5
32C
 10
-392.13776905046871
 20
-968.14819548119044
 30
0.0
 40
33.5
  0
LINE
  8
0
  6
CONTINUOUS
 62
               7
  5
32D
 10
-247.63776905046871
 20
-917.14819548119044
 30
0.0
 11
-247.63776905046871
 21
-1006.142959360516
 31
0.0
  0
LINE
  8
0
  6
CONTINUOUS
 62
               7
  5
32E
 10
-247.03776905046868
 20
-917.14819548119044
 30
0.0
 11
-247.63776905046871
 21
-917.14819548119044
 31
0.0
  0
LINE
  8
0
  6
CONTINUOUS
 62
               7
  5
32F
 10
-282.63776905046871
 20
-1005.1481954811904
 30
0.0
 11
-282.63776905046871
 21
-931.14819548119044
 31
0.0
  0
LINE
  8
0
  6
CONTINUOUS
 62
               7
  5
330
 10
-189.63776905046871
 20
-1005.1481954811904
 30
0.0
 11
-189.63776905046871
 21
-918.14819548119044
 31
0.0
  0
LINE
  8
0
  6
CONTINUOUS
 62
               7
  5
331
 10
-247.63776905046871
 20
-917.14819548119044
 30
0.0
 11
-190.63776905046871
 21
-917.14819548119044
 31
0.0
  0
LINE
  8
0
  6
CONTINUOUS
 62
               7
  5
332
 10
-281.63776905046871
 20
-1006.1481954811904
 30
0.0
 11
-190.63776905046871
 21
-1006.1481954811904
 31
0.0
  0
LINE
  8
0
  6
CONTINUOUS
 62
               7
  5
333
 10
-190.63776905046871
 20
-917.14819548119044
 30
0.0
 11
-189.63776905046871
 21
-918.14819548119044
 31
0.0
  0
LINE
  8
0
  6
CONTINUOUS
 62
               7
  5
334
 10
-189.63776905046871
 20
-1005.1481954811904
 30
0.0
 11
-190.63776905046871
 21
-1006.1481954811904
 31
0.0
  0
LINE
  8
0
  6
CONTINUOUS
 62
               7
  5
335
 10
-281.63776905046871
 20
-930.14819548119044
 30
0.0
 11
-247.63776905046871
 21
-930.14819548119044
 31
0.0
  0
CIRCLE
  8
0
  6
CONTINUOUS
 62
               7
  5
336
 10
-392.13776905046871
 20
-961.64819548119044
 30
0.0
 40
44.5
  0
LINE
  8
0
  6
CONTINUOUS
 62
               7
  5
337
 10
-281.63776905046871
 20
-930.14819548119044
 30
0.0
 11
-282.63776905046871
 21
-931.14819548119044
 31
0.0
  0
LINE
  8
0
  6
CONTINUOUS
 62
               7
  5
338
 10
-282.63776905046871
 20
-1005.1481954811904
 30
0.0
 11
-281.63776905046871
 21
-1006.1481954811904
 31
0.0
  0
LINE
  8
0
  6
CONTINUOUS
 62
               7
  5
339
 10
-536.63776905046859
 20
-917.14819548119021
 30
0.0
 11
-536.63776905046871
 21
-1006.1429593605158
 31
0.0
  0
LINE
  8
0
  6
CONTINUOUS
 62
               7
  5
33A
 10
-537.23776905046861
 20
-917.14819548119021
 30
0.0
 11
-536.63776905046859
 21
-917.14819548119021
 31
0.0
  0
LINE
  8
0
  6
CONTINUOUS
 62
               7
  5
33B
 10
-501.63776905046871
 20
-1005.1481954811902
 30
0.0
 11
-501.63776905046859
 21
-931.14819548119021
 31
0.0
  0
LINE
  8
0
  6
CONTINUOUS
 62
               7
  5
33C
 10
-594.63776905046871
 20
-1005.1481954811902
 30
0.0
 11
-594.63776905046859
 21
-918.14819548119021
 31
0.0
  0
LINE
  8
0
  6
CONTINUOUS
 62
               7
  5
33D
 10
-536.63776905046859
 20
-917.14819548119021
 30
0.0
 11
-593.63776905046859
 21
-917.14819548119021
 31
0.0
  0
LINE
  8
0
  6
CONTINUOUS
 62
               7
  5
33E
 10
-502.63776905046871
 20
-1006.1481954811902
 30
0.0
 11
-593.63776905046871
 21
-1006.1481954811902
 31
0.0
  0
LINE
  8
0
  6
CONTINUOUS
 62
               7
  5
33F
 10
-593.63776905046859
 20
-917.14819548119021
 30
0.0
 11
-594.63776905046859
 21
-918.14819548119021
 31
0.0
  0
LINE
  8
0
  6
CONTINUOUS
 62
               7
  5
340
 10
-594.63776905046871
 20
-1005.1481954811902
 30
0.0
 11
-593.63776905046871
 21
-1006.1481954811902
 31
0.0
  0
LINE
  8
0
  6
CONTINUOUS
 62
               7
  5
341
 10
-502.63776905046859
 20
-930.14819548119021
 30
0.0
 11
-536.63776905046859
 21
-930.14819548119021
 31
0.0
  0
LINE
  8
0
  6
CONTINUOUS
 62
               7
  5
342
 10
-502.63776905046859
 20
-930.14819548119021
 30
0.0
 11
-501.63776905046859
 21
-931.14819548119021
 31
0.0
  0
LINE
  8
0
  6
CONTINUOUS
 62
               7
  5
343
 10
-501.63776905046871
 20
-1005.1481954811902
 30
0.0
 11
-502.63776905046871
 21
-1006.1481954811902
 31
0.0
  0
LINE
  8
0
  6
CONTINUOUS
 62
               7
  5
344
 10
-349.58372644623523
 20
-809.68031141215556
 30
0.0
 11
-438.57849032556078
 21
-809.68031141215533
 31
0.0
  0
LINE
  8
0
  6
CONTINUOUS
 62
               7
  5
345
 10
-349.58372644623523
 20
-809.08031141215542
 30
0.0
 11
-349.58372644623523
 21
-809.68031141215556
 31
0.0
  0
LINE
  8
0
  6
CONTINUOUS
 62
               7
  5
346
 10
-431.08372644623523
 20
-844.68031141215533
 30
0.0
 11
-357.08372644623523
 21
-844.68031141215556
 31
0.0
  0
LINE
  8
0
  6
CONTINUOUS
 62
               7
  5
347
 10
-437.58372644623512
 20
-751.68031141215533
 30
0.0
 11
-350.58372644623523
 21
-751.68031141215556
 31
0.0
  0
LINE
  8
0
  6
CONTINUOUS
 62
               7
  5
348
 10
-349.58372644623523
 20
-809.68031141215556
 30
0.0
 11
-349.58372644623523
 21
-752.68031141215556
 31
0.0
  0
LINE
  8
0
  6
CONTINUOUS
 62
               7
  5
349
 10
-432.08372644623523
 20
-843.68031141215533
 30
0.0
 11
-432.08372644623523
 21
-809.68031141215533
 31
0.0
  0
LINE
  8
0
  6
CONTINUOUS
 62
               7
  5
34A
 10
-349.58372644623523
 20
-752.68031141215556
 30
0.0
 11
-350.58372644623523
 21
-751.68031141215556
 31
0.0
  0
LINE
  8
0
  6
CONTINUOUS
 62
               7
  5
34B
 10
-437.58372644623512
 20
-751.68031141215533
 30
0.0
 11
-438.58372644623512
 21
-752.68031141215533
 31
0.0
  0
LINE
  8
0
  6
CONTINUOUS
 62
               7
  5
34C
 10
-356.08372644623523
 20
-843.68031141215556
 30
0.0
 11
-356.08372644623523
 21
-809.68031141215533
 31
0.0
  0
LINE
  8
0
  6
CONTINUOUS
 62
               7
  5
34D
 10
-356.08372644623523
 20
-843.68031141215556
 30
0.0
 11
-357.08372644623523
 21
-844.68031141215556
 31
0.0
  0
LINE
  8
0
  6
CONTINUOUS
 62
               7
  5
34E
 10
-431.08372644623523
 20
-844.68031141215533
 30
0.0
 11
-432.08372644623523
 21
-843.68031141215533
 31
0.0
  0
LINE
  8
0
  6
CONTINUOUS
 62
               7
  5
34F
 10
-438.58372644623523
 20
-809.68031141215533
 30
0.0
 11
-438.58372644623523
 21
-752.68031141215533
 31
0.0
  0
LINE
  8
0
  6
CONTINUOUS
 62
               7
  5
350
 10
216.63392368588097
 20
-1005.1481954811904
 30
0.0
 11
216.63392368588097
 21
-947.14819548119044
 31
0.0
  0
LINE
  8
0
  6
CONTINUOUS
 62
               7
  5
351
 10
242.23392368588088
 20
-917.14819548119044
 30
0.0
 11
242.23392368588088
 21
-1006.1481954811904
 31
0.0
  0
LINE
  8
0
  6
CONTINUOUS
 62
               7
  5
352
 10
242.83392368588102
 20
-917.14819548119044
 30
0.0
 11
242.23392368588088
 21
-917.14819548119044
 31
0.0
  0
LINE
  8
0
  6
CONTINUOUS
 62
               7
  5
353
 10
300.23392368588111
 20
-1005.1481954811904
 30
0.0
 11
300.23392368588111
 21
-918.14819548119044
 31
0.0
  0
CIRCLE
  8
0
  6
CONTINUOUS
 62
               7
  5
354
 10
120.87790746063797
 20
-976.14819548119044
 30
0.0
 40
30.0
  0
CIRCLE
  8
0
  6
CONTINUOUS
 62
               7
  5
355
 10
120.87790746063797
 20
-976.14819548119044
 30
0.0
 40
25.5
  0
CIRCLE
  8
0
  6
CONTINUOUS
 62
               7
  5
356
 10
120.87790746063797
 20
-961.64819548119044
 30
0.0
 40
44.5
  0
LINE
  8
0
  6
CONTINUOUS
 62
               7
  5
357
 10
242.3683754313613
 20
-917.14819548119044
 30
0.0
 11
299.23392368588111
 21
-917.14819548119044
 31
0.0
  0
LINE
  8
0
  6
CONTINUOUS
 62
               7
  5
358
 10
217.63392368588097
 20
-1006.1481954811904
 30
0.0
 11
299.23392368588111
 21
-1006.1481954811904
 31
0.0
  0
LINE
  8
0
  6
CONTINUOUS
 62
               7
  5
359
 10
217.63392368588097
 20
-946.14819548119044
 30
0.0
 11
242.23392368588088
 21
-946.14819548119044
 31
0.0
  0
LINE
  8
0
  6
CONTINUOUS
 62
               7
  5
35A
 10
217.63392368588097
 20
-946.14819548119044
 30
0.0
 11
216.63392368588097
 21
-947.14819548119044
 31
0.0
  0
LINE
  8
0
  6
CONTINUOUS
 62
               7
  5
35B
 10
299.23392368588111
 20
-917.14819548119044
 30
0.0
 11
300.23392368588111
 21
-918.14819548119044
 31
0.0
  0
LINE
  8
0
  6
CONTINUOUS
 62
               7
  5
35C
 10
216.63392368588097
 20
-1005.1481954811904
 30
0.0
 11
217.63392368588097
 21
-1006.1481954811904
 31
0.0
  0
LINE
  8
0
  6
CONTINUOUS
 62
               7
  5
35D
 10
300.23392368588111
 20
-1005.1481954811904
 30
0.0
 11
299.23392368588111
 21
-1006.1481954811904
 31
0.0
  0
LINE
  8
0
  6
CONTINUOUS
 62
               7
  5
35E
 10
25.121891235395196
 20
-1005.1481954811904
 30
0.0
 11
25.121891235395196
 21
-947.14819548119044
 31
0.0
  0
LINE
  8
0
  6
CONTINUOUS
 62
               7
  5
35F
 10
-0.4781087646048263
 20
-917.14819548119044
 30
0.0
 11
-0.4781087646048263
 21
-1006.1481954811904
 31
0.0
  0
LINE
  8
0
  6
CONTINUOUS
 62
               7
  5
360
 10
-1.0781087646048491
 20
-917.14819548119044
 30
0.0
 11
-0.4781087646048263
 21
-917.14819548119044
 31
0.0
  0
LINE
  8
0
  6
CONTINUOUS
 62
               7
  5
361
 10
-58.478108764604826
 20
-1005.1481954811904
 30
0.0
 11
-58.478108764604826
 21
-918.14819548119044
 31
0.0
  0
LINE
  8
0
  6
CONTINUOUS
 62
               7
  5
362
 10
-0.6125605100851317
 20
-917.14819548119044
 30
0.0
 11
-57.478108764604826
 21
-917.14819548119044
 31
0.0
  0
LINE
  8
0
  6
CONTINUOUS
 62
               7
  5
363
 10
24.121891235395196
 20
-1006.1481954811904
 30
0.0
 11
-57.478108764604826
 21
-1006.1481954811904
 31
0.0
  0
LINE
  8
0
  6
CONTINUOUS
 62
               7
  5
364
 10
24.121891235395196
 20
-946.14819548119044
 30
0.0
 11
-0.4781087646048263
 21
-946.14819548119044
 31
0.0
  0
LINE
  8
0
  6
CONTINUOUS
 62
               7
  5
365
 10
24.121891235395196
 20
-946.14819548119044
 30
0.0
 11
25.121891235395196
 21
-947.14819548119044
 31
0.0
  0
LINE
  8
0
  6
CONTINUOUS
 62
               7
  5
366
 10
-57.478108764604826
 20
-917.14819548119044
 30
0.0
 11
-58.478108764604826
 21
-918.14819548119044
 31
0.0
  0
LINE
  8
0
  6
CONTINUOUS
 62
               7
  5
367
 10
25.121891235395196
 20
-1005.1481954811904
 30
0.0
 11
24.121891235395196
 21
-1006.1481954811904
 31
0.0
  0
LINE
  8
0
  6
CONTINUOUS
 62
               7
  5
368
 10
-58.478108764604826
 20
-1005.1481954811904
 30
0.0
 11
-57.478108764604826
 21
-1006.1481954811904
 31
0.0
  0
LINE
  8
0
  6
CONTINUOUS
 62
               7
  5
369
 10
91.877907460638198
 20
-855.39217925594767
 30
0.0
 11
149.8779074606382
 21
-855.39217925594767
 31
0.0
  0
LINE
  8
0
  6
CONTINUOUS
 62
               7
  5
36A
 10
165.3779074606382
 20
-829.79217925594753
 30
0.0
 11
76.377907460638198
 21
-829.79217925594753
 31
0.0
  0
LINE
  8
0
  6
CONTINUOUS
 62
               7
  5
36B
 10
165.3779074606382
 20
-829.19217925594762
 30
0.0
 11
165.3779074606382
 21
-829.79217925594753
 31
0.0
  0
LINE
  8
0
  6
CONTINUOUS
 62
               7
  5
36C
 10
77.377907460638198
 20
-771.79217925594753
 30
0.0
 11
164.3779074606382
 21
-771.79217925594753
 31
0.0
  0
LINE
  8
0
  6
CONTINUOUS
 62
               7
  5
36D
 10
165.3779074606382
 20
-829.65772751046734
 30
0.0
 11
165.3779074606382
 21
-772.79217925594753
 31
0.0
  0
LINE
  8
0
  6
CONTINUOUS
 62
               7
  5
36E
 10
90.877907460638198
 20
-854.39217925594767
 30
0.0
 11
90.877907460638198
 21
-829.79217925594753
 31
0.0
  0
LINE
  8
0
  6
CONTINUOUS
 62
               7
  5
36F
 10
150.8779074606382
 20
-854.39217925594767
 30
0.0
 11
150.8779074606382
 21
-829.79217925594753
 31
0.0
  0
LINE
  8
0
  6
CONTINUOUS
 62
               7
  5
370
 10
150.8779074606382
 20
-854.39217925594767
 30
0.0
 11
149.8779074606382
 21
-855.39217925594767
 31
0.0
  0
LINE
  8
0
  6
CONTINUOUS
 62
               7
  5
371
 10
165.3779074606382
 20
-772.79217925594753
 30
0.0
 11
164.3779074606382
 21
-771.79217925594753
 31
0.0
  0
LINE
  8
0
  6
CONTINUOUS
 62
               7
  5
372
 10
91.877907460638198
 20
-855.39217925594767
 30
0.0
 11
90.877907460638198
 21
-854.39217925594767
 31
0.0
  0
LINE
  8
0
  6
CONTINUOUS
 62
               7
  5
373
 10
77.377907460638198
 20
-771.79217925594753
 30
0.0
 11
76.377907460638198
 21
-772.79217925594753
 31
0.0
  0
LINE
  8
0
  6
CONTINUOUS
 62
               7
  5
374
 10
76.377907460638198
 20
-829.65772751046711
 30
0.0
 11
76.377907460638198
 21
-772.79217925594753
 31
0.0
  0
CIRCLE
  8
0
  6
CONTINUOUS
 62
               7
  5
375
 10
609.28652321630784
 20
-1392.9631936579838
 30
0.0
 40
25.5
  0
CIRCLE
  8
0
  6
CONTINUOUS
 62
               7
  5
376
 10
609.28652321630784
 20
-1378.4631936579838
 30
0.0
 40
44.5
  0
CIRCLE
  8
0
  6
CONTINUOUS
 62
               7
  5
377
 10
609.28652321630784
 20
-1392.9631936579838
 30
0.0
 40
30.0
  0
LINE
  8
0
  6
CONTINUOUS
 62
               7
  5
378
 10
580.28652321630784
 20
-1074.5637599093993
 30
0.0
 11
638.28652321630784
 21
-1074.5637599093993
 31
0.0
  0
LINE
  8
0
  6
CONTINUOUS
 62
               7
  5
379
 10
653.78652321630784
 20
-1048.9637599093994
 30
0.0
 11
564.78652321630784
 21
-1048.9637599093994
 31
0.0
  0
LINE
  8
0
  6
CONTINUOUS
 62
               7
  5
37A
 10
653.78652321630784
 20
-1048.3637599093995
 30
0.0
 11
653.78652321630784
 21
-1048.9637599093994
 31
0.0
  0
LINE
  8
0
  6
CONTINUOUS
 62
               7
  5
37B
 10
565.78652321630784
 20
-990.9637599093993
 30
0.0
 11
652.78652321630784
 21
-990.9637599093993
 31
0.0
  0
LINE
  8
0
  6
CONTINUOUS
 62
               7
  5
37C
 10
653.78652321630784
 20
-1048.829308163919
 30
0.0
 11
653.78652321630784
 21
-991.9637599093993
 31
0.0
  0
LINE
  8
0
  6
CONTINUOUS
 62
               7
  5
37D
 10
579.28652321630784
 20
-1073.5637599093993
 30
0.0
 11
579.28652321630784
 21
-1048.9637599093994
 31
0.0
  0
LINE
  8
0
  6
CONTINUOUS
 62
               7
  5
37E
 10
639.28652321630784
 20
-1073.5637599093993
 30
0.0
 11
639.28652321630784
 21
-1048.9637599093994
 31
0.0
  0
LINE
  8
0
  6
CONTINUOUS
 62
               7
  5
37F
 10
639.28652321630784
 20
-1073.5637599093993
 30
0.0
 11
638.28652321630784
 21
-1074.5637599093993
 31
0.0
  0
LINE
  8
0
  6
CONTINUOUS
 62
               7
  5
380
 10
653.78652321630784
 20
-991.9637599093993
 30
0.0
 11
652.78652321630784
 21
-990.9637599093993
 31
0.0
  0
LINE
  8
0
  6
CONTINUOUS
 62
               7
  5
381
 10
580.28652321630784
 20
-1074.5637599093993
 30
0.0
 11
579.28652321630784
 21
-1073.5637599093993
 31
0.0
  0
LINE
  8
0
  6
CONTINUOUS
 62
               7
  5
382
 10
565.78652321630784
 20
-990.9637599093993
 30
0.0
 11
564.78652321630784
 21
-991.9637599093993
 31
0.0
  0
LINE
  8
0
  6
CONTINUOUS
 62
               7
  5
383
 10
564.78652321630784
 20
-1048.829308163919
 30
0.0
 11
564.78652321630784
 21
-991.9637599093993
 31
0.0
  0
LINE
  8
0
  6
CONTINUOUS
 62
               7
  5
384
 10
464.28652321630784
 20
-1333.9631936579838
 30
0.0
 11
464.28652321630784
 21
-1422.9579575373093
 31
0.0
  0
LINE
  8
0
  6
CONTINUOUS
 62
               7
  5
385
 10
464.88652321630786
 20
-1333.9631936579838
 30
0.0
 11
464.28652321630784
 21
-1333.9631936579838
 31
0.0
  0
LINE
  8
0
  6
CONTINUOUS
 62
               7
  5
386
 10
429.28652321630784
 20
-1421.9631936579838
 30
0.0
 11
429.28652321630784
 21
-1347.9631936579838
 31
0.0
  0
LINE
  8
0
  6
CONTINUOUS
 62
               7
  5
387
 10
522.28652321630784
 20
-1421.9631936579838
 30
0.0
 11
522.28652321630784
 21
-1334.9631936579838
 31
0.0
  0
LINE
  8
0
  6
CONTINUOUS
 62
               7
  5
388
 10
464.28652321630784
 20
-1333.9631936579838
 30
0.0
 11
521.28652321630784
 21
-1333.9631936579838
 31
0.0
  0
LINE
  8
0
  6
CONTINUOUS
 62
               7
  5
389
 10
430.28652321630784
 20
-1422.9631936579838
 30
0.0
 11
521.28652321630784
 21
-1422.9631936579838
 31
0.0
  0
LINE
  8
0
  6
CONTINUOUS
 62
               7
  5
38A
 10
521.28652321630784
 20
-1333.9631936579838
 30
0.0
 11
522.28652321630784
 21
-1334.9631936579838
 31
0.0
  0
LINE
  8
0
  6
CONTINUOUS
 62
               7
  5
38B
 10
522.28652321630784
 20
-1421.9631936579838
 30
0.0
 11
521.28652321630784
 21
-1422.9631936579838
 31
0.0
  0
LINE
  8
0
  6
CONTINUOUS
 62
               7
  5
38C
 10
430.28652321630784
 20
-1346.9631936579838
 30
0.0
 11
464.28652321630784
 21
-1346.9631936579838
 31
0.0
  0
LINE
  8
0
  6
CONTINUOUS
 62
               7
  5
38D
 10
430.28652321630784
 20
-1346.9631936579838
 30
0.0
 11
429.28652321630784
 21
-1347.9631936579838
 31
0.0
  0
LINE
  8
0
  6
CONTINUOUS
 62
               7
  5
38E
 10
429.28652321630784
 20
-1421.9631936579838
 30
0.0
 11
430.28652321630784
 21
-1422.9631936579838
 31
0.0
  0
LINE
  8
0
  6
CONTINUOUS
 62
               7
  5
38F
 10
464.28652321630784
 20
-948.46375990939919
 30
0.0
 11
464.28652321630807
 21
-859.46899603007364
 31
0.0
  0
LINE
  8
0
  6
CONTINUOUS
 62
               7
  5
390
 10
464.88652321630798
 20
-948.46375990939919
 30
0.0
 11
464.28652321630784
 21
-948.46375990939919
 31
0.0
  0
LINE
  8
0
  6
CONTINUOUS
 62
               7
  5
391
 10
429.28652321630807
 20
-866.96375990939919
 30
0.0
 11
429.28652321630784
 21
-940.96375990939919
 31
0.0
  0
LINE
  8
0
  6
CONTINUOUS
 62
               7
  5
392
 10
522.28652321630807
 20
-860.46375990939941
 30
0.0
 11
522.28652321630784
 21
-947.46375990939919
 31
0.0
  0
LINE
  8
0
  6
CONTINUOUS
 62
               7
  5
393
 10
464.28652321630784
 20
-948.46375990939919
 30
0.0
 11
521.28652321630784
 21
-948.46375990939919
 31
0.0
  0
LINE
  8
0
  6
CONTINUOUS
 62
               7
  5
394
 10
430.28652321630807
 20
-865.96375990939919
 30
0.0
 11
464.28652321630807
 21
-865.96375990939919
 31
0.0
  0
LINE
  8
0
  6
CONTINUOUS
 62
               7
  5
395
 10
521.28652321630784
 20
-948.46375990939919
 30
0.0
 11
522.28652321630784
 21
-947.46375990939919
 31
0.0
  0
LINE
  8
0
  6
CONTINUOUS
 62
               7
  5
396
 10
522.28652321630807
 20
-860.46375990939941
 30
0.0
 11
521.28652321630807
 21
-859.46375990939941
 31
0.0
  0
LINE
  8
0
  6
CONTINUOUS
 62
               7
  5
397
 10
430.28652321630784
 20
-941.96375990939919
 30
0.0
 11
464.28652321630807
 21
-941.96375990939919
 31
0.0
  0
LINE
  8
0
  6
CONTINUOUS
 62
               7
  5
398
 10
430.28652321630784
 20
-941.96375990939919
 30
0.0
 11
429.28652321630784
 21
-940.96375990939919
 31
0.0
  0
LINE
  8
0
  6
CONTINUOUS
 62
               7
  5
399
 10
429.28652321630807
 20
-866.96375990939919
 30
0.0
 11
430.28652321630807
 21
-865.96375990939919
 31
0.0
  0
LINE
  8
0
  6
CONTINUOUS
 62
               7
  5
39A
 10
464.28652321630807
 20
-859.46375990939919
 30
0.0
 11
521.28652321630807
 21
-859.46375990939919
 31
0.0
  0
CIRCLE
  8
0
  6
DASHED
 62
               7
  5
39B
 10
-392.13776905046871
 20
-961.64819548119044
 30
0.0
 40
40.0
  0
CIRCLE
  8
0
  6
DASHED
 62
               7
  5
39C
 10
120.87790746063797
 20
-961.64819548119044
 30
0.0
 40
40.0
  0
CIRCLE
  8
0
  6
DASHED
 62
               7
  5
39D
 10
609.28652321630784
 20
-1378.4631936579838
 30
0.0
 40
40.0
  0
TEXT
  8
0
 62
               3
  5
39E
 10
-392.13776905046871
 20
-1046.1481954811902
 30
0.0
 40
40.0
  1
EMB_80×65
 41
0.8
 72
               1
 11
-392.13776905046871
 21
-1046.1481954811902
 31
0.0
 73
               3
  0
TEXT
  8
0
 62
               3
  5
39F
 10
120.87790746063797
 20
-1046.1481954811904
 30
0.0
 40
40.0
  1
EMB_80×50
 41
0.8
 72
               1
 11
120.87790746063797
 21
-1046.1481954811904
 31
0.0
 73
               3
  0
TEXT
  8
0
 62
               3
  5
3A0
 10
605.58911923866754
 20
-724.5173914041801
 30
0.0
 40
40.0
  1
EMB使用例
 41
0.8
 72
               1
 11
605.58911923866754
 21
-724.5173914041801
 31
0.0
 73
               3
  0
TEXT
  8
0
 62
               3
  5
3A1
 10
-123.7427040908909
 20
-670.15725550384059
 30
0.0
 40
40.0
  1
横枝管に呼び６５、５０の管を接続するときは、EMBをご使用ください。
 41
0.8
 72
               1
 11
-123.7427040908909
 21
-670.15725550384059
 31
0.0
 73
               3
  0
ENDSEC
  0
EOF
