  0
SECTION
  2
HEADER
  9
$ACADVER
  1
AC1009
  9
$INSBASE
 10
0.0
 20
0.0
 30
0.0
  9
$EXTMIN
 10
-843.29799736827727
 20
-1124.6559508957127
 30
0.0
  9
$EXTMAX
 10
619.23998677668328
 20
1105.7781724047254
 30
0.0
  9
$LIMMIN
 10
-889.0023093728073
 20
-1194.3570172488514
  9
$LIMMAX
 10
664.94429878121332
 20
1175.4792387578641
  9
$ORTHOMODE
 70
               0
  9
$REGENMODE
 70
               1
  9
$FILLMODE
 70
               1
  9
$QTEXTMODE
 70
               0
  9
$MIRRTEXT
 70
               1
  9
$DRAGMODE
 70
               2
  9
$LTSCALE
 40
1.0
  9
$OSMODE
 70
               0
  9
$ATTMODE
 70
               1
  9
$TEXTSIZE
 40
0.2
  9
$TRACEWID
 40
0.05
  9
$TEXTSTYLE
  7
STANDARD
  9
$CLAYER
  8
0
  9
$CELTYPE
  6
CONTINUOUS
  9
$CECOLOR
 62
             256
  9
$DIMSCALE
 40
1.0
  9
$DIMASZ
 40
0.18
  9
$DIMEXO
 40
0.0625
  9
$DIMDLI
 40
0.38
  9
$DIMRND
 40
0.0
  9
$DIMDLE
 40
0.0
  9
$DIMEXE
 40
0.18
  9
$DIMTP
 40
0.0
  9
$DIMTM
 40
0.0
  9
$DIMTXT
 40
0.18
  9
$DIMCEN
 40
0.09
  9
$DIMTSZ
 40
0.0
  9
$DIMTOL
 70
               0
  9
$DIMLIM
 70
               0
  9
$DIMTIH
 70
               1
  9
$DIMTOH
 70
               1
  9
$DIMSE1
 70
               0
  9
$DIMSE2
 70
               0
  9
$DIMTAD
 70
               0
  9
$DIMZIN
 70
               0
  9
$DIMBLK
  1

  9
$DIMASO
 70
               1
  9
$DIMSHO
 70
               1
  9
$DIMPOST
  1

  9
$DIMAPOST
  1

  9
$DIMALT
 70
               0
  9
$DIMALTD
 70
               2
  9
$DIMALTF
 40
25.399999999999999
  9
$DIMLFAC
 40
1.0
  9
$DIMTOFL
 70
               0
  9
$DIMTVP
 40
0.0
  9
$DIMTIX
 70
               0
  9
$DIMSOXD
 70
               0
  9
$DIMSAH
 70
               0
  9
$DIMBLK1
  1

  9
$DIMBLK2
  1

  9
$DIMSTYLE
  2
STANDARD
  9
$DIMCLRD
 70
               0
  9
$DIMCLRE
 70
               0
  9
$DIMCLRT
 70
               0
  9
$DIMTFAC
 40
1.0
  9
$DIMGAP
 40
0.09
  9
$LUNITS
 70
               2
  9
$LUPREC
 70
               4
  9
$AXISMODE
 70
               0
  9
$AXISUNIT
 10
0.0
 20
0.0
  9
$SKETCHINC
 40
0.1
  9
$FILLETRAD
 40
0.0
  9
$AUNITS
 70
               0
  9
$AUPREC
 70
               0
  9
$MENU
  1
acad
  9
$ELEVATION
 40
0.0
  9
$PELEVATION
 40
0.0
  9
$THICKNESS
 40
0.0
  9
$LIMCHECK
 70
               0
  9
$BLIPMODE
 70
               1
  9
$CHAMFERA
 40
0.0
  9
$CHAMFERB
 40
0.0
  9
$SKPOLY
 70
               0
  9
$TDCREATE
 40
0.000000000
  9
$TDUPDATE
 40
0.000000000
  9
$TDINDWG
 40
0.0000000000
  9
$TDUSRTIMER
 40
0.0000000000
  9
$USRTIMER
 70
               1
  9
$ANGBASE
 50
0.0
  9
$ANGDIR
 70
               0
  9
$PDMODE
 70
               0
  9
$PDSIZE
 40
1.0
  9
$PLINEWID
 40
0.0
  9
$COORDS
 70
               1
  9
$SPLFRAME
 70
               0
  9
$SPLINETYPE
 70
               6
  9
$SPLINESEGS
 70
               8
  9
$ATTDIA
 70
               0
  9
$ATTREQ
 70
               1
  9
$HANDLING
 70
               1
  9
$HANDSEED
  5
3E2
  9
$SURFTAB1
 70
               6
  9
$SURFTAB2
 70
               6
  9
$SURFTYPE
 70
               6
  9
$SURFU
 70
               6
  9
$SURFV
 70
               6
  9
$UCSNAME
  2

  9
$UCSORG
 10
0.0
 20
0.0
 30
0.0
  9
$UCSXDIR
 10
1.0
 20
0.0
 30
0.0
  9
$UCSYDIR
 10
0.0
 20
1.0
 30
0.0
  9
$PUCSNAME
  2

  9
$PUCSORG
 10
0.0
 20
0.0
 30
0.0
  9
$PUCSXDIR
 10
1.0
 20
0.0
 30
0.0
  9
$PUCSYDIR
 10
0.0
 20
1.0
 30
0.0
  9
$USERI1
 70
               0
  9
$USERI2
 70
               0
  9
$USERI3
 70
               0
  9
$USERI4
 70
               0
  9
$USERI5
 70
               0
  9
$USERR1
 40
0.0
  9
$USERR2
 40
0.0
  9
$USERR3
 40
0.0
  9
$USERR4
 40
0.0
  9
$USERR5
 40
0.0
  9
$WORLDVIEW
 70
               1
  9
$SHADEDGE
 70
               3
  9
$SHADEDIF
 70
              70
  9
$TILEMODE
 70
               1
  9
$MAXACTVP
 70
              16
  9
$PINSBASE
 10
0.0
 20
0.0
 30
0.0
  9
$PLIMCHECK
 70
               0
  9
$PEXTMIN
 10
1.0000000000000000E+20
 20
1.0000000000000000E+20
 30
1.0000000000000000E+20
  9
$PEXTMAX
 10
-1.0000000000000000E+20
 20
-1.0000000000000000E+20
 30
-1.0000000000000000E+20
  9
$PLIMMIN
 10
0.0
 20
0.0
  9
$PLIMMAX
 10
12.0
 20
9.0
  9
$UNITMODE
 70
               0
  9
$VISRETAIN
 70
               0
  9
$PLINEGEN
 70
               1
  9
$PSLTSCALE
 70
               0
  9
$TREEDEPTH
 70
            3020
  9
$DWGCODEPAGE
  3
dos932
  0
ENDSEC
  0
SECTION
  2
TABLES
  0
TABLE
  2
VPORT
 70
               1
  0
VPORT
  2
*ACTIVE
 70
               0
 10
0.0
 20
0.0
 11
1.0
 21
1.0
 12
-112.02900529579699
 22
-9.4388892454936695
 13
0.0
 23
0.0
 14
1.0
 24
1.0
 15
0.0
 25
0.0
 16
0.0
 26
0.0
 36
1.0
 17
0.0
 27
0.0
 37
0.0
 40
2369.8362560067153
 41
0.6557189781426052
 42
50.0
 43
0.0
 44
0.0
 50
0.0
 51
0.0
 71
               0
 72
             100
 73
               1
 74
               1
 75
               0
 76
               0
 77
               0
 78
               0
  0
ENDTAB
  0
TABLE
  2
LTYPE
 70
              26
  0
LTYPE
  2
CONTINUOUS
 70
               0
  3
Solid line
 72
              65
 73
               0
 40
0.0
  0
LTYPE
  2
HIDDENX2
 70
               0
  3
CADPAC FUSION LINETYPE
 72
              65
 73
               2
 40
47.560000000000002
 49
35.670000000000002
 49
-11.890000000000001
  0
LTYPE
  2
HIDDEN
 70
               0
  3
CADPAC FUSION LINETYPE
 72
              65
 73
               2
 40
35.670000000000002
 49
23.780000000000001
 49
-11.890000000000001
  0
LTYPE
  2
HIDDEN2
 70
               0
  3
CADPAC FUSION LINETYPE
 72
              65
 73
               2
 40
29.725000000000001
 49
17.835000000000001
 49
-11.890000000000001
  0
LTYPE
  2
DASHED
 70
               0
  3
CADPAC FUSION LINETYPE
 72
              65
 73
               2
 40
35.670000000000002
 49
23.780000000000001
 49
-11.890000000000001
  0
LTYPE
  2
DASHED2
 70
               0
  3
CADPAC FUSION LINETYPE
 72
              65
 73
               2
 40
26.752500000000001
 49
17.835000000000001
 49
-8.9175000000000004
  0
LTYPE
  2
DASHEDX2
 70
               0
  3
CADPAC FUSION LINETYPE
 72
              65
 73
               2
 40
53.505000000000003
 49
35.670000000000002
 49
-17.835000000000001
  0
LTYPE
  2
DOTX2
 70
               0
  3
CADPAC FUSION LINETYPE
 72
              65
 73
               2
 40
14.862500000000001
 49
0.0
 49
-14.862500000000001
  0
LTYPE
  2
DOT
 70
               0
  3
CADPAC FUSION LINETYPE
 72
              65
 73
               2
 40
11.890000000000001
 49
0.0
 49
-11.890000000000001
  0
LTYPE
  2
DOTS
 70
               0
  3
CADPAC FUSION LINETYPE
 72
              65
 73
               2
 40
11.890000000000001
 49
0.0
 49
-11.890000000000001
  0
LTYPE
  2
DOT2
 70
               0
  3
CADPAC FUSION LINETYPE
 72
              65
 73
               2
 40
8.9175000000000004
 49
0.0
 49
-8.9175000000000004
  0
LTYPE
  2
CENTERX2
 70
               0
  3
CADPAC FUSION LINETYPE
 72
              65
 73
               4
 40
71.340000000000003
 49
29.725000000000001
 49
-14.862500000000001
 49
11.890000000000001
 49
-14.862500000000001
  0
LTYPE
  2
CENTER
 70
               0
  3
CADPAC FUSION LINETYPE
 72
              65
 73
               4
 40
54.694000000000003
 49
23.780000000000001
 49
-11.890000000000001
 49
7.1340000000000003
 49
-11.890000000000001
  0
LTYPE
  2
CENTER2
 70
               0
  3
CADPAC FUSION LINETYPE
 72
              65
 73
               4
 40
38.048000000000002
 49
17.835000000000001
 49
-8.9175000000000004
 49
2.3780000000000001
 49
-8.9175000000000004
  0
LTYPE
  2
DASHDOTX2
 70
               0
  3
CADPAC FUSION LINETYPE
 72
              65
 73
               4
 40
59.450000000000003
 49
29.725000000000001
 49
-14.862500000000001
 49
0.0
 49
-14.862500000000001
  0
LTYPE
  2
DASHDOT
 70
               0
  3
CADPAC FUSION LINETYPE
 72
              65
 73
               4
 40
47.560000000000002
 49
23.780000000000001
 49
-11.890000000000001
 49
0.0
 49
-11.890000000000001
  0
LTYPE
  2
DASHDOT2
 70
               0
  3
CADPAC FUSION LINETYPE
 72
              65
 73
               4
 40
35.670000000000002
 49
17.835000000000001
 49
-8.9175000000000004
 49
0.0
 49
-8.9175000000000004
  0
LTYPE
  2
DIVIDEX2
 70
               0
  3
CADPAC FUSION LINETYPE
 72
              65
 73
               6
 40
74.3125
 49
29.725000000000001
 49
-14.862500000000001
 49
0.0
 49
-14.862500000000001
 49
0.0
 49
-14.862500000000001
  0
LTYPE
  2
DIVIDE
 70
               0
  3
CADPAC FUSION LINETYPE
 72
              65
 73
               6
 40
59.450000000000003
 49
23.780000000000001
 49
-11.890000000000001
 49
0.0
 49
-11.890000000000001
 49
0.0
 49
-11.890000000000001
  0
LTYPE
  2
DIVIDE2
 70
               0
  3
CADPAC FUSION LINETYPE
 72
              65
 73
               6
 40
44.587500000000006
 49
17.835000000000001
 49
-8.9175000000000004
 49
0.0
 49
-8.9175000000000004
 49
0.0
 49
-8.9175000000000004
  0
LTYPE
  2
BORDERX2
 70
               0
  3
CADPAC FUSION LINETYPE
 72
              65
 73
               6
 40
104.03750000000001
 49
29.725000000000001
 49
-14.862500000000001
 49
29.725000000000001
 49
-14.862500000000001
 49
0.0
 49
-14.862500000000001
  0
LTYPE
  2
BORDER
 70
               0
  3
CADPAC FUSION LINETYPE
 72
              65
 73
               6
 40
83.230000000000004
 49
23.780000000000001
 49
-11.890000000000001
 49
23.780000000000001
 49
-11.890000000000001
 49
0.0
 49
-11.890000000000001
  0
LTYPE
  2
BORDER2
 70
               0
  3
CADPAC FUSION LINETYPE
 72
              65
 73
               6
 40
62.422499999999999
 49
17.835000000000001
 49
-8.9175000000000004
 49
17.835000000000001
 49
-8.9175000000000004
 49
0.0
 49
-8.9175000000000004
  0
LTYPE
  2
PHANTOMX2
 70
               0
  3
CADPAC FUSION LINETYPE
 72
              65
 73
               6
 40
89.175000000000011
 49
29.725000000000001
 49
-11.890000000000001
 49
11.890000000000001
 49
-11.890000000000001
 49
11.890000000000001
 49
-11.890000000000001
  0
LTYPE
  2
PHANTOM
 70
               0
  3
CADPAC FUSION LINETYPE
 72
              65
 73
               6
 40
73.718000000000004
 49
23.780000000000001
 49
-11.890000000000001
 49
7.1340000000000003
 49
-11.890000000000001
 49
7.1340000000000003
 49
-11.890000000000001
  0
LTYPE
  2
PHANTOM2
 70
               0
  3
CADPAC FUSION LINETYPE
 72
              65
 73
               6
 40
63.017000000000003
 49
17.835000000000001
 49
-11.890000000000001
 49
4.7560000000000002
 49
-11.890000000000001
 49
4.7560000000000002
 49
-11.890000000000001
  0
ENDTAB
  0
TABLE
  2
LAYER
 70
             256
  0
LAYER
  2
0
 70
               0
 62
               7
  6
CONTINUOUS
  0
LAYER
  2
LAYER001
 70
               0
 62
               7
  6
CONTINUOUS
  0
LAYER
  2
LAYER002
 70
               0
 62
               7
  6
CONTINUOUS
  0
LAYER
  2
LAYER003
 70
               0
 62
               7
  6
CONTINUOUS
  0
LAYER
  2
LAYER004
 70
               0
 62
               7
  6
CONTINUOUS
  0
LAYER
  2
LAYER005
 70
               0
 62
               7
  6
CONTINUOUS
  0
LAYER
  2
LAYER006
 70
               0
 62
               7
  6
CONTINUOUS
  0
LAYER
  2
LAYER007
 70
               0
 62
               7
  6
CONTINUOUS
  0
LAYER
  2
LAYER008
 70
               0
 62
               7
  6
CONTINUOUS
  0
LAYER
  2
LAYER009
 70
               0
 62
               7
  6
CONTINUOUS
  0
LAYER
  2
LAYER010
 70
               0
 62
               7
  6
CONTINUOUS
  0
LAYER
  2
LAYER011
 70
               0
 62
               7
  6
CONTINUOUS
  0
LAYER
  2
LAYER012
 70
               0
 62
               7
  6
CONTINUOUS
  0
LAYER
  2
LAYER013
 70
               0
 62
               7
  6
CONTINUOUS
  0
LAYER
  2
LAYER014
 70
               0
 62
               7
  6
CONTINUOUS
  0
LAYER
  2
LAYER015
 70
               0
 62
               7
  6
CONTINUOUS
  0
LAYER
  2
LAYER016
 70
               0
 62
               7
  6
CONTINUOUS
  0
LAYER
  2
LAYER017
 70
               0
 62
               7
  6
CONTINUOUS
  0
LAYER
  2
LAYER018
 70
               0
 62
               7
  6
CONTINUOUS
  0
LAYER
  2
LAYER019
 70
               0
 62
               7
  6
CONTINUOUS
  0
LAYER
  2
LAYER020
 70
               0
 62
               7
  6
CONTINUOUS
  0
LAYER
  2
LAYER021
 70
               0
 62
               7
  6
CONTINUOUS
  0
LAYER
  2
LAYER022
 70
               0
 62
               7
  6
CONTINUOUS
  0
LAYER
  2
LAYER023
 70
               0
 62
               7
  6
CONTINUOUS
  0
LAYER
  2
LAYER024
 70
               0
 62
               7
  6
CONTINUOUS
  0
LAYER
  2
LAYER025
 70
               0
 62
               7
  6
CONTINUOUS
  0
LAYER
  2
LAYER026
 70
               0
 62
               7
  6
CONTINUOUS
  0
LAYER
  2
LAYER027
 70
               0
 62
               7
  6
CONTINUOUS
  0
LAYER
  2
LAYER028
 70
               0
 62
               7
  6
CONTINUOUS
  0
LAYER
  2
LAYER029
 70
               0
 62
               7
  6
CONTINUOUS
  0
LAYER
  2
LAYER030
 70
               0
 62
               7
  6
CONTINUOUS
  0
LAYER
  2
LAYER031
 70
               0
 62
               7
  6
CONTINUOUS
  0
LAYER
  2
LAYER032
 70
               0
 62
               7
  6
CONTINUOUS
  0
LAYER
  2
LAYER033
 70
               0
 62
               7
  6
CONTINUOUS
  0
LAYER
  2
LAYER034
 70
               0
 62
               7
  6
CONTINUOUS
  0
LAYER
  2
LAYER035
 70
               0
 62
               7
  6
CONTINUOUS
  0
LAYER
  2
LAYER036
 70
               0
 62
               7
  6
CONTINUOUS
  0
LAYER
  2
LAYER037
 70
               0
 62
               7
  6
CONTINUOUS
  0
LAYER
  2
LAYER038
 70
               0
 62
               7
  6
CONTINUOUS
  0
LAYER
  2
LAYER039
 70
               0
 62
               7
  6
CONTINUOUS
  0
LAYER
  2
LAYER040
 70
               0
 62
               7
  6
CONTINUOUS
  0
LAYER
  2
LAYER041
 70
               0
 62
               7
  6
CONTINUOUS
  0
LAYER
  2
LAYER042
 70
               0
 62
               7
  6
CONTINUOUS
  0
LAYER
  2
LAYER043
 70
               0
 62
               7
  6
CONTINUOUS
  0
LAYER
  2
LAYER044
 70
               0
 62
               7
  6
CONTINUOUS
  0
LAYER
  2
LAYER045
 70
               0
 62
               7
  6
CONTINUOUS
  0
LAYER
  2
LAYER046
 70
               0
 62
               7
  6
CONTINUOUS
  0
LAYER
  2
LAYER047
 70
               0
 62
               7
  6
CONTINUOUS
  0
LAYER
  2
LAYER048
 70
               0
 62
               7
  6
CONTINUOUS
  0
LAYER
  2
LAYER049
 70
               0
 62
               7
  6
CONTINUOUS
  0
LAYER
  2
LAYER050
 70
               0
 62
               7
  6
CONTINUOUS
  0
LAYER
  2
LAYER051
 70
               0
 62
               7
  6
CONTINUOUS
  0
LAYER
  2
LAYER052
 70
               0
 62
               7
  6
CONTINUOUS
  0
LAYER
  2
LAYER053
 70
               0
 62
               7
  6
CONTINUOUS
  0
LAYER
  2
LAYER054
 70
               0
 62
               7
  6
CONTINUOUS
  0
LAYER
  2
LAYER055
 70
               0
 62
               7
  6
CONTINUOUS
  0
LAYER
  2
LAYER056
 70
               0
 62
               7
  6
CONTINUOUS
  0
LAYER
  2
LAYER057
 70
               0
 62
               7
  6
CONTINUOUS
  0
LAYER
  2
LAYER058
 70
               0
 62
               7
  6
CONTINUOUS
  0
LAYER
  2
LAYER059
 70
               0
 62
               7
  6
CONTINUOUS
  0
LAYER
  2
LAYER060
 70
               0
 62
               7
  6
CONTINUOUS
  0
LAYER
  2
LAYER061
 70
               0
 62
               7
  6
CONTINUOUS
  0
LAYER
  2
LAYER062
 70
               0
 62
               7
  6
CONTINUOUS
  0
LAYER
  2
LAYER063
 70
               0
 62
               7
  6
CONTINUOUS
  0
LAYER
  2
LAYER064
 70
               0
 62
               7
  6
CONTINUOUS
  0
LAYER
  2
LAYER065
 70
               0
 62
               7
  6
CONTINUOUS
  0
LAYER
  2
LAYER066
 70
               0
 62
               7
  6
CONTINUOUS
  0
LAYER
  2
LAYER067
 70
               0
 62
               7
  6
CONTINUOUS
  0
LAYER
  2
LAYER068
 70
               0
 62
               7
  6
CONTINUOUS
  0
LAYER
  2
LAYER069
 70
               0
 62
               7
  6
CONTINUOUS
  0
LAYER
  2
LAYER070
 70
               0
 62
               7
  6
CONTINUOUS
  0
LAYER
  2
LAYER071
 70
               0
 62
               7
  6
CONTINUOUS
  0
LAYER
  2
LAYER072
 70
               0
 62
               7
  6
CONTINUOUS
  0
LAYER
  2
LAYER073
 70
               0
 62
               7
  6
CONTINUOUS
  0
LAYER
  2
LAYER074
 70
               0
 62
               7
  6
CONTINUOUS
  0
LAYER
  2
LAYER075
 70
               0
 62
               7
  6
CONTINUOUS
  0
LAYER
  2
LAYER076
 70
               0
 62
               7
  6
CONTINUOUS
  0
LAYER
  2
LAYER077
 70
               0
 62
               7
  6
CONTINUOUS
  0
LAYER
  2
LAYER078
 70
               0
 62
               7
  6
CONTINUOUS
  0
LAYER
  2
LAYER079
 70
               0
 62
               7
  6
CONTINUOUS
  0
LAYER
  2
LAYER080
 70
               0
 62
               7
  6
CONTINUOUS
  0
LAYER
  2
LAYER081
 70
               0
 62
               7
  6
CONTINUOUS
  0
LAYER
  2
LAYER082
 70
               0
 62
               7
  6
CONTINUOUS
  0
LAYER
  2
LAYER083
 70
               0
 62
               7
  6
CONTINUOUS
  0
LAYER
  2
LAYER084
 70
               0
 62
               7
  6
CONTINUOUS
  0
LAYER
  2
LAYER085
 70
               0
 62
               7
  6
CONTINUOUS
  0
LAYER
  2
LAYER086
 70
               0
 62
               7
  6
CONTINUOUS
  0
LAYER
  2
LAYER087
 70
               0
 62
               7
  6
CONTINUOUS
  0
LAYER
  2
LAYER088
 70
               0
 62
               7
  6
CONTINUOUS
  0
LAYER
  2
LAYER089
 70
               0
 62
               7
  6
CONTINUOUS
  0
LAYER
  2
LAYER090
 70
               0
 62
               7
  6
CONTINUOUS
  0
LAYER
  2
LAYER091
 70
               0
 62
               7
  6
CONTINUOUS
  0
LAYER
  2
LAYER092
 70
               0
 62
               7
  6
CONTINUOUS
  0
LAYER
  2
LAYER093
 70
               0
 62
               7
  6
CONTINUOUS
  0
LAYER
  2
LAYER094
 70
               0
 62
               7
  6
CONTINUOUS
  0
LAYER
  2
LAYER095
 70
               0
 62
               7
  6
CONTINUOUS
  0
LAYER
  2
LAYER096
 70
               0
 62
               7
  6
CONTINUOUS
  0
LAYER
  2
LAYER097
 70
               0
 62
               7
  6
CONTINUOUS
  0
LAYER
  2
LAYER098
 70
               0
 62
               7
  6
CONTINUOUS
  0
LAYER
  2
LAYER099
 70
               0
 62
               7
  6
CONTINUOUS
  0
LAYER
  2
LAYER100
 70
               0
 62
               7
  6
CONTINUOUS
  0
LAYER
  2
LAYER101
 70
               0
 62
               7
  6
CONTINUOUS
  0
LAYER
  2
LAYER102
 70
               0
 62
               7
  6
CONTINUOUS
  0
LAYER
  2
LAYER103
 70
               0
 62
               7
  6
CONTINUOUS
  0
LAYER
  2
LAYER104
 70
               0
 62
               7
  6
CONTINUOUS
  0
LAYER
  2
LAYER105
 70
               0
 62
               7
  6
CONTINUOUS
  0
LAYER
  2
LAYER106
 70
               0
 62
               7
  6
CONTINUOUS
  0
LAYER
  2
LAYER107
 70
               0
 62
               7
  6
CONTINUOUS
  0
LAYER
  2
LAYER108
 70
               0
 62
               7
  6
CONTINUOUS
  0
LAYER
  2
LAYER109
 70
               0
 62
               7
  6
CONTINUOUS
  0
LAYER
  2
LAYER110
 70
               0
 62
               7
  6
CONTINUOUS
  0
LAYER
  2
LAYER111
 70
               0
 62
               7
  6
CONTINUOUS
  0
LAYER
  2
LAYER112
 70
               0
 62
               7
  6
CONTINUOUS
  0
LAYER
  2
LAYER113
 70
               0
 62
               7
  6
CONTINUOUS
  0
LAYER
  2
LAYER114
 70
               0
 62
               7
  6
CONTINUOUS
  0
LAYER
  2
LAYER115
 70
               0
 62
               7
  6
CONTINUOUS
  0
LAYER
  2
LAYER116
 70
               0
 62
               7
  6
CONTINUOUS
  0
LAYER
  2
LAYER117
 70
               0
 62
               7
  6
CONTINUOUS
  0
LAYER
  2
LAYER118
 70
               0
 62
               7
  6
CONTINUOUS
  0
LAYER
  2
LAYER119
 70
               0
 62
               7
  6
CONTINUOUS
  0
LAYER
  2
LAYER120
 70
               0
 62
               7
  6
CONTINUOUS
  0
LAYER
  2
LAYER121
 70
               0
 62
               7
  6
CONTINUOUS
  0
LAYER
  2
LAYER122
 70
               0
 62
               7
  6
CONTINUOUS
  0
LAYER
  2
LAYER123
 70
               0
 62
               7
  6
CONTINUOUS
  0
LAYER
  2
LAYER124
 70
               0
 62
               7
  6
CONTINUOUS
  0
LAYER
  2
LAYER125
 70
               0
 62
               7
  6
CONTINUOUS
  0
LAYER
  2
LAYER126
 70
               0
 62
               7
  6
CONTINUOUS
  0
LAYER
  2
LAYER127
 70
               0
 62
               7
  6
CONTINUOUS
  0
LAYER
  2
LAYER128
 70
               0
 62
               7
  6
CONTINUOUS
  0
LAYER
  2
LAYER129
 70
               0
 62
               7
  6
CONTINUOUS
  0
LAYER
  2
LAYER130
 70
               0
 62
               7
  6
CONTINUOUS
  0
LAYER
  2
LAYER131
 70
               0
 62
               7
  6
CONTINUOUS
  0
LAYER
  2
LAYER132
 70
               0
 62
               7
  6
CONTINUOUS
  0
LAYER
  2
LAYER133
 70
               0
 62
               7
  6
CONTINUOUS
  0
LAYER
  2
LAYER134
 70
               0
 62
               7
  6
CONTINUOUS
  0
LAYER
  2
LAYER135
 70
               0
 62
               7
  6
CONTINUOUS
  0
LAYER
  2
LAYER136
 70
               0
 62
               7
  6
CONTINUOUS
  0
LAYER
  2
LAYER137
 70
               0
 62
               7
  6
CONTINUOUS
  0
LAYER
  2
LAYER138
 70
               0
 62
               7
  6
CONTINUOUS
  0
LAYER
  2
LAYER139
 70
               0
 62
               7
  6
CONTINUOUS
  0
LAYER
  2
LAYER140
 70
               0
 62
               7
  6
CONTINUOUS
  0
LAYER
  2
LAYER141
 70
               0
 62
               7
  6
CONTINUOUS
  0
LAYER
  2
LAYER142
 70
               0
 62
               7
  6
CONTINUOUS
  0
LAYER
  2
LAYER143
 70
               0
 62
               7
  6
CONTINUOUS
  0
LAYER
  2
LAYER144
 70
               0
 62
               7
  6
CONTINUOUS
  0
LAYER
  2
LAYER145
 70
               0
 62
               7
  6
CONTINUOUS
  0
LAYER
  2
LAYER146
 70
               0
 62
               7
  6
CONTINUOUS
  0
LAYER
  2
LAYER147
 70
               0
 62
               7
  6
CONTINUOUS
  0
LAYER
  2
LAYER148
 70
               0
 62
               7
  6
CONTINUOUS
  0
LAYER
  2
LAYER149
 70
               0
 62
               7
  6
CONTINUOUS
  0
LAYER
  2
LAYER150
 70
               0
 62
               7
  6
CONTINUOUS
  0
LAYER
  2
LAYER151
 70
               0
 62
               7
  6
CONTINUOUS
  0
LAYER
  2
LAYER152
 70
               0
 62
               7
  6
CONTINUOUS
  0
LAYER
  2
LAYER153
 70
               0
 62
               7
  6
CONTINUOUS
  0
LAYER
  2
LAYER154
 70
               0
 62
               7
  6
CONTINUOUS
  0
LAYER
  2
LAYER155
 70
               0
 62
               7
  6
CONTINUOUS
  0
LAYER
  2
LAYER156
 70
               0
 62
               7
  6
CONTINUOUS
  0
LAYER
  2
LAYER157
 70
               0
 62
               7
  6
CONTINUOUS
  0
LAYER
  2
LAYER158
 70
               0
 62
               7
  6
CONTINUOUS
  0
LAYER
  2
LAYER159
 70
               0
 62
               7
  6
CONTINUOUS
  0
LAYER
  2
LAYER160
 70
               0
 62
               7
  6
CONTINUOUS
  0
LAYER
  2
LAYER161
 70
               0
 62
               7
  6
CONTINUOUS
  0
LAYER
  2
LAYER162
 70
               0
 62
               7
  6
CONTINUOUS
  0
LAYER
  2
LAYER163
 70
               0
 62
               7
  6
CONTINUOUS
  0
LAYER
  2
LAYER164
 70
               0
 62
               7
  6
CONTINUOUS
  0
LAYER
  2
LAYER165
 70
               0
 62
               7
  6
CONTINUOUS
  0
LAYER
  2
LAYER166
 70
               0
 62
               7
  6
CONTINUOUS
  0
LAYER
  2
LAYER167
 70
               0
 62
               7
  6
CONTINUOUS
  0
LAYER
  2
LAYER168
 70
               0
 62
               7
  6
CONTINUOUS
  0
LAYER
  2
LAYER169
 70
               0
 62
               7
  6
CONTINUOUS
  0
LAYER
  2
LAYER170
 70
               0
 62
               7
  6
CONTINUOUS
  0
LAYER
  2
LAYER171
 70
               0
 62
               7
  6
CONTINUOUS
  0
LAYER
  2
LAYER172
 70
               0
 62
               7
  6
CONTINUOUS
  0
LAYER
  2
LAYER173
 70
               0
 62
               7
  6
CONTINUOUS
  0
LAYER
  2
LAYER174
 70
               0
 62
               7
  6
CONTINUOUS
  0
LAYER
  2
LAYER175
 70
               0
 62
               7
  6
CONTINUOUS
  0
LAYER
  2
LAYER176
 70
               0
 62
               7
  6
CONTINUOUS
  0
LAYER
  2
LAYER177
 70
               0
 62
               7
  6
CONTINUOUS
  0
LAYER
  2
LAYER178
 70
               0
 62
               7
  6
CONTINUOUS
  0
LAYER
  2
LAYER179
 70
               0
 62
               7
  6
CONTINUOUS
  0
LAYER
  2
LAYER180
 70
               0
 62
               7
  6
CONTINUOUS
  0
LAYER
  2
LAYER181
 70
               0
 62
               7
  6
CONTINUOUS
  0
LAYER
  2
LAYER182
 70
               0
 62
               7
  6
CONTINUOUS
  0
LAYER
  2
LAYER183
 70
               0
 62
               7
  6
CONTINUOUS
  0
LAYER
  2
LAYER184
 70
               0
 62
               7
  6
CONTINUOUS
  0
LAYER
  2
LAYER185
 70
               0
 62
               7
  6
CONTINUOUS
  0
LAYER
  2
LAYER186
 70
               0
 62
               7
  6
CONTINUOUS
  0
LAYER
  2
LAYER187
 70
               0
 62
               7
  6
CONTINUOUS
  0
LAYER
  2
LAYER188
 70
               0
 62
               7
  6
CONTINUOUS
  0
LAYER
  2
LAYER189
 70
               0
 62
               7
  6
CONTINUOUS
  0
LAYER
  2
LAYER190
 70
               0
 62
               7
  6
CONTINUOUS
  0
LAYER
  2
LAYER191
 70
               0
 62
               7
  6
CONTINUOUS
  0
LAYER
  2
LAYER192
 70
               0
 62
               7
  6
CONTINUOUS
  0
LAYER
  2
LAYER193
 70
               0
 62
               7
  6
CONTINUOUS
  0
LAYER
  2
LAYER194
 70
               0
 62
               7
  6
CONTINUOUS
  0
LAYER
  2
LAYER195
 70
               0
 62
               7
  6
CONTINUOUS
  0
LAYER
  2
LAYER196
 70
               0
 62
               7
  6
CONTINUOUS
  0
LAYER
  2
LAYER197
 70
               0
 62
               7
  6
CONTINUOUS
  0
LAYER
  2
LAYER198
 70
               0
 62
               7
  6
CONTINUOUS
  0
LAYER
  2
LAYER199
 70
               0
 62
               7
  6
CONTINUOUS
  0
LAYER
  2
LAYER200
 70
               0
 62
               7
  6
CONTINUOUS
  0
LAYER
  2
LAYER201
 70
               0
 62
               7
  6
CONTINUOUS
  0
LAYER
  2
LAYER202
 70
               0
 62
               7
  6
CONTINUOUS
  0
LAYER
  2
LAYER203
 70
               0
 62
               7
  6
CONTINUOUS
  0
LAYER
  2
LAYER204
 70
               0
 62
               7
  6
CONTINUOUS
  0
LAYER
  2
LAYER205
 70
               0
 62
               7
  6
CONTINUOUS
  0
LAYER
  2
LAYER206
 70
               0
 62
               7
  6
CONTINUOUS
  0
LAYER
  2
LAYER207
 70
               0
 62
               7
  6
CONTINUOUS
  0
LAYER
  2
LAYER208
 70
               0
 62
               7
  6
CONTINUOUS
  0
LAYER
  2
LAYER209
 70
               0
 62
               7
  6
CONTINUOUS
  0
LAYER
  2
LAYER210
 70
               0
 62
               7
  6
CONTINUOUS
  0
LAYER
  2
LAYER211
 70
               0
 62
               7
  6
CONTINUOUS
  0
LAYER
  2
LAYER212
 70
               0
 62
               7
  6
CONTINUOUS
  0
LAYER
  2
LAYER213
 70
               0
 62
               7
  6
CONTINUOUS
  0
LAYER
  2
LAYER214
 70
               0
 62
               7
  6
CONTINUOUS
  0
LAYER
  2
LAYER215
 70
               0
 62
               7
  6
CONTINUOUS
  0
LAYER
  2
LAYER216
 70
               0
 62
               7
  6
CONTINUOUS
  0
LAYER
  2
LAYER217
 70
               0
 62
               7
  6
CONTINUOUS
  0
LAYER
  2
LAYER218
 70
               0
 62
               7
  6
CONTINUOUS
  0
LAYER
  2
LAYER219
 70
               0
 62
               7
  6
CONTINUOUS
  0
LAYER
  2
LAYER220
 70
               0
 62
               7
  6
CONTINUOUS
  0
LAYER
  2
LAYER221
 70
               0
 62
               7
  6
CONTINUOUS
  0
LAYER
  2
LAYER222
 70
               0
 62
               7
  6
CONTINUOUS
  0
LAYER
  2
LAYER223
 70
               0
 62
               7
  6
CONTINUOUS
  0
LAYER
  2
LAYER224
 70
               0
 62
               7
  6
CONTINUOUS
  0
LAYER
  2
LAYER225
 70
               0
 62
               7
  6
CONTINUOUS
  0
LAYER
  2
LAYER226
 70
               0
 62
               7
  6
CONTINUOUS
  0
LAYER
  2
LAYER227
 70
               0
 62
               7
  6
CONTINUOUS
  0
LAYER
  2
LAYER228
 70
               0
 62
               7
  6
CONTINUOUS
  0
LAYER
  2
LAYER229
 70
               0
 62
               7
  6
CONTINUOUS
  0
LAYER
  2
LAYER230
 70
               0
 62
               7
  6
CONTINUOUS
  0
LAYER
  2
LAYER231
 70
               0
 62
               7
  6
CONTINUOUS
  0
LAYER
  2
LAYER232
 70
               0
 62
               7
  6
CONTINUOUS
  0
LAYER
  2
LAYER233
 70
               0
 62
               7
  6
CONTINUOUS
  0
LAYER
  2
LAYER234
 70
               0
 62
               7
  6
CONTINUOUS
  0
LAYER
  2
LAYER235
 70
               0
 62
               7
  6
CONTINUOUS
  0
LAYER
  2
LAYER236
 70
               0
 62
               7
  6
CONTINUOUS
  0
LAYER
  2
LAYER237
 70
               0
 62
               7
  6
CONTINUOUS
  0
LAYER
  2
LAYER238
 70
               0
 62
               7
  6
CONTINUOUS
  0
LAYER
  2
LAYER239
 70
               0
 62
               7
  6
CONTINUOUS
  0
LAYER
  2
LAYER240
 70
               0
 62
               7
  6
CONTINUOUS
  0
LAYER
  2
LAYER241
 70
               0
 62
               7
  6
CONTINUOUS
  0
LAYER
  2
LAYER242
 70
               0
 62
               7
  6
CONTINUOUS
  0
LAYER
  2
LAYER243
 70
               0
 62
               7
  6
CONTINUOUS
  0
LAYER
  2
LAYER244
 70
               0
 62
               7
  6
CONTINUOUS
  0
LAYER
  2
LAYER245
 70
               0
 62
               7
  6
CONTINUOUS
  0
LAYER
  2
LAYER246
 70
               0
 62
               7
  6
CONTINUOUS
  0
LAYER
  2
LAYER247
 70
               0
 62
               7
  6
CONTINUOUS
  0
LAYER
  2
LAYER248
 70
               0
 62
               7
  6
CONTINUOUS
  0
LAYER
  2
LAYER249
 70
               0
 62
               7
  6
CONTINUOUS
  0
LAYER
  2
LAYER250
 70
               0
 62
               7
  6
CONTINUOUS
  0
LAYER
  2
LAYER251
 70
               0
 62
               7
  6
CONTINUOUS
  0
LAYER
  2
LAYER252
 70
               0
 62
               7
  6
CONTINUOUS
  0
LAYER
  2
LAYER253
 70
               0
 62
               7
  6
CONTINUOUS
  0
LAYER
  2
LAYER254
 70
               0
 62
               7
  6
CONTINUOUS
  0
LAYER
  2
LAYER255
 70
               0
 62
               7
  6
CONTINUOUS
  0
ENDTAB
  0
TABLE
  2
STYLE
 70
               1
  0
STYLE
  2
STANDARD
 70
               0
 40
0.0
 41
0.8
 50
0.0
 71
               0
 42
40.0
  3
MS PGothic.ttf
  4

  0
ENDTAB
  0
TABLE
  2
VIEW
 70
               0
  0
VIEW
  2
QQQQ
 70
               0
 40
2369.8362560067153
 10
-112.02900529579699
 20
-9.4388892454936695
 41
1553.9466081540206
 11
0.0
 21
0.0
 31
1.0
 12
100.0
 22
100.0
 32
0.0
 42
50.0
 43
0.0
 44
0.0
 50
0.0
 71
               0
  0
ENDTAB
  0
TABLE
  2
UCS
 70
               0
  0
ENDTAB
  0
TABLE
  2
APPID
 70
               1
  0
APPID
  2
ACAD
 70
               0
  0
ENDTAB
  0
TABLE
  2
DIMSTYLE
 70
               1
  0
DIMSTYLE
  2
STANDARD
 70
               0
  3

  4

  5

  6

  7

 40
1.0
 41
0.18
 42
0.0625
 43
0.38
 44
0.18
 45
0.0
 46
0.0
 47
0.0
 48
0.0
140
0.18
141
0.09
142
0.0
143
25.399999999999999
144
1.0
145
0.0
146
1.0
147
0.09
 71
               0
 72
               0
 73
               1
 74
               1
 75
               0
 76
               0
 77
               0
 78
               0
170
               0
171
               2
172
               0
173
               0
174
               0
175
               0
176
               0
177
               0
178
               0
  0
ENDTAB
  0
ENDSEC
  0
SECTION
  2
BLOCKS
  0
ENDSEC
  0
SECTION
  2
ENTITIES
  0
CIRCLE
  8
0
  6
CONTINUOUS
 62
               3
  5
136
 10
-126.67226690395097
 20
954.38520849510155
 30
0.0
 40
75.0
  0
CIRCLE
  8
0
  6
CONTINUOUS
 62
               3
  5
137
 10
-126.67226690395097
 20
954.38520849510155
 30
0.0
 40
52.5
  0
LINE
  8
0
  6
CONTINUOUS
 62
               3
  5
138
 10
-212.88276510457621
 20
974.38520849510155
 30
0.0
 11
-198.95642837795634
 21
974.38520849510155
 31
0.0
  0
LINE
  8
0
  6
CONTINUOUS
 62
               3
  5
139
 10
-198.95642837795634
 20
934.38520849510155
 30
0.0
 11
-212.88276510457621
 21
934.38520849510155
 31
0.0
  0
ARC
  8
0
  6
CONTINUOUS
 62
               3
  5
13A
 10
-126.67226690395097
 20
954.38520849510155
 30
0.0
 40
88.5
 50
166.93897588507147
 51
193.06102411465255
  0
LINE
  8
0
  6
CONTINUOUS
 62
               3
  5
13B
 10
-146.67226690395097
 20
868.17471029447665
 30
0.0
 11
-146.67226690395097
 21
882.10104702109652
 31
0.0
  0
LINE
  8
0
  6
CONTINUOUS
 62
               3
  5
13C
 10
-106.67226690395097
 20
882.10104702109652
 30
0.0
 11
-106.67226690395097
 21
868.17471029447665
 31
0.0
  0
ARC
  8
0
  6
CONTINUOUS
 62
               3
  5
13D
 10
-126.67226690395097
 20
954.38520849510155
 30
0.0
 40
88.5
 50
256.93897588500266
 51
283.06102411458357
  0
LINE
  8
0
  6
CONTINUOUS
 62
               3
  5
13E
 10
-40.461768703326314
 20
934.38520849510155
 30
0.0
 11
-54.388105429946734
 21
934.38520849510155
 31
0.0
  0
LINE
  8
0
  6
CONTINUOUS
 62
               3
  5
13F
 10
-54.388105429946734
 20
974.38520849510155
 30
0.0
 11
-40.461768703326314
 21
974.38520849510155
 31
0.0
  0
ARC
  8
0
  6
CONTINUOUS
 62
               3
  5
140
 10
-126.67226690395097
 20
954.38520849510155
 30
0.0
 40
88.5
 50
346.93897588493354
 51
373.06102411451457
  0
LINE
  8
0
  6
CONTINUOUS
 62
               3
  5
141
 10
-106.67226690395097
 20
1040.5957066957271
 30
0.0
 11
-106.67226690395097
 21
1026.6693699691066
 31
0.0
  0
LINE
  8
0
  6
CONTINUOUS
 62
               3
  5
142
 10
-146.67226690395097
 20
1026.6693699691066
 30
0.0
 11
-146.67226690395097
 21
1040.5957066957271
 31
0.0
  0
ARC
  8
0
  6
CONTINUOUS
 62
               3
  5
143
 10
-126.67226690395097
 20
954.38520849510155
 30
0.0
 40
88.5
 50
76.938975885140508
 51
103.06102411472156
  0
LINE
  8
0
  6
CONTINUOUS
 62
               3
  5
144
 10
-174.34039042481203
 20
932.3852084951011
 30
0.0
 11
-79.004143383091048
 21
932.3852084951011
 31
0.0
  0
ARC
  8
0
  6
CONTINUOUS
 62
               3
  5
145
 10
-114.16865525456984
 20
963.09160612272058
 30
0.0
 40
54.763804151667173
 50
141.38591763672969
 51
145.15009542084266
  0
ARC
  8
0
  6
CONTINUOUS
 62
               3
  5
146
 10
-126.67226690395097
 20
954.38520849510155
 30
0.0
 40
51.5
 50
334.71098847320116
 51
410.95932736332554
  0
ARC
  8
0
  6
CONTINUOUS
 62
               3
  5
147
 10
-126.67226690395097
 20
954.38520849510155
 30
0.0
 40
51.5
 50
129.04067263626098
 51
205.28901152638485
  0
ARC
  8
0
  6
CONTINUOUS
 62
               3
  5
148
 10
-126.67226690395097
 20
954.38520849510155
 30
0.0
 40
77.5
 50
104.95524831656292
 51
128.57288309093474
  0
ARC
  8
0
  6
CONTINUOUS
 62
               3
  5
149
 10
-126.67226690395097
 20
954.38520849510155
 30
0.0
 40
77.5
 50
14.95524831663182
 51
75.044751683299168
  0
ARC
  8
0
  6
CONTINUOUS
 62
               3
  5
14A
 10
-126.67226690395097
 20
954.38520849510155
 30
0.0
 40
77.5
 50
313.99504232084234
 51
345.0447516830921
  0
LINE
  8
0
  6
CONTINUOUS
 62
               3
  5
14B
 10
-266.67226690395091
 20
899.38520849510155
 30
0.0
 11
-266.00071077798668
 21
899.38520849510155
 31
0.0
  0
LINE
  8
0
  6
CONTINUOUS
 62
               3
  5
14C
 10
-263.50071077798623
 20
896.88520849510155
 30
0.0
 11
-266.00071077798668
 21
899.38520849510155
 31
0.0
  0
LINE
  8
0
  6
CONTINUOUS
 62
               3
  5
14D
 10
-266.67226690395091
 20
1009.3852084951016
 30
0.0
 11
-266.00071077798668
 21
1009.3852084951016
 31
0.0
  0
LINE
  8
0
  6
CONTINUOUS
 62
               3
  5
14E
 10
-263.50071077798668
 20
1011.8852084951016
 30
0.0
 11
-266.00071077798668
 21
1009.3852084951016
 31
0.0
  0
LINE
  8
0
  6
CONTINUOUS
 62
               3
  5
14F
 10
-266.00071077798668
 20
1009.3852084951016
 30
0.0
 11
-266.00071077798668
 21
899.38520849510155
 31
0.0
  0
LINE
  8
0
  6
CONTINUOUS
 62
               3
  5
150
 10
-172.16260269032887
 20
1015.0748055134432
 30
0.0
 11
-263.50071077798668
 21
1011.8852084951016
 31
0.0
  0
LINE
  8
0
  6
CONTINUOUS
 62
               3
  5
151
 10
-172.16260269032955
 20
893.6956114767604
 30
0.0
 11
-263.50071077798623
 21
896.88520849510155
 31
0.0
  0
LINE
  8
0
  6
CONTINUOUS
 62
               3
  5
152
 10
-271.67226690395091
 20
1009.2136523691374
 30
0.0
 11
-271.67226690395091
 21
899.28520849510153
 31
0.0
  0
LINE
  8
0
  6
CONTINUOUS
 62
               3
  5
153
 10
-266.67226690395091
 20
896.78520849510153
 30
0.0
 11
-266.67226690395091
 21
1011.9852084951016
 31
0.0
  0
LINE
  8
0
  6
CONTINUOUS
 62
               3
  5
154
 10
-266.67226690395091
 20
1011.9852084951016
 30
0.0
 11
-269.17226690395091
 21
1011.9852084951016
 31
0.0
  0
LINE
  8
0
  6
CONTINUOUS
 62
               3
  5
155
 10
-266.67226690395091
 20
896.78520849510153
 30
0.0
 11
-269.17226690395091
 21
896.78520849510153
 31
0.0
  0
ARC
  8
0
  6
CONTINUOUS
 62
               3
  5
156
 10
-269.17226690395091
 20
899.28520849510153
 30
0.0
 40
2.5
 50
179.99999999986281
 51
269.99999999979354
  0
ARC
  8
0
  6
CONTINUOUS
 62
               3
  5
157
 10
-269.17226690395091
 20
1009.4852084951016
 30
0.0
 40
2.5
 50
89.999999999931404
 51
179.9999999998615
  0
LINE
  8
0
  6
CONTINUOUS
 62
               3
  5
158
 10
-159.11067007056857
 20
994.38520849510132
 30
0.0
 11
-126.67226690395097
 21
994.38520849510132
 31
0.0
  0
LINE
  8
0
  6
CONTINUOUS
 62
               3
  5
159
 10
-126.67226690395097
 20
994.38520849510132
 30
0.0
 11
-92.668590632112284
 21
994.38520849510132
 31
0.0
  0
LINE
  8
0
  6
CONTINUOUS
 62
               3
  5
15A
 10
-263.50071077798623
 20
896.88520849510155
 30
0.0
 11
-263.50071077798668
 21
1011.8852084951016
 31
0.0
  0
ARC
  8
0
  6
CONTINUOUS
 62
               3
  5
15B
 10
-172.33710017384141
 20
1020.0717596485387
 30
0.0
 40
5.0
 50
271.99999999979167
 51
304.80675787019374
  0
ARC
  8
0
  6
CONTINUOUS
 62
               3
  5
15C
 10
-172.33710017384203
 20
888.6986573416649
 30
0.0
 40
5.0
 50
55.193242129529608
 51
87.999999999932768
  0
LINE
  8
0
  6
CONTINUOUS
 62
               3
  5
15D
 10
-78.172266903951083
 20
814.38520849510155
 30
0.0
 11
-78.172266903951083
 21
815.05676462106578
 31
0.0
  0
LINE
  8
0
  6
CONTINUOUS
 62
               3
  5
15E
 10
-75.672266903951069
 20
817.55676462106658
 30
0.0
 11
-78.172266903951083
 21
815.05676462106578
 31
0.0
  0
LINE
  8
0
  6
CONTINUOUS
 62
               3
  5
15F
 10
-175.17226690395108
 20
814.38520849510155
 30
0.0
 11
-175.17226690395108
 21
815.05676462106578
 31
0.0
  0
LINE
  8
0
  6
CONTINUOUS
 62
               3
  5
160
 10
-177.67226690395108
 20
817.55676462106578
 30
0.0
 11
-175.17226690395108
 21
815.05676462106578
 31
0.0
  0
LINE
  8
0
  6
CONTINUOUS
 62
               3
  5
161
 10
-175.17226690395131
 20
815.05676462106578
 30
0.0
 11
-78.172266903951083
 21
815.05676462106578
 31
0.0
  0
LINE
  8
0
  6
CONTINUOUS
 62
               3
  5
162
 10
-175.02226690395108
 20
809.38520849510155
 30
0.0
 11
-78.322266903951075
 21
809.38520849510155
 31
0.0
  0
LINE
  8
0
  6
CONTINUOUS
 62
               3
  5
163
 10
-75.822266903951075
 20
814.38520849510155
 30
0.0
 11
-177.52226690395108
 21
814.38520849510155
 31
0.0
  0
LINE
  8
0
  6
CONTINUOUS
 62
               3
  5
164
 10
-177.52226690395108
 20
814.38520849510155
 30
0.0
 11
-177.52226690395108
 21
811.88520849510155
 31
0.0
  0
LINE
  8
0
  6
CONTINUOUS
 62
               3
  5
165
 10
-75.822266903951075
 20
814.38520849510155
 30
0.0
 11
-75.822266903951075
 21
811.88520849510155
 31
0.0
  0
ARC
  8
0
  6
CONTINUOUS
 62
               3
  5
166
 10
-78.322266903951075
 20
811.88520849510155
 30
0.0
 40
2.5
 50
269.99999999979286
 51
359.999999999723
  0
ARC
  8
0
  6
CONTINUOUS
 62
               3
  5
167
 10
-175.02226690395108
 20
811.88520849510155
 30
0.0
 40
2.5
 50
179.99999999986281
 51
269.99999999979309
  0
LINE
  8
0
  6
CONTINUOUS
 62
               3
  5
168
 10
-177.67226690395108
 20
817.55676462106589
 30
0.0
 11
-75.672266903951055
 21
817.55676462106658
 31
0.0
  0
LINE
  8
0
  6
CONTINUOUS
 62
               3
  5
169
 10
-180.3410673360238
 20
893.98120975544907
 30
0.0
 11
-177.67226690395108
 21
817.55676462106589
 31
0.0
  0
LINE
  8
0
  6
CONTINUOUS
 62
               3
  5
16A
 10
-72.77888352216732
 20
900.41242398636598
 30
0.0
 11
-75.672266903951055
 21
817.55676462106658
 31
0.0
  0
ARC
  8
0
  6
CONTINUOUS
 62
               3
  5
16B
 10
-67.781929387071855
 20
900.23792650285338
 30
0.0
 40
5.0
 50
137.40271994638104
 51
177.99999999986298
  0
LINE
  8
0
  6
CONTINUOUS
 62
               3
  5
16C
 10
-201.67226690395097
 20
519.38520849510155
 30
0.0
 11
-51.67226690395097
 21
519.38520849510155
 31
0.0
  0
LINE
  8
0
  6
CONTINUOUS
 62
               3
  5
16D
 10
-215.1722669039512
 20
509.38520849510155
 30
0.0
 11
-215.1722669039512
 21
502.38520849510189
 31
0.0
  0
LINE
  8
0
  6
CONTINUOUS
 62
               3
  5
16E
 10
-215.1722669039512
 20
509.38520849510155
 30
0.0
 11
-201.67226690395097
 21
519.38520849510155
 31
0.0
  0
ARC
  8
0
  6
CONTINUOUS
 62
               3
  5
16F
 10
-203.67226690395086
 20
497.80263280014617
 30
0.0
 40
4.9999999999999991
 50
0.0
 51
66.421821521747177
  0
LINE
  8
0
  6
CONTINUOUS
 62
               3
  5
170
 10
-215.1722669039512
 20
502.38520849510189
 30
0.0
 11
-38.172266903951311
 21
502.38520849510189
 31
0.0
  0
ARC
  8
0
  6
CONTINUOUS
 62
               3
  5
171
 10
-181.67226690395097
 20
412.38520849510155
 30
0.0
 40
19.999999999999996
 50
148.2116693828346
 51
167.26981986155928
  0
LINE
  8
0
  6
CONTINUOUS
 62
               3
  5
172
 10
-198.67226690395086
 20
497.80263280014617
 30
0.0
 11
-198.67226690395086
 21
422.92086224795435
 31
0.0
  0
LINE
  8
0
  6
CONTINUOUS
 62
               3
  5
173
 10
-54.672266903951083
 20
427.92086224795491
 30
0.0
 11
-54.672266903951083
 21
497.80263280014617
 31
0.0
  0
LINE
  8
0
  6
CONTINUOUS
 62
               3
  5
174
 10
-184.67226690395108
 20
-33.614791504898733
 30
0.0
 11
-201.67226690395097
 21
115.38520849510172
 31
0.0
  0
LINE
  8
0
  6
CONTINUOUS
 62
               3
  5
175
 10
-198.67226690395086
 20
422.92086224795435
 30
0.0
 11
-55.172266903950629
 21
422.92086224795435
 31
0.0
  0
LINE
  8
0
  6
CONTINUOUS
 62
               3
  5
176
 10
-146.67226690395097
 20
502.38520849510189
 30
0.0
 11
-146.67226690395097
 21
519.38520849510155
 31
0.0
  0
LINE
  8
0
  6
CONTINUOUS
 62
               3
  5
177
 10
-106.67226690395097
 20
519.38520849510155
 30
0.0
 11
-106.67226690395097
 21
502.38520849510189
 31
0.0
  0
LINE
  8
0
  6
CONTINUOUS
 62
               3
  5
178
 10
-146.67226690395097
 20
509.38520849510155
 30
0.0
 11
-106.67226690395097
 21
509.38520849510155
 31
0.0
  0
LINE
  8
0
  6
CONTINUOUS
 62
               3
  5
179
 10
-198.95642837795634
 20
519.38520849510155
 30
0.0
 11
-198.95642837795634
 21
502.38520849510189
 31
0.0
  0
LINE
  8
0
  6
CONTINUOUS
 62
               3
  5
17A
 10
-212.88276510457621
 20
509.38520849510155
 30
0.0
 11
-212.88276510457621
 21
502.38520849510189
 31
0.0
  0
LINE
  8
0
  6
CONTINUOUS
 62
               3
  5
17B
 10
-215.1722669039512
 20
509.38520849510155
 30
0.0
 11
-212.88276510457621
 21
509.38520849510155
 31
0.0
  0
LINE
  8
0
  6
CONTINUOUS
 62
               3
  5
17C
 10
-212.88276510457621
 20
509.38520849510155
 30
0.0
 11
-198.95642837795634
 21
519.38520849510155
 31
0.0
  0
LINE
  8
0
  6
CONTINUOUS
 62
               3
  5
17D
 10
-38.172266903951311
 20
509.38520849510155
 30
0.0
 11
-38.172266903951311
 21
502.38520849510189
 31
0.0
  0
LINE
  8
0
  6
CONTINUOUS
 62
               3
  5
17E
 10
-38.172266903951311
 20
509.38520849510155
 30
0.0
 11
-51.67226690395097
 21
519.38520849510155
 31
0.0
  0
ARC
  8
0
  6
CONTINUOUS
 62
               3
  5
17F
 10
-49.672266903951083
 20
497.80263280014617
 30
0.0
 40
4.9999999999999991
 50
113.57817847811471
 51
179.99999999986184
  0
LINE
  8
0
  6
CONTINUOUS
 62
               3
  5
180
 10
-54.388105429946734
 20
519.38520849510155
 30
0.0
 11
-54.388105429946734
 21
502.38520849510189
 31
0.0
  0
LINE
  8
0
  6
CONTINUOUS
 62
               3
  5
181
 10
-40.461768703325731
 20
509.38520849510155
 30
0.0
 11
-40.461768703325731
 21
502.38520849510189
 31
0.0
  0
LINE
  8
0
  6
CONTINUOUS
 62
               3
  5
182
 10
-38.172266903951311
 20
509.38520849510155
 30
0.0
 11
-40.461768703325731
 21
509.38520849510155
 31
0.0
  0
LINE
  8
0
  6
CONTINUOUS
 62
               3
  5
183
 10
-40.461768703325731
 20
509.38520849510155
 30
0.0
 11
-54.388105429946734
 21
519.38520849510155
 31
0.0
  0
LINE
  8
0
  6
CONTINUOUS
 62
               3
  5
184
 10
-184.67226690395108
 20
-33.614791504898164
 30
0.0
 11
-68.672266903950856
 21
-33.614791504898733
 31
0.0
  0
ARC
  8
0
  6
CONTINUOUS
 62
               3
  5
185
 10
-201.67226690395097
 20
230.88520849510155
 30
0.0
 40
2.4999999999999996
 50
89.999999999930751
 51
269.99999999979326
  0
ARC
  8
0
  6
CONTINUOUS
 62
               3
  5
186
 10
-51.67226690395097
 20
230.88520849510155
 30
0.0
 40
2.4999999999999996
 50
269.99999999979326
 51
449.99999999965507
  0
LINE
  8
0
  6
CONTINUOUS
 62
               3
  5
187
 10
-201.67226690395097
 20
115.38520849510172
 30
0.0
 11
-173.04037469600786
 21
115.38520849510172
 31
0.0
  0
LINE
  8
0
  6
CONTINUOUS
 62
               3
  5
188
 10
-128.64510018410186
 20
115.38520849510172
 30
0.0
 11
-52.175501770301196
 21
115.38520849510172
 31
0.0
  0
LINE
  8
0
  6
CONTINUOUS
 62
               3
  5
189
 10
-266.67226690395097
 20
298.38520849510155
 30
0.0
 11
-266.00071077798657
 21
298.38520849510155
 31
0.0
  0
LINE
  8
0
  6
CONTINUOUS
 62
               3
  5
18A
 10
-263.50071077798651
 20
295.88520849510229
 30
0.0
 11
-266.00071077798657
 21
298.38520849510155
 31
0.0
  0
LINE
  8
0
  6
CONTINUOUS
 62
               3
  5
18B
 10
-263.50071077798577
 20
295.88520849510155
 30
0.0
 11
-221.33560052170836
 21
294.41277039924751
 31
0.0
  0
LINE
  8
0
  6
CONTINUOUS
 62
               3
  5
18C
 10
-203.13673299801849
 20
278.11351906881555
 30
0.0
 11
-217.97456409928822
 21
292.95135017008482
 31
0.0
  0
ARC
  8
0
  6
CONTINUOUS
 62
               3
  5
18D
 10
-206.67226690395097
 20
274.57798516288244
 30
0.0
 40
4.9999999999999991
 50
0.0
 51
44.999999999964551
  0
LINE
  8
0
  6
CONTINUOUS
 62
               3
  5
18E
 10
-266.67226690395097
 20
408.38520849510144
 30
0.0
 11
-266.00071077798657
 21
408.38520849510144
 31
0.0
  0
LINE
  8
0
  6
CONTINUOUS
 62
               3
  5
18F
 10
-263.50071077798651
 20
410.88520849510166
 30
0.0
 11
-266.00071077798657
 21
408.38520849510144
 31
0.0
  0
LINE
  8
0
  6
CONTINUOUS
 62
               3
  5
190
 10
-263.50071077798657
 20
410.88520849510161
 30
0.0
 11
-205.88323457581228
 21
412.89725510025386
 31
0.0
  0
LINE
  8
0
  6
CONTINUOUS
 62
               3
  5
191
 10
-266.00071077798657
 20
408.38520849510144
 30
0.0
 11
-266.00071077798657
 21
298.38520849510155
 31
0.0
  0
LINE
  8
0
  6
CONTINUOUS
 62
               3
  5
192
 10
-266.67226690395097
 20
295.78520849510153
 30
0.0
 11
-266.67226690395097
 21
410.98520849510157
 31
0.0
  0
LINE
  8
0
  6
CONTINUOUS
 62
               3
  5
193
 10
-266.67226690395097
 20
410.98520849510157
 30
0.0
 11
-269.17226690395097
 21
410.98520849510157
 31
0.0
  0
ARC
  8
0
  6
CONTINUOUS
 62
               3
  5
194
 10
-269.17226690395097
 20
408.48520849510157
 30
0.0
 40
2.5
 50
89.999999999931404
 51
179.99999999986184
  0
LINE
  8
0
  6
CONTINUOUS
 62
               3
  5
195
 10
-271.67226690395097
 20
408.48520849510157
 30
0.0
 11
-271.67226690395097
 21
298.28520849510153
 31
0.0
  0
LINE
  8
0
  6
CONTINUOUS
 62
               3
  5
196
 10
-266.67226690395097
 20
295.78520849510153
 30
0.0
 11
-269.17226690395097
 21
295.78520849510153
 31
0.0
  0
ARC
  8
0
  6
CONTINUOUS
 62
               3
  5
197
 10
-269.17226690395097
 20
298.28520849510153
 30
0.0
 40
2.5
 50
179.9999999998615
 51
269.99999999979354
  0
LINE
  8
0
  6
CONTINUOUS
 62
               3
  5
198
 10
-263.50071077798651
 20
410.88520849510166
 30
0.0
 11
-263.50071077798577
 21
295.88520849510155
 31
0.0
  0
ARC
  8
0
  6
CONTINUOUS
 62
               3
  5
199
 10
-221.5100980052209
 20
289.41581626415206
 30
0.0
 40
5.0
 50
44.999999999966278
 51
87.999999999932115
  0
ARC
  8
0
  6
CONTINUOUS
 62
               3
  5
19A
 10
-206.05773205932479
 20
417.89420923534931
 30
0.0
 40
5.0
 50
271.99999999979138
 51
347.26981986142005
  0
ARC
  8
0
  6
CONTINUOUS
 62
               3
  5
19B
 10
-149.1722669039504
 20
230.88520849510155
 30
0.0
 40
2.4999999999999996
 50
269.99999999979309
 51
449.99999999965496
  0
ARC
  8
0
  6
CONTINUOUS
 62
               3
  5
19C
 10
-104.1722669039504
 20
230.88520849510155
 30
0.0
 40
2.4999999999999996
 50
89.999999999931092
 51
269.99999999979286
  0
LINE
  8
0
  6
CONTINUOUS
 62
               3
  5
19D
 10
-201.67226690395097
 20
233.38520849510155
 30
0.0
 11
-149.1722669039504
 21
233.38520849510155
 31
0.0
  0
LINE
  8
0
  6
CONTINUOUS
 62
               3
  5
19E
 10
-104.1722669039504
 20
233.38520849510155
 30
0.0
 11
-51.67226690395097
 21
233.38520849510155
 31
0.0
  0
LINE
  8
0
  6
CONTINUOUS
 62
               3
  5
19F
 10
-201.67226690395097
 20
228.38520849510155
 30
0.0
 11
-149.1722669039504
 21
228.38520849510155
 31
0.0
  0
LINE
  8
0
  6
CONTINUOUS
 62
               3
  5
1A0
 10
-104.1722669039504
 20
228.38520849510155
 30
0.0
 11
-51.67226690395097
 21
228.38520849510155
 31
0.0
  0
LINE
  8
0
  6
CONTINUOUS
 62
               3
  5
1A1
 10
-201.67226690395097
 20
274.57798516288244
 30
0.0
 11
-201.67226690395097
 21
233.38520849510155
 31
0.0
  0
LINE
  8
0
  6
CONTINUOUS
 62
               3
  5
1A2
 10
-201.67226690395097
 20
228.38520849510155
 30
0.0
 11
-201.67226690395097
 21
115.38520849510172
 31
0.0
  0
LINE
  8
0
  6
CONTINUOUS
 62
               3
  5
1A3
 10
-68.672266903950288
 20
-44.114791504897596
 30
0.0
 11
-68.672266903950288
 21
-33.614791504898733
 31
0.0
  0
LINE
  8
0
  6
CONTINUOUS
 62
               3
  5
1A4
 10
-184.67226690395051
 20
-33.614791504898733
 30
0.0
 11
-184.67226690395051
 21
-44.114791504898051
 31
0.0
  0
LINE
  8
0
  6
CONTINUOUS
 62
               3
  5
1A5
 10
-183.17226690395097
 20
-145.61479150489845
 30
0.0
 11
-70.17226690395097
 21
-145.61479150489845
 31
0.0
  0
LINE
  8
0
  6
CONTINUOUS
 62
               3
  5
1A6
 10
-183.17226690395097
 20
-145.61479150489845
 30
0.0
 11
-183.17226690395097
 21
-45.614791504898449
 31
0.0
  0
LINE
  8
0
  6
CONTINUOUS
 62
               3
  5
1A7
 10
-70.17226690395097
 20
-145.61479150489845
 30
0.0
 11
-70.17226690395097
 21
-45.614791504898449
 31
0.0
  0
LINE
  8
0
  6
CONTINUOUS
 62
               3
  5
1A8
 10
-183.17226690395097
 20
-45.614791504898449
 30
0.0
 11
-184.67226690395137
 21
-44.114791504898051
 31
0.0
  0
LINE
  8
0
  6
CONTINUOUS
 62
               3
  5
1A9
 10
-70.17226690395097
 20
-45.614791504898449
 30
0.0
 11
-68.672266903950856
 21
-44.114791504898335
 31
0.0
  0
LINE
  8
0
  6
CONTINUOUS
 62
               3
  5
1AA
 10
-801.67226690395091
 20
519.38520849510155
 30
0.0
 11
-651.67226690395159
 21
519.38520849510155
 31
0.0
  0
LINE
  8
0
  6
CONTINUOUS
 62
               3
  5
1AB
 10
-815.17226690395114
 20
509.38520849510155
 30
0.0
 11
-815.17226690395114
 21
502.38520849510189
 31
0.0
  0
LINE
  8
0
  6
CONTINUOUS
 62
               3
  5
1AC
 10
-815.17226690395114
 20
509.38520849510155
 30
0.0
 11
-801.67226690395091
 21
519.38520849510155
 31
0.0
  0
ARC
  8
0
  6
CONTINUOUS
 62
               3
  5
1AD
 10
-803.67226690395091
 20
497.80263280014617
 30
0.0
 40
4.9999999999999991
 50
0.0
 51
66.421821521746878
  0
LINE
  8
0
  6
CONTINUOUS
 62
               3
  5
1AE
 10
-815.17226690395114
 20
502.38520849510189
 30
0.0
 11
-638.17226690395137
 21
502.38520849510189
 31
0.0
  0
ARC
  8
0
  6
CONTINUOUS
 62
               3
  5
1AF
 10
-781.67226690395091
 20
412.38520849510155
 30
0.0
 40
19.999999999999996
 50
148.21166938283446
 51
179.9999999998621
  0
LINE
  8
0
  6
CONTINUOUS
 62
               3
  5
1B0
 10
-798.67226690395091
 20
497.80263280014617
 30
0.0
 11
-798.67226690395091
 21
422.92086224795435
 31
0.0
  0
ARC
  8
0
  6
CONTINUOUS
 62
               3
  5
1B1
 10
-671.67226690395159
 20
412.38520849510155
 30
0.0
 40
19.999999999999996
 50
0.0
 51
31.788330617027448
  0
LINE
  8
0
  6
CONTINUOUS
 62
               3
  5
1B2
 10
-654.67226690395114
 20
422.92086224795435
 30
0.0
 11
-654.67226690395114
 21
497.80263280014617
 31
0.0
  0
LINE
  8
0
  6
CONTINUOUS
 62
               3
  5
1B3
 10
-784.67226690395114
 20
-33.614791504898733
 30
0.0
 11
-801.67226690395091
 21
115.38520849510172
 31
0.0
  0
LINE
  8
0
  6
CONTINUOUS
 62
               3
  5
1B4
 10
-801.67226690395091
 20
228.38520849510155
 30
0.0
 11
-801.67226690395091
 21
115.38520849510172
 31
0.0
  0
LINE
  8
0
  6
CONTINUOUS
 62
               3
  5
1B5
 10
-798.67226690395091
 20
422.92086224795435
 30
0.0
 11
-654.67226690395114
 21
422.92086224795435
 31
0.0
  0
LINE
  8
0
  6
CONTINUOUS
 62
               3
  5
1B6
 10
-746.67226690395091
 20
502.38520849510189
 30
0.0
 11
-746.67226690395091
 21
519.38520849510155
 31
0.0
  0
LINE
  8
0
  6
CONTINUOUS
 62
               3
  5
1B7
 10
-706.67226690395159
 20
519.38520849510155
 30
0.0
 11
-706.67226690395159
 21
502.38520849510189
 31
0.0
  0
LINE
  8
0
  6
CONTINUOUS
 62
               3
  5
1B8
 10
-746.67226690395091
 20
509.38520849510155
 30
0.0
 11
-706.67226690395159
 21
509.38520849510155
 31
0.0
  0
LINE
  8
0
  6
CONTINUOUS
 62
               3
  5
1B9
 10
-798.95642837795526
 20
519.38520849510155
 30
0.0
 11
-798.95642837795526
 21
502.38520849510189
 31
0.0
  0
LINE
  8
0
  6
CONTINUOUS
 62
               3
  5
1BA
 10
-812.88276510457627
 20
509.38520849510155
 30
0.0
 11
-812.88276510457627
 21
502.38520849510189
 31
0.0
  0
LINE
  8
0
  6
CONTINUOUS
 62
               3
  5
1BB
 10
-815.17226690395114
 20
509.38520849510155
 30
0.0
 11
-812.88276510457627
 21
509.38520849510155
 31
0.0
  0
LINE
  8
0
  6
CONTINUOUS
 62
               3
  5
1BC
 10
-812.88276510457627
 20
509.38520849510155
 30
0.0
 11
-798.95642837795526
 21
519.38520849510155
 31
0.0
  0
LINE
  8
0
  6
CONTINUOUS
 62
               3
  5
1BD
 10
-638.17226690395137
 20
509.38520849510155
 30
0.0
 11
-638.17226690395137
 21
502.38520849510189
 31
0.0
  0
LINE
  8
0
  6
CONTINUOUS
 62
               3
  5
1BE
 10
-638.17226690395137
 20
509.38520849510155
 30
0.0
 11
-651.67226690395159
 21
519.38520849510155
 31
0.0
  0
ARC
  8
0
  6
CONTINUOUS
 62
               3
  5
1BF
 10
-649.67226690395114
 20
497.80263280014617
 30
0.0
 40
4.9999999999999991
 50
113.57817847811482
 51
179.99999999986184
  0
LINE
  8
0
  6
CONTINUOUS
 62
               3
  5
1C0
 10
-654.38810542994611
 20
519.38520849510155
 30
0.0
 11
-654.38810542994611
 21
502.38520849510189
 31
0.0
  0
LINE
  8
0
  6
CONTINUOUS
 62
               3
  5
1C1
 10
-640.46176870332579
 20
509.38520849510155
 30
0.0
 11
-640.46176870332579
 21
502.38520849510189
 31
0.0
  0
LINE
  8
0
  6
CONTINUOUS
 62
               3
  5
1C2
 10
-638.17226690395137
 20
509.38520849510155
 30
0.0
 11
-640.46176870332579
 21
509.38520849510155
 31
0.0
  0
LINE
  8
0
  6
CONTINUOUS
 62
               3
  5
1C3
 10
-640.46176870332579
 20
509.38520849510155
 30
0.0
 11
-654.38810542994611
 21
519.38520849510155
 31
0.0
  0
LINE
  8
0
  6
CONTINUOUS
 62
               3
  5
1C4
 10
-784.67226690395114
 20
-33.614791504898164
 30
0.0
 11
-668.67226690395091
 21
-33.614791504898733
 31
0.0
  0
ARC
  8
0
  6
CONTINUOUS
 62
               3
  5
1C5
 10
-801.67226690395091
 20
230.88520849510155
 30
0.0
 40
2.4999999999999996
 50
89.999999999929457
 51
269.99999999979354
  0
LINE
  8
0
  6
CONTINUOUS
 62
               3
  5
1C6
 10
-801.67226690395091
 20
412.38520849510155
 30
0.0
 11
-801.67226690395091
 21
233.38520849510155
 31
0.0
  0
LINE
  8
0
  6
CONTINUOUS
 62
               3
  5
1C7
 10
-801.67226690395091
 20
115.38520849510172
 30
0.0
 11
-667.72326690395084
 21
115.38520849510201
 31
0.0
  0
LINE
  8
0
  6
CONTINUOUS
 62
               3
  5
1C8
 10
-654.9159003604118
 20
115.38520849510201
 30
0.0
 11
-651.67226690395159
 21
115.38520849510201
 31
0.0
  0
LINE
  8
0
  6
CONTINUOUS
 62
               3
  5
1C9
 10
-801.67226690395091
 20
228.38520849510155
 30
0.0
 11
-661.67226690395159
 21
228.38520849510155
 31
0.0
  0
LINE
  8
0
  6
CONTINUOUS
 62
               3
  5
1CA
 10
-801.67226690395091
 20
233.38520849510155
 30
0.0
 11
-661.67226690395159
 21
233.38520849510155
 31
0.0
  0
LINE
  8
0
  6
CONTINUOUS
 62
               3
  5
1CB
 10
-699.8849098114722
 20
381.38520849510144
 30
0.0
 11
-753.45962399643099
 21
381.38520849510144
 31
0.0
  0
CIRCLE
  8
0
  6
CONTINUOUS
 62
               3
  5
1CC
 10
-726.67226690395159
 20
353.38520849510155
 30
0.0
 40
48.5
  0
CIRCLE
  8
0
  6
CONTINUOUS
 62
               3
  5
1CD
 10
-726.67226690395159
 20
353.38520849510155
 30
0.0
 40
38.75
  0
CIRCLE
  8
0
  6
CONTINUOUS
 62
               3
  5
1CE
 10
-726.67226690395159
 20
353.38520849510155
 30
0.0
 40
47.299999999999997
  0
LINE
  8
0
  6
CONTINUOUS
 62
               3
  5
1CF
 10
-758.49207205734615
 20
321.565403341707
 30
0.0
 11
-760.1184176540753
 21
319.93905774497784
 31
0.0
  0
LINE
  8
0
  6
CONTINUOUS
 62
               3
  5
1D0
 10
-694.85246175055681
 20
321.565403341707
 30
0.0
 11
-693.22611615382789
 21
319.93905774497796
 31
0.0
  0
ARC
  8
0
  6
CONTINUOUS
 62
               3
  5
1D1
 10
-726.67226690395159
 20
353.38520849510155
 30
0.0
 40
45.0
 50
224.99999999982748
 51
314.99999999975859
  0
CIRCLE
  8
0
  6
CONTINUOUS
 62
               3
  5
1D2
 10
-726.67226690395159
 20
353.38520849510155
 30
0.0
 40
43.0
  0
CIRCLE
  8
0
  6
CONTINUOUS
 62
               3
  5
1D3
 10
-726.67226690395159
 20
353.38520849510155
 30
0.0
 40
57.600000000000001
  0
LINE
  8
0
  6
CONTINUOUS
 62
               3
  5
1D4
 10
-668.67226690395091
 20
-33.614791504898733
 30
0.0
 11
-656.1241759232505
 21
76.365535325951271
 31
0.0
  0
LINE
  8
0
  6
CONTINUOUS
 62
               3
  5
1D5
 10
-654.07212395018996
 20
94.351167325129097
 30
0.0
 11
-651.67226690395159
 21
115.38520849510201
 31
0.0
  0
ARC
  8
0
  6
CONTINUOUS
 62
               3
  5
1D6
 10
-661.67226690395159
 20
230.88520849510155
 30
0.0
 40
2.4999999999999996
 50
269.99999999979354
 51
449.99999999965507
  0
LINE
  8
0
  6
CONTINUOUS
 62
               3
  5
1D7
 10
-651.67226690395159
 20
115.38520849510172
 30
0.0
 11
-651.67226690395091
 21
212.74954128884664
 31
0.0
  0
LINE
  8
0
  6
CONTINUOUS
 62
               3
  5
1D8
 10
-651.67226690395091
 20
342.87274920569553
 30
0.0
 11
-651.67226690395159
 21
412.38520849510155
 31
0.0
  0
LINE
  8
0
  6
CONTINUOUS
 62
               3
  5
1D9
 10
-668.67226690395023
 20
-44.114791504897596
 30
0.0
 11
-668.67226690395023
 21
-33.614791504898733
 31
0.0
  0
LINE
  8
0
  6
CONTINUOUS
 62
               3
  5
1DA
 10
-784.67226690395046
 20
-33.614791504898733
 30
0.0
 11
-784.67226690395046
 21
-44.114791504898051
 31
0.0
  0
LINE
  8
0
  6
CONTINUOUS
 62
               3
  5
1DB
 10
-783.17226690395091
 20
-145.61479150489845
 30
0.0
 11
-670.17226690395091
 21
-145.61479150489845
 31
0.0
  0
LINE
  8
0
  6
CONTINUOUS
 62
               3
  5
1DC
 10
-783.17226690395091
 20
-145.61479150489845
 30
0.0
 11
-783.17226690395091
 21
-45.614791504898449
 31
0.0
  0
LINE
  8
0
  6
CONTINUOUS
 62
               3
  5
1DD
 10
-670.17226690395091
 20
-145.61479150489845
 30
0.0
 11
-670.17226690395091
 21
-45.614791504898449
 31
0.0
  0
LINE
  8
0
  6
CONTINUOUS
 62
               3
  5
1DE
 10
-783.17226690395091
 20
-45.614791504898449
 30
0.0
 11
-784.67226690395137
 21
-44.114791504898051
 31
0.0
  0
LINE
  8
0
  6
CONTINUOUS
 62
               3
  5
1DF
 10
-670.17226690395091
 20
-45.614791504898449
 30
0.0
 11
-668.67226690395091
 21
-44.114791504898335
 31
0.0
  0
LINE
  8
0
  6
CONTINUOUS
 62
               3
  5
1E0
 10
-589.84382302991526
 20
335.88520849510166
 30
0.0
 11
-646.84676438746351
 21
337.87579507060002
 31
0.0
  0
LINE
  8
0
  6
CONTINUOUS
 62
               3
  5
1E1
 10
-586.67226690395103
 20
333.38520849510155
 30
0.0
 11
-587.34382302991526
 21
333.38520849510155
 31
0.0
  0
LINE
  8
0
  6
CONTINUOUS
 62
               3
  5
1E2
 10
-589.84382302991526
 20
335.88520849510155
 30
0.0
 11
-587.34382302991526
 21
333.38520849510155
 31
0.0
  0
LINE
  8
0
  6
CONTINUOUS
 62
               3
  5
1E3
 10
-586.67226690395103
 20
335.73520849510157
 30
0.0
 11
-584.17226690395103
 21
335.73520849510157
 31
0.0
  0
ARC
  8
0
  6
CONTINUOUS
 62
               3
  5
1E4
 10
-584.17226690395103
 20
333.23520849510157
 30
0.0
 40
2.5
 50
0.0
 51
89.999999999932058
  0
ARC
  8
0
  6
CONTINUOUS
 62
               3
  5
1E5
 10
-646.67226690395091
 20
342.87274920569553
 30
0.0
 40
5.0
 50
179.99999999986184
 51
267.99999999979502
  0
LINE
  8
0
  6
CONTINUOUS
 62
               3
  5
1E6
 10
-586.67226690395103
 20
236.38520849510155
 30
0.0
 11
-587.34382302991526
 21
236.38520849510155
 31
0.0
  0
LINE
  8
0
  6
CONTINUOUS
 62
               3
  5
1E7
 10
-589.84382302991594
 20
233.88520849510155
 30
0.0
 11
-587.34382302991526
 21
236.38520849510155
 31
0.0
  0
LINE
  8
0
  6
CONTINUOUS
 62
               3
  5
1E8
 10
-587.34382302991526
 20
333.38520849510178
 30
0.0
 11
-587.34382302991526
 21
236.38520849510155
 31
0.0
  0
LINE
  8
0
  6
CONTINUOUS
 62
               3
  5
1E9
 10
-581.67226690395103
 20
333.23520849510157
 30
0.0
 11
-581.67226690395103
 21
236.53520849510156
 31
0.0
  0
LINE
  8
0
  6
CONTINUOUS
 62
               3
  5
1EA
 10
-586.67226690395103
 20
234.03520849510156
 30
0.0
 11
-586.67226690395103
 21
335.73520849510157
 31
0.0
  0
LINE
  8
0
  6
CONTINUOUS
 62
               3
  5
1EB
 10
-586.67226690395103
 20
234.03520849510156
 30
0.0
 11
-584.17226690395103
 21
234.03520849510156
 31
0.0
  0
ARC
  8
0
  6
CONTINUOUS
 62
               3
  5
1EC
 10
-584.17226690395103
 20
236.53520849510156
 30
0.0
 40
2.5
 50
269.99999999979229
 51
359.99999999972368
  0
LINE
  8
0
  6
CONTINUOUS
 62
               3
  5
1ED
 10
-589.84382302991526
 20
335.88520849510155
 30
0.0
 11
-589.84382302991594
 21
233.88520849510152
 31
0.0
  0
LINE
  8
0
  6
CONTINUOUS
 62
               3
  5
1EE
 10
-589.84382302991526
 20
233.88520849510226
 30
0.0
 11
-632.18669705992306
 21
232.406562751482
 31
0.0
  0
ARC
  8
0
  6
CONTINUOUS
 62
               3
  5
1EF
 10
-632.01219957641058
 20
227.40960861638652
 30
0.0
 40
5.0
 50
91.999999999929784
 51
134.99999999989606
  0
LINE
  8
0
  6
CONTINUOUS
 62
               3
  5
1F0
 10
-650.20780080988379
 20
216.28507519477944
 30
0.0
 11
-635.54773348234335
 21
230.94514252231932
 31
0.0
  0
ARC
  8
0
  6
CONTINUOUS
 62
               3
  5
1F1
 10
-646.67226690395091
 20
212.74954128884664
 30
0.0
 40
5.0
 50
134.99999999989538
 51
179.99999999986184
  0
LINE
  8
0
  6
CONTINUOUS
 62
               3
  5
1F2
 10
548.32773309604909
 20
519.38520849510155
 30
0.0
 11
398.32773309604903
 21
519.38520849510155
 31
0.0
  0
LINE
  8
0
  6
CONTINUOUS
 62
               3
  5
1F3
 10
561.82773309604931
 20
509.38520849510155
 30
0.0
 11
561.82773309604931
 21
502.38520849510189
 31
0.0
  0
LINE
  8
0
  6
CONTINUOUS
 62
               3
  5
1F4
 10
561.82773309604931
 20
509.38520849510155
 30
0.0
 11
548.32773309604909
 21
519.38520849510155
 31
0.0
  0
ARC
  8
0
  6
CONTINUOUS
 62
               3
  5
1F5
 10
550.32773309604909
 20
497.80263280014617
 30
0.0
 40
4.9999999999999991
 50
113.57817847811482
 51
179.99999999986184
  0
LINE
  8
0
  6
CONTINUOUS
 62
               3
  5
1F6
 10
561.82773309604931
 20
502.38520849510189
 30
0.0
 11
384.82773309604886
 21
502.38520849510189
 31
0.0
  0
ARC
  8
0
  6
CONTINUOUS
 62
               3
  5
1F7
 10
528.32773309604909
 20
412.38520849510155
 30
0.0
 40
19.999999999999996
 50
0.0
 51
31.788330617027448
  0
LINE
  8
0
  6
CONTINUOUS
 62
               3
  5
1F8
 10
545.32773309604909
 20
497.80263280014617
 30
0.0
 11
545.32773309604909
 21
422.92086224795435
 31
0.0
  0
ARC
  8
0
  6
CONTINUOUS
 62
               3
  5
1F9
 10
418.32773309604903
 20
412.38520849510155
 30
0.0
 40
19.999999999999996
 50
148.21166938283446
 51
179.9999999998621
  0
LINE
  8
0
  6
CONTINUOUS
 62
               3
  5
1FA
 10
401.32773309604914
 20
422.92086224795435
 30
0.0
 11
401.32773309604914
 21
497.80263280014617
 31
0.0
  0
LINE
  8
0
  6
CONTINUOUS
 62
               3
  5
1FB
 10
531.32773309604931
 20
-33.614791504898676
 30
0.0
 11
548.32773309604909
 21
115.38520849510166
 31
0.0
  0
LINE
  8
0
  6
CONTINUOUS
 62
               3
  5
1FC
 10
415.32773309604892
 20
-33.614791504898676
 30
0.0
 11
398.32773309604903
 21
115.38520849510166
 31
0.0
  0
LINE
  8
0
  6
CONTINUOUS
 62
               3
  5
1FD
 10
548.32773309604909
 20
228.38520849510155
 30
0.0
 11
548.32773309604909
 21
115.38520849510166
 31
0.0
  0
LINE
  8
0
  6
CONTINUOUS
 62
               3
  5
1FE
 10
493.32773309604903
 20
502.38520849510189
 30
0.0
 11
493.32773309604903
 21
519.38520849510155
 31
0.0
  0
LINE
  8
0
  6
CONTINUOUS
 62
               3
  5
1FF
 10
453.32773309604903
 20
519.38520849510155
 30
0.0
 11
453.32773309604903
 21
502.38520849510189
 31
0.0
  0
LINE
  8
0
  6
CONTINUOUS
 62
               3
  5
200
 10
493.32773309604903
 20
509.38520849510155
 30
0.0
 11
453.32773309604903
 21
509.38520849510155
 31
0.0
  0
LINE
  8
0
  6
CONTINUOUS
 62
               3
  5
201
 10
545.61189457005389
 20
519.38520849510155
 30
0.0
 11
545.61189457005389
 21
502.38520849510189
 31
0.0
  0
LINE
  8
0
  6
CONTINUOUS
 62
               3
  5
202
 10
559.53823129667444
 20
509.38520849510155
 30
0.0
 11
559.53823129667444
 21
502.38520849510189
 31
0.0
  0
LINE
  8
0
  6
CONTINUOUS
 62
               3
  5
203
 10
561.82773309604931
 20
509.38520849510155
 30
0.0
 11
559.53823129667444
 21
509.38520849510155
 31
0.0
  0
LINE
  8
0
  6
CONTINUOUS
 62
               3
  5
204
 10
559.53823129667444
 20
509.38520849510155
 30
0.0
 11
545.61189457005389
 21
519.38520849510155
 31
0.0
  0
LINE
  8
0
  6
CONTINUOUS
 62
               3
  5
205
 10
384.82773309604886
 20
509.38520849510155
 30
0.0
 11
384.82773309604886
 21
502.38520849510189
 31
0.0
  0
LINE
  8
0
  6
CONTINUOUS
 62
               3
  5
206
 10
384.82773309604886
 20
509.38520849510155
 30
0.0
 11
398.32773309604903
 21
519.38520849510155
 31
0.0
  0
ARC
  8
0
  6
CONTINUOUS
 62
               3
  5
207
 10
396.32773309604914
 20
497.80263280014617
 30
0.0
 40
4.9999999999999991
 50
0.0
 51
66.421821521746878
  0
LINE
  8
0
  6
CONTINUOUS
 62
               3
  5
208
 10
401.04357162204423
 20
519.38520849510155
 30
0.0
 11
401.04357162204423
 21
502.38520849510189
 31
0.0
  0
LINE
  8
0
  6
CONTINUOUS
 62
               3
  5
209
 10
387.11723489542379
 20
509.38520849510155
 30
0.0
 11
387.11723489542379
 21
502.38520849510189
 31
0.0
  0
LINE
  8
0
  6
CONTINUOUS
 62
               3
  5
20A
 10
384.82773309604886
 20
509.38520849510155
 30
0.0
 11
387.11723489542379
 21
509.38520849510155
 31
0.0
  0
LINE
  8
0
  6
CONTINUOUS
 62
               3
  5
20B
 10
387.11723489542379
 20
509.38520849510155
 30
0.0
 11
401.04357162204423
 21
519.38520849510155
 31
0.0
  0
LINE
  8
0
  6
CONTINUOUS
 62
               3
  5
20C
 10
531.32773309604931
 20
-33.614791504898108
 30
0.0
 11
415.32773309604892
 21
-33.614791504898676
 31
0.0
  0
LINE
  8
0
  6
CONTINUOUS
 62
               3
  5
20D
 10
545.32773309604909
 20
422.92086224795435
 30
0.0
 11
485.05473309604923
 21
422.92086224795435
 31
0.0
  0
LINE
  8
0
  6
CONTINUOUS
 62
               3
  5
20E
 10
461.60073309604883
 20
422.92086224795435
 30
0.0
 11
401.32773309604914
 21
422.92086224795435
 31
0.0
  0
ARC
  8
0
  6
CONTINUOUS
 62
               3
  5
20F
 10
548.32773309604909
 20
230.88520849510155
 30
0.0
 40
2.4999999999999996
 50
269.99999999979354
 51
449.99999999965507
  0
LINE
  8
0
  6
CONTINUOUS
 62
               3
  5
210
 10
408.32773309604903
 20
233.38520849510155
 30
0.0
 11
465.11073309604882
 21
233.38520849510155
 31
0.0
  0
LINE
  8
0
  6
CONTINUOUS
 62
               3
  5
211
 10
481.54473309604867
 20
233.38520849510155
 30
0.0
 11
548.32773309604909
 21
233.38520849510155
 31
0.0
  0
LINE
  8
0
  6
CONTINUOUS
 62
               3
  5
212
 10
408.32773309604903
 20
228.38520849510155
 30
0.0
 11
465.2660885626338
 21
228.38520849510155
 31
0.0
  0
LINE
  8
0
  6
CONTINUOUS
 62
               3
  5
213
 10
481.54473309604867
 20
228.38520849510155
 30
0.0
 11
548.32773309604909
 21
228.38520849510155
 31
0.0
  0
LINE
  8
0
  6
CONTINUOUS
 62
               3
  5
214
 10
548.32773309604909
 20
115.38520849510166
 30
0.0
 11
481.54473309604867
 21
115.38520849510166
 31
0.0
  0
LINE
  8
0
  6
CONTINUOUS
 62
               3
  5
215
 10
465.11073309604882
 20
115.38520849510166
 30
0.0
 11
398.32773309604903
 21
115.38520849510166
 31
0.0
  0
LINE
  8
0
  6
CONTINUOUS
 62
               3
  5
216
 10
548.32773309604909
 20
412.38520849510155
 30
0.0
 11
548.32773309604909
 21
233.38520849510155
 31
0.0
  0
ARC
  8
0
  6
CONTINUOUS
 62
               3
  5
217
 10
408.32773309604903
 20
230.88520849510155
 30
0.0
 40
2.4999999999999996
 50
89.999999999929457
 51
269.99999999979354
  0
LINE
  8
0
  6
CONTINUOUS
 62
               3
  5
218
 10
398.32773309604903
 20
342.87274920569553
 30
0.0
 11
398.32773309604903
 21
412.38520849510155
 31
0.0
  0
LINE
  8
0
  6
CONTINUOUS
 62
               3
  5
219
 10
398.32773309604903
 20
115.38520849510166
 30
0.0
 11
398.32773309604903
 21
212.74954128884664
 31
0.0
  0
LINE
  8
0
  6
CONTINUOUS
 62
               3
  5
21A
 10
531.32773309604977
 20
-44.114791504897539
 30
0.0
 11
531.32773309604977
 21
-33.614791504898676
 31
0.0
  0
LINE
  8
0
  6
CONTINUOUS
 62
               3
  5
21B
 10
415.32773309604949
 20
-33.614791504898676
 30
0.0
 11
415.32773309604949
 21
-44.114791504897994
 31
0.0
  0
LINE
  8
0
  6
CONTINUOUS
 62
               3
  5
21C
 10
416.82773309604903
 20
-145.61479150489845
 30
0.0
 11
529.82773309604909
 21
-145.61479150489845
 31
0.0
  0
LINE
  8
0
  6
CONTINUOUS
 62
               3
  5
21D
 10
416.82773309604903
 20
-145.61479150489845
 30
0.0
 11
416.82773309604903
 21
-45.614791504898449
 31
0.0
  0
LINE
  8
0
  6
CONTINUOUS
 62
               3
  5
21E
 10
529.82773309604909
 20
-145.61479150489845
 30
0.0
 11
529.82773309604909
 21
-45.614791504898449
 31
0.0
  0
LINE
  8
0
  6
CONTINUOUS
 62
               3
  5
21F
 10
416.82773309604903
 20
-45.614791504898449
 30
0.0
 11
415.32773309604869
 21
-44.114791504897994
 31
0.0
  0
LINE
  8
0
  6
CONTINUOUS
 62
               3
  5
220
 10
529.82773309604909
 20
-45.614791504898449
 30
0.0
 11
531.32773309604909
 21
-44.114791504898278
 31
0.0
  0
LINE
  8
0
  6
CONTINUOUS
 62
               3
  5
221
 10
336.49928922201337
 20
233.88520849510226
 30
0.0
 11
378.84216325202118
 21
232.406562751482
 31
0.0
  0
LINE
  8
0
  6
CONTINUOUS
 62
               3
  5
222
 10
396.8632670019818
 20
216.28507519477944
 30
0.0
 11
382.20319967444135
 21
230.94514252231932
 31
0.0
  0
LINE
  8
0
  6
CONTINUOUS
 62
               3
  5
223
 10
336.49928922201337
 20
335.88520849510166
 30
0.0
 11
393.50223057956151
 21
337.87579507060002
 31
0.0
  0
LINE
  8
0
  6
CONTINUOUS
 62
               3
  5
224
 10
333.32773309604909
 20
236.38520849510155
 30
0.0
 11
333.99928922201332
 21
236.38520849510155
 31
0.0
  0
LINE
  8
0
  6
CONTINUOUS
 62
               3
  5
225
 10
336.49928922201406
 20
233.88520849510155
 30
0.0
 11
333.99928922201332
 21
236.38520849510155
 31
0.0
  0
LINE
  8
0
  6
CONTINUOUS
 62
               3
  5
226
 10
333.32773309604909
 20
333.38520849510155
 30
0.0
 11
333.99928922201332
 21
333.38520849510155
 31
0.0
  0
LINE
  8
0
  6
CONTINUOUS
 62
               3
  5
227
 10
336.49928922201332
 20
335.88520849510155
 30
0.0
 11
333.99928922201332
 21
333.38520849510155
 31
0.0
  0
LINE
  8
0
  6
CONTINUOUS
 62
               3
  5
228
 10
333.99928922201332
 20
333.38520849510178
 30
0.0
 11
333.99928922201332
 21
236.38520849510155
 31
0.0
  0
LINE
  8
0
  6
CONTINUOUS
 62
               3
  5
229
 10
328.32773309604909
 20
333.23520849510157
 30
0.0
 11
328.32773309604909
 21
236.53520849510156
 31
0.0
  0
LINE
  8
0
  6
CONTINUOUS
 62
               3
  5
22A
 10
333.32773309604909
 20
234.03520849510156
 30
0.0
 11
333.32773309604909
 21
335.73520849510157
 31
0.0
  0
LINE
  8
0
  6
CONTINUOUS
 62
               3
  5
22B
 10
333.32773309604909
 20
335.73520849510157
 30
0.0
 11
330.82773309604909
 21
335.73520849510157
 31
0.0
  0
LINE
  8
0
  6
CONTINUOUS
 62
               3
  5
22C
 10
333.32773309604909
 20
234.03520849510156
 30
0.0
 11
330.82773309604909
 21
234.03520849510156
 31
0.0
  0
ARC
  8
0
  6
CONTINUOUS
 62
               3
  5
22D
 10
330.82773309604909
 20
236.53520849510156
 30
0.0
 40
2.5
 50
179.9999999998615
 51
269.99999999979229
  0
ARC
  8
0
  6
CONTINUOUS
 62
               3
  5
22E
 10
330.82773309604909
 20
333.23520849510157
 30
0.0
 40
2.5
 50
89.999999999932058
 51
179.9999999998615
  0
LINE
  8
0
  6
CONTINUOUS
 62
               3
  5
22F
 10
336.49928922201337
 20
335.88520849510155
 30
0.0
 11
336.49928922201406
 21
233.88520849510152
 31
0.0
  0
ARC
  8
0
  6
CONTINUOUS
 62
               3
  5
230
 10
378.66766576850864
 20
227.40960861638652
 30
0.0
 40
5.0
 50
44.999999999966512
 51
87.999999999932285
  0
ARC
  8
0
  6
CONTINUOUS
 62
               3
  5
231
 10
393.32773309604903
 20
212.74954128884664
 30
0.0
 40
5.0
 50
0.0
 51
44.999999999966512
  0
ARC
  8
0
  6
CONTINUOUS
 62
               3
  5
232
 10
393.32773309604903
 20
342.87274920569553
 30
0.0
 40
5.0
 50
271.99999999979059
 51
359.99999999972414
  0
LINE
  8
0
  6
CONTINUOUS
 62
               3
  5
233
 10
-107.59184500085922
 20
310.88520849510144
 30
0.0
 11
-145.7526888070438
 21
310.88520849510144
 31
0.0
  0
CIRCLE
  8
0
  6
CONTINUOUS
 62
               3
  5
234
 10
-126.67226690395097
 20
284.88520849510155
 30
0.0
 40
41.849999999999994
  0
CIRCLE
  8
0
  6
CONTINUOUS
 62
               3
  5
235
 10
-126.67226690395097
 20
284.88520849510155
 30
0.0
 40
40.75
  0
CIRCLE
  8
0
  6
CONTINUOUS
 62
               3
  5
236
 10
-126.67226690395154
 20
284.88520849510155
 30
0.0
 40
36.399999999999999
  0
CIRCLE
  8
0
  6
CONTINUOUS
 62
               3
  5
237
 10
-126.67226690395154
 20
284.88520849510155
 30
0.0
 40
32.25
  0
LINE
  8
0
  6
CONTINUOUS
 62
               3
  5
238
 10
-99.625432523566019
 20
257.83837411471609
 30
0.0
 11
-97.857665570599181
 21
256.07060716174965
 31
0.0
  0
LINE
  8
0
  6
CONTINUOUS
 62
               3
  5
239
 10
-153.71910128433007
 20
257.83837411470927
 30
0.0
 11
-155.4868682373023
 21
256.07060716174908
 31
0.0
  0
ARC
  8
0
  6
CONTINUOUS
 62
               3
  5
23A
 10
-126.67226690395154
 20
284.88520849510155
 30
0.0
 40
38.25
 50
224.99999999984198
 51
314.99999999976745
  0
CIRCLE
  8
0
  6
CONTINUOUS
 62
               3
  5
23B
 10
-126.67226690395097
 20
284.88520849510155
 30
0.0
 40
50.850000000000001
  0
CIRCLE
  8
0
  6
CONTINUOUS
 62
               3
  5
23C
 10
-126.67226690395097
 20
954.38520849510155
 30
0.0
 40
59.0
  0
CIRCLE
  8
0
  6
CONTINUOUS
 62
               3
  5
23D
 10
482.61425631235693
 20
-509.57855141429798
 30
0.0
 40
75.0
  0
CIRCLE
  8
0
  6
CONTINUOUS
 62
               3
  5
23E
 10
482.61425631235693
 20
-509.57855141429798
 30
0.0
 40
52.5
  0
LINE
  8
0
  6
CONTINUOUS
 62
               3
  5
23F
 10
396.40375811173169
 20
-489.57855141429798
 30
0.0
 11
410.33009483835156
 21
-489.57855141429798
 31
0.0
  0
LINE
  8
0
  6
CONTINUOUS
 62
               3
  5
240
 10
410.33009483835156
 20
-529.57855141429809
 30
0.0
 11
396.40375811173169
 21
-529.57855141429809
 31
0.0
  0
ARC
  8
0
  6
CONTINUOUS
 62
               3
  5
241
 10
482.61425631235693
 20
-509.57855141429798
 30
0.0
 40
88.5
 50
166.93897588510336
 51
193.06102411468945
  0
LINE
  8
0
  6
CONTINUOUS
 62
               3
  5
242
 10
462.61425631235693
 20
-595.78904961492299
 30
0.0
 11
462.61425631235693
 21
-581.86271288830312
 31
0.0
  0
LINE
  8
0
  6
CONTINUOUS
 62
               3
  5
243
 10
502.61425631235693
 20
-581.86271288830312
 30
0.0
 11
502.61425631235693
 21
-595.78904961492299
 31
0.0
  0
ARC
  8
0
  6
CONTINUOUS
 62
               3
  5
244
 10
482.61425631235693
 20
-509.57855141429798
 30
0.0
 40
88.5
 50
256.93897588505166
 51
283.06102411463769
  0
LINE
  8
0
  6
CONTINUOUS
 62
               3
  5
245
 10
568.8247545129816
 20
-529.57855141429809
 30
0.0
 11
554.89841778636105
 21
-529.57855141429809
 31
0.0
  0
LINE
  8
0
  6
CONTINUOUS
 62
               3
  5
246
 10
554.89841778636105
 20
-489.57855141429798
 30
0.0
 11
568.8247545129816
 21
-489.57855141429798
 31
0.0
  0
ARC
  8
0
  6
CONTINUOUS
 62
               3
  5
247
 10
482.61425631235693
 20
-509.57855141429798
 30
0.0
 40
88.5
 50
346.93897588499982
 51
373.06102411458585
  0
LINE
  8
0
  6
CONTINUOUS
 62
               3
  5
248
 10
502.61425631235693
 20
-423.3680532136724
 30
0.0
 11
502.61425631235693
 21
-437.29438994029294
 31
0.0
  0
LINE
  8
0
  6
CONTINUOUS
 62
               3
  5
249
 10
462.61425631235693
 20
-437.29438994029294
 30
0.0
 11
462.61425631235693
 21
-423.3680532136724
 31
0.0
  0
ARC
  8
0
  6
CONTINUOUS
 62
               3
  5
24A
 10
482.61425631235693
 20
-509.57855141429798
 30
0.0
 40
88.5
 50
76.938975885155216
 51
103.06102411474124
  0
LINE
  8
0
  6
CONTINUOUS
 62
               3
  5
24B
 10
434.94613279149587
 20
-531.57855141429854
 30
0.0
 11
530.28237983321674
 21
-531.57855141429854
 31
0.0
  0
ARC
  8
0
  6
CONTINUOUS
 62
               3
  5
24C
 10
495.11786796173806
 20
-500.87215378667895
 30
0.0
 40
54.763804151667173
 50
141.3859176367566
 51
145.15009542087031
  0
ARC
  8
0
  6
CONTINUOUS
 62
               3
  5
24D
 10
482.61425631235693
 20
-509.57855141429798
 30
0.0
 40
51.5
 50
334.71098847326505
 51
410.95932736340404
  0
ARC
  8
0
  6
CONTINUOUS
 62
               3
  5
24E
 10
482.61425631235693
 20
-509.57855141429798
 30
0.0
 40
51.5
 50
129.04067263628559
 51
205.28901152642416
  0
ARC
  8
0
  6
CONTINUOUS
 62
               3
  5
24F
 10
482.61425631235693
 20
-509.57855141429798
 30
0.0
 40
77.5
 50
104.95524831658301
 51
128.57288309095932
  0
ARC
  8
0
  6
CONTINUOUS
 62
               3
  5
250
 10
482.61425631235693
 20
-509.57855141429798
 30
0.0
 40
77.5
 50
14.9552483166347
 51
75.044751683313535
  0
ARC
  8
0
  6
CONTINUOUS
 62
               3
  5
251
 10
482.61425631235693
 20
-509.57855141429798
 30
0.0
 40
77.5
 50
321.42711690878122
 51
345.04475168315804
  0
LINE
  8
0
  6
CONTINUOUS
 62
               3
  5
252
 10
342.61425631235687
 20
-564.57855141429809
 30
0.0
 11
343.2858124383211
 21
-564.57855141429809
 31
0.0
  0
LINE
  8
0
  6
CONTINUOUS
 62
               3
  5
253
 10
345.78581243832156
 20
-567.07855141429809
 30
0.0
 11
343.2858124383211
 21
-564.57855141429809
 31
0.0
  0
LINE
  8
0
  6
CONTINUOUS
 62
               3
  5
254
 10
342.61425631235687
 20
-454.57855141429798
 30
0.0
 11
343.2858124383211
 21
-454.57855141429798
 31
0.0
  0
LINE
  8
0
  6
CONTINUOUS
 62
               3
  5
255
 10
345.7858124383211
 20
-452.07855141429798
 30
0.0
 11
343.2858124383211
 21
-454.57855141429798
 31
0.0
  0
LINE
  8
0
  6
CONTINUOUS
 62
               3
  5
256
 10
343.2858124383211
 20
-454.57855141429798
 30
0.0
 11
343.2858124383211
 21
-564.57855141429809
 31
0.0
  0
LINE
  8
0
  6
CONTINUOUS
 62
               3
  5
257
 10
437.12392052597897
 20
-448.88895439595638
 30
0.0
 11
345.7858124383211
 21
-452.07855141429798
 31
0.0
  0
LINE
  8
0
  6
CONTINUOUS
 62
               3
  5
258
 10
417.77778459580588
 20
-569.59256647926577
 30
0.0
 11
345.78581243832167
 21
-567.07855141429809
 31
0.0
  0
LINE
  8
0
  6
CONTINUOUS
 62
               3
  5
259
 10
337.61425631235687
 20
-454.75010754026209
 30
0.0
 11
337.61425631235687
 21
-564.678551414298
 31
0.0
  0
LINE
  8
0
  6
CONTINUOUS
 62
               3
  5
25A
 10
342.61425631235687
 20
-567.178551414298
 30
0.0
 11
342.61425631235687
 21
-451.97855141429784
 31
0.0
  0
LINE
  8
0
  6
CONTINUOUS
 62
               3
  5
25B
 10
342.61425631235687
 20
-451.97855141429784
 30
0.0
 11
340.11425631235687
 21
-451.97855141429784
 31
0.0
  0
LINE
  8
0
  6
CONTINUOUS
 62
               3
  5
25C
 10
342.61425631235687
 20
-567.178551414298
 30
0.0
 11
340.11425631235687
 21
-567.178551414298
 31
0.0
  0
ARC
  8
0
  6
CONTINUOUS
 62
               3
  5
25D
 10
340.11425631235687
 20
-564.678551414298
 30
0.0
 40
2.5
 50
179.99999999989538
 51
269.99999999984436
  0
ARC
  8
0
  6
CONTINUOUS
 62
               3
  5
25E
 10
340.11425631235687
 20
-454.47855141429784
 30
0.0
 40
2.5
 50
89.999999999948997
 51
179.99999999989538
  0
LINE
  8
0
  6
CONTINUOUS
 62
               3
  5
25F
 10
450.17585314573932
 20
-469.5785514142982
 30
0.0
 11
482.61425631235693
 21
-469.5785514142982
 31
0.0
  0
LINE
  8
0
  6
CONTINUOUS
 62
               3
  5
260
 10
482.61425631235693
 20
-469.5785514142982
 30
0.0
 11
516.61793258419561
 21
-469.5785514142982
 31
0.0
  0
LINE
  8
0
  6
CONTINUOUS
 62
               3
  5
261
 10
345.78581243832156
 20
-567.07855141429809
 30
0.0
 11
345.7858124383211
 21
-452.07855141429798
 31
0.0
  0
ARC
  8
0
  6
CONTINUOUS
 62
               3
  5
262
 10
436.94942304246649
 20
-443.89200026086075
 30
0.0
 40
5.0
 50
271.99999999984402
 51
304.806757870252
  0
LINE
  8
0
  6
CONTINUOUS
 62
               3
  5
263
 10
537.6142563123567
 20
-649.57855141429809
 30
0.0
 11
537.6142563123567
 21
-648.90699528833375
 31
0.0
  0
LINE
  8
0
  6
CONTINUOUS
 62
               3
  5
264
 10
540.1142563123567
 20
-646.40699528833329
 30
0.0
 11
537.6142563123567
 21
-648.90699528833375
 31
0.0
  0
LINE
  8
0
  6
CONTINUOUS
 62
               3
  5
265
 10
427.61425631235682
 20
-649.57855141429809
 30
0.0
 11
427.61425631235682
 21
-648.90699528833375
 31
0.0
  0
LINE
  8
0
  6
CONTINUOUS
 62
               3
  5
266
 10
425.11425631235682
 20
-646.40699528833375
 30
0.0
 11
427.61425631235682
 21
-648.90699528833375
 31
0.0
  0
LINE
  8
0
  6
CONTINUOUS
 62
               3
  5
267
 10
427.61425631235682
 20
-648.90699528833375
 30
0.0
 11
537.6142563123567
 21
-648.90699528833375
 31
0.0
  0
LINE
  8
0
  6
CONTINUOUS
 62
               3
  5
268
 10
427.78581243832093
 20
-654.57855141429809
 30
0.0
 11
537.71425631235684
 21
-654.57855141429809
 31
0.0
  0
LINE
  8
0
  6
CONTINUOUS
 62
               3
  5
269
 10
540.21425631235684
 20
-649.57855141429809
 30
0.0
 11
425.01425631235679
 21
-649.57855141429809
 31
0.0
  0
LINE
  8
0
  6
CONTINUOUS
 62
               3
  5
26A
 10
425.01425631235679
 20
-649.57855141429809
 30
0.0
 11
425.01425631235679
 21
-652.07855141429809
 31
0.0
  0
LINE
  8
0
  6
CONTINUOUS
 62
               3
  5
26B
 10
540.21425631235684
 20
-649.57855141429809
 30
0.0
 11
540.21425631235684
 21
-652.07855141429809
 31
0.0
  0
ARC
  8
0
  6
CONTINUOUS
 62
               3
  5
26C
 10
537.71425631235684
 20
-652.07855141429809
 30
0.0
 40
2.5
 50
269.99999999984567
 51
359.99999999979337
  0
ARC
  8
0
  6
CONTINUOUS
 62
               3
  5
26D
 10
427.51425631235679
 20
-652.07855141429809
 30
0.0
 40
2.5
 50
179.99999999989538
 51
269.99999999984567
  0
LINE
  8
0
  6
CONTINUOUS
 62
               3
  5
26E
 10
540.1142563123567
 20
-646.40699528833329
 30
0.0
 11
425.11425631235682
 21
-646.40699528833375
 31
0.0
  0
LINE
  8
0
  6
CONTINUOUS
 62
               3
  5
26F
 10
543.30385333069785
 20
-555.06888720067627
 30
0.0
 11
540.1142563123567
 21
-646.40699528833329
 31
0.0
  0
ARC
  8
0
  6
CONTINUOUS
 62
               3
  5
270
 10
548.30080746579347
 20
-555.2433846841891
 30
0.0
 40
5.0
 50
145.19324212948862
 51
177.99999999989819
  0
LINE
  8
0
  6
CONTINUOUS
 62
               3
  5
271
 10
422.60024124738879
 20
-574.41502313084902
 30
0.0
 11
425.11425631235682
 21
-646.40699528833375
 31
0.0
  0
ARC
  8
0
  6
CONTINUOUS
 62
               3
  5
272
 10
417.6032871122934
 20
-574.58952061436094
 30
0.0
 40
5.0
 50
1.9999999999958187
 51
87.99999999994921
  0
LINE
  8
0
  6
CONTINUOUS
 62
               3
  5
273
 10
407.61425631235693
 20
-818.07798516288221
 30
0.0
 11
557.61425631235693
 21
-818.07798516288221
 31
0.0
  0
LINE
  8
0
  6
CONTINUOUS
 62
               3
  5
274
 10
394.1142563123567
 20
-828.07798516288221
 30
0.0
 11
394.1142563123567
 21
-835.07798516288176
 31
0.0
  0
LINE
  8
0
  6
CONTINUOUS
 62
               3
  5
275
 10
394.1142563123567
 20
-828.07798516288221
 30
0.0
 11
407.61425631235693
 21
-818.07798516288221
 31
0.0
  0
ARC
  8
0
  6
CONTINUOUS
 62
               3
  5
276
 10
405.61425631235704
 20
-839.66056085783748
 30
0.0
 40
4.9999999999999991
 50
0.0
 51
66.421821521760023
  0
LINE
  8
0
  6
CONTINUOUS
 62
               3
  5
277
 10
394.1142563123567
 20
-835.07798516288176
 30
0.0
 11
571.11425631235647
 21
-835.07798516288176
 31
0.0
  0
ARC
  8
0
  6
CONTINUOUS
 62
               3
  5
278
 10
427.61425631235693
 20
-925.07798516288221
 30
0.0
 40
19.999999999999996
 50
148.21166938286279
 51
167.26981986159123
  0
LINE
  8
0
  6
CONTINUOUS
 62
               3
  5
279
 10
410.61425631235704
 20
-839.66056085783748
 30
0.0
 11
410.61425631235704
 21
-914.54233141002942
 31
0.0
  0
LINE
  8
0
  6
CONTINUOUS
 62
               3
  5
27A
 10
554.6142563123567
 20
-909.54233141002896
 30
0.0
 11
554.6142563123567
 21
-839.66056085783748
 31
0.0
  0
LINE
  8
0
  6
CONTINUOUS
 62
               3
  5
27B
 10
410.61425631235704
 20
-914.54233141002942
 30
0.0
 11
554.11425631235716
 21
-914.54233141002942
 31
0.0
  0
LINE
  8
0
  6
CONTINUOUS
 62
               3
  5
27C
 10
462.61425631235693
 20
-835.07798516288176
 30
0.0
 11
462.61425631235693
 21
-818.07798516288221
 31
0.0
  0
LINE
  8
0
  6
CONTINUOUS
 62
               3
  5
27D
 10
502.61425631235693
 20
-818.07798516288221
 30
0.0
 11
502.61425631235693
 21
-835.07798516288176
 31
0.0
  0
LINE
  8
0
  6
CONTINUOUS
 62
               3
  5
27E
 10
462.61425631235693
 20
-828.07798516288221
 30
0.0
 11
502.61425631235693
 21
-828.07798516288221
 31
0.0
  0
LINE
  8
0
  6
CONTINUOUS
 62
               3
  5
27F
 10
410.33009483835156
 20
-818.07798516288221
 30
0.0
 11
410.33009483835156
 21
-835.07798516288176
 31
0.0
  0
LINE
  8
0
  6
CONTINUOUS
 62
               3
  5
280
 10
396.40375811173169
 20
-828.07798516288221
 30
0.0
 11
396.40375811173169
 21
-835.07798516288176
 31
0.0
  0
LINE
  8
0
  6
CONTINUOUS
 62
               3
  5
281
 10
394.1142563123567
 20
-828.07798516288221
 30
0.0
 11
396.40375811173169
 21
-828.07798516288221
 31
0.0
  0
LINE
  8
0
  6
CONTINUOUS
 62
               3
  5
282
 10
396.40375811173169
 20
-828.07798516288221
 30
0.0
 11
410.33009483835156
 21
-818.07798516288221
 31
0.0
  0
LINE
  8
0
  6
CONTINUOUS
 62
               3
  5
283
 10
571.11425631235647
 20
-828.07798516288221
 30
0.0
 11
571.11425631235647
 21
-835.07798516288176
 31
0.0
  0
LINE
  8
0
  6
CONTINUOUS
 62
               3
  5
284
 10
571.11425631235647
 20
-828.07798516288221
 30
0.0
 11
557.61425631235693
 21
-818.07798516288221
 31
0.0
  0
ARC
  8
0
  6
CONTINUOUS
 62
               3
  5
285
 10
559.6142563123567
 20
-839.66056085783748
 30
0.0
 40
4.9999999999999991
 50
113.57817847813573
 51
179.99999999989538
  0
LINE
  8
0
  6
CONTINUOUS
 62
               3
  5
286
 10
554.89841778636105
 20
-818.07798516288221
 30
0.0
 11
554.89841778636105
 21
-835.07798516288176
 31
0.0
  0
LINE
  8
0
  6
CONTINUOUS
 62
               3
  5
287
 10
568.82475451298205
 20
-828.07798516288221
 30
0.0
 11
568.82475451298205
 21
-835.07798516288176
 31
0.0
  0
LINE
  8
0
  6
CONTINUOUS
 62
               3
  5
288
 10
571.11425631235647
 20
-828.07798516288221
 30
0.0
 11
568.82475451298205
 21
-828.07798516288221
 31
0.0
  0
LINE
  8
0
  6
CONTINUOUS
 62
               3
  5
289
 10
568.82475451298205
 20
-828.07798516288221
 30
0.0
 11
554.89841778636105
 21
-818.07798516288221
 31
0.0
  0
ARC
  8
0
  6
CONTINUOUS
 62
               3
  5
28A
 10
417.61425631235693
 20
-1046.5779851628822
 30
0.0
 40
2.4999999999999996
 50
89.99999999994769
 51
269.99999999984567
  0
ARC
  8
0
  6
CONTINUOUS
 62
               3
  5
28B
 10
557.61425631235693
 20
-1046.5779851628822
 30
0.0
 40
2.4999999999999996
 50
269.99999999984567
 51
449.99999999974102
  0
LINE
  8
0
  6
CONTINUOUS
 62
               3
  5
28C
 10
342.61425631235687
 20
-1039.0779851628822
 30
0.0
 11
343.28581243832122
 21
-1039.0779851628822
 31
0.0
  0
LINE
  8
0
  6
CONTINUOUS
 62
               3
  5
28D
 10
345.78581243832133
 20
-1041.5779851628818
 30
0.0
 11
343.28581243832122
 21
-1039.0779851628822
 31
0.0
  0
LINE
  8
0
  6
CONTINUOUS
 62
               3
  5
28E
 10
345.78581243832213
 20
-1041.5779851628822
 30
0.0
 11
387.95092269459951
 21
-1043.0504232587364
 31
0.0
  0
LINE
  8
0
  6
CONTINUOUS
 62
               3
  5
28F
 10
406.14979021828947
 20
-1059.3496745891684
 30
0.0
 11
391.31195911701968
 21
-1044.5118434878991
 31
0.0
  0
ARC
  8
0
  6
CONTINUOUS
 62
               3
  5
290
 10
402.61425631235693
 20
-1062.8852084951013
 30
0.0
 40
4.9999999999999991
 50
0.0
 51
44.999999999973191
  0
LINE
  8
0
  6
CONTINUOUS
 62
               3
  5
291
 10
342.61425631235687
 20
-929.07798516288221
 30
0.0
 11
343.28581243832122
 21
-929.07798516288221
 31
0.0
  0
LINE
  8
0
  6
CONTINUOUS
 62
               3
  5
292
 10
345.78581243832133
 20
-926.57798516288221
 30
0.0
 11
343.28581243832122
 21
-929.07798516288221
 31
0.0
  0
LINE
  8
0
  6
CONTINUOUS
 62
               3
  5
293
 10
345.78581243832122
 20
-926.57798516288221
 30
0.0
 11
403.40328864049559
 21
-924.56593855773008
 31
0.0
  0
LINE
  8
0
  6
CONTINUOUS
 62
               3
  5
294
 10
343.28581243832122
 20
-929.07798516288221
 30
0.0
 11
343.28581243832122
 21
-1039.0779851628822
 31
0.0
  0
LINE
  8
0
  6
CONTINUOUS
 62
               3
  5
295
 10
342.61425631235687
 20
-1041.6779851628821
 30
0.0
 11
342.61425631235687
 21
-926.47798516288231
 31
0.0
  0
LINE
  8
0
  6
CONTINUOUS
 62
               3
  5
296
 10
342.61425631235687
 20
-926.47798516288231
 30
0.0
 11
340.11425631235687
 21
-926.47798516288231
 31
0.0
  0
ARC
  8
0
  6
CONTINUOUS
 62
               3
  5
297
 10
340.11425631235687
 20
-928.97798516288231
 30
0.0
 40
2.5
 50
89.999999999948997
 51
179.99999999989538
  0
LINE
  8
0
  6
CONTINUOUS
 62
               3
  5
298
 10
337.61425631235687
 20
-928.97798516288231
 30
0.0
 11
337.61425631235687
 21
-1039.1779851628821
 31
0.0
  0
LINE
  8
0
  6
CONTINUOUS
 62
               3
  5
299
 10
342.61425631235687
 20
-1041.6779851628821
 30
0.0
 11
340.11425631235687
 21
-1041.6779851628821
 31
0.0
  0
ARC
  8
0
  6
CONTINUOUS
 62
               3
  5
29A
 10
340.11425631235687
 20
-1039.1779851628821
 30
0.0
 40
2.5
 50
179.99999999989538
 51
269.99999999984436
  0
LINE
  8
0
  6
CONTINUOUS
 62
               3
  5
29B
 10
345.78581243832133
 20
-926.57798516288221
 30
0.0
 11
345.78581243832213
 21
-1041.5779851628822
 31
0.0
  0
ARC
  8
0
  6
CONTINUOUS
 62
               3
  5
29C
 10
387.77642521108703
 20
-1048.047377393832
 30
0.0
 40
5.0
 50
44.999999999975948
 51
87.999999999949253
  0
ARC
  8
0
  6
CONTINUOUS
 62
               3
  5
29D
 10
403.22879115698311
 20
-919.56898442263446
 30
0.0
 40
5.0
 50
271.99999999984408
 51
347.26981986148661
  0
CIRCLE
  8
0
  6
CONTINUOUS
 62
               3
  5
29E
 10
482.61425631235693
 20
-984.07798516288221
 30
0.0
 40
48.5
  0
CIRCLE
  8
0
  6
CONTINUOUS
 62
               3
  5
29F
 10
482.61425631235693
 20
-984.07798516288221
 30
0.0
 40
47.299999999999997
  0
LINE
  8
0
  6
CONTINUOUS
 62
               3
  5
2A0
 10
450.79445115896237
 20
-1015.8977903162768
 30
0.0
 11
449.16810556223322
 21
-1017.5241359130059
 31
0.0
  0
LINE
  8
0
  6
CONTINUOUS
 62
               3
  5
2A1
 10
514.43406146575148
 20
-1015.8977903162768
 30
0.0
 11
516.06040706248064
 21
-1017.5241359130059
 31
0.0
  0
ARC
  8
0
  6
CONTINUOUS
 62
               3
  5
2A2
 10
482.61425631235693
 20
-984.07798516288221
 30
0.0
 40
45.0
 50
224.99999999987043
 51
314.99999999981884
  0
CIRCLE
  8
0
  6
CONTINUOUS
 62
               3
  5
2A3
 10
482.61425631235693
 20
-984.07798516288221
 30
0.0
 40
57.600000000000001
  0
ARC
  8
0
  6
CONTINUOUS
 62
               3
  5
2A4
 10
460.1142563123575
 20
-1046.5779851628822
 30
0.0
 40
2.4999999999999996
 50
269.99999999984567
 51
449.99999999974102
  0
ARC
  8
0
  6
CONTINUOUS
 62
               3
  5
2A5
 10
505.11425631235738
 20
-1046.5779851628822
 30
0.0
 40
2.4999999999999996
 50
89.99999999994769
 51
269.99999999984567
  0
LINE
  8
0
  6
CONTINUOUS
 62
               3
  5
2A6
 10
417.61425631235693
 20
-1049.0779851628822
 30
0.0
 11
460.1142563123575
 21
-1049.0779851628822
 31
0.0
  0
LINE
  8
0
  6
CONTINUOUS
 62
               3
  5
2A7
 10
417.61425631235693
 20
-1044.0779851628822
 30
0.0
 11
460.1142563123575
 21
-1044.0779851628822
 31
0.0
  0
LINE
  8
0
  6
CONTINUOUS
 62
               3
  5
2A8
 10
505.11425631235738
 20
-1044.0779851628822
 30
0.0
 11
557.61425631235693
 21
-1044.0779851628822
 31
0.0
  0
LINE
  8
0
  6
CONTINUOUS
 62
               3
  5
2A9
 10
505.11425631235738
 20
-1049.0779851628822
 30
0.0
 11
557.61425631235693
 21
-1049.0779851628822
 31
0.0
  0
CIRCLE
  8
0
  6
CONTINUOUS
 62
               3
  5
2AA
 10
482.61425631235693
 20
-509.57855141429798
 30
0.0
 40
59.0
  0
LINE
  8
0
  6
DASHED2
 62
               3
  5
2AB
 10
-178.1722669039512
 20
-145.61479150489845
 30
0.0
 11
-178.1722669039512
 21
-65.614791504898449
 31
0.0
  0
LINE
  8
0
  6
DASHED2
 62
               3
  5
2AC
 10
-75.172266903951311
 20
-145.61479150489845
 30
0.0
 11
-75.172266903951311
 21
-65.614791504898449
 31
0.0
  0
LINE
  8
0
  6
DASHED2
 62
               3
  5
2AD
 10
-778.17226690395114
 20
-145.61479150489845
 30
0.0
 11
-778.17226690395114
 21
-65.614791504898449
 31
0.0
  0
LINE
  8
0
  6
DASHED2
 62
               3
  5
2AE
 10
-675.17226690395137
 20
-145.61479150489845
 30
0.0
 11
-675.17226690395137
 21
-65.614791504898449
 31
0.0
  0
LINE
  8
0
  6
DASHED2
 62
               3
  5
2AF
 10
421.8277330960488
 20
-145.61479150489845
 30
0.0
 11
421.8277330960488
 21
-65.614791504898449
 31
0.0
  0
LINE
  8
0
  6
DASHED2
 62
               3
  5
2B0
 10
524.82773309604863
 20
-145.61479150489845
 30
0.0
 11
524.82773309604863
 21
-65.614791504898449
 31
0.0
  0
LINE
  8
0
  6
DASHDOT
 62
               4
  5
2B1
 10
-126.67226690395097
 20
1062.8852084951016
 30
0.0
 11
-126.67226690395108
 21
768.36247607842074
 31
0.0
  0
LINE
  8
0
  6
DASHDOT
 62
               4
  5
2B2
 10
-288.67226690395086
 20
954.38520849510155
 30
0.0
 11
-18.172266903950742
 21
954.38520849510155
 31
0.0
  0
LINE
  8
0
  6
DASHDOT
 62
               4
  5
2B3
 10
-288.67226690395086
 20
353.38520849510155
 30
0.0
 11
-188.67226690395086
 21
353.38520849510155
 31
0.0
  0
LINE
  8
0
  6
DASHDOT
 62
               4
  5
2B4
 10
-126.67226690395097
 20
539.38520849510155
 30
0.0
 11
-126.67226690395097
 21
-165.61479150489845
 31
0.0
  0
LINE
  8
0
  6
DASHDOT
 62
               4
  5
2B5
 10
-658.14704212872675
 20
353.38520849510155
 30
0.0
 11
-794.84784132952609
 21
353.38520849510155
 31
0.0
  0
LINE
  8
0
  6
DASHDOT
 62
               4
  5
2B6
 10
-726.67226690395091
 20
539.38520849510155
 30
0.0
 11
-726.67226690395091
 21
-165.61479150489845
 31
0.0
  0
LINE
  8
0
  6
DASHDOT
 62
               4
  5
2B7
 10
473.32773309604903
 20
539.38520849510155
 30
0.0
 11
473.32773309604903
 21
-165.61479150489845
 31
0.0
  0
LINE
  8
0
  6
DASHDOT
 62
               4
  5
2B8
 10
-557.57143587662586
 20
284.88520849510155
 30
0.0
 11
-663.55756727782773
 21
284.88520849510155
 31
0.0
  0
LINE
  8
0
  6
DASHDOT
 62
               4
  5
2B9
 10
-63.402144792606521
 20
284.88520849510155
 30
0.0
 11
-189.30276383161697
 21
284.88520849510155
 31
0.0
  0
LINE
  8
0
  6
DASHDOT
 62
               4
  5
2BA
 10
416.98058892486716
 20
284.88520849510155
 30
0.0
 11
281.52829573494631
 21
284.88520849510155
 31
0.0
  0
LINE
  8
0
  6
DASHDOT
 62
               4
  5
2BB
 10
-518.81003595441973
 20
-631.76298698608889
 30
0.0
 11
-518.81003595441962
 21
-502.762986986089
 31
0.0
  0
LINE
  8
0
  6
DASHDOT
 62
               4
  5
2BC
 10
-576.81003595441962
 20
-573.76298698608889
 30
0.0
 11
-460.81003595441967
 21
-573.76298698608889
 31
0.0
  0
LINE
  8
0
  6
DASHDOT
 62
               4
  5
2BD
 10
-588.61321443852717
 20
-567.26298698608889
 30
0.0
 11
-454.31003595441967
 21
-567.26298698608889
 31
0.0
  0
LINE
  8
0
  6
DASHDOT
 62
               4
  5
2BE
 10
-394.91003595441958
 20
-567.26298698608889
 30
0.0
 11
-296.31003595441967
 21
-567.26298698608889
 31
0.0
  0
LINE
  8
0
  6
DASHDOT
 62
               4
  5
2BF
 10
-429.31003595441967
 20
-573.76298698608889
 30
0.0
 11
-354.9100359544197
 21
-573.76298698608889
 31
0.0
  0
LINE
  8
0
  6
DASHDOT
 62
               4
  5
2C0
 10
-642.71003595441948
 20
-567.26298698608889
 30
0.0
 11
-741.31003595441962
 21
-567.26298698608844
 31
0.0
  0
LINE
  8
0
  6
DASHDOT
 62
               4
  5
2C1
 10
-608.31003595441962
 20
-573.76298698608889
 30
0.0
 11
-682.71003595441948
 21
-573.76298698608889
 31
0.0
  0
LINE
  8
0
  6
DASHDOT
 62
               4
  5
2C2
 10
-520.75599335018626
 20
-470.2951029170539
 30
0.0
 11
-520.75599335018626
 21
-337.2951029170539
 31
0.0
  0
LINE
  8
0
  6
DASHDOT
 62
               4
  5
2C3
 10
94.961656781929989
 20
-567.26298698608889
 30
0.0
 11
193.56165678193014
 21
-567.26298698608889
 31
0.0
  0
LINE
  8
0
  6
DASHDOT
 62
               4
  5
2C4
 10
69.961656781929989
 20
-581.76298698608889
 30
0.0
 11
134.96165678193
 21
-581.76298698608889
 31
0.0
  0
LINE
  8
0
  6
DASHDOT
 62
               4
  5
2C5
 10
-55.794359443312999
 20
-581.76298698608889
 30
0.0
 11
44.205640556687214
 21
-581.76298698608889
 31
0.0
  0
LINE
  8
0
  6
DASHDOT
 62
               4
  5
2C6
 10
-5.7943594433129988
 20
-631.76298698608889
 30
0.0
 11
-5.7943594433127714
 21
-502.762986986089
 31
0.0
  0
LINE
  8
0
  6
DASHDOT
 62
               4
  5
2C7
 10
-70.294359443312999
 20
-567.26298698608889
 30
0.0
 11
64.249650336638226
 21
-567.26298698608889
 31
0.0
  0
LINE
  8
0
  6
DASHDOT
 62
               4
  5
2C8
 10
-106.55037566855577
 20
-567.26298698608889
 30
0.0
 11
-205.1503756685558
 21
-567.26298698608889
 31
0.0
  0
LINE
  8
0
  6
DASHDOT
 62
               4
  5
2C9
 10
-81.550375668555773
 20
-581.76298698608889
 30
0.0
 11
-146.55037566855577
 21
-581.76298698608889
 31
0.0
  0
LINE
  8
0
  6
DASHDOT
 62
               4
  5
2CA
 10
-5.7943594433127714
 20
-481.00697076084623
 30
0.0
 11
-5.7943594433127714
 21
-357.40697076084609
 31
0.0
  0
LINE
  8
0
  6
DASHDOT
 62
               4
  5
2CB
 10
482.61425631235693
 20
-401.07855141429798
 30
0.0
 11
482.61425631235693
 21
-671.62533821412444
 31
0.0
  0
LINE
  8
0
  6
DASHDOT
 62
               4
  5
2CC
 10
320.61425631235699
 20
-509.57855141429798
 30
0.0
 11
591.11425631235716
 21
-509.57855141429798
 31
0.0
  0
LINE
  8
0
  6
DASHDOT
 62
               4
  5
2CD
 10
551.13948108758154
 20
-984.07798516288221
 30
0.0
 11
320.88564301892865
 21
-984.07798516288221
 31
0.0
  0
LINE
  8
0
  6
DASHDOT
 62
               4
  5
2CE
 10
482.61425631235693
 20
-798.07798516288221
 30
0.0
 11
482.61425631235693
 21
-1049.0779851628822
 31
0.0
  0
LINE
  8
0
  6
DASHDOT
 62
               4
  5
2CF
 10
432.61425631235693
 20
-998.57798516288221
 30
0.0
 11
532.61425631235716
 21
-998.57798516288221
 31
0.0
  0
LINE
  8
0
  6
DASHDOT
 62
               4
  5
2D0
 10
482.61425631235693
 20
-700.178551414298
 30
0.0
 11
482.61425631235693
 21
-576.57855141429764
 31
0.0
  0
LINE
  8
0
  6
DASHDOT
 62
               4
  5
2D1
 10
282.61425631235687
 20
-990.57798516288221
 30
0.0
 11
357.01425631235685
 21
-990.57798516288221
 31
0.0
  0
LINE
  8
0
  6
DASHDOT
 62
               4
  5
2D2
 10
282.6142563123571
 20
-509.57855141429775
 30
0.0
 11
415.61425631235716
 21
-509.57855141429775
 31
0.0
  0
LINE
  8
0
  6
DASHDOT
 62
               4
  5
2D3
 10
-5.794359443313013
 20
-1055.2629869860889
 30
0.0
 11
-5.7943594433129562
 21
-939.26298698608889
 31
0.0
  0
LINE
  8
0
  6
DASHDOT
 62
               4
  5
2D4
 10
-63.794359443312956
 20
-997.26298698608889
 30
0.0
 11
52.205640556687044
 21
-997.26298698608889
 31
0.0
  0
LINE
  8
0
  6
DASHDOT
 62
               4
  5
2D5
 10
-55.794359443312956
 20
-1005.2629869860889
 30
0.0
 11
44.205640556687044
 21
-1005.2629869860889
 31
0.0
  0
LINE
  8
0
  6
DASHDOT
 62
               4
  5
2D6
 10
-169.7205876999019
 20
-1005.2629869860889
 30
0.0
 11
-104.25129187983255
 21
-1005.2629869860889
 31
0.0
  0
LINE
  8
0
  6
DASHDOT
 62
               4
  5
2D7
 10
-228.29435944331294
 20
-997.26298698608889
 30
0.0
 11
-129.69435944331286
 21
-997.26298698608889
 31
0.0
  0
LINE
  8
0
  6
DASHDOT
 62
               4
  5
2D8
 10
158.13186881327601
 20
-1005.2629869860891
 30
0.0
 11
92.662572993206638
 21
-1005.2629869860889
 31
0.0
  0
LINE
  8
0
  6
DASHDOT
 62
               4
  5
2D9
 10
216.70564055668706
 20
-997.26298698608912
 30
0.0
 11
118.10564055668696
 21
-997.26298698608889
 31
0.0
  0
LINE
  8
0
  6
DASHDOT
 62
               4
  5
2DA
 10
-5.794359443313013
 20
-774.76298698608889
 30
0.0
 11
-5.794359443313013
 21
-898.80605454956935
 31
0.0
  0
LINE
  8
0
  6
CONTINUOUS
 62
               4
  5
2DB
 10
-49.672266903951083
 20
422.92086224795435
 30
0.0
 11
-54.672266903951083
 21
427.92086224795435
 31
0.0
  0
LINE
  8
0
  6
CONTINUOUS
 62
               4
  5
2DC
 10
-49.672266903951083
 20
229.23218489798467
 30
0.0
 11
-49.672266903951083
 21
115.2716402648465
 31
0.0
  0
LINE
  8
0
  6
CONTINUOUS
 62
               4
  5
2DD
 10
-49.672266903951083
 20
115.2716402648465
 30
0.0
 11
-66.400491303602109
 21
-31.343015904549702
 31
0.0
  0
LINE
  8
0
  6
CONTINUOUS
 62
               4
  5
2DE
 10
-68.672266903950856
 20
-33.614791504898164
 30
0.0
 11
-66.400491303602109
 21
-31.343015904549702
 31
0.0
  0
ARC
  8
0
  6
CONTINUOUS
 62
               4
  5
2DF
 10
-72.172266903951083
 20
412.38520849510155
 30
0.0
 40
19.999999999999996
 50
0.0
 51
31.788330617027405
  0
LINE
  8
0
  6
CONTINUOUS
 62
               4
  5
2E0
 10
-55.172266903950629
 20
422.92086224795435
 30
0.0
 11
-55.172266903950629
 21
427.92086224795491
 31
0.0
  0
LINE
  8
0
  6
CONTINUOUS
 62
               4
  5
2E1
 10
-54.672266903951083
 20
427.92086224795435
 30
0.0
 11
-55.172266903950629
 21
427.92086224795435
 31
0.0
  0
LINE
  8
0
  6
CONTINUOUS
 62
               4
  5
2E2
 10
-49.922266903950856
 20
422.67086224795435
 30
0.0
 11
-55.172266903950629
 21
427.92086224795435
 31
0.0
  0
LINE
  8
0
  6
CONTINUOUS
 62
               4
  5
2E3
 10
-49.922266903950856
 20
422.67086224795435
 30
0.0
 11
-49.672266903951083
 21
422.92086224795435
 31
0.0
  0
LINE
  8
0
  6
CONTINUOUS
 62
               4
  5
2E4
 10
-52.172266903951083
 20
228.23218489798444
 30
0.0
 11
-52.172266903951083
 21
115.41360055266603
 31
0.0
  0
LINE
  8
0
  6
CONTINUOUS
 62
               4
  5
2E5
 10
-49.922266903950856
 20
228.9468277908486
 30
0.0
 11
-49.922266903950856
 21
115.28583629362851
 31
0.0
  0
LINE
  8
0
  6
CONTINUOUS
 62
               4
  5
2E6
 10
-52.172266903951083
 20
115.41360055266603
 30
0.0
 11
-69.175501770300514
 21
-33.614791504898733
 31
0.0
  0
LINE
  8
0
  6
CONTINUOUS
 62
               4
  5
2E7
 10
-52.175501770301196
 20
115.38520849510172
 30
0.0
 11
-49.672266903951083
 21
115.2716402648465
 31
0.0
  0
LINE
  8
0
  6
CONTINUOUS
 62
               4
  5
2E8
 10
-49.922266903950856
 20
115.28583629362851
 30
0.0
 11
-66.677992350272177
 21
-31.570193464584577
 31
0.0
  0
LINE
  8
0
  6
CONTINUOUS
 62
               4
  5
2E9
 10
-69.175501770300514
 20
-33.614791504898733
 30
0.0
 11
-66.400491303602109
 21
-31.343015904549702
 31
0.0
  0
LINE
  8
0
  6
CONTINUOUS
 62
               4
  5
2EA
 10
-49.672266903951083
 20
422.92086224795435
 30
0.0
 11
-49.672266903951083
 21
232.23218489798455
 31
0.0
  0
LINE
  8
0
  6
CONTINUOUS
 62
               4
  5
2EB
 10
-49.922266903950856
 20
422.67086224795435
 30
0.0
 11
-49.922266903950856
 21
232.51754200512005
 31
0.0
  0
LINE
  8
0
  6
CONTINUOUS
 62
               4
  5
2EC
 10
-52.172266903951083
 20
412.53823209221866
 30
0.0
 11
-52.172266903951083
 21
233.38520849510155
 31
0.0
  0
LINE
  8
0
  6
CONTINUOUS
 62
               4
  5
2ED
 10
-68.531134317445037
 20
61.60069943890187
 30
0.0
 11
-192.18426690395148
 21
165.35799738615475
 31
0.0
  0
ARC
  8
0
  6
CONTINUOUS
 62
               4
  5
2EE
 10
-1040.9445870044906
 20
-979.2004197407939
 30
0.0
 40
1424.9238755783815
 50
50.189956146228056
 51
53.440796050690921
  0
ARC
  8
0
  6
CONTINUOUS
 62
               4
  5
2EF
 10
-63.092878066917997
 20
186.15786740994781
 30
0.0
 40
130.75634311527989
 50
189.153123340159
 51
212.7691831125899
  0
ARC
  8
0
  6
CONTINUOUS
 62
               4
  5
2F0
 10
-65.308241404399894
 20
196.29188816118813
 30
0.0
 40
134.72974192119386
 50
216.90649751117132
 51
268.62928723390132
  0
ARC
  8
0
  6
CONTINUOUS
 62
               4
  5
2F1
 10
-860.30261500245933
 20
-762.86146241590723
 30
0.0
 40
1143.0835201141012
 50
46.158732653390111
 51
50.202696616617857
  0
LINE
  8
0
  6
CONTINUOUS
 62
               4
  5
2F2
 10
-183.17226690395097
 20
-45.614791504898449
 30
0.0
 11
-70.17226690395097
 21
-45.614791504898449
 31
0.0
  0
LINE
  8
0
  6
CONTINUOUS
 62
               4
  5
2F3
 10
-184.67226690395137
 20
-44.114791504898051
 30
0.0
 11
-68.672266903951424
 21
-44.114791504897596
 31
0.0
  0
ARC
  8
0
  6
CONTINUOUS
 62
               4
  5
2F4
 10
-1005.6014957530758
 20
-6.2871899163608305
 30
0.0
 40
359.11818398045398
 50
13.306177675720029
 51
28.552443501596617
  0
ARC
  8
0
  6
CONTINUOUS
 62
               4
  5
2F5
 10
-727.00345337394515
 20
101.95948598620839
 30
0.0
 40
73.327111796148202
 50
342.62945642104523
 51
419.83689160529786
  0
LINE
  8
0
  6
CONTINUOUS
 62
               4
  5
2F6
 10
-783.17226690395091
 20
-45.614791504898449
 30
0.0
 11
-670.17226690395091
 21
-45.614791504898449
 31
0.0
  0
LINE
  8
0
  6
CONTINUOUS
 62
               4
  5
2F7
 10
-784.67226690395137
 20
-44.114791504898051
 30
0.0
 11
-668.67226690395137
 21
-44.114791504897596
 31
0.0
  0
ARC
  8
0
  6
CONTINUOUS
 62
               4
  5
2F8
 10
447.54376728408289
 20
412.38520849510155
 30
0.0
 40
17.566965811965957
 50
0.0
 51
36.851448659202923
  0
LINE
  8
0
  6
CONTINUOUS
 62
               4
  5
2F9
 10
485.05473309604923
 20
427.92086224795435
 30
0.0
 11
461.60073309604883
 21
427.92086224795435
 31
0.0
  0
ARC
  8
0
  6
CONTINUOUS
 62
               4
  5
2FA
 10
499.1116989080146
 20
412.38520849510155
 30
0.0
 40
17.566965811965957
 50
143.14855134065925
 51
179.99999999986215
  0
LINE
  8
0
  6
CONTINUOUS
 62
               4
  5
2FB
 10
461.60073309604883
 20
422.92086224795435
 30
0.0
 11
461.60073309604883
 21
427.92086224795435
 31
0.0
  0
LINE
  8
0
  6
CONTINUOUS
 62
               4
  5
2FC
 10
485.05473309604923
 20
422.92086224795435
 30
0.0
 11
485.05473309604923
 21
427.92086224795435
 31
0.0
  0
LINE
  8
0
  6
CONTINUOUS
 62
               4
  5
2FD
 10
461.60073309604883
 20
427.92086224795435
 30
0.0
 11
467.3277330960488
 21
422.92086224795435
 31
0.0
  0
LINE
  8
0
  6
CONTINUOUS
 62
               4
  5
2FE
 10
479.32773309604869
 20
422.92086224795435
 30
0.0
 11
485.05473309604923
 21
427.92086224795435
 31
0.0
  0
LINE
  8
0
  6
CONTINUOUS
 62
               4
  5
2FF
 10
467.3277330960488
 20
422.92086224795435
 30
0.0
 11
479.32773309604869
 21
422.92086224795435
 31
0.0
  0
LINE
  8
0
  6
CONTINUOUS
 62
               4
  5
300
 10
479.32773309604869
 20
232.38520849510166
 30
0.0
 11
467.3277330960488
 21
232.38520849510166
 31
0.0
  0
ARC
  8
0
  6
CONTINUOUS
 62
               4
  5
301
 10
465.2660885626338
 20
230.97112864663495
 30
0.0
 40
2.4999999999999996
 50
34.446185822117641
 51
93.562780573722691
  0
ARC
  8
0
  6
CONTINUOUS
 62
               4
  5
302
 10
481.38937762946426
 20
230.97112864663495
 30
0.0
 40
2.4999999999999996
 50
86.437219426138569
 51
145.55381417774322
  0
LINE
  8
0
  6
CONTINUOUS
 62
               4
  5
303
 10
479.32773309604869
 20
229.38520849510178
 30
0.0
 11
467.3277330960488
 21
229.38520849510178
 31
0.0
  0
ARC
  8
0
  6
CONTINUOUS
 62
               4
  5
304
 10
465.2660885626338
 20
230.79928834356815
 30
0.0
 40
2.4999999999999996
 50
266.43721942599979
 51
325.55381417760566
  0
ARC
  8
0
  6
CONTINUOUS
 62
               4
  5
305
 10
481.38937762946426
 20
230.79928834356815
 30
0.0
 40
2.4999999999999996
 50
214.44618582198009
 51
273.56278057358651
  0
LINE
  8
0
  6
CONTINUOUS
 62
               4
  5
306
 10
465.11073309604882
 20
228.38520849510155
 30
0.0
 11
465.11073309604882
 21
-33.614791504898676
 31
0.0
  0
LINE
  8
0
  6
CONTINUOUS
 62
               4
  5
307
 10
481.54473309604867
 20
228.29928834356815
 30
0.0
 11
481.54473309604867
 21
-33.614791504898676
 31
0.0
  0
LINE
  8
0
  6
CONTINUOUS
 62
               4
  5
308
 10
467.3277330960488
 20
229.38520849510178
 30
0.0
 11
467.3277330960488
 21
-31.343015904549702
 31
0.0
  0
LINE
  8
0
  6
CONTINUOUS
 62
               4
  5
309
 10
479.32773309604869
 20
-31.343015904549702
 30
0.0
 11
479.32773309604869
 21
229.38520849510178
 31
0.0
  0
LINE
  8
0
  6
CONTINUOUS
 62
               4
  5
30A
 10
481.54473309604867
 20
115.38520849510166
 30
0.0
 11
465.11073309604882
 21
115.38520849510166
 31
0.0
  0
LINE
  8
0
  6
CONTINUOUS
 62
               4
  5
30B
 10
467.3277330960488
 20
-31.343015904549702
 30
0.0
 11
479.32773309604869
 21
-31.343015904549702
 31
0.0
  0
LINE
  8
0
  6
CONTINUOUS
 62
               4
  5
30C
 10
465.11073309604882
 20
-33.614791504898676
 30
0.0
 11
467.3277330960488
 21
-31.343015904549702
 31
0.0
  0
LINE
  8
0
  6
CONTINUOUS
 62
               4
  5
30D
 10
479.32773309604869
 20
-31.343015904549702
 30
0.0
 11
481.54473309604867
 21
-33.614791504898676
 31
0.0
  0
LINE
  8
0
  6
CONTINUOUS
 62
               4
  5
30E
 10
465.11073309604882
 20
412.38520849510155
 30
0.0
 11
465.11073309604882
 21
233.38520849510155
 31
0.0
  0
LINE
  8
0
  6
CONTINUOUS
 62
               4
  5
30F
 10
481.54473309604867
 20
412.38520849510155
 30
0.0
 11
481.54473309604867
 21
233.38520849510155
 31
0.0
  0
LINE
  8
0
  6
CONTINUOUS
 62
               4
  5
310
 10
479.32773309604869
 20
232.38520849510166
 30
0.0
 11
479.32773309604869
 21
422.92086224795435
 31
0.0
  0
LINE
  8
0
  6
CONTINUOUS
 62
               4
  5
311
 10
467.3277330960488
 20
422.92086224795435
 30
0.0
 11
467.3277330960488
 21
232.38520849510166
 31
0.0
  0
ARC
  8
0
  6
CONTINUOUS
 62
               4
  5
312
 10
458.3496601495213
 20
111.08795884152005
 30
0.0
 40
59.149634972654262
 50
186.4999999998569
 51
236.78754046650647
  0
ARC
  8
0
  6
CONTINUOUS
 62
               4
  5
313
 10
479.25465262674294
 20
122.93697594027174
 30
0.0
 40
81.261593956721953
 50
186.49999999985687
 51
229.00792456436648
  0
ARC
  8
0
  6
CONTINUOUS
 62
               4
  5
314
 10
334.0090242725538
 20
38.599457115577025
 30
0.0
 40
204.24864340422488
 50
353.49999999972903
 51
373.43680216719139
  0
ARC
  8
0
  6
CONTINUOUS
 62
               4
  5
315
 10
371.70003404061481
 20
40.883874184984734
 30
0.0
 40
167.18634723772169
 50
351.25933879866568
 51
375.67746336825519
  0
LINE
  8
0
  6
CONTINUOUS
 62
               4
  5
316
 10
416.82773309604903
 20
-45.614791504898449
 30
0.0
 11
529.82773309604909
 21
-45.614791504898449
 31
0.0
  0
LINE
  8
0
  6
CONTINUOUS
 62
               4
  5
317
 10
415.32773309604869
 20
-44.114791504897994
 30
0.0
 11
531.32773309604863
 21
-44.114791504897539
 31
0.0
  0
POINT
  8
0
  6
CONTINUOUS
 62
               4
  5
318
 10
-373.71003595441965
 20
-522.76298698608889
 30
0.0
  0
POINT
  8
0
  6
CONTINUOUS
 62
               4
  5
319
 10
-663.91003595441953
 20
-522.76298698608889
 30
0.0
  0
POINT
  8
0
  6
CONTINUOUS
 62
               4
  5
31A
 10
-476.2559933501862
 20
-414.69510291705399
 30
0.0
  0
POINT
  8
0
  6
CONTINUOUS
 62
               4
  5
31B
 10
116.16165678193003
 20
-522.76298698608889
 30
0.0
  0
POINT
  8
0
  6
CONTINUOUS
 62
               4
  5
31C
 10
-127.75037566855582
 20
-522.76298698608889
 30
0.0
  0
POINT
  8
0
  6
CONTINUOUS
 62
               4
  5
31D
 10
38.705640556687214
 20
-434.80697076084618
 30
0.0
  0
LINE
  8
0
  6
CONTINUOUS
 62
               4
  5
31E
 10
559.6142563123567
 20
-914.54233141002942
 30
0.0
 11
554.6142563123567
 21
-909.54233141002942
 31
0.0
  0
ARC
  8
0
  6
CONTINUOUS
 62
               4
  5
31F
 10
537.1142563123567
 20
-925.07798516288221
 30
0.0
 40
19.999999999999996
 50
0.0
 51
31.78833061703342
  0
LINE
  8
0
  6
CONTINUOUS
 62
               4
  5
320
 10
554.11425631235716
 20
-914.54233141002942
 30
0.0
 11
554.11425631235716
 21
-909.54233141002896
 31
0.0
  0
LINE
  8
0
  6
CONTINUOUS
 62
               4
  5
321
 10
554.6142563123567
 20
-909.54233141002942
 30
0.0
 11
554.11425631235716
 21
-909.54233141002942
 31
0.0
  0
LINE
  8
0
  6
CONTINUOUS
 62
               4
  5
322
 10
559.36425631235693
 20
-914.79233141002942
 30
0.0
 11
554.11425631235716
 21
-909.54233141002942
 31
0.0
  0
LINE
  8
0
  6
CONTINUOUS
 62
               4
  5
323
 10
559.36425631235693
 20
-914.79233141002942
 30
0.0
 11
559.6142563123567
 21
-914.54233141002942
 31
0.0
  0
LINE
  8
0
  6
CONTINUOUS
 62
               4
  5
324
 10
559.6142563123567
 20
-914.54233141002942
 30
0.0
 11
559.6142563123567
 21
-1045.2310087599994
 31
0.0
  0
LINE
  8
0
  6
CONTINUOUS
 62
               4
  5
325
 10
559.36425631235693
 20
-914.79233141002942
 30
0.0
 11
559.36425631235693
 21
-1044.9456516528639
 31
0.0
  0
LINE
  8
0
  6
CONTINUOUS
 62
               4
  5
326
 10
557.1142563123567
 20
-924.92496156576499
 30
0.0
 11
557.1142563123567
 21
-1044.0779851628822
 31
0.0
  0
POINT
  8
0
  6
CONTINUOUS
 62
               4
  5
327
 10
527.11425631235693
 20
-653.97855141429818
 30
0.0
  0
POINT
  8
0
  6
CONTINUOUS
 62
               4
  5
328
 10
338.21425631235689
 20
-939.57798516288221
 30
0.0
  0
POINT
  8
0
  6
CONTINUOUS
 62
               4
  5
329
 10
338.21425631235701
 20
-554.07855141429764
 30
0.0
  0
POINT
  8
0
  6
CONTINUOUS
 62
               4
  5
32A
 10
-150.29435944331283
 20
-946.26298698608866
 30
0.0
  0
POINT
  8
0
  6
CONTINUOUS
 62
               4
  5
32B
 10
138.705640556687
 20
-946.26298698608889
 30
0.0
  0
POINT
  8
0
  6
CONTINUOUS
 62
               4
  5
32C
 10
45.205640556687158
 20
-852.76298698608912
 30
0.0
  0
LINE
  8
0
  6
DASHED2
 62
               4
  5
32D
 10
-183.67226690395086
 20
454.38520849510155
 30
0.0
 11
-69.672266903951083
 21
454.38520849510155
 31
0.0
  0
LINE
  8
0
  6
DASHED2
 62
               4
  5
32E
 10
-783.67226690395137
 20
454.38520849510155
 30
0.0
 11
-669.67226690395159
 21
454.38520849510155
 31
0.0
  0
LINE
  8
0
  6
DASHED2
 62
               4
  5
32F
 10
416.32773309604914
 20
454.38520849510155
 30
0.0
 11
530.32773309604909
 21
454.38520849510155
 31
0.0
  0
LINE
  8
0
  6
DASHED2
 62
               4
  5
330
 10
425.61425631235704
 20
-883.07798516288221
 30
0.0
 11
539.6142563123567
 21
-883.07798516288221
 31
0.0
  0
CIRCLE
  8
0
  6
DASHED
 62
               4
  5
331
 10
-5.794359443313013
 20
-997.26298698608889
 30
0.0
 40
33.5
  0
POINT
  8
0
  6
DASHDOT
 62
               5
  5
332
 10
-126.67226690395097
 20
154.38520849510155
 30
0.0
  0
POINT
  8
0
  6
CONTINUOUS
 62
               5
  5
333
 10
-518.81003595441973
 20
-567.26298698608889
 30
0.0
  0
POINT
  8
0
  6
CONTINUOUS
 62
               5
  5
334
 10
-345.57996444445934
 20
-568.55378106097805
 30
0.0
  0
POINT
  8
0
  6
CONTINUOUS
 62
               5
  5
335
 10
-692.04010746437984
 20
-568.5537810609776
 30
0.0
  0
POINT
  8
0
  6
CONTINUOUS
 62
               5
  5
336
 10
-522.04678742507531
 20
-386.56503140709367
 30
0.0
  0
POINT
  8
0
  6
CONTINUOUS
 62
               5
  5
337
 10
366.34432782231721
 20
-985.36877923777138
 30
0.0
  0
POINT
  8
0
  6
CONTINUOUS
 62
               5
  5
338
 10
366.34432782231733
 20
-508.28775733940881
 30
0.0
  0
POINT
  8
0
  6
CONTINUOUS
 62
               5
  5
339
 10
-5.7943594433129562
 20
-990.76298698608889
 30
0.0
  0
POINT
  8
0
  6
CONTINUOUS
 62
               5
  5
33A
 10
-179.02443095327317
 20
-992.0537810609776
 30
0.0
  0
POINT
  8
0
  6
CONTINUOUS
 62
               5
  5
33B
 10
167.43571206664734
 20
-992.05378106097783
 30
0.0
  0
POINT
  8
0
  6
CONTINUOUS
 62
               5
  5
33C
 10
-0.5851535182018921
 20
-824.03291547612866
 30
0.0
  0
CIRCLE
  8
0
  6
CONTINUOUS
 62
               7
  5
33D
 10
-518.81003595441973
 20
-573.76298698608889
 30
0.0
 40
38.0
  0
CIRCLE
  8
0
  6
CONTINUOUS
 62
               7
  5
33E
 10
-518.81003595441973
 20
-573.76298698608889
 30
0.0
 40
33.5
  0
LINE
  8
0
  6
CONTINUOUS
 62
               7
  5
33F
 10
-374.31003595441967
 20
-522.76298698608889
 30
0.0
 11
-374.31003595441967
 21
-611.75775086541444
 31
0.0
  0
LINE
  8
0
  6
CONTINUOUS
 62
               7
  5
340
 10
-373.71003595441965
 20
-522.76298698608889
 30
0.0
 11
-374.31003595441967
 21
-522.76298698608889
 31
0.0
  0
LINE
  8
0
  6
CONTINUOUS
 62
               7
  5
341
 10
-409.31003595441967
 20
-610.76298698608889
 30
0.0
 11
-409.31003595441967
 21
-536.76298698608889
 31
0.0
  0
LINE
  8
0
  6
CONTINUOUS
 62
               7
  5
342
 10
-316.31003595441967
 20
-610.76298698608889
 30
0.0
 11
-316.31003595441967
 21
-523.76298698608889
 31
0.0
  0
LINE
  8
0
  6
CONTINUOUS
 62
               7
  5
343
 10
-374.31003595441967
 20
-522.76298698608889
 30
0.0
 11
-317.31003595441967
 21
-522.76298698608889
 31
0.0
  0
LINE
  8
0
  6
CONTINUOUS
 62
               7
  5
344
 10
-408.31003595441967
 20
-611.76298698608889
 30
0.0
 11
-317.31003595441967
 21
-611.76298698608889
 31
0.0
  0
LINE
  8
0
  6
CONTINUOUS
 62
               7
  5
345
 10
-317.31003595441967
 20
-522.76298698608889
 30
0.0
 11
-316.31003595441967
 21
-523.76298698608889
 31
0.0
  0
LINE
  8
0
  6
CONTINUOUS
 62
               7
  5
346
 10
-316.31003595441967
 20
-610.76298698608889
 30
0.0
 11
-317.31003595441967
 21
-611.76298698608889
 31
0.0
  0
LINE
  8
0
  6
CONTINUOUS
 62
               7
  5
347
 10
-408.31003595441967
 20
-535.76298698608889
 30
0.0
 11
-374.31003595441967
 21
-535.76298698608889
 31
0.0
  0
CIRCLE
  8
0
  6
CONTINUOUS
 62
               7
  5
348
 10
-518.81003595441973
 20
-567.26298698608889
 30
0.0
 40
44.5
  0
LINE
  8
0
  6
CONTINUOUS
 62
               7
  5
349
 10
-408.31003595441967
 20
-535.76298698608889
 30
0.0
 11
-409.31003595441967
 21
-536.76298698608889
 31
0.0
  0
LINE
  8
0
  6
CONTINUOUS
 62
               7
  5
34A
 10
-409.31003595441967
 20
-610.76298698608889
 30
0.0
 11
-408.31003595441967
 21
-611.76298698608889
 31
0.0
  0
LINE
  8
0
  6
CONTINUOUS
 62
               7
  5
34B
 10
-663.31003595441962
 20
-522.76298698608889
 30
0.0
 11
-663.31003595441962
 21
-611.75775086541444
 31
0.0
  0
LINE
  8
0
  6
CONTINUOUS
 62
               7
  5
34C
 10
-663.91003595441953
 20
-522.76298698608889
 30
0.0
 11
-663.31003595441962
 21
-522.76298698608889
 31
0.0
  0
LINE
  8
0
  6
CONTINUOUS
 62
               7
  5
34D
 10
-628.31003595441962
 20
-610.76298698608889
 30
0.0
 11
-628.31003595441962
 21
-536.76298698608889
 31
0.0
  0
LINE
  8
0
  6
CONTINUOUS
 62
               7
  5
34E
 10
-721.31003595441962
 20
-610.76298698608889
 30
0.0
 11
-721.31003595441962
 21
-523.76298698608889
 31
0.0
  0
LINE
  8
0
  6
CONTINUOUS
 62
               7
  5
34F
 10
-663.31003595441962
 20
-522.76298698608889
 30
0.0
 11
-720.31003595441962
 21
-522.76298698608889
 31
0.0
  0
LINE
  8
0
  6
CONTINUOUS
 62
               7
  5
350
 10
-629.31003595441962
 20
-611.76298698608889
 30
0.0
 11
-720.31003595441962
 21
-611.76298698608889
 31
0.0
  0
LINE
  8
0
  6
CONTINUOUS
 62
               7
  5
351
 10
-720.31003595441962
 20
-522.76298698608889
 30
0.0
 11
-721.31003595441962
 21
-523.76298698608889
 31
0.0
  0
LINE
  8
0
  6
CONTINUOUS
 62
               7
  5
352
 10
-721.31003595441962
 20
-610.76298698608889
 30
0.0
 11
-720.31003595441962
 21
-611.76298698608889
 31
0.0
  0
LINE
  8
0
  6
CONTINUOUS
 62
               7
  5
353
 10
-629.31003595441962
 20
-535.76298698608889
 30
0.0
 11
-663.31003595441962
 21
-535.76298698608889
 31
0.0
  0
LINE
  8
0
  6
CONTINUOUS
 62
               7
  5
354
 10
-629.31003595441962
 20
-535.76298698608889
 30
0.0
 11
-628.31003595441962
 21
-536.76298698608889
 31
0.0
  0
LINE
  8
0
  6
CONTINUOUS
 62
               7
  5
355
 10
-628.31003595441962
 20
-610.76298698608889
 30
0.0
 11
-629.31003595441962
 21
-611.76298698608889
 31
0.0
  0
LINE
  8
0
  6
CONTINUOUS
 62
               7
  5
356
 10
-476.2559933501862
 20
-415.29510291705412
 30
0.0
 11
-565.25075722951169
 21
-415.2951029170539
 31
0.0
  0
LINE
  8
0
  6
CONTINUOUS
 62
               7
  5
357
 10
-476.2559933501862
 20
-414.69510291705399
 30
0.0
 11
-476.2559933501862
 21
-415.29510291705412
 31
0.0
  0
LINE
  8
0
  6
CONTINUOUS
 62
               7
  5
358
 10
-557.75599335018615
 20
-450.2951029170539
 30
0.0
 11
-483.7559933501862
 21
-450.29510291705412
 31
0.0
  0
LINE
  8
0
  6
CONTINUOUS
 62
               7
  5
359
 10
-564.25599335018615
 20
-357.2951029170539
 30
0.0
 11
-477.2559933501862
 21
-357.29510291705412
 31
0.0
  0
LINE
  8
0
  6
CONTINUOUS
 62
               7
  5
35A
 10
-476.2559933501862
 20
-415.29510291705412
 30
0.0
 11
-476.2559933501862
 21
-358.29510291705412
 31
0.0
  0
LINE
  8
0
  6
CONTINUOUS
 62
               7
  5
35B
 10
-558.75599335018615
 20
-449.2951029170539
 30
0.0
 11
-558.75599335018615
 21
-415.2951029170539
 31
0.0
  0
LINE
  8
0
  6
CONTINUOUS
 62
               7
  5
35C
 10
-476.2559933501862
 20
-358.29510291705412
 30
0.0
 11
-477.2559933501862
 21
-357.29510291705412
 31
0.0
  0
LINE
  8
0
  6
CONTINUOUS
 62
               7
  5
35D
 10
-564.25599335018615
 20
-357.2951029170539
 30
0.0
 11
-565.25599335018615
 21
-358.2951029170539
 31
0.0
  0
LINE
  8
0
  6
CONTINUOUS
 62
               7
  5
35E
 10
-482.7559933501862
 20
-449.29510291705412
 30
0.0
 11
-482.7559933501862
 21
-415.2951029170539
 31
0.0
  0
LINE
  8
0
  6
CONTINUOUS
 62
               7
  5
35F
 10
-482.7559933501862
 20
-449.29510291705412
 30
0.0
 11
-483.7559933501862
 21
-450.29510291705412
 31
0.0
  0
LINE
  8
0
  6
CONTINUOUS
 62
               7
  5
360
 10
-557.75599335018615
 20
-450.2951029170539
 30
0.0
 11
-558.75599335018615
 21
-449.2951029170539
 31
0.0
  0
LINE
  8
0
  6
CONTINUOUS
 62
               7
  5
361
 10
-565.25599335018615
 20
-415.2951029170539
 30
0.0
 11
-565.25599335018615
 21
-358.2951029170539
 31
0.0
  0
LINE
  8
0
  6
CONTINUOUS
 62
               7
  5
362
 10
89.961656781929989
 20
-610.76298698608889
 30
0.0
 11
89.961656781929989
 21
-552.76298698608889
 31
0.0
  0
LINE
  8
0
  6
CONTINUOUS
 62
               7
  5
363
 10
115.5616567819299
 20
-522.76298698608889
 30
0.0
 11
115.5616567819299
 21
-611.76298698608889
 31
0.0
  0
LINE
  8
0
  6
CONTINUOUS
 62
               7
  5
364
 10
116.16165678193003
 20
-522.76298698608889
 30
0.0
 11
115.5616567819299
 21
-522.76298698608889
 31
0.0
  0
LINE
  8
0
  6
CONTINUOUS
 62
               7
  5
365
 10
173.56165678193014
 20
-610.76298698608889
 30
0.0
 11
173.56165678193014
 21
-523.76298698608889
 31
0.0
  0
CIRCLE
  8
0
  6
CONTINUOUS
 62
               7
  5
366
 10
-5.7943594433129988
 20
-581.76298698608889
 30
0.0
 40
30.0
  0
CIRCLE
  8
0
  6
CONTINUOUS
 62
               7
  5
367
 10
-5.7943594433129988
 20
-581.76298698608889
 30
0.0
 40
25.5
  0
CIRCLE
  8
0
  6
CONTINUOUS
 62
               7
  5
368
 10
-5.7943594433129988
 20
-567.26298698608889
 30
0.0
 40
44.5
  0
LINE
  8
0
  6
CONTINUOUS
 62
               7
  5
369
 10
115.69610852741032
 20
-522.76298698608889
 30
0.0
 11
172.56165678193014
 21
-522.76298698608889
 31
0.0
  0
LINE
  8
0
  6
CONTINUOUS
 62
               7
  5
36A
 10
90.961656781929989
 20
-611.76298698608889
 30
0.0
 11
172.56165678193014
 21
-611.76298698608889
 31
0.0
  0
LINE
  8
0
  6
CONTINUOUS
 62
               7
  5
36B
 10
90.961656781929989
 20
-551.76298698608889
 30
0.0
 11
115.5616567819299
 21
-551.76298698608889
 31
0.0
  0
LINE
  8
0
  6
CONTINUOUS
 62
               7
  5
36C
 10
90.961656781929989
 20
-551.76298698608889
 30
0.0
 11
89.961656781929989
 21
-552.76298698608889
 31
0.0
  0
LINE
  8
0
  6
CONTINUOUS
 62
               7
  5
36D
 10
172.56165678193014
 20
-522.76298698608889
 30
0.0
 11
173.56165678193014
 21
-523.76298698608889
 31
0.0
  0
LINE
  8
0
  6
CONTINUOUS
 62
               7
  5
36E
 10
89.961656781929989
 20
-610.76298698608889
 30
0.0
 11
90.961656781929989
 21
-611.76298698608889
 31
0.0
  0
LINE
  8
0
  6
CONTINUOUS
 62
               7
  5
36F
 10
173.56165678193014
 20
-610.76298698608889
 30
0.0
 11
172.56165678193014
 21
-611.76298698608889
 31
0.0
  0
LINE
  8
0
  6
CONTINUOUS
 62
               7
  5
370
 10
-101.55037566855577
 20
-610.76298698608889
 30
0.0
 11
-101.55037566855577
 21
-552.76298698608889
 31
0.0
  0
LINE
  8
0
  6
CONTINUOUS
 62
               7
  5
371
 10
-127.1503756685558
 20
-522.76298698608889
 30
0.0
 11
-127.1503756685558
 21
-611.76298698608889
 31
0.0
  0
LINE
  8
0
  6
CONTINUOUS
 62
               7
  5
372
 10
-127.75037566855582
 20
-522.76298698608889
 30
0.0
 11
-127.1503756685558
 21
-522.76298698608889
 31
0.0
  0
LINE
  8
0
  6
CONTINUOUS
 62
               7
  5
373
 10
-185.1503756685558
 20
-610.76298698608889
 30
0.0
 11
-185.1503756685558
 21
-523.76298698608889
 31
0.0
  0
LINE
  8
0
  6
CONTINUOUS
 62
               7
  5
374
 10
-127.2848274140361
 20
-522.76298698608889
 30
0.0
 11
-184.1503756685558
 21
-522.76298698608889
 31
0.0
  0
LINE
  8
0
  6
CONTINUOUS
 62
               7
  5
375
 10
-102.55037566855577
 20
-611.76298698608889
 30
0.0
 11
-184.1503756685558
 21
-611.76298698608889
 31
0.0
  0
LINE
  8
0
  6
CONTINUOUS
 62
               7
  5
376
 10
-102.55037566855577
 20
-551.76298698608889
 30
0.0
 11
-127.1503756685558
 21
-551.76298698608889
 31
0.0
  0
LINE
  8
0
  6
CONTINUOUS
 62
               7
  5
377
 10
-102.55037566855577
 20
-551.76298698608889
 30
0.0
 11
-101.55037566855577
 21
-552.76298698608889
 31
0.0
  0
LINE
  8
0
  6
CONTINUOUS
 62
               7
  5
378
 10
-184.1503756685558
 20
-522.76298698608889
 30
0.0
 11
-185.1503756685558
 21
-523.76298698608889
 31
0.0
  0
LINE
  8
0
  6
CONTINUOUS
 62
               7
  5
379
 10
-101.55037566855577
 20
-610.76298698608889
 30
0.0
 11
-102.55037566855577
 21
-611.76298698608889
 31
0.0
  0
LINE
  8
0
  6
CONTINUOUS
 62
               7
  5
37A
 10
-185.1503756685558
 20
-610.76298698608889
 30
0.0
 11
-184.1503756685558
 21
-611.76298698608889
 31
0.0
  0
LINE
  8
0
  6
CONTINUOUS
 62
               7
  5
37B
 10
-34.794359443312771
 20
-461.00697076084623
 30
0.0
 11
23.205640556687214
 21
-461.00697076084623
 31
0.0
  0
LINE
  8
0
  6
CONTINUOUS
 62
               7
  5
37C
 10
38.705640556687214
 20
-435.40697076084609
 30
0.0
 11
-50.294359443312771
 21
-435.40697076084609
 31
0.0
  0
LINE
  8
0
  6
CONTINUOUS
 62
               7
  5
37D
 10
38.705640556687214
 20
-434.80697076084618
 30
0.0
 11
38.705640556687214
 21
-435.40697076084609
 31
0.0
  0
LINE
  8
0
  6
CONTINUOUS
 62
               7
  5
37E
 10
-49.294359443312771
 20
-377.40697076084609
 30
0.0
 11
37.705640556687214
 21
-377.40697076084609
 31
0.0
  0
LINE
  8
0
  6
CONTINUOUS
 62
               7
  5
37F
 10
38.705640556687214
 20
-435.2725190153659
 30
0.0
 11
38.705640556687214
 21
-378.40697076084609
 31
0.0
  0
LINE
  8
0
  6
CONTINUOUS
 62
               7
  5
380
 10
-35.794359443312771
 20
-460.00697076084623
 30
0.0
 11
-35.794359443312771
 21
-435.40697076084609
 31
0.0
  0
LINE
  8
0
  6
CONTINUOUS
 62
               7
  5
381
 10
24.205640556687214
 20
-460.00697076084623
 30
0.0
 11
24.205640556687214
 21
-435.40697076084609
 31
0.0
  0
LINE
  8
0
  6
CONTINUOUS
 62
               7
  5
382
 10
24.205640556687214
 20
-460.00697076084623
 30
0.0
 11
23.205640556687214
 21
-461.00697076084623
 31
0.0
  0
LINE
  8
0
  6
CONTINUOUS
 62
               7
  5
383
 10
38.705640556687214
 20
-378.40697076084609
 30
0.0
 11
37.705640556687214
 21
-377.40697076084609
 31
0.0
  0
LINE
  8
0
  6
CONTINUOUS
 62
               7
  5
384
 10
-34.794359443312771
 20
-461.00697076084623
 30
0.0
 11
-35.794359443312771
 21
-460.00697076084623
 31
0.0
  0
LINE
  8
0
  6
CONTINUOUS
 62
               7
  5
385
 10
-49.294359443312771
 20
-377.40697076084609
 30
0.0
 11
-50.294359443312771
 21
-378.40697076084609
 31
0.0
  0
LINE
  8
0
  6
CONTINUOUS
 62
               7
  5
386
 10
-50.294359443312771
 20
-435.27251901536567
 30
0.0
 11
-50.294359443312771
 21
-378.40697076084609
 31
0.0
  0
CIRCLE
  8
0
  6
CONTINUOUS
 62
               7
  5
387
 10
482.61425631235693
 20
-998.57798516288221
 30
0.0
 40
25.5
  0
CIRCLE
  8
0
  6
CONTINUOUS
 62
               7
  5
388
 10
482.61425631235693
 20
-984.07798516288221
 30
0.0
 40
44.5
  0
CIRCLE
  8
0
  6
CONTINUOUS
 62
               7
  5
389
 10
482.61425631235693
 20
-998.57798516288221
 30
0.0
 40
30.0
  0
LINE
  8
0
  6
CONTINUOUS
 62
               7
  5
38A
 10
453.61425631235693
 20
-680.178551414298
 30
0.0
 11
511.61425631235693
 21
-680.178551414298
 31
0.0
  0
LINE
  8
0
  6
CONTINUOUS
 62
               7
  5
38B
 10
527.11425631235693
 20
-654.57855141429809
 30
0.0
 11
438.11425631235693
 21
-654.57855141429809
 31
0.0
  0
LINE
  8
0
  6
CONTINUOUS
 62
               7
  5
38C
 10
527.11425631235693
 20
-653.97855141429818
 30
0.0
 11
527.11425631235693
 21
-654.57855141429809
 31
0.0
  0
LINE
  8
0
  6
CONTINUOUS
 62
               7
  5
38D
 10
439.11425631235693
 20
-596.57855141429764
 30
0.0
 11
526.11425631235693
 21
-596.57855141429764
 31
0.0
  0
LINE
  8
0
  6
CONTINUOUS
 62
               7
  5
38E
 10
527.11425631235693
 20
-654.44409966881767
 30
0.0
 11
527.11425631235693
 21
-597.57855141429764
 31
0.0
  0
LINE
  8
0
  6
CONTINUOUS
 62
               7
  5
38F
 10
452.61425631235693
 20
-679.178551414298
 30
0.0
 11
452.61425631235693
 21
-654.57855141429809
 31
0.0
  0
LINE
  8
0
  6
CONTINUOUS
 62
               7
  5
390
 10
512.61425631235693
 20
-679.178551414298
 30
0.0
 11
512.61425631235693
 21
-654.57855141429809
 31
0.0
  0
LINE
  8
0
  6
CONTINUOUS
 62
               7
  5
391
 10
512.61425631235693
 20
-679.178551414298
 30
0.0
 11
511.61425631235693
 21
-680.178551414298
 31
0.0
  0
LINE
  8
0
  6
CONTINUOUS
 62
               7
  5
392
 10
527.11425631235693
 20
-597.57855141429764
 30
0.0
 11
526.11425631235693
 21
-596.57855141429764
 31
0.0
  0
LINE
  8
0
  6
CONTINUOUS
 62
               7
  5
393
 10
453.61425631235693
 20
-680.178551414298
 30
0.0
 11
452.61425631235693
 21
-679.178551414298
 31
0.0
  0
LINE
  8
0
  6
CONTINUOUS
 62
               7
  5
394
 10
439.11425631235693
 20
-596.57855141429764
 30
0.0
 11
438.11425631235693
 21
-597.57855141429764
 31
0.0
  0
LINE
  8
0
  6
CONTINUOUS
 62
               7
  5
395
 10
438.11425631235693
 20
-654.44409966881767
 30
0.0
 11
438.11425631235693
 21
-597.57855141429764
 31
0.0
  0
LINE
  8
0
  6
CONTINUOUS
 62
               7
  5
396
 10
337.61425631235687
 20
-939.57798516288221
 30
0.0
 11
337.61425631235687
 21
-1028.5727490422078
 31
0.0
  0
LINE
  8
0
  6
CONTINUOUS
 62
               7
  5
397
 10
338.21425631235689
 20
-939.57798516288221
 30
0.0
 11
337.61425631235687
 21
-939.57798516288221
 31
0.0
  0
LINE
  8
0
  6
CONTINUOUS
 62
               7
  5
398
 10
302.61425631235687
 20
-1027.5779851628822
 30
0.0
 11
302.61425631235687
 21
-953.57798516288221
 31
0.0
  0
LINE
  8
0
  6
CONTINUOUS
 62
               7
  5
399
 10
395.61425631235693
 20
-1027.5779851628822
 30
0.0
 11
395.61425631235693
 21
-940.57798516288221
 31
0.0
  0
LINE
  8
0
  6
CONTINUOUS
 62
               7
  5
39A
 10
337.61425631235687
 20
-939.57798516288221
 30
0.0
 11
394.61425631235693
 21
-939.57798516288221
 31
0.0
  0
LINE
  8
0
  6
CONTINUOUS
 62
               7
  5
39B
 10
303.61425631235687
 20
-1028.5779851628822
 30
0.0
 11
394.61425631235693
 21
-1028.5779851628822
 31
0.0
  0
LINE
  8
0
  6
CONTINUOUS
 62
               7
  5
39C
 10
394.61425631235693
 20
-939.57798516288221
 30
0.0
 11
395.61425631235693
 21
-940.57798516288221
 31
0.0
  0
LINE
  8
0
  6
CONTINUOUS
 62
               7
  5
39D
 10
395.61425631235693
 20
-1027.5779851628822
 30
0.0
 11
394.61425631235693
 21
-1028.5779851628822
 31
0.0
  0
LINE
  8
0
  6
CONTINUOUS
 62
               7
  5
39E
 10
303.61425631235687
 20
-952.57798516288221
 30
0.0
 11
337.61425631235687
 21
-952.57798516288221
 31
0.0
  0
LINE
  8
0
  6
CONTINUOUS
 62
               7
  5
39F
 10
303.61425631235687
 20
-952.57798516288221
 30
0.0
 11
302.61425631235687
 21
-953.57798516288221
 31
0.0
  0
LINE
  8
0
  6
CONTINUOUS
 62
               7
  5
3A0
 10
302.61425631235687
 20
-1027.5779851628822
 30
0.0
 11
303.61425631235687
 21
-1028.5779851628822
 31
0.0
  0
LINE
  8
0
  6
CONTINUOUS
 62
               7
  5
3A1
 10
337.61425631235687
 20
-554.07855141429764
 30
0.0
 11
337.6142563123571
 21
-465.0837875349722
 31
0.0
  0
LINE
  8
0
  6
CONTINUOUS
 62
               7
  5
3A2
 10
338.21425631235701
 20
-554.07855141429764
 30
0.0
 11
337.61425631235687
 21
-554.07855141429764
 31
0.0
  0
LINE
  8
0
  6
CONTINUOUS
 62
               7
  5
3A3
 10
302.6142563123571
 20
-472.57855141429775
 30
0.0
 11
302.61425631235687
 21
-546.57855141429764
 31
0.0
  0
LINE
  8
0
  6
CONTINUOUS
 62
               7
  5
3A4
 10
395.61425631235716
 20
-466.07855141429798
 30
0.0
 11
395.61425631235693
 21
-553.07855141429764
 31
0.0
  0
LINE
  8
0
  6
CONTINUOUS
 62
               7
  5
3A5
 10
337.61425631235687
 20
-554.07855141429764
 30
0.0
 11
394.61425631235693
 21
-554.07855141429764
 31
0.0
  0
LINE
  8
0
  6
CONTINUOUS
 62
               7
  5
3A6
 10
303.6142563123571
 20
-471.57855141429775
 30
0.0
 11
337.6142563123571
 21
-471.57855141429775
 31
0.0
  0
LINE
  8
0
  6
CONTINUOUS
 62
               7
  5
3A7
 10
394.61425631235693
 20
-554.07855141429764
 30
0.0
 11
395.61425631235693
 21
-553.07855141429764
 31
0.0
  0
LINE
  8
0
  6
CONTINUOUS
 62
               7
  5
3A8
 10
395.61425631235716
 20
-466.07855141429798
 30
0.0
 11
394.61425631235716
 21
-465.07855141429798
 31
0.0
  0
LINE
  8
0
  6
CONTINUOUS
 62
               7
  5
3A9
 10
303.61425631235687
 20
-547.57855141429764
 30
0.0
 11
337.6142563123571
 21
-547.57855141429764
 31
0.0
  0
LINE
  8
0
  6
CONTINUOUS
 62
               7
  5
3AA
 10
303.61425631235687
 20
-547.57855141429764
 30
0.0
 11
302.61425631235687
 21
-546.57855141429764
 31
0.0
  0
LINE
  8
0
  6
CONTINUOUS
 62
               7
  5
3AB
 10
302.6142563123571
 20
-472.57855141429775
 30
0.0
 11
303.6142563123571
 21
-471.57855141429775
 31
0.0
  0
LINE
  8
0
  6
CONTINUOUS
 62
               7
  5
3AC
 10
337.6142563123571
 20
-465.07855141429775
 30
0.0
 11
394.61425631235716
 21
-465.07855141429775
 31
0.0
  0
CIRCLE
  8
0
  6
CONTINUOUS
 62
               7
  5
3AD
 10
-5.7943594433129562
 20
-997.26298698608889
 30
0.0
 40
38.0
  0
LINE
  8
0
  6
CONTINUOUS
 62
               7
  5
3AE
 10
-150.29435944331283
 20
-959.26298698608866
 30
0.0
 11
-150.29435944331294
 21
-1035.2577508654142
 31
0.0
  0
LINE
  8
0
  6
CONTINUOUS
 62
               7
  5
3AF
 10
-150.29435944331283
 20
-946.26298698608866
 30
0.0
 11
-149.69435944331286
 21
-946.26298698608866
 31
0.0
  0
LINE
  8
0
  6
CONTINUOUS
 62
               7
  5
3B0
 10
-208.29435944331294
 20
-1034.2629869860887
 30
0.0
 11
-208.29435944331294
 21
-960.26298698608866
 31
0.0
  0
LINE
  8
0
  6
CONTINUOUS
 62
               7
  5
3B1
 10
-150.29435944331294
 20
-1035.2629869860887
 30
0.0
 11
-125.69435944331288
 21
-1035.2629869860887
 31
0.0
  0
LINE
  8
0
  6
CONTINUOUS
 62
               7
  5
3B2
 10
-208.29435944331294
 20
-1034.2629869860887
 30
0.0
 11
-207.29435944331294
 21
-1035.2629869860887
 31
0.0
  0
LINE
  8
0
  6
CONTINUOUS
 62
               7
  5
3B3
 10
-207.29435944331294
 20
-959.26298698608866
 30
0.0
 11
-150.29435944331283
 21
-959.26298698608866
 31
0.0
  0
LINE
  8
0
  6
CONTINUOUS
 62
               7
  5
3B4
 10
-115.29435944331296
 20
-1034.2629869860887
 30
0.0
 11
-116.29435944331296
 21
-1035.2629869860887
 31
0.0
  0
CIRCLE
  8
0
  6
CONTINUOUS
 62
               7
  5
3B5
 10
-5.794359443313013
 20
-1005.2629869860889
 30
0.0
 40
30.0
  0
CIRCLE
  8
0
  6
CONTINUOUS
 62
               7
  5
3B6
 10
-5.794359443313013
 20
-1005.2629869860889
 30
0.0
 40
0.1981604108525852
  0
CIRCLE
  8
0
  6
CONTINUOUS
 62
               7
  5
3B7
 10
-5.794359443313013
 20
-1005.2629869860889
 30
0.0
 40
25.5
  0
LINE
  8
0
  6
CONTINUOUS
 62
               7
  5
3B8
 10
-124.69435944331288
 20
-1034.2629869860887
 30
0.0
 11
-124.69435944331288
 21
-976.26298698608889
 31
0.0
  0
LINE
  8
0
  6
CONTINUOUS
 62
               7
  5
3B9
 10
-150.29435944331283
 20
-975.26298698608889
 30
0.0
 11
-125.69435944331288
 21
-975.26298698608889
 31
0.0
  0
LINE
  8
0
  6
CONTINUOUS
 62
               7
  5
3BA
 10
-150.29435944331294
 20
-1035.2577508654142
 30
0.0
 11
-207.29435944331294
 21
-1035.2629869860887
 31
0.0
  0
LINE
  8
0
  6
CONTINUOUS
 62
               7
  5
3BB
 10
-207.29435944331294
 20
-959.26298698608866
 30
0.0
 11
-208.29435944331294
 21
-960.26298698608866
 31
0.0
  0
LINE
  8
0
  6
CONTINUOUS
 62
               7
  5
3BC
 10
-125.69435944331288
 20
-975.26298698608889
 30
0.0
 11
-124.69435944331288
 21
-976.26298698608889
 31
0.0
  0
LINE
  8
0
  6
CONTINUOUS
 62
               7
  5
3BD
 10
-124.69435944331288
 20
-1034.2629869860887
 30
0.0
 11
-125.69435944331288
 21
-1035.2629869860887
 31
0.0
  0
LINE
  8
0
  6
CONTINUOUS
 62
               7
  5
3BE
 10
138.705640556687
 20
-959.26298698608889
 30
0.0
 11
138.70564055668694
 21
-1035.2577508654144
 31
0.0
  0
LINE
  8
0
  6
CONTINUOUS
 62
               7
  5
3BF
 10
138.705640556687
 20
-946.26298698608889
 30
0.0
 11
138.10564055668704
 21
-946.26298698608889
 31
0.0
  0
LINE
  8
0
  6
CONTINUOUS
 62
               7
  5
3C0
 10
196.705640556687
 20
-1034.2629869860889
 30
0.0
 11
196.70564055668706
 21
-960.26298698608889
 31
0.0
  0
LINE
  8
0
  6
CONTINUOUS
 62
               7
  5
3C1
 10
138.70564055668694
 20
-1035.2629869860889
 30
0.0
 11
114.10564055668691
 21
-1035.2629869860889
 31
0.0
  0
LINE
  8
0
  6
CONTINUOUS
 62
               7
  5
3C2
 10
196.705640556687
 20
-1034.2629869860889
 30
0.0
 11
195.705640556687
 21
-1035.2629869860889
 31
0.0
  0
LINE
  8
0
  6
CONTINUOUS
 62
               7
  5
3C3
 10
195.70564055668706
 20
-959.26298698608889
 30
0.0
 11
138.705640556687
 21
-959.26298698608889
 31
0.0
  0
LINE
  8
0
  6
CONTINUOUS
 62
               7
  5
3C4
 10
103.70564055668699
 20
-1034.2629869860889
 30
0.0
 11
104.70564055668699
 21
-1035.2629869860889
 31
0.0
  0
LINE
  8
0
  6
CONTINUOUS
 62
               7
  5
3C5
 10
113.10564055668691
 20
-1034.2629869860889
 30
0.0
 11
113.10564055668696
 21
-976.26298698608912
 31
0.0
  0
LINE
  8
0
  6
CONTINUOUS
 62
               7
  5
3C6
 10
138.70564055668694
 20
-975.26298698608912
 30
0.0
 11
114.10564055668696
 21
-975.26298698608912
 31
0.0
  0
LINE
  8
0
  6
CONTINUOUS
 62
               7
  5
3C7
 10
138.70564055668694
 20
-1035.2577508654144
 30
0.0
 11
195.705640556687
 21
-1035.2629869860889
 31
0.0
  0
LINE
  8
0
  6
CONTINUOUS
 62
               7
  5
3C8
 10
195.70564055668706
 20
-959.26298698608889
 30
0.0
 11
196.70564055668706
 21
-960.26298698608889
 31
0.0
  0
LINE
  8
0
  6
CONTINUOUS
 62
               7
  5
3C9
 10
114.10564055668696
 20
-975.26298698608912
 30
0.0
 11
113.10564055668696
 21
-976.26298698608912
 31
0.0
  0
LINE
  8
0
  6
CONTINUOUS
 62
               7
  5
3CA
 10
113.10564055668691
 20
-1034.2629869860889
 30
0.0
 11
114.10564055668691
 21
-1035.2629869860889
 31
0.0
  0
LINE
  8
0
  6
CONTINUOUS
 62
               7
  5
3CB
 10
32.205640556687158
 20
-852.76298698608912
 30
0.0
 11
-43.789123322638389
 21
-852.76298698608889
 31
0.0
  0
LINE
  8
0
  6
CONTINUOUS
 62
               7
  5
3CC
 10
45.205640556687158
 20
-852.16298698608898
 30
0.0
 11
45.205640556687158
 21
-852.76298698608912
 31
0.0
  0
LINE
  8
0
  6
CONTINUOUS
 62
               7
  5
3CD
 10
-42.794359443312786
 20
-794.76298698608889
 30
0.0
 11
31.205640556687214
 21
-794.76298698608889
 31
0.0
  0
LINE
  8
0
  6
CONTINUOUS
 62
               7
  5
3CE
 10
-35.794359443312842
 20
-852.76298698608889
 30
0.0
 11
-35.794359443312842
 21
-877.36298698608903
 31
0.0
  0
LINE
  8
0
  6
CONTINUOUS
 62
               7
  5
3CF
 10
-42.794359443312786
 20
-794.76298698608889
 30
0.0
 11
-43.794359443312786
 21
-795.76298698608889
 31
0.0
  0
LINE
  8
0
  6
CONTINUOUS
 62
               7
  5
3D0
 10
32.205640556687214
 20
-795.76298698608889
 30
0.0
 11
32.205640556687158
 21
-852.76298698608912
 31
0.0
  0
LINE
  8
0
  6
CONTINUOUS
 62
               7
  5
3D1
 10
-34.794359443312899
 20
-887.76298698608889
 30
0.0
 11
-35.794359443312899
 21
-886.76298698608889
 31
0.0
  0
LINE
  8
0
  6
CONTINUOUS
 62
               7
  5
3D2
 10
-34.794359443312842
 20
-878.36298698608903
 30
0.0
 11
23.205640556686987
 21
-878.36298698608903
 31
0.0
  0
LINE
  8
0
  6
CONTINUOUS
 62
               7
  5
3D3
 10
24.205640556686987
 20
-852.76298698608912
 30
0.0
 11
24.205640556686987
 21
-877.36298698608903
 31
0.0
  0
LINE
  8
0
  6
CONTINUOUS
 62
               7
  5
3D4
 10
-43.789123322638389
 20
-852.76298698608889
 30
0.0
 11
-43.794359443312786
 21
-795.76298698608889
 31
0.0
  0
LINE
  8
0
  6
CONTINUOUS
 62
               7
  5
3D5
 10
32.205640556687214
 20
-795.76298698608889
 30
0.0
 11
31.205640556687214
 21
-794.76298698608889
 31
0.0
  0
LINE
  8
0
  6
CONTINUOUS
 62
               7
  5
3D6
 10
24.205640556686987
 20
-877.36298698608903
 30
0.0
 11
23.205640556686987
 21
-878.36298698608903
 31
0.0
  0
LINE
  8
0
  6
CONTINUOUS
 62
               7
  5
3D7
 10
-34.794359443312842
 20
-878.36298698608903
 30
0.0
 11
-35.794359443312842
 21
-877.36298698608903
 31
0.0
  0
CIRCLE
  8
0
  6
DASHED
 62
               7
  5
3D8
 10
-518.81003595441973
 20
-567.26298698608889
 30
0.0
 40
40.0
  0
CIRCLE
  8
0
  6
DASHED
 62
               7
  5
3D9
 10
-5.7943594433129988
 20
-567.26298698608889
 30
0.0
 40
40.0
  0
CIRCLE
  8
0
  6
DASHED
 62
               7
  5
3DA
 10
482.61425631235693
 20
-984.07798516288221
 30
0.0
 40
40.0
  0
TEXT
  8
0
 62
               3
  5
3DB
 10
-518.81003595441973
 20
-651.76298698608889
 30
0.0
 40
40.0
  1
EMB_80×65
 41
0.8
 72
               1
 11
-518.81003595441973
 21
-651.76298698608889
 31
0.0
 73
               3
  0
TEXT
  8
0
 62
               3
  5
3DC
 10
-5.7943594433129988
 20
-651.76298698608889
 30
0.0
 40
40.0
  1
EMB_80×50
 41
0.8
 72
               1
 11
-5.7943594433129988
 21
-651.76298698608889
 31
0.0
 73
               3
  0
TEXT
  8
0
 62
               3
  5
3DD
 10
478.91685233471662
 20
-330.13218290907855
 30
0.0
 40
40.0
  1
EMB使用例
 41
0.8
 72
               1
 11
478.91685233471662
 21
-330.13218290907855
 31
0.0
 73
               3
  0
TEXT
  8
0
 62
               3
  5
3DE
 10
-250.41497099484187
 20
-275.77204700873915
 30
0.0
 40
35.0
  1
横枝管に呼び６５、５０の管を接続するときは、EMBをご使用ください。
 41
0.8
 72
               1
 11
-250.41497099484187
 21
-275.77204700873915
 31
0.0
 73
               3
  0
TEXT
  8
0
 62
               3
  5
3DF
 10
-5.794359443313013
 20
-1081.7629869860889
 30
0.0
 40
40.0
  1
EMB_65×50
 41
0.8
 72
               1
 11
-5.794359443313013
 21
-1081.7629869860889
 31
0.0
 73
               3
  0
ENDSEC
  0
EOF
