  0
SECTION
  2
HEADER
  9
$ACADVER
  1
AC1009
  9
$INSBASE
 10
0.0
 20
0.0
 30
0.0
  9
$EXTMIN
 10
-843.29799736827704
 20
-1124.6559508957127
 30
0.0
  9
$EXTMAX
 10
619.23998677668305
 20
1105.7781724047256
 30
0.0
  9
$LIMMIN
 10
-889.00230937280708
 20
-1194.3570172488514
  9
$LIMMAX
 10
664.94429878121309
 20
1175.4792387578643
  9
$ORTHOMODE
 70
               0
  9
$REGENMODE
 70
               1
  9
$FILLMODE
 70
               1
  9
$QTEXTMODE
 70
               0
  9
$MIRRTEXT
 70
               1
  9
$DRAGMODE
 70
               2
  9
$LTSCALE
 40
1.0
  9
$OSMODE
 70
               0
  9
$ATTMODE
 70
               1
  9
$TEXTSIZE
 40
0.2
  9
$TRACEWID
 40
0.05
  9
$TEXTSTYLE
  7
STANDARD
  9
$CLAYER
  8
0
  9
$CELTYPE
  6
CONTINUOUS
  9
$CECOLOR
 62
             256
  9
$DIMSCALE
 40
1.0
  9
$DIMASZ
 40
0.18
  9
$DIMEXO
 40
0.0625
  9
$DIMDLI
 40
0.38
  9
$DIMRND
 40
0.0
  9
$DIMDLE
 40
0.0
  9
$DIMEXE
 40
0.18
  9
$DIMTP
 40
0.0
  9
$DIMTM
 40
0.0
  9
$DIMTXT
 40
0.18
  9
$DIMCEN
 40
0.09
  9
$DIMTSZ
 40
0.0
  9
$DIMTOL
 70
               0
  9
$DIMLIM
 70
               0
  9
$DIMTIH
 70
               1
  9
$DIMTOH
 70
               1
  9
$DIMSE1
 70
               0
  9
$DIMSE2
 70
               0
  9
$DIMTAD
 70
               0
  9
$DIMZIN
 70
               0
  9
$DIMBLK
  1

  9
$DIMASO
 70
               1
  9
$DIMSHO
 70
               1
  9
$DIMPOST
  1

  9
$DIMAPOST
  1

  9
$DIMALT
 70
               0
  9
$DIMALTD
 70
               2
  9
$DIMALTF
 40
25.399999999999999
  9
$DIMLFAC
 40
1.0
  9
$DIMTOFL
 70
               0
  9
$DIMTVP
 40
0.0
  9
$DIMTIX
 70
               0
  9
$DIMSOXD
 70
               0
  9
$DIMSAH
 70
               0
  9
$DIMBLK1
  1

  9
$DIMBLK2
  1

  9
$DIMSTYLE
  2
STANDARD
  9
$DIMCLRD
 70
               0
  9
$DIMCLRE
 70
               0
  9
$DIMCLRT
 70
               0
  9
$DIMTFAC
 40
1.0
  9
$DIMGAP
 40
0.09
  9
$LUNITS
 70
               2
  9
$LUPREC
 70
               4
  9
$AXISMODE
 70
               0
  9
$AXISUNIT
 10
0.0
 20
0.0
  9
$SKETCHINC
 40
0.1
  9
$FILLETRAD
 40
0.0
  9
$AUNITS
 70
               0
  9
$AUPREC
 70
               0
  9
$MENU
  1
acad
  9
$ELEVATION
 40
0.0
  9
$PELEVATION
 40
0.0
  9
$THICKNESS
 40
0.0
  9
$LIMCHECK
 70
               0
  9
$BLIPMODE
 70
               1
  9
$CHAMFERA
 40
0.0
  9
$CHAMFERB
 40
0.0
  9
$SKPOLY
 70
               0
  9
$TDCREATE
 40
0.000000000
  9
$TDUPDATE
 40
0.000000000
  9
$TDINDWG
 40
0.0000000000
  9
$TDUSRTIMER
 40
0.0000000000
  9
$USRTIMER
 70
               1
  9
$ANGBASE
 50
0.0
  9
$ANGDIR
 70
               0
  9
$PDMODE
 70
               0
  9
$PDSIZE
 40
1.0
  9
$PLINEWID
 40
0.0
  9
$COORDS
 70
               1
  9
$SPLFRAME
 70
               0
  9
$SPLINETYPE
 70
               6
  9
$SPLINESEGS
 70
               8
  9
$ATTDIA
 70
               0
  9
$ATTREQ
 70
               1
  9
$HANDLING
 70
               1
  9
$HANDSEED
  5
3D1
  9
$SURFTAB1
 70
               6
  9
$SURFTAB2
 70
               6
  9
$SURFTYPE
 70
               6
  9
$SURFU
 70
               6
  9
$SURFV
 70
               6
  9
$UCSNAME
  2

  9
$UCSORG
 10
0.0
 20
0.0
 30
0.0
  9
$UCSXDIR
 10
1.0
 20
0.0
 30
0.0
  9
$UCSYDIR
 10
0.0
 20
1.0
 30
0.0
  9
$PUCSNAME
  2

  9
$PUCSORG
 10
0.0
 20
0.0
 30
0.0
  9
$PUCSXDIR
 10
1.0
 20
0.0
 30
0.0
  9
$PUCSYDIR
 10
0.0
 20
1.0
 30
0.0
  9
$USERI1
 70
               0
  9
$USERI2
 70
               0
  9
$USERI3
 70
               0
  9
$USERI4
 70
               0
  9
$USERI5
 70
               0
  9
$USERR1
 40
0.0
  9
$USERR2
 40
0.0
  9
$USERR3
 40
0.0
  9
$USERR4
 40
0.0
  9
$USERR5
 40
0.0
  9
$WORLDVIEW
 70
               1
  9
$SHADEDGE
 70
               3
  9
$SHADEDIF
 70
              70
  9
$TILEMODE
 70
               1
  9
$MAXACTVP
 70
              16
  9
$PINSBASE
 10
0.0
 20
0.0
 30
0.0
  9
$PLIMCHECK
 70
               0
  9
$PEXTMIN
 10
1.0000000000000000E+20
 20
1.0000000000000000E+20
 30
1.0000000000000000E+20
  9
$PEXTMAX
 10
-1.0000000000000000E+20
 20
-1.0000000000000000E+20
 30
-1.0000000000000000E+20
  9
$PLIMMIN
 10
0.0
 20
0.0
  9
$PLIMMAX
 10
12.0
 20
9.0
  9
$UNITMODE
 70
               0
  9
$VISRETAIN
 70
               0
  9
$PLINEGEN
 70
               1
  9
$PSLTSCALE
 70
               0
  9
$TREEDEPTH
 70
            3020
  9
$DWGCODEPAGE
  3
dos932
  0
ENDSEC
  0
SECTION
  2
TABLES
  0
TABLE
  2
VPORT
 70
               1
  0
VPORT
  2
*ACTIVE
 70
               0
 10
0.0
 20
0.0
 11
1.0
 21
1.0
 12
-112.02900529579699
 22
-9.4388892454935558
 13
0.0
 23
0.0
 14
1.0
 24
1.0
 15
0.0
 25
0.0
 16
0.0
 26
0.0
 36
1.0
 17
0.0
 27
0.0
 37
0.0
 40
2369.8362560067158
 41
0.6557189781426048
 42
50.0
 43
0.0
 44
0.0
 50
0.0
 51
0.0
 71
               0
 72
             100
 73
               1
 74
               1
 75
               0
 76
               0
 77
               0
 78
               0
  0
ENDTAB
  0
TABLE
  2
LTYPE
 70
              26
  0
LTYPE
  2
CONTINUOUS
 70
               0
  3
Solid line
 72
              65
 73
               0
 40
0.0
  0
LTYPE
  2
HIDDENX2
 70
               0
  3
CADPAC FUSION LINETYPE
 72
              65
 73
               2
 40
47.560000000000002
 49
35.670000000000002
 49
-11.890000000000001
  0
LTYPE
  2
HIDDEN
 70
               0
  3
CADPAC FUSION LINETYPE
 72
              65
 73
               2
 40
35.670000000000002
 49
23.780000000000001
 49
-11.890000000000001
  0
LTYPE
  2
HIDDEN2
 70
               0
  3
CADPAC FUSION LINETYPE
 72
              65
 73
               2
 40
29.725000000000001
 49
17.835000000000001
 49
-11.890000000000001
  0
LTYPE
  2
DASHED
 70
               0
  3
CADPAC FUSION LINETYPE
 72
              65
 73
               2
 40
35.670000000000002
 49
23.780000000000001
 49
-11.890000000000001
  0
LTYPE
  2
DASHED2
 70
               0
  3
CADPAC FUSION LINETYPE
 72
              65
 73
               2
 40
26.752500000000001
 49
17.835000000000001
 49
-8.9175000000000004
  0
LTYPE
  2
DASHEDX2
 70
               0
  3
CADPAC FUSION LINETYPE
 72
              65
 73
               2
 40
53.505000000000003
 49
35.670000000000002
 49
-17.835000000000001
  0
LTYPE
  2
DOTX2
 70
               0
  3
CADPAC FUSION LINETYPE
 72
              65
 73
               2
 40
14.862500000000001
 49
0.0
 49
-14.862500000000001
  0
LTYPE
  2
DOT
 70
               0
  3
CADPAC FUSION LINETYPE
 72
              65
 73
               2
 40
11.890000000000001
 49
0.0
 49
-11.890000000000001
  0
LTYPE
  2
DOTS
 70
               0
  3
CADPAC FUSION LINETYPE
 72
              65
 73
               2
 40
11.890000000000001
 49
0.0
 49
-11.890000000000001
  0
LTYPE
  2
DOT2
 70
               0
  3
CADPAC FUSION LINETYPE
 72
              65
 73
               2
 40
8.9175000000000004
 49
0.0
 49
-8.9175000000000004
  0
LTYPE
  2
CENTERX2
 70
               0
  3
CADPAC FUSION LINETYPE
 72
              65
 73
               4
 40
71.340000000000003
 49
29.725000000000001
 49
-14.862500000000001
 49
11.890000000000001
 49
-14.862500000000001
  0
LTYPE
  2
CENTER
 70
               0
  3
CADPAC FUSION LINETYPE
 72
              65
 73
               4
 40
54.694000000000003
 49
23.780000000000001
 49
-11.890000000000001
 49
7.1340000000000003
 49
-11.890000000000001
  0
LTYPE
  2
CENTER2
 70
               0
  3
CADPAC FUSION LINETYPE
 72
              65
 73
               4
 40
38.048000000000002
 49
17.835000000000001
 49
-8.9175000000000004
 49
2.3780000000000001
 49
-8.9175000000000004
  0
LTYPE
  2
DASHDOTX2
 70
               0
  3
CADPAC FUSION LINETYPE
 72
              65
 73
               4
 40
59.450000000000003
 49
29.725000000000001
 49
-14.862500000000001
 49
0.0
 49
-14.862500000000001
  0
LTYPE
  2
DASHDOT
 70
               0
  3
CADPAC FUSION LINETYPE
 72
              65
 73
               4
 40
47.560000000000002
 49
23.780000000000001
 49
-11.890000000000001
 49
0.0
 49
-11.890000000000001
  0
LTYPE
  2
DASHDOT2
 70
               0
  3
CADPAC FUSION LINETYPE
 72
              65
 73
               4
 40
35.670000000000002
 49
17.835000000000001
 49
-8.9175000000000004
 49
0.0
 49
-8.9175000000000004
  0
LTYPE
  2
DIVIDEX2
 70
               0
  3
CADPAC FUSION LINETYPE
 72
              65
 73
               6
 40
74.3125
 49
29.725000000000001
 49
-14.862500000000001
 49
0.0
 49
-14.862500000000001
 49
0.0
 49
-14.862500000000001
  0
LTYPE
  2
DIVIDE
 70
               0
  3
CADPAC FUSION LINETYPE
 72
              65
 73
               6
 40
59.450000000000003
 49
23.780000000000001
 49
-11.890000000000001
 49
0.0
 49
-11.890000000000001
 49
0.0
 49
-11.890000000000001
  0
LTYPE
  2
DIVIDE2
 70
               0
  3
CADPAC FUSION LINETYPE
 72
              65
 73
               6
 40
44.587500000000006
 49
17.835000000000001
 49
-8.9175000000000004
 49
0.0
 49
-8.9175000000000004
 49
0.0
 49
-8.9175000000000004
  0
LTYPE
  2
BORDERX2
 70
               0
  3
CADPAC FUSION LINETYPE
 72
              65
 73
               6
 40
104.03750000000001
 49
29.725000000000001
 49
-14.862500000000001
 49
29.725000000000001
 49
-14.862500000000001
 49
0.0
 49
-14.862500000000001
  0
LTYPE
  2
BORDER
 70
               0
  3
CADPAC FUSION LINETYPE
 72
              65
 73
               6
 40
83.230000000000004
 49
23.780000000000001
 49
-11.890000000000001
 49
23.780000000000001
 49
-11.890000000000001
 49
0.0
 49
-11.890000000000001
  0
LTYPE
  2
BORDER2
 70
               0
  3
CADPAC FUSION LINETYPE
 72
              65
 73
               6
 40
62.422499999999999
 49
17.835000000000001
 49
-8.9175000000000004
 49
17.835000000000001
 49
-8.9175000000000004
 49
0.0
 49
-8.9175000000000004
  0
LTYPE
  2
PHANTOMX2
 70
               0
  3
CADPAC FUSION LINETYPE
 72
              65
 73
               6
 40
89.175000000000011
 49
29.725000000000001
 49
-11.890000000000001
 49
11.890000000000001
 49
-11.890000000000001
 49
11.890000000000001
 49
-11.890000000000001
  0
LTYPE
  2
PHANTOM
 70
               0
  3
CADPAC FUSION LINETYPE
 72
              65
 73
               6
 40
73.718000000000004
 49
23.780000000000001
 49
-11.890000000000001
 49
7.1340000000000003
 49
-11.890000000000001
 49
7.1340000000000003
 49
-11.890000000000001
  0
LTYPE
  2
PHANTOM2
 70
               0
  3
CADPAC FUSION LINETYPE
 72
              65
 73
               6
 40
63.017000000000003
 49
17.835000000000001
 49
-11.890000000000001
 49
4.7560000000000002
 49
-11.890000000000001
 49
4.7560000000000002
 49
-11.890000000000001
  0
ENDTAB
  0
TABLE
  2
LAYER
 70
             256
  0
LAYER
  2
0
 70
               0
 62
               7
  6
CONTINUOUS
  0
LAYER
  2
LAYER001
 70
               0
 62
               7
  6
CONTINUOUS
  0
LAYER
  2
LAYER002
 70
               0
 62
               7
  6
CONTINUOUS
  0
LAYER
  2
LAYER003
 70
               0
 62
               7
  6
CONTINUOUS
  0
LAYER
  2
LAYER004
 70
               0
 62
               7
  6
CONTINUOUS
  0
LAYER
  2
LAYER005
 70
               0
 62
               7
  6
CONTINUOUS
  0
LAYER
  2
LAYER006
 70
               0
 62
               7
  6
CONTINUOUS
  0
LAYER
  2
LAYER007
 70
               0
 62
               7
  6
CONTINUOUS
  0
LAYER
  2
LAYER008
 70
               0
 62
               7
  6
CONTINUOUS
  0
LAYER
  2
LAYER009
 70
               0
 62
               7
  6
CONTINUOUS
  0
LAYER
  2
LAYER010
 70
               0
 62
               7
  6
CONTINUOUS
  0
LAYER
  2
LAYER011
 70
               0
 62
               7
  6
CONTINUOUS
  0
LAYER
  2
LAYER012
 70
               0
 62
               7
  6
CONTINUOUS
  0
LAYER
  2
LAYER013
 70
               0
 62
               7
  6
CONTINUOUS
  0
LAYER
  2
LAYER014
 70
               0
 62
               7
  6
CONTINUOUS
  0
LAYER
  2
LAYER015
 70
               0
 62
               7
  6
CONTINUOUS
  0
LAYER
  2
LAYER016
 70
               0
 62
               7
  6
CONTINUOUS
  0
LAYER
  2
LAYER017
 70
               0
 62
               7
  6
CONTINUOUS
  0
LAYER
  2
LAYER018
 70
               0
 62
               7
  6
CONTINUOUS
  0
LAYER
  2
LAYER019
 70
               0
 62
               7
  6
CONTINUOUS
  0
LAYER
  2
LAYER020
 70
               0
 62
               7
  6
CONTINUOUS
  0
LAYER
  2
LAYER021
 70
               0
 62
               7
  6
CONTINUOUS
  0
LAYER
  2
LAYER022
 70
               0
 62
               7
  6
CONTINUOUS
  0
LAYER
  2
LAYER023
 70
               0
 62
               7
  6
CONTINUOUS
  0
LAYER
  2
LAYER024
 70
               0
 62
               7
  6
CONTINUOUS
  0
LAYER
  2
LAYER025
 70
               0
 62
               7
  6
CONTINUOUS
  0
LAYER
  2
LAYER026
 70
               0
 62
               7
  6
CONTINUOUS
  0
LAYER
  2
LAYER027
 70
               0
 62
               7
  6
CONTINUOUS
  0
LAYER
  2
LAYER028
 70
               0
 62
               7
  6
CONTINUOUS
  0
LAYER
  2
LAYER029
 70
               0
 62
               7
  6
CONTINUOUS
  0
LAYER
  2
LAYER030
 70
               0
 62
               7
  6
CONTINUOUS
  0
LAYER
  2
LAYER031
 70
               0
 62
               7
  6
CONTINUOUS
  0
LAYER
  2
LAYER032
 70
               0
 62
               7
  6
CONTINUOUS
  0
LAYER
  2
LAYER033
 70
               0
 62
               7
  6
CONTINUOUS
  0
LAYER
  2
LAYER034
 70
               0
 62
               7
  6
CONTINUOUS
  0
LAYER
  2
LAYER035
 70
               0
 62
               7
  6
CONTINUOUS
  0
LAYER
  2
LAYER036
 70
               0
 62
               7
  6
CONTINUOUS
  0
LAYER
  2
LAYER037
 70
               0
 62
               7
  6
CONTINUOUS
  0
LAYER
  2
LAYER038
 70
               0
 62
               7
  6
CONTINUOUS
  0
LAYER
  2
LAYER039
 70
               0
 62
               7
  6
CONTINUOUS
  0
LAYER
  2
LAYER040
 70
               0
 62
               7
  6
CONTINUOUS
  0
LAYER
  2
LAYER041
 70
               0
 62
               7
  6
CONTINUOUS
  0
LAYER
  2
LAYER042
 70
               0
 62
               7
  6
CONTINUOUS
  0
LAYER
  2
LAYER043
 70
               0
 62
               7
  6
CONTINUOUS
  0
LAYER
  2
LAYER044
 70
               0
 62
               7
  6
CONTINUOUS
  0
LAYER
  2
LAYER045
 70
               0
 62
               7
  6
CONTINUOUS
  0
LAYER
  2
LAYER046
 70
               0
 62
               7
  6
CONTINUOUS
  0
LAYER
  2
LAYER047
 70
               0
 62
               7
  6
CONTINUOUS
  0
LAYER
  2
LAYER048
 70
               0
 62
               7
  6
CONTINUOUS
  0
LAYER
  2
LAYER049
 70
               0
 62
               7
  6
CONTINUOUS
  0
LAYER
  2
LAYER050
 70
               0
 62
               7
  6
CONTINUOUS
  0
LAYER
  2
LAYER051
 70
               0
 62
               7
  6
CONTINUOUS
  0
LAYER
  2
LAYER052
 70
               0
 62
               7
  6
CONTINUOUS
  0
LAYER
  2
LAYER053
 70
               0
 62
               7
  6
CONTINUOUS
  0
LAYER
  2
LAYER054
 70
               0
 62
               7
  6
CONTINUOUS
  0
LAYER
  2
LAYER055
 70
               0
 62
               7
  6
CONTINUOUS
  0
LAYER
  2
LAYER056
 70
               0
 62
               7
  6
CONTINUOUS
  0
LAYER
  2
LAYER057
 70
               0
 62
               7
  6
CONTINUOUS
  0
LAYER
  2
LAYER058
 70
               0
 62
               7
  6
CONTINUOUS
  0
LAYER
  2
LAYER059
 70
               0
 62
               7
  6
CONTINUOUS
  0
LAYER
  2
LAYER060
 70
               0
 62
               7
  6
CONTINUOUS
  0
LAYER
  2
LAYER061
 70
               0
 62
               7
  6
CONTINUOUS
  0
LAYER
  2
LAYER062
 70
               0
 62
               7
  6
CONTINUOUS
  0
LAYER
  2
LAYER063
 70
               0
 62
               7
  6
CONTINUOUS
  0
LAYER
  2
LAYER064
 70
               0
 62
               7
  6
CONTINUOUS
  0
LAYER
  2
LAYER065
 70
               0
 62
               7
  6
CONTINUOUS
  0
LAYER
  2
LAYER066
 70
               0
 62
               7
  6
CONTINUOUS
  0
LAYER
  2
LAYER067
 70
               0
 62
               7
  6
CONTINUOUS
  0
LAYER
  2
LAYER068
 70
               0
 62
               7
  6
CONTINUOUS
  0
LAYER
  2
LAYER069
 70
               0
 62
               7
  6
CONTINUOUS
  0
LAYER
  2
LAYER070
 70
               0
 62
               7
  6
CONTINUOUS
  0
LAYER
  2
LAYER071
 70
               0
 62
               7
  6
CONTINUOUS
  0
LAYER
  2
LAYER072
 70
               0
 62
               7
  6
CONTINUOUS
  0
LAYER
  2
LAYER073
 70
               0
 62
               7
  6
CONTINUOUS
  0
LAYER
  2
LAYER074
 70
               0
 62
               7
  6
CONTINUOUS
  0
LAYER
  2
LAYER075
 70
               0
 62
               7
  6
CONTINUOUS
  0
LAYER
  2
LAYER076
 70
               0
 62
               7
  6
CONTINUOUS
  0
LAYER
  2
LAYER077
 70
               0
 62
               7
  6
CONTINUOUS
  0
LAYER
  2
LAYER078
 70
               0
 62
               7
  6
CONTINUOUS
  0
LAYER
  2
LAYER079
 70
               0
 62
               7
  6
CONTINUOUS
  0
LAYER
  2
LAYER080
 70
               0
 62
               7
  6
CONTINUOUS
  0
LAYER
  2
LAYER081
 70
               0
 62
               7
  6
CONTINUOUS
  0
LAYER
  2
LAYER082
 70
               0
 62
               7
  6
CONTINUOUS
  0
LAYER
  2
LAYER083
 70
               0
 62
               7
  6
CONTINUOUS
  0
LAYER
  2
LAYER084
 70
               0
 62
               7
  6
CONTINUOUS
  0
LAYER
  2
LAYER085
 70
               0
 62
               7
  6
CONTINUOUS
  0
LAYER
  2
LAYER086
 70
               0
 62
               7
  6
CONTINUOUS
  0
LAYER
  2
LAYER087
 70
               0
 62
               7
  6
CONTINUOUS
  0
LAYER
  2
LAYER088
 70
               0
 62
               7
  6
CONTINUOUS
  0
LAYER
  2
LAYER089
 70
               0
 62
               7
  6
CONTINUOUS
  0
LAYER
  2
LAYER090
 70
               0
 62
               7
  6
CONTINUOUS
  0
LAYER
  2
LAYER091
 70
               0
 62
               7
  6
CONTINUOUS
  0
LAYER
  2
LAYER092
 70
               0
 62
               7
  6
CONTINUOUS
  0
LAYER
  2
LAYER093
 70
               0
 62
               7
  6
CONTINUOUS
  0
LAYER
  2
LAYER094
 70
               0
 62
               7
  6
CONTINUOUS
  0
LAYER
  2
LAYER095
 70
               0
 62
               7
  6
CONTINUOUS
  0
LAYER
  2
LAYER096
 70
               0
 62
               7
  6
CONTINUOUS
  0
LAYER
  2
LAYER097
 70
               0
 62
               7
  6
CONTINUOUS
  0
LAYER
  2
LAYER098
 70
               0
 62
               7
  6
CONTINUOUS
  0
LAYER
  2
LAYER099
 70
               0
 62
               7
  6
CONTINUOUS
  0
LAYER
  2
LAYER100
 70
               0
 62
               7
  6
CONTINUOUS
  0
LAYER
  2
LAYER101
 70
               0
 62
               7
  6
CONTINUOUS
  0
LAYER
  2
LAYER102
 70
               0
 62
               7
  6
CONTINUOUS
  0
LAYER
  2
LAYER103
 70
               0
 62
               7
  6
CONTINUOUS
  0
LAYER
  2
LAYER104
 70
               0
 62
               7
  6
CONTINUOUS
  0
LAYER
  2
LAYER105
 70
               0
 62
               7
  6
CONTINUOUS
  0
LAYER
  2
LAYER106
 70
               0
 62
               7
  6
CONTINUOUS
  0
LAYER
  2
LAYER107
 70
               0
 62
               7
  6
CONTINUOUS
  0
LAYER
  2
LAYER108
 70
               0
 62
               7
  6
CONTINUOUS
  0
LAYER
  2
LAYER109
 70
               0
 62
               7
  6
CONTINUOUS
  0
LAYER
  2
LAYER110
 70
               0
 62
               7
  6
CONTINUOUS
  0
LAYER
  2
LAYER111
 70
               0
 62
               7
  6
CONTINUOUS
  0
LAYER
  2
LAYER112
 70
               0
 62
               7
  6
CONTINUOUS
  0
LAYER
  2
LAYER113
 70
               0
 62
               7
  6
CONTINUOUS
  0
LAYER
  2
LAYER114
 70
               0
 62
               7
  6
CONTINUOUS
  0
LAYER
  2
LAYER115
 70
               0
 62
               7
  6
CONTINUOUS
  0
LAYER
  2
LAYER116
 70
               0
 62
               7
  6
CONTINUOUS
  0
LAYER
  2
LAYER117
 70
               0
 62
               7
  6
CONTINUOUS
  0
LAYER
  2
LAYER118
 70
               0
 62
               7
  6
CONTINUOUS
  0
LAYER
  2
LAYER119
 70
               0
 62
               7
  6
CONTINUOUS
  0
LAYER
  2
LAYER120
 70
               0
 62
               7
  6
CONTINUOUS
  0
LAYER
  2
LAYER121
 70
               0
 62
               7
  6
CONTINUOUS
  0
LAYER
  2
LAYER122
 70
               0
 62
               7
  6
CONTINUOUS
  0
LAYER
  2
LAYER123
 70
               0
 62
               7
  6
CONTINUOUS
  0
LAYER
  2
LAYER124
 70
               0
 62
               7
  6
CONTINUOUS
  0
LAYER
  2
LAYER125
 70
               0
 62
               7
  6
CONTINUOUS
  0
LAYER
  2
LAYER126
 70
               0
 62
               7
  6
CONTINUOUS
  0
LAYER
  2
LAYER127
 70
               0
 62
               7
  6
CONTINUOUS
  0
LAYER
  2
LAYER128
 70
               0
 62
               7
  6
CONTINUOUS
  0
LAYER
  2
LAYER129
 70
               0
 62
               7
  6
CONTINUOUS
  0
LAYER
  2
LAYER130
 70
               0
 62
               7
  6
CONTINUOUS
  0
LAYER
  2
LAYER131
 70
               0
 62
               7
  6
CONTINUOUS
  0
LAYER
  2
LAYER132
 70
               0
 62
               7
  6
CONTINUOUS
  0
LAYER
  2
LAYER133
 70
               0
 62
               7
  6
CONTINUOUS
  0
LAYER
  2
LAYER134
 70
               0
 62
               7
  6
CONTINUOUS
  0
LAYER
  2
LAYER135
 70
               0
 62
               7
  6
CONTINUOUS
  0
LAYER
  2
LAYER136
 70
               0
 62
               7
  6
CONTINUOUS
  0
LAYER
  2
LAYER137
 70
               0
 62
               7
  6
CONTINUOUS
  0
LAYER
  2
LAYER138
 70
               0
 62
               7
  6
CONTINUOUS
  0
LAYER
  2
LAYER139
 70
               0
 62
               7
  6
CONTINUOUS
  0
LAYER
  2
LAYER140
 70
               0
 62
               7
  6
CONTINUOUS
  0
LAYER
  2
LAYER141
 70
               0
 62
               7
  6
CONTINUOUS
  0
LAYER
  2
LAYER142
 70
               0
 62
               7
  6
CONTINUOUS
  0
LAYER
  2
LAYER143
 70
               0
 62
               7
  6
CONTINUOUS
  0
LAYER
  2
LAYER144
 70
               0
 62
               7
  6
CONTINUOUS
  0
LAYER
  2
LAYER145
 70
               0
 62
               7
  6
CONTINUOUS
  0
LAYER
  2
LAYER146
 70
               0
 62
               7
  6
CONTINUOUS
  0
LAYER
  2
LAYER147
 70
               0
 62
               7
  6
CONTINUOUS
  0
LAYER
  2
LAYER148
 70
               0
 62
               7
  6
CONTINUOUS
  0
LAYER
  2
LAYER149
 70
               0
 62
               7
  6
CONTINUOUS
  0
LAYER
  2
LAYER150
 70
               0
 62
               7
  6
CONTINUOUS
  0
LAYER
  2
LAYER151
 70
               0
 62
               7
  6
CONTINUOUS
  0
LAYER
  2
LAYER152
 70
               0
 62
               7
  6
CONTINUOUS
  0
LAYER
  2
LAYER153
 70
               0
 62
               7
  6
CONTINUOUS
  0
LAYER
  2
LAYER154
 70
               0
 62
               7
  6
CONTINUOUS
  0
LAYER
  2
LAYER155
 70
               0
 62
               7
  6
CONTINUOUS
  0
LAYER
  2
LAYER156
 70
               0
 62
               7
  6
CONTINUOUS
  0
LAYER
  2
LAYER157
 70
               0
 62
               7
  6
CONTINUOUS
  0
LAYER
  2
LAYER158
 70
               0
 62
               7
  6
CONTINUOUS
  0
LAYER
  2
LAYER159
 70
               0
 62
               7
  6
CONTINUOUS
  0
LAYER
  2
LAYER160
 70
               0
 62
               7
  6
CONTINUOUS
  0
LAYER
  2
LAYER161
 70
               0
 62
               7
  6
CONTINUOUS
  0
LAYER
  2
LAYER162
 70
               0
 62
               7
  6
CONTINUOUS
  0
LAYER
  2
LAYER163
 70
               0
 62
               7
  6
CONTINUOUS
  0
LAYER
  2
LAYER164
 70
               0
 62
               7
  6
CONTINUOUS
  0
LAYER
  2
LAYER165
 70
               0
 62
               7
  6
CONTINUOUS
  0
LAYER
  2
LAYER166
 70
               0
 62
               7
  6
CONTINUOUS
  0
LAYER
  2
LAYER167
 70
               0
 62
               7
  6
CONTINUOUS
  0
LAYER
  2
LAYER168
 70
               0
 62
               7
  6
CONTINUOUS
  0
LAYER
  2
LAYER169
 70
               0
 62
               7
  6
CONTINUOUS
  0
LAYER
  2
LAYER170
 70
               0
 62
               7
  6
CONTINUOUS
  0
LAYER
  2
LAYER171
 70
               0
 62
               7
  6
CONTINUOUS
  0
LAYER
  2
LAYER172
 70
               0
 62
               7
  6
CONTINUOUS
  0
LAYER
  2
LAYER173
 70
               0
 62
               7
  6
CONTINUOUS
  0
LAYER
  2
LAYER174
 70
               0
 62
               7
  6
CONTINUOUS
  0
LAYER
  2
LAYER175
 70
               0
 62
               7
  6
CONTINUOUS
  0
LAYER
  2
LAYER176
 70
               0
 62
               7
  6
CONTINUOUS
  0
LAYER
  2
LAYER177
 70
               0
 62
               7
  6
CONTINUOUS
  0
LAYER
  2
LAYER178
 70
               0
 62
               7
  6
CONTINUOUS
  0
LAYER
  2
LAYER179
 70
               0
 62
               7
  6
CONTINUOUS
  0
LAYER
  2
LAYER180
 70
               0
 62
               7
  6
CONTINUOUS
  0
LAYER
  2
LAYER181
 70
               0
 62
               7
  6
CONTINUOUS
  0
LAYER
  2
LAYER182
 70
               0
 62
               7
  6
CONTINUOUS
  0
LAYER
  2
LAYER183
 70
               0
 62
               7
  6
CONTINUOUS
  0
LAYER
  2
LAYER184
 70
               0
 62
               7
  6
CONTINUOUS
  0
LAYER
  2
LAYER185
 70
               0
 62
               7
  6
CONTINUOUS
  0
LAYER
  2
LAYER186
 70
               0
 62
               7
  6
CONTINUOUS
  0
LAYER
  2
LAYER187
 70
               0
 62
               7
  6
CONTINUOUS
  0
LAYER
  2
LAYER188
 70
               0
 62
               7
  6
CONTINUOUS
  0
LAYER
  2
LAYER189
 70
               0
 62
               7
  6
CONTINUOUS
  0
LAYER
  2
LAYER190
 70
               0
 62
               7
  6
CONTINUOUS
  0
LAYER
  2
LAYER191
 70
               0
 62
               7
  6
CONTINUOUS
  0
LAYER
  2
LAYER192
 70
               0
 62
               7
  6
CONTINUOUS
  0
LAYER
  2
LAYER193
 70
               0
 62
               7
  6
CONTINUOUS
  0
LAYER
  2
LAYER194
 70
               0
 62
               7
  6
CONTINUOUS
  0
LAYER
  2
LAYER195
 70
               0
 62
               7
  6
CONTINUOUS
  0
LAYER
  2
LAYER196
 70
               0
 62
               7
  6
CONTINUOUS
  0
LAYER
  2
LAYER197
 70
               0
 62
               7
  6
CONTINUOUS
  0
LAYER
  2
LAYER198
 70
               0
 62
               7
  6
CONTINUOUS
  0
LAYER
  2
LAYER199
 70
               0
 62
               7
  6
CONTINUOUS
  0
LAYER
  2
LAYER200
 70
               0
 62
               7
  6
CONTINUOUS
  0
LAYER
  2
LAYER201
 70
               0
 62
               7
  6
CONTINUOUS
  0
LAYER
  2
LAYER202
 70
               0
 62
               7
  6
CONTINUOUS
  0
LAYER
  2
LAYER203
 70
               0
 62
               7
  6
CONTINUOUS
  0
LAYER
  2
LAYER204
 70
               0
 62
               7
  6
CONTINUOUS
  0
LAYER
  2
LAYER205
 70
               0
 62
               7
  6
CONTINUOUS
  0
LAYER
  2
LAYER206
 70
               0
 62
               7
  6
CONTINUOUS
  0
LAYER
  2
LAYER207
 70
               0
 62
               7
  6
CONTINUOUS
  0
LAYER
  2
LAYER208
 70
               0
 62
               7
  6
CONTINUOUS
  0
LAYER
  2
LAYER209
 70
               0
 62
               7
  6
CONTINUOUS
  0
LAYER
  2
LAYER210
 70
               0
 62
               7
  6
CONTINUOUS
  0
LAYER
  2
LAYER211
 70
               0
 62
               7
  6
CONTINUOUS
  0
LAYER
  2
LAYER212
 70
               0
 62
               7
  6
CONTINUOUS
  0
LAYER
  2
LAYER213
 70
               0
 62
               7
  6
CONTINUOUS
  0
LAYER
  2
LAYER214
 70
               0
 62
               7
  6
CONTINUOUS
  0
LAYER
  2
LAYER215
 70
               0
 62
               7
  6
CONTINUOUS
  0
LAYER
  2
LAYER216
 70
               0
 62
               7
  6
CONTINUOUS
  0
LAYER
  2
LAYER217
 70
               0
 62
               7
  6
CONTINUOUS
  0
LAYER
  2
LAYER218
 70
               0
 62
               7
  6
CONTINUOUS
  0
LAYER
  2
LAYER219
 70
               0
 62
               7
  6
CONTINUOUS
  0
LAYER
  2
LAYER220
 70
               0
 62
               7
  6
CONTINUOUS
  0
LAYER
  2
LAYER221
 70
               0
 62
               7
  6
CONTINUOUS
  0
LAYER
  2
LAYER222
 70
               0
 62
               7
  6
CONTINUOUS
  0
LAYER
  2
LAYER223
 70
               0
 62
               7
  6
CONTINUOUS
  0
LAYER
  2
LAYER224
 70
               0
 62
               7
  6
CONTINUOUS
  0
LAYER
  2
LAYER225
 70
               0
 62
               7
  6
CONTINUOUS
  0
LAYER
  2
LAYER226
 70
               0
 62
               7
  6
CONTINUOUS
  0
LAYER
  2
LAYER227
 70
               0
 62
               7
  6
CONTINUOUS
  0
LAYER
  2
LAYER228
 70
               0
 62
               7
  6
CONTINUOUS
  0
LAYER
  2
LAYER229
 70
               0
 62
               7
  6
CONTINUOUS
  0
LAYER
  2
LAYER230
 70
               0
 62
               7
  6
CONTINUOUS
  0
LAYER
  2
LAYER231
 70
               0
 62
               7
  6
CONTINUOUS
  0
LAYER
  2
LAYER232
 70
               0
 62
               7
  6
CONTINUOUS
  0
LAYER
  2
LAYER233
 70
               0
 62
               7
  6
CONTINUOUS
  0
LAYER
  2
LAYER234
 70
               0
 62
               7
  6
CONTINUOUS
  0
LAYER
  2
LAYER235
 70
               0
 62
               7
  6
CONTINUOUS
  0
LAYER
  2
LAYER236
 70
               0
 62
               7
  6
CONTINUOUS
  0
LAYER
  2
LAYER237
 70
               0
 62
               7
  6
CONTINUOUS
  0
LAYER
  2
LAYER238
 70
               0
 62
               7
  6
CONTINUOUS
  0
LAYER
  2
LAYER239
 70
               0
 62
               7
  6
CONTINUOUS
  0
LAYER
  2
LAYER240
 70
               0
 62
               7
  6
CONTINUOUS
  0
LAYER
  2
LAYER241
 70
               0
 62
               7
  6
CONTINUOUS
  0
LAYER
  2
LAYER242
 70
               0
 62
               7
  6
CONTINUOUS
  0
LAYER
  2
LAYER243
 70
               0
 62
               7
  6
CONTINUOUS
  0
LAYER
  2
LAYER244
 70
               0
 62
               7
  6
CONTINUOUS
  0
LAYER
  2
LAYER245
 70
               0
 62
               7
  6
CONTINUOUS
  0
LAYER
  2
LAYER246
 70
               0
 62
               7
  6
CONTINUOUS
  0
LAYER
  2
LAYER247
 70
               0
 62
               7
  6
CONTINUOUS
  0
LAYER
  2
LAYER248
 70
               0
 62
               7
  6
CONTINUOUS
  0
LAYER
  2
LAYER249
 70
               0
 62
               7
  6
CONTINUOUS
  0
LAYER
  2
LAYER250
 70
               0
 62
               7
  6
CONTINUOUS
  0
LAYER
  2
LAYER251
 70
               0
 62
               7
  6
CONTINUOUS
  0
LAYER
  2
LAYER252
 70
               0
 62
               7
  6
CONTINUOUS
  0
LAYER
  2
LAYER253
 70
               0
 62
               7
  6
CONTINUOUS
  0
LAYER
  2
LAYER254
 70
               0
 62
               7
  6
CONTINUOUS
  0
LAYER
  2
LAYER255
 70
               0
 62
               7
  6
CONTINUOUS
  0
ENDTAB
  0
TABLE
  2
STYLE
 70
               1
  0
STYLE
  2
STANDARD
 70
               0
 40
0.0
 41
0.8
 50
0.0
 71
               0
 42
40.0
  3
MS PGothic.ttf
  4

  0
ENDTAB
  0
TABLE
  2
VIEW
 70
               0
  0
VIEW
  2
QQQQ
 70
               0
 40
2369.8362560067158
 10
-112.02900529579699
 20
-9.4388892454935558
 41
1553.9466081540202
 11
0.0
 21
0.0
 31
1.0
 12
100.0
 22
100.0
 32
0.0
 42
50.0
 43
0.0
 44
0.0
 50
0.0
 71
               0
  0
ENDTAB
  0
TABLE
  2
UCS
 70
               0
  0
ENDTAB
  0
TABLE
  2
APPID
 70
               1
  0
APPID
  2
ACAD
 70
               0
  0
ENDTAB
  0
TABLE
  2
DIMSTYLE
 70
               1
  0
DIMSTYLE
  2
STANDARD
 70
               0
  3

  4

  5

  6

  7

 40
1.0
 41
0.18
 42
0.0625
 43
0.38
 44
0.18
 45
0.0
 46
0.0
 47
0.0
 48
0.0
140
0.18
141
0.09
142
0.0
143
25.399999999999999
144
1.0
145
0.0
146
1.0
147
0.09
 71
               0
 72
               0
 73
               1
 74
               1
 75
               0
 76
               0
 77
               0
 78
               0
170
               0
171
               2
172
               0
173
               0
174
               0
175
               0
176
               0
177
               0
178
               0
  0
ENDTAB
  0
ENDSEC
  0
SECTION
  2
BLOCKS
  0
ENDSEC
  0
SECTION
  2
ENTITIES
  0
CIRCLE
  8
0
  6
CONTINUOUS
 62
               3
  5
136
 10
-126.67226690395125
 20
954.38520849510144
 30
0.0
 40
75.0
  0
CIRCLE
  8
0
  6
CONTINUOUS
 62
               3
  5
137
 10
-126.67226690395125
 20
954.38520849510144
 30
0.0
 40
52.5
  0
LINE
  8
0
  6
CONTINUOUS
 62
               3
  5
138
 10
-146.67226690395125
 20
868.1747102944762
 30
0.0
 11
-146.67226690395125
 21
882.10104702109606
 31
0.0
  0
LINE
  8
0
  6
CONTINUOUS
 62
               3
  5
139
 10
-106.67226690395125
 20
882.10104702109606
 30
0.0
 11
-106.67226690395125
 21
868.1747102944762
 31
0.0
  0
ARC
  8
0
  6
CONTINUOUS
 62
               3
  5
13A
 10
-126.67226690395125
 20
954.38520849510144
 30
0.0
 40
88.5
 50
256.93897588500266
 51
283.06102411458357
  0
LINE
  8
0
  6
CONTINUOUS
 62
               3
  5
13B
 10
-40.461768703326356
 20
934.38520849510144
 30
0.0
 11
-54.388105429946222
 21
934.38520849510144
 31
0.0
  0
LINE
  8
0
  6
CONTINUOUS
 62
               3
  5
13C
 10
-54.388105429946222
 20
974.38520849510144
 30
0.0
 11
-40.461768703326356
 21
974.38520849510144
 31
0.0
  0
ARC
  8
0
  6
CONTINUOUS
 62
               3
  5
13D
 10
-126.67226690395125
 20
954.38520849510144
 30
0.0
 40
88.5
 50
346.93897588493354
 51
373.06102411451457
  0
LINE
  8
0
  6
CONTINUOUS
 62
               3
  5
13E
 10
-106.67226690395124
 20
1040.5957066957262
 30
0.0
 11
-106.67226690395124
 21
1026.6693699691057
 31
0.0
  0
LINE
  8
0
  6
CONTINUOUS
 62
               3
  5
13F
 10
-146.67226690395125
 20
1026.6693699691057
 30
0.0
 11
-146.67226690395125
 21
1040.5957066957262
 31
0.0
  0
ARC
  8
0
  6
CONTINUOUS
 62
               3
  5
140
 10
-126.67226690395125
 20
954.38520849510144
 30
0.0
 40
88.5
 50
76.938975885140493
 51
103.06102411472156
  0
LINE
  8
0
  6
CONTINUOUS
 62
               3
  5
141
 10
-212.88276510457683
 20
974.38520849510144
 30
0.0
 11
-198.95642837795629
 21
974.38520849510144
 31
0.0
  0
LINE
  8
0
  6
CONTINUOUS
 62
               3
  5
142
 10
-198.95642837795629
 20
934.38520849510144
 30
0.0
 11
-212.88276510457683
 21
934.38520849510144
 31
0.0
  0
ARC
  8
0
  6
CONTINUOUS
 62
               3
  5
143
 10
-126.67226690395125
 20
954.38520849510144
 30
0.0
 40
88.5
 50
166.93897588507147
 51
193.06102411465255
  0
LINE
  8
0
  6
CONTINUOUS
 62
               3
  5
144
 10
-104.6722669039508
 20
906.71708497424038
 30
0.0
 11
-104.67226690395078
 21
1002.0533320159614
 31
0.0
  0
ARC
  8
0
  6
CONTINUOUS
 62
               3
  5
145
 10
-135.37866453157028
 20
966.88882014448257
 30
0.0
 40
54.763804151667173
 50
231.38591763666045
 51
235.1500954207736
  0
ARC
  8
0
  6
CONTINUOUS
 62
               3
  5
146
 10
-126.67226690395125
 20
954.38520849510144
 30
0.0
 40
51.5
 50
64.710988473408108
 51
140.95932736353257
  0
ARC
  8
0
  6
CONTINUOUS
 62
               3
  5
147
 10
-126.67226690395125
 20
954.38520849510144
 30
0.0
 40
51.5
 50
219.04067263619197
 51
295.28901152631596
  0
ARC
  8
0
  6
CONTINUOUS
 62
               3
  5
148
 10
-126.67226690395125
 20
954.38520849510144
 30
0.0
 40
77.5
 50
321.42711690872028
 51
345.0447516830921
  0
ARC
  8
0
  6
CONTINUOUS
 62
               3
  5
149
 10
-126.67226690395125
 20
954.38520849510144
 30
0.0
 40
77.5
 50
104.9552483165629
 51
136.00495767881276
  0
ARC
  8
0
  6
CONTINUOUS
 62
               3
  5
14A
 10
-126.67226690395125
 20
954.38520849510144
 30
0.0
 40
77.5
 50
14.95524831663182
 51
75.044751683299168
  0
LINE
  8
0
  6
CONTINUOUS
 62
               3
  5
14B
 10
-71.672266903951254
 20
814.38520849510144
 30
0.0
 11
-71.672266903951254
 21
815.05676462106567
 31
0.0
  0
LINE
  8
0
  6
CONTINUOUS
 62
               3
  5
14C
 10
-69.172266903951282
 20
817.55676462106612
 30
0.0
 11
-71.672266903951254
 21
815.05676462106567
 31
0.0
  0
LINE
  8
0
  6
CONTINUOUS
 62
               3
  5
14D
 10
-181.67226690395125
 20
814.38520849510144
 30
0.0
 11
-181.67226690395125
 21
815.05676462106567
 31
0.0
  0
LINE
  8
0
  6
CONTINUOUS
 62
               3
  5
14E
 10
-184.17226690395125
 20
817.55676462106567
 30
0.0
 11
-181.67226690395125
 21
815.05676462106567
 31
0.0
  0
LINE
  8
0
  6
CONTINUOUS
 62
               3
  5
14F
 10
-181.67226690395125
 20
815.05676462106567
 30
0.0
 11
-71.672266903951254
 21
815.05676462106567
 31
0.0
  0
LINE
  8
0
  6
CONTINUOUS
 62
               3
  5
150
 10
-187.36186392229288
 20
908.8948727087236
 30
0.0
 11
-184.17226690395125
 21
817.55676462106567
 31
0.0
  0
LINE
  8
0
  6
CONTINUOUS
 62
               3
  5
151
 10
-65.982669885610079
 20
908.89487270872291
 30
0.0
 11
-69.172266903951254
 21
817.55676462106612
 31
0.0
  0
LINE
  8
0
  6
CONTINUOUS
 62
               3
  5
152
 10
-181.50071077798714
 20
809.38520849510144
 30
0.0
 11
-71.57226690395126
 21
809.38520849510144
 31
0.0
  0
LINE
  8
0
  6
CONTINUOUS
 62
               3
  5
153
 10
-69.07226690395126
 20
814.38520849510144
 30
0.0
 11
-184.27226690395125
 21
814.38520849510144
 31
0.0
  0
LINE
  8
0
  6
CONTINUOUS
 62
               3
  5
154
 10
-184.27226690395125
 20
814.38520849510144
 30
0.0
 11
-184.27226690395125
 21
811.88520849510144
 31
0.0
  0
LINE
  8
0
  6
CONTINUOUS
 62
               3
  5
155
 10
-69.07226690395126
 20
814.38520849510144
 30
0.0
 11
-69.07226690395126
 21
811.88520849510144
 31
0.0
  0
ARC
  8
0
  6
CONTINUOUS
 62
               3
  5
156
 10
-71.57226690395126
 20
811.88520849510144
 30
0.0
 40
2.5
 50
269.99999999979286
 51
359.999999999723
  0
ARC
  8
0
  6
CONTINUOUS
 62
               3
  5
157
 10
-181.77226690395125
 20
811.88520849510144
 30
0.0
 40
2.5
 50
179.99999999986281
 51
269.99999999979309
  0
LINE
  8
0
  6
CONTINUOUS
 62
               3
  5
158
 10
-166.67226690395103
 20
921.94680532848383
 30
0.0
 11
-166.67226690395103
 21
954.38520849510144
 31
0.0
  0
LINE
  8
0
  6
CONTINUOUS
 62
               3
  5
159
 10
-166.67226690395103
 20
954.38520849510144
 30
0.0
 11
-166.67226690395103
 21
988.38888476694012
 31
0.0
  0
LINE
  8
0
  6
CONTINUOUS
 62
               3
  5
15A
 10
-69.172266903951282
 20
817.55676462106612
 30
0.0
 11
-184.17226690395125
 21
817.55676462106567
 31
0.0
  0
ARC
  8
0
  6
CONTINUOUS
 62
               3
  5
15B
 10
-192.35881805738833
 20
908.720375225211
 30
0.0
 40
5.0
 50
1.999999999998431
 51
34.806757870401391
  0
ARC
  8
0
  6
CONTINUOUS
 62
               3
  5
15C
 10
-60.985715750514601
 20
908.72037522521032
 30
0.0
 40
5.0
 50
145.19324212946012
 51
177.99999999986366
  0
LINE
  8
0
  6
CONTINUOUS
 62
               3
  5
15D
 10
-266.6722669039512
 20
1002.8852084951013
 30
0.0
 11
-266.00071077798697
 21
1002.8852084951013
 31
0.0
  0
LINE
  8
0
  6
CONTINUOUS
 62
               3
  5
15E
 10
-263.50071077798623
 20
1005.3852084951013
 30
0.0
 11
-266.00071077798697
 21
1002.8852084951013
 31
0.0
  0
LINE
  8
0
  6
CONTINUOUS
 62
               3
  5
15F
 10
-266.6722669039512
 20
905.88520849510132
 30
0.0
 11
-266.00071077798697
 21
905.88520849510132
 31
0.0
  0
LINE
  8
0
  6
CONTINUOUS
 62
               3
  5
160
 10
-263.50071077798697
 20
903.38520849510132
 30
0.0
 11
-266.00071077798697
 21
905.88520849510132
 31
0.0
  0
LINE
  8
0
  6
CONTINUOUS
 62
               3
  5
161
 10
-266.00071077798697
 20
905.8852084951011
 30
0.0
 11
-266.00071077798697
 21
1002.8852084951013
 31
0.0
  0
LINE
  8
0
  6
CONTINUOUS
 62
               3
  5
162
 10
-271.6722669039512
 20
906.03520849510141
 30
0.0
 11
-271.6722669039512
 21
1002.7352084951013
 31
0.0
  0
LINE
  8
0
  6
CONTINUOUS
 62
               3
  5
163
 10
-266.6722669039512
 20
1005.2352084951013
 30
0.0
 11
-266.6722669039512
 21
903.53520849510141
 31
0.0
  0
LINE
  8
0
  6
CONTINUOUS
 62
               3
  5
164
 10
-266.6722669039512
 20
903.53520849510141
 30
0.0
 11
-269.1722669039512
 21
903.53520849510141
 31
0.0
  0
LINE
  8
0
  6
CONTINUOUS
 62
               3
  5
165
 10
-266.6722669039512
 20
1005.2352084951013
 30
0.0
 11
-269.1722669039512
 21
1005.2352084951013
 31
0.0
  0
ARC
  8
0
  6
CONTINUOUS
 62
               3
  5
166
 10
-269.1722669039512
 20
1002.7352084951013
 30
0.0
 40
2.5
 50
89.999999999931404
 51
179.9999999998615
  0
ARC
  8
0
  6
CONTINUOUS
 62
               3
  5
167
 10
-269.1722669039512
 20
906.03520849510141
 30
0.0
 40
2.5
 50
179.99999999986281
 51
269.99999999979354
  0
LINE
  8
0
  6
CONTINUOUS
 62
               3
  5
168
 10
-263.50071077798697
 20
903.38520849510132
 30
0.0
 11
-263.50071077798623
 21
1005.3852084951014
 31
0.0
  0
LINE
  8
0
  6
CONTINUOUS
 62
               3
  5
169
 10
-187.07626564360376
 20
900.71640806302867
 30
0.0
 11
-263.50071077798697
 21
903.38520849510132
 31
0.0
  0
LINE
  8
0
  6
CONTINUOUS
 62
               3
  5
16A
 10
-180.64505141268677
 20
1008.2785918768851
 30
0.0
 11
-263.50071077798623
 21
1005.3852084951014
 31
0.0
  0
ARC
  8
0
  6
CONTINUOUS
 62
               3
  5
16B
 10
-180.81954889619936
 20
1013.2755460119805
 30
0.0
 40
5.0
 50
271.99999999979235
 51
312.59728005327395
  0
LINE
  8
0
  6
CONTINUOUS
 62
               3
  5
16C
 10
-201.67226690395125
 20
519.38520849510144
 30
0.0
 11
-51.672266903951822
 21
519.38520849510144
 31
0.0
  0
LINE
  8
0
  6
CONTINUOUS
 62
               3
  5
16D
 10
-215.17226690395148
 20
509.38520849510144
 30
0.0
 11
-215.17226690395148
 21
502.38520849510178
 31
0.0
  0
LINE
  8
0
  6
CONTINUOUS
 62
               3
  5
16E
 10
-215.17226690395148
 20
509.38520849510144
 30
0.0
 11
-201.67226690395125
 21
519.38520849510144
 31
0.0
  0
ARC
  8
0
  6
CONTINUOUS
 62
               3
  5
16F
 10
-203.67226690395114
 20
497.80263280014606
 30
0.0
 40
4.9999999999999991
 50
0.0
 51
66.421821521747177
  0
LINE
  8
0
  6
CONTINUOUS
 62
               3
  5
170
 10
-215.17226690395148
 20
502.38520849510178
 30
0.0
 11
-38.172266903951595
 21
502.38520849510178
 31
0.0
  0
ARC
  8
0
  6
CONTINUOUS
 62
               3
  5
171
 10
-71.672266903952391
 20
412.38520849510144
 30
0.0
 40
19.999999999999996
 50
0.0
 51
31.78833061702743
  0
LINE
  8
0
  6
CONTINUOUS
 62
               3
  5
172
 10
-198.67226690395114
 20
497.80263280014606
 30
0.0
 11
-198.67226690395114
 21
422.92086224795423
 31
0.0
  0
ARC
  8
0
  6
CONTINUOUS
 62
               3
  5
173
 10
-181.67226690395182
 20
412.38520849510144
 30
0.0
 40
19.999999999999996
 50
148.21166938283463
 51
179.9999999998621
  0
LINE
  8
0
  6
CONTINUOUS
 62
               3
  5
174
 10
-54.672266903951368
 20
422.92086224795423
 30
0.0
 11
-54.672266903951368
 21
497.80263280014606
 31
0.0
  0
LINE
  8
0
  6
CONTINUOUS
 62
               3
  5
175
 10
-184.67226690395137
 20
-33.61479150489879
 30
0.0
 11
-201.67226690395125
 21
115.38520849510161
 31
0.0
  0
LINE
  8
0
  6
CONTINUOUS
 62
               3
  5
176
 10
-51.672266903952391
 20
228.38520849510144
 30
0.0
 11
-51.672266903952391
 21
115.38520849510161
 31
0.0
  0
LINE
  8
0
  6
CONTINUOUS
 62
               3
  5
177
 10
-198.67226690395114
 20
422.92086224795423
 30
0.0
 11
-54.672266903951368
 21
422.92086224795423
 31
0.0
  0
LINE
  8
0
  6
CONTINUOUS
 62
               3
  5
178
 10
-146.67226690395125
 20
502.38520849510178
 30
0.0
 11
-146.67226690395125
 21
519.38520849510144
 31
0.0
  0
LINE
  8
0
  6
CONTINUOUS
 62
               3
  5
179
 10
-106.67226690395182
 20
519.38520849510144
 30
0.0
 11
-106.67226690395182
 21
502.38520849510178
 31
0.0
  0
LINE
  8
0
  6
CONTINUOUS
 62
               3
  5
17A
 10
-146.67226690395125
 20
509.38520849510144
 30
0.0
 11
-106.67226690395182
 21
509.38520849510144
 31
0.0
  0
LINE
  8
0
  6
CONTINUOUS
 62
               3
  5
17B
 10
-198.95642837795549
 20
519.38520849510144
 30
0.0
 11
-198.95642837795549
 21
502.38520849510178
 31
0.0
  0
LINE
  8
0
  6
CONTINUOUS
 62
               3
  5
17C
 10
-212.88276510457649
 20
509.38520849510144
 30
0.0
 11
-212.88276510457649
 21
502.38520849510178
 31
0.0
  0
LINE
  8
0
  6
CONTINUOUS
 62
               3
  5
17D
 10
-215.17226690395148
 20
509.38520849510144
 30
0.0
 11
-212.88276510457649
 21
509.38520849510144
 31
0.0
  0
LINE
  8
0
  6
CONTINUOUS
 62
               3
  5
17E
 10
-212.88276510457649
 20
509.38520849510144
 30
0.0
 11
-198.95642837795549
 21
519.38520849510144
 31
0.0
  0
LINE
  8
0
  6
CONTINUOUS
 62
               3
  5
17F
 10
-38.172266903951595
 20
509.38520849510144
 30
0.0
 11
-38.172266903951595
 21
502.38520849510178
 31
0.0
  0
LINE
  8
0
  6
CONTINUOUS
 62
               3
  5
180
 10
-38.172266903951595
 20
509.38520849510144
 30
0.0
 11
-51.672266903951822
 21
519.38520849510144
 31
0.0
  0
ARC
  8
0
  6
CONTINUOUS
 62
               3
  5
181
 10
-49.672266903951368
 20
497.80263280014606
 30
0.0
 40
4.9999999999999991
 50
113.57817847811471
 51
179.99999999986184
  0
LINE
  8
0
  6
CONTINUOUS
 62
               3
  5
182
 10
-54.388105429946449
 20
519.38520849510144
 30
0.0
 11
-54.388105429946449
 21
502.38520849510178
 31
0.0
  0
LINE
  8
0
  6
CONTINUOUS
 62
               3
  5
183
 10
-40.461768703326015
 20
509.38520849510144
 30
0.0
 11
-40.461768703326015
 21
502.38520849510178
 31
0.0
  0
LINE
  8
0
  6
CONTINUOUS
 62
               3
  5
184
 10
-38.172266903951595
 20
509.38520849510144
 30
0.0
 11
-40.461768703326015
 21
509.38520849510144
 31
0.0
  0
LINE
  8
0
  6
CONTINUOUS
 62
               3
  5
185
 10
-40.461768703326015
 20
509.38520849510144
 30
0.0
 11
-54.388105429946449
 21
519.38520849510144
 31
0.0
  0
LINE
  8
0
  6
CONTINUOUS
 62
               3
  5
186
 10
-184.67226690395137
 20
-33.614791504898335
 30
0.0
 11
-68.67226690395114
 21
-33.61479150489879
 31
0.0
  0
ARC
  8
0
  6
CONTINUOUS
 62
               3
  5
187
 10
-51.672266903952391
 20
230.88520849510144
 30
0.0
 40
2.4999999999999996
 50
269.99999999979326
 51
449.99999999965507
  0
LINE
  8
0
  6
CONTINUOUS
 62
               3
  5
188
 10
-51.672266903952391
 20
412.38520849510144
 30
0.0
 11
-51.672266903952391
 21
233.38520849510144
 31
0.0
  0
LINE
  8
0
  6
CONTINUOUS
 62
               3
  5
189
 10
-201.67226690395125
 20
115.38520849510161
 30
0.0
 11
-67.723266903951185
 21
115.38520849510189
 31
0.0
  0
LINE
  8
0
  6
CONTINUOUS
 62
               3
  5
18A
 10
-54.915900360412024
 20
115.38520849510189
 30
0.0
 11
-51.672266903951822
 21
115.38520849510189
 31
0.0
  0
LINE
  8
0
  6
CONTINUOUS
 62
               3
  5
18B
 10
-51.672266903952391
 20
228.38520849510144
 30
0.0
 11
-191.67226690395182
 21
228.38520849510144
 31
0.0
  0
LINE
  8
0
  6
CONTINUOUS
 62
               3
  5
18C
 10
-51.672266903952391
 20
233.38520849510144
 30
0.0
 11
-191.67226690395182
 21
233.38520849510144
 31
0.0
  0
LINE
  8
0
  6
CONTINUOUS
 62
               3
  5
18D
 10
-99.884909811472369
 20
381.38520849510132
 30
0.0
 11
-153.45962399643128
 21
381.38520849510132
 31
0.0
  0
CIRCLE
  8
0
  6
CONTINUOUS
 62
               3
  5
18E
 10
-126.67226690395181
 20
353.38520849510144
 30
0.0
 40
48.5
  0
CIRCLE
  8
0
  6
CONTINUOUS
 62
               3
  5
18F
 10
-126.67226690395181
 20
353.38520849510144
 30
0.0
 40
38.75
  0
CIRCLE
  8
0
  6
CONTINUOUS
 62
               3
  5
190
 10
-126.67226690395181
 20
353.38520849510144
 30
0.0
 40
47.299999999999997
  0
LINE
  8
0
  6
CONTINUOUS
 62
               3
  5
191
 10
-158.49207205734643
 20
321.56540334170688
 30
0.0
 11
-160.11841765407553
 21
319.93905774497773
 31
0.0
  0
LINE
  8
0
  6
CONTINUOUS
 62
               3
  5
192
 10
-94.852461750557154
 20
321.56540334170688
 30
0.0
 11
-93.226116153828059
 21
319.93905774497784
 31
0.0
  0
ARC
  8
0
  6
CONTINUOUS
 62
               3
  5
193
 10
-126.67226690395181
 20
353.38520849510144
 30
0.0
 40
45.0
 50
224.99999999982748
 51
314.99999999975859
  0
CIRCLE
  8
0
  6
CONTINUOUS
 62
               3
  5
194
 10
-126.67226690395181
 20
353.38520849510144
 30
0.0
 40
43.0
  0
CIRCLE
  8
0
  6
CONTINUOUS
 62
               3
  5
195
 10
-126.67226690395181
 20
353.38520849510144
 30
0.0
 40
57.600000000000001
  0
LINE
  8
0
  6
CONTINUOUS
 62
               3
  5
196
 10
-68.67226690395114
 20
-33.61479150489879
 30
0.0
 11
-56.124175923250675
 21
76.365535325951157
 31
0.0
  0
LINE
  8
0
  6
CONTINUOUS
 62
               3
  5
197
 10
-54.072123950190246
 20
94.351167325128984
 30
0.0
 11
-51.672266903951822
 21
115.38520849510189
 31
0.0
  0
ARC
  8
0
  6
CONTINUOUS
 62
               3
  5
198
 10
-191.67226690395182
 20
230.88520849510144
 30
0.0
 40
2.4999999999999996
 50
89.999999999930751
 51
269.99999999979326
  0
LINE
  8
0
  6
CONTINUOUS
 62
               3
  5
199
 10
-201.67226690395182
 20
115.38520849510161
 30
0.0
 11
-201.67226690395125
 21
212.74954128884656
 31
0.0
  0
LINE
  8
0
  6
CONTINUOUS
 62
               3
  5
19A
 10
-201.67226690395182
 20
342.87274920569541
 30
0.0
 11
-201.67226690395182
 21
412.38520849510144
 31
0.0
  0
LINE
  8
0
  6
CONTINUOUS
 62
               3
  5
19B
 10
-68.672266903950572
 20
-44.114791504897653
 30
0.0
 11
-68.672266903950572
 21
-33.61479150489879
 31
0.0
  0
LINE
  8
0
  6
CONTINUOUS
 62
               3
  5
19C
 10
-184.6722669039508
 20
-33.61479150489879
 30
0.0
 11
-184.6722669039508
 21
-44.114791504898108
 31
0.0
  0
LINE
  8
0
  6
CONTINUOUS
 62
               3
  5
19D
 10
-183.17226690395125
 20
-145.61479150489856
 30
0.0
 11
-70.172266903951254
 21
-145.61479150489856
 31
0.0
  0
LINE
  8
0
  6
CONTINUOUS
 62
               3
  5
19E
 10
-183.17226690395125
 20
-145.61479150489856
 30
0.0
 11
-183.17226690395125
 21
-45.614791504898562
 31
0.0
  0
LINE
  8
0
  6
CONTINUOUS
 62
               3
  5
19F
 10
-70.172266903951254
 20
-145.61479150489856
 30
0.0
 11
-70.172266903951254
 21
-45.614791504898562
 31
0.0
  0
LINE
  8
0
  6
CONTINUOUS
 62
               3
  5
1A0
 10
-183.17226690395125
 20
-45.614791504898562
 30
0.0
 11
-184.67226690395165
 21
-44.114791504898108
 31
0.0
  0
LINE
  8
0
  6
CONTINUOUS
 62
               3
  5
1A1
 10
-70.172266903951254
 20
-45.614791504898562
 30
0.0
 11
-68.67226690395114
 21
-44.114791504898449
 31
0.0
  0
LINE
  8
0
  6
CONTINUOUS
 62
               3
  5
1A2
 10
-263.50071077798697
 20
233.88520849510218
 30
0.0
 11
-221.15783674797913
 21
232.40656275148189
 31
0.0
  0
LINE
  8
0
  6
CONTINUOUS
 62
               3
  5
1A3
 10
-203.13673299801857
 20
216.28507519477932
 30
0.0
 11
-217.79680032555899
 21
230.9451425223192
 31
0.0
  0
LINE
  8
0
  6
CONTINUOUS
 62
               3
  5
1A4
 10
-263.50071077798697
 20
335.88520849510155
 30
0.0
 11
-206.49776942043877
 21
337.87579507059996
 31
0.0
  0
LINE
  8
0
  6
CONTINUOUS
 62
               3
  5
1A5
 10
-266.67226690395125
 20
236.38520849510144
 30
0.0
 11
-266.00071077798702
 21
236.38520849510144
 31
0.0
  0
LINE
  8
0
  6
CONTINUOUS
 62
               3
  5
1A6
 10
-263.50071077798628
 20
233.88520849510144
 30
0.0
 11
-266.00071077798702
 21
236.38520849510144
 31
0.0
  0
LINE
  8
0
  6
CONTINUOUS
 62
               3
  5
1A7
 10
-266.67226690395125
 20
333.38520849510144
 30
0.0
 11
-266.00071077798702
 21
333.38520849510144
 31
0.0
  0
LINE
  8
0
  6
CONTINUOUS
 62
               3
  5
1A8
 10
-263.50071077798702
 20
335.88520849510149
 30
0.0
 11
-266.00071077798702
 21
333.38520849510144
 31
0.0
  0
LINE
  8
0
  6
CONTINUOUS
 62
               3
  5
1A9
 10
-266.00071077798702
 20
333.38520849510166
 30
0.0
 11
-266.00071077798702
 21
236.38520849510144
 31
0.0
  0
LINE
  8
0
  6
CONTINUOUS
 62
               3
  5
1AA
 10
-271.67226690395125
 20
333.23520849510146
 30
0.0
 11
-271.67226690395125
 21
236.53520849510147
 31
0.0
  0
LINE
  8
0
  6
CONTINUOUS
 62
               3
  5
1AB
 10
-266.67226690395125
 20
234.03520849510147
 30
0.0
 11
-266.67226690395125
 21
335.73520849510146
 31
0.0
  0
LINE
  8
0
  6
CONTINUOUS
 62
               3
  5
1AC
 10
-266.67226690395125
 20
335.73520849510146
 30
0.0
 11
-269.17226690395125
 21
335.73520849510146
 31
0.0
  0
LINE
  8
0
  6
CONTINUOUS
 62
               3
  5
1AD
 10
-266.67226690395125
 20
234.03520849510147
 30
0.0
 11
-269.17226690395125
 21
234.03520849510147
 31
0.0
  0
ARC
  8
0
  6
CONTINUOUS
 62
               3
  5
1AE
 10
-269.17226690395125
 20
236.53520849510147
 30
0.0
 40
2.5
 50
179.9999999998615
 51
269.99999999979354
  0
ARC
  8
0
  6
CONTINUOUS
 62
               3
  5
1AF
 10
-269.17226690395125
 20
333.23520849510146
 30
0.0
 40
2.5
 50
89.999999999931404
 51
179.9999999998615
  0
LINE
  8
0
  6
CONTINUOUS
 62
               3
  5
1B0
 10
-263.50071077798697
 20
335.88520849510149
 30
0.0
 11
-263.50071077798623
 21
233.88520849510144
 31
0.0
  0
ARC
  8
0
  6
CONTINUOUS
 62
               3
  5
1B1
 10
-221.33233423149167
 20
227.40960861638644
 30
0.0
 40
5.0
 50
44.999999999966398
 51
87.999999999932115
  0
ARC
  8
0
  6
CONTINUOUS
 62
               3
  5
1B2
 10
-206.67226690395125
 20
212.74954128884656
 30
0.0
 40
5.0
 50
0.0
 51
44.999999999966398
  0
ARC
  8
0
  6
CONTINUOUS
 62
               3
  5
1B3
 10
-206.67226690395125
 20
342.87274920569541
 30
0.0
 40
5.0
 50
271.99999999979121
 51
359.99999999972414
  0
LINE
  8
0
  6
CONTINUOUS
 62
               3
  5
1B4
 10
-651.67226690395125
 20
519.38520849510144
 30
0.0
 11
-801.67226690395125
 21
519.38520849510144
 31
0.0
  0
LINE
  8
0
  6
CONTINUOUS
 62
               3
  5
1B5
 10
-638.17226690395103
 20
509.38520849510144
 30
0.0
 11
-638.17226690395103
 21
502.38520849510178
 31
0.0
  0
LINE
  8
0
  6
CONTINUOUS
 62
               3
  5
1B6
 10
-638.17226690395103
 20
509.38520849510144
 30
0.0
 11
-651.67226690395125
 21
519.38520849510144
 31
0.0
  0
ARC
  8
0
  6
CONTINUOUS
 62
               3
  5
1B7
 10
-649.67226690395137
 20
497.80263280014606
 30
0.0
 40
4.9999999999999991
 50
113.57817847811482
 51
179.99999999986184
  0
LINE
  8
0
  6
CONTINUOUS
 62
               3
  5
1B8
 10
-638.17226690395103
 20
502.38520849510178
 30
0.0
 11
-815.17226690395091
 21
502.38520849510178
 31
0.0
  0
ARC
  8
0
  6
CONTINUOUS
 62
               3
  5
1B9
 10
-671.67226690395125
 20
412.38520849510144
 30
0.0
 40
19.999999999999996
 50
12.730180138302707
 51
31.788330617027448
  0
LINE
  8
0
  6
CONTINUOUS
 62
               3
  5
1BA
 10
-654.67226690395137
 20
497.80263280014606
 30
0.0
 11
-654.67226690395137
 21
422.92086224795423
 31
0.0
  0
LINE
  8
0
  6
CONTINUOUS
 62
               3
  5
1BB
 10
-798.67226690395114
 20
427.9208622479548
 30
0.0
 11
-798.67226690395114
 21
497.80263280014606
 31
0.0
  0
LINE
  8
0
  6
CONTINUOUS
 62
               3
  5
1BC
 10
-668.67226690395114
 20
-33.614791504899017
 30
0.0
 11
-651.67226690395125
 21
115.38520849510138
 31
0.0
  0
LINE
  8
0
  6
CONTINUOUS
 62
               3
  5
1BD
 10
-654.67226690395137
 20
422.92086224795423
 30
0.0
 11
-798.17226690395159
 21
422.92086224795423
 31
0.0
  0
LINE
  8
0
  6
CONTINUOUS
 62
               3
  5
1BE
 10
-706.67226690395125
 20
502.38520849510178
 30
0.0
 11
-706.67226690395125
 21
519.38520849510144
 31
0.0
  0
LINE
  8
0
  6
CONTINUOUS
 62
               3
  5
1BF
 10
-746.67226690395125
 20
519.38520849510144
 30
0.0
 11
-746.67226690395125
 21
502.38520849510178
 31
0.0
  0
LINE
  8
0
  6
CONTINUOUS
 62
               3
  5
1C0
 10
-706.67226690395125
 20
509.38520849510144
 30
0.0
 11
-746.67226690395125
 21
509.38520849510144
 31
0.0
  0
LINE
  8
0
  6
CONTINUOUS
 62
               3
  5
1C1
 10
-654.38810542994588
 20
519.38520849510144
 30
0.0
 11
-654.38810542994588
 21
502.38520849510178
 31
0.0
  0
LINE
  8
0
  6
CONTINUOUS
 62
               3
  5
1C2
 10
-640.46176870332602
 20
509.38520849510144
 30
0.0
 11
-640.46176870332602
 21
502.38520849510178
 31
0.0
  0
LINE
  8
0
  6
CONTINUOUS
 62
               3
  5
1C3
 10
-638.17226690395103
 20
509.38520849510144
 30
0.0
 11
-640.46176870332602
 21
509.38520849510144
 31
0.0
  0
LINE
  8
0
  6
CONTINUOUS
 62
               3
  5
1C4
 10
-640.46176870332602
 20
509.38520849510144
 30
0.0
 11
-654.38810542994588
 21
519.38520849510144
 31
0.0
  0
LINE
  8
0
  6
CONTINUOUS
 62
               3
  5
1C5
 10
-815.17226690395091
 20
509.38520849510144
 30
0.0
 11
-815.17226690395091
 21
502.38520849510178
 31
0.0
  0
LINE
  8
0
  6
CONTINUOUS
 62
               3
  5
1C6
 10
-815.17226690395091
 20
509.38520849510144
 30
0.0
 11
-801.67226690395125
 21
519.38520849510144
 31
0.0
  0
ARC
  8
0
  6
CONTINUOUS
 62
               3
  5
1C7
 10
-803.67226690395114
 20
497.80263280014606
 30
0.0
 40
4.9999999999999991
 50
0.0
 51
66.421821521746878
  0
LINE
  8
0
  6
CONTINUOUS
 62
               3
  5
1C8
 10
-798.95642837795549
 20
519.38520849510144
 30
0.0
 11
-798.95642837795549
 21
502.38520849510178
 31
0.0
  0
LINE
  8
0
  6
CONTINUOUS
 62
               3
  5
1C9
 10
-812.88276510457649
 20
509.38520849510144
 30
0.0
 11
-812.88276510457649
 21
502.38520849510178
 31
0.0
  0
LINE
  8
0
  6
CONTINUOUS
 62
               3
  5
1CA
 10
-815.17226690395091
 20
509.38520849510144
 30
0.0
 11
-812.88276510457649
 21
509.38520849510144
 31
0.0
  0
LINE
  8
0
  6
CONTINUOUS
 62
               3
  5
1CB
 10
-812.88276510457649
 20
509.38520849510144
 30
0.0
 11
-798.95642837795549
 21
519.38520849510144
 31
0.0
  0
LINE
  8
0
  6
CONTINUOUS
 62
               3
  5
1CC
 10
-668.67226690395114
 20
-33.614791504898562
 30
0.0
 11
-784.67226690395137
 21
-33.614791504899017
 31
0.0
  0
ARC
  8
0
  6
CONTINUOUS
 62
               3
  5
1CD
 10
-651.67226690395125
 20
230.88520849510121
 30
0.0
 40
2.4999999999999996
 50
269.99999999979354
 51
449.99999999965507
  0
ARC
  8
0
  6
CONTINUOUS
 62
               3
  5
1CE
 10
-801.67226690395125
 20
230.88520849510121
 30
0.0
 40
2.4999999999999996
 50
89.999999999929457
 51
269.99999999979354
  0
LINE
  8
0
  6
CONTINUOUS
 62
               3
  5
1CF
 10
-651.67226690395125
 20
115.38520849510138
 30
0.0
 11
-801.16903203760103
 21
115.38520849510138
 31
0.0
  0
LINE
  8
0
  6
CONTINUOUS
 62
               3
  5
1D0
 10
-586.67226690395125
 20
298.38520849510144
 30
0.0
 11
-587.34382302991571
 21
298.38520849510144
 31
0.0
  0
LINE
  8
0
  6
CONTINUOUS
 62
               3
  5
1D1
 10
-589.84382302991571
 20
295.88520849510218
 30
0.0
 11
-587.34382302991571
 21
298.38520849510144
 31
0.0
  0
LINE
  8
0
  6
CONTINUOUS
 62
               3
  5
1D2
 10
-589.84382302991639
 20
295.88520849510144
 30
0.0
 11
-632.00893328619395
 21
294.41277039924739
 31
0.0
  0
LINE
  8
0
  6
CONTINUOUS
 62
               3
  5
1D3
 10
-650.20780080988379
 20
278.11351906881544
 30
0.0
 11
-635.36996970861401
 21
292.95135017008471
 31
0.0
  0
ARC
  8
0
  6
CONTINUOUS
 62
               3
  5
1D4
 10
-646.67226690395125
 20
274.57798516288233
 30
0.0
 40
4.9999999999999991
 50
134.99999999989697
 51
179.99999999986184
  0
LINE
  8
0
  6
CONTINUOUS
 62
               3
  5
1D5
 10
-586.67226690395125
 20
408.38520849510132
 30
0.0
 11
-587.34382302991571
 21
408.38520849510132
 31
0.0
  0
LINE
  8
0
  6
CONTINUOUS
 62
               3
  5
1D6
 10
-589.84382302991571
 20
410.88520849510155
 30
0.0
 11
-587.34382302991571
 21
408.38520849510132
 31
0.0
  0
LINE
  8
0
  6
CONTINUOUS
 62
               3
  5
1D7
 10
-589.84382302991571
 20
410.88520849510149
 30
0.0
 11
-647.46129923208991
 21
412.89725510025374
 31
0.0
  0
LINE
  8
0
  6
CONTINUOUS
 62
               3
  5
1D8
 10
-587.34382302991571
 20
408.38520849510132
 30
0.0
 11
-587.34382302991571
 21
298.38520849510144
 31
0.0
  0
LINE
  8
0
  6
CONTINUOUS
 62
               3
  5
1D9
 10
-586.67226690395125
 20
295.78520849510141
 30
0.0
 11
-586.67226690395125
 21
410.98520849510146
 31
0.0
  0
LINE
  8
0
  6
CONTINUOUS
 62
               3
  5
1DA
 10
-586.67226690395125
 20
410.98520849510146
 30
0.0
 11
-584.17226690395125
 21
410.98520849510146
 31
0.0
  0
ARC
  8
0
  6
CONTINUOUS
 62
               3
  5
1DB
 10
-584.17226690395125
 20
408.48520849510146
 30
0.0
 40
2.5
 50
0.0
 51
89.999999999932058
  0
LINE
  8
0
  6
CONTINUOUS
 62
               3
  5
1DC
 10
-581.67226690395125
 20
408.48520849510146
 30
0.0
 11
-581.67226690395125
 21
298.28520849510141
 31
0.0
  0
LINE
  8
0
  6
CONTINUOUS
 62
               3
  5
1DD
 10
-586.67226690395125
 20
295.78520849510141
 30
0.0
 11
-584.17226690395125
 21
295.78520849510141
 31
0.0
  0
ARC
  8
0
  6
CONTINUOUS
 62
               3
  5
1DE
 10
-584.17226690395125
 20
298.28520849510141
 30
0.0
 40
2.5
 50
269.99999999979229
 51
359.99999999972368
  0
LINE
  8
0
  6
CONTINUOUS
 62
               3
  5
1DF
 10
-589.84382302991571
 20
410.88520849510155
 30
0.0
 11
-589.84382302991639
 21
295.88520849510144
 31
0.0
  0
ARC
  8
0
  6
CONTINUOUS
 62
               3
  5
1E0
 10
-631.83443580268136
 20
289.41581626415194
 30
0.0
 40
5.0
 50
91.999999999929798
 51
134.99999999989606
  0
ARC
  8
0
  6
CONTINUOUS
 62
               3
  5
1E1
 10
-647.28680174857743
 20
417.89420923534919
 30
0.0
 40
5.0
 50
192.73018013816611
 51
267.99999999979502
  0
ARC
  8
0
  6
CONTINUOUS
 62
               3
  5
1E2
 10
-704.17226690395182
 20
230.88520849510121
 30
0.0
 40
2.4999999999999996
 50
89.999999999929457
 51
269.99999999979354
  0
ARC
  8
0
  6
CONTINUOUS
 62
               3
  5
1E3
 10
-749.17226690395182
 20
230.88520849510121
 30
0.0
 40
2.4999999999999996
 50
269.99999999979354
 51
449.99999999965507
  0
CIRCLE
  8
0
  6
CONTINUOUS
 62
               3
  5
1E4
 10
-726.67226690395125
 20
284.88520849510132
 30
0.0
 40
50.850000000000001
  0
LINE
  8
0
  6
CONTINUOUS
 62
               3
  5
1E5
 10
-651.67226690395125
 20
233.38520849510121
 30
0.0
 11
-704.17226690395182
 21
233.38520849510121
 31
0.0
  0
LINE
  8
0
  6
CONTINUOUS
 62
               3
  5
1E6
 10
-749.17226690395182
 20
233.38520849510121
 30
0.0
 11
-801.67226690395125
 21
233.38520849510121
 31
0.0
  0
LINE
  8
0
  6
CONTINUOUS
 62
               3
  5
1E7
 10
-651.67226690395125
 20
228.38520849510121
 30
0.0
 11
-704.17226690395182
 21
228.38520849510121
 31
0.0
  0
LINE
  8
0
  6
CONTINUOUS
 62
               3
  5
1E8
 10
-749.17226690395182
 20
228.38520849510121
 30
0.0
 11
-801.67226690395125
 21
228.38520849510121
 31
0.0
  0
LINE
  8
0
  6
CONTINUOUS
 62
               3
  5
1E9
 10
-651.67226690395125
 20
274.57798516288233
 30
0.0
 11
-651.67226690395125
 21
233.38520849510121
 31
0.0
  0
LINE
  8
0
  6
CONTINUOUS
 62
               3
  5
1EA
 10
-651.67226690395125
 20
228.38520849510121
 30
0.0
 11
-651.67226690395125
 21
115.38520849510138
 31
0.0
  0
LINE
  8
0
  6
CONTINUOUS
 62
               3
  5
1EB
 10
-668.67226690395057
 20
-44.11479150489788
 30
0.0
 11
-668.67226690395057
 21
-33.614791504899017
 31
0.0
  0
LINE
  8
0
  6
CONTINUOUS
 62
               3
  5
1EC
 10
-784.6722669039508
 20
-33.614791504899017
 30
0.0
 11
-784.6722669039508
 21
-44.114791504898335
 31
0.0
  0
LINE
  8
0
  6
CONTINUOUS
 62
               3
  5
1ED
 10
-783.17226690395125
 20
-145.61479150489879
 30
0.0
 11
-670.17226690395125
 21
-145.61479150489879
 31
0.0
  0
LINE
  8
0
  6
CONTINUOUS
 62
               3
  5
1EE
 10
-783.17226690395125
 20
-145.61479150489879
 30
0.0
 11
-783.17226690395125
 21
-45.61479150489879
 31
0.0
  0
LINE
  8
0
  6
CONTINUOUS
 62
               3
  5
1EF
 10
-670.17226690395125
 20
-145.61479150489879
 30
0.0
 11
-670.17226690395125
 21
-45.61479150489879
 31
0.0
  0
LINE
  8
0
  6
CONTINUOUS
 62
               3
  5
1F0
 10
-783.17226690395125
 20
-45.61479150489879
 30
0.0
 11
-784.67226690395171
 21
-44.114791504898335
 31
0.0
  0
LINE
  8
0
  6
CONTINUOUS
 62
               3
  5
1F1
 10
-670.17226690395125
 20
-45.61479150489879
 30
0.0
 11
-668.67226690395114
 21
-44.114791504898676
 31
0.0
  0
LINE
  8
0
  6
CONTINUOUS
 62
               3
  5
1F2
 10
398.32773309604875
 20
519.38520849510144
 30
0.0
 11
548.32773309604875
 21
519.38520849510144
 31
0.0
  0
LINE
  8
0
  6
CONTINUOUS
 62
               3
  5
1F3
 10
384.82773309604852
 20
509.38520849510144
 30
0.0
 11
384.82773309604852
 21
502.38520849510178
 31
0.0
  0
LINE
  8
0
  6
CONTINUOUS
 62
               3
  5
1F4
 10
384.82773309604852
 20
509.38520849510144
 30
0.0
 11
398.32773309604875
 21
519.38520849510144
 31
0.0
  0
ARC
  8
0
  6
CONTINUOUS
 62
               3
  5
1F5
 10
396.32773309604886
 20
497.80263280014606
 30
0.0
 40
4.9999999999999991
 50
0.0
 51
66.421821521746878
  0
LINE
  8
0
  6
CONTINUOUS
 62
               3
  5
1F6
 10
384.82773309604852
 20
502.38520849510178
 30
0.0
 11
561.82773309604841
 21
502.38520849510178
 31
0.0
  0
ARC
  8
0
  6
CONTINUOUS
 62
               3
  5
1F7
 10
418.32773309604875
 20
412.38520849510144
 30
0.0
 40
19.999999999999996
 50
148.21166938283446
 51
167.26981986155934
  0
LINE
  8
0
  6
CONTINUOUS
 62
               3
  5
1F8
 10
401.32773309604886
 20
497.80263280014606
 30
0.0
 11
401.32773309604886
 21
422.92086224795423
 31
0.0
  0
LINE
  8
0
  6
CONTINUOUS
 62
               3
  5
1F9
 10
545.32773309604863
 20
427.9208622479548
 30
0.0
 11
545.32773309604863
 21
497.80263280014606
 31
0.0
  0
LINE
  8
0
  6
CONTINUOUS
 62
               3
  5
1FA
 10
415.32773309604863
 20
-33.61479150489879
 30
0.0
 11
398.32773309604875
 21
115.38520849510161
 31
0.0
  0
LINE
  8
0
  6
CONTINUOUS
 62
               3
  5
1FB
 10
401.32773309604886
 20
422.92086224795423
 30
0.0
 11
544.82773309604909
 21
422.92086224795423
 31
0.0
  0
LINE
  8
0
  6
CONTINUOUS
 62
               3
  5
1FC
 10
453.32773309604875
 20
502.38520849510178
 30
0.0
 11
453.32773309604875
 21
519.38520849510144
 31
0.0
  0
LINE
  8
0
  6
CONTINUOUS
 62
               3
  5
1FD
 10
493.32773309604875
 20
519.38520849510144
 30
0.0
 11
493.32773309604875
 21
502.38520849510178
 31
0.0
  0
LINE
  8
0
  6
CONTINUOUS
 62
               3
  5
1FE
 10
453.32773309604875
 20
509.38520849510144
 30
0.0
 11
493.32773309604875
 21
509.38520849510144
 31
0.0
  0
LINE
  8
0
  6
CONTINUOUS
 62
               3
  5
1FF
 10
401.04357162204337
 20
519.38520849510144
 30
0.0
 11
401.04357162204337
 21
502.38520849510178
 31
0.0
  0
LINE
  8
0
  6
CONTINUOUS
 62
               3
  5
200
 10
387.11723489542351
 20
509.38520849510144
 30
0.0
 11
387.11723489542351
 21
502.38520849510178
 31
0.0
  0
LINE
  8
0
  6
CONTINUOUS
 62
               3
  5
201
 10
384.82773309604852
 20
509.38520849510144
 30
0.0
 11
387.11723489542351
 21
509.38520849510144
 31
0.0
  0
LINE
  8
0
  6
CONTINUOUS
 62
               3
  5
202
 10
387.11723489542351
 20
509.38520849510144
 30
0.0
 11
401.04357162204337
 21
519.38520849510144
 31
0.0
  0
LINE
  8
0
  6
CONTINUOUS
 62
               3
  5
203
 10
561.82773309604841
 20
509.38520849510144
 30
0.0
 11
561.82773309604841
 21
502.38520849510178
 31
0.0
  0
LINE
  8
0
  6
CONTINUOUS
 62
               3
  5
204
 10
561.82773309604841
 20
509.38520849510144
 30
0.0
 11
548.32773309604875
 21
519.38520849510144
 31
0.0
  0
ARC
  8
0
  6
CONTINUOUS
 62
               3
  5
205
 10
550.32773309604863
 20
497.80263280014606
 30
0.0
 40
4.9999999999999991
 50
113.57817847811482
 51
179.99999999986184
  0
LINE
  8
0
  6
CONTINUOUS
 62
               3
  5
206
 10
545.61189457005298
 20
519.38520849510144
 30
0.0
 11
545.61189457005298
 21
502.38520849510178
 31
0.0
  0
LINE
  8
0
  6
CONTINUOUS
 62
               3
  5
207
 10
559.53823129667398
 20
509.38520849510144
 30
0.0
 11
559.53823129667398
 21
502.38520849510178
 31
0.0
  0
LINE
  8
0
  6
CONTINUOUS
 62
               3
  5
208
 10
561.82773309604841
 20
509.38520849510144
 30
0.0
 11
559.53823129667398
 21
509.38520849510144
 31
0.0
  0
LINE
  8
0
  6
CONTINUOUS
 62
               3
  5
209
 10
559.53823129667398
 20
509.38520849510144
 30
0.0
 11
545.61189457005298
 21
519.38520849510144
 31
0.0
  0
LINE
  8
0
  6
CONTINUOUS
 62
               3
  5
20A
 10
415.32773309604863
 20
-33.614791504898335
 30
0.0
 11
531.32773309604886
 21
-33.61479150489879
 31
0.0
  0
ARC
  8
0
  6
CONTINUOUS
 62
               3
  5
20B
 10
398.32773309604875
 20
230.88520849510144
 30
0.0
 40
2.4999999999999996
 50
89.999999999929457
 51
269.99999999979354
  0
ARC
  8
0
  6
CONTINUOUS
 62
               3
  5
20C
 10
548.32773309604875
 20
230.88520849510144
 30
0.0
 40
2.4999999999999996
 50
269.99999999979354
 51
449.99999999965507
  0
LINE
  8
0
  6
CONTINUOUS
 62
               3
  5
20D
 10
398.32773309604875
 20
115.38520849510161
 30
0.0
 11
426.95962530399186
 21
115.38520849510161
 31
0.0
  0
LINE
  8
0
  6
CONTINUOUS
 62
               3
  5
20E
 10
471.35489981589785
 20
115.38520849510161
 30
0.0
 11
547.82449822969852
 21
115.38520849510161
 31
0.0
  0
LINE
  8
0
  6
CONTINUOUS
 62
               3
  5
20F
 10
398.32773309604875
 20
233.38520849510144
 30
0.0
 11
548.32773309604875
 21
233.38520849510144
 31
0.0
  0
LINE
  8
0
  6
CONTINUOUS
 62
               3
  5
210
 10
398.32773309604875
 20
228.38520849510144
 30
0.0
 11
548.32773309604875
 21
228.38520849510144
 31
0.0
  0
LINE
  8
0
  6
CONTINUOUS
 62
               3
  5
211
 10
333.32773309604875
 20
298.38520849510144
 30
0.0
 11
333.99928922201315
 21
298.38520849510144
 31
0.0
  0
LINE
  8
0
  6
CONTINUOUS
 62
               3
  5
212
 10
336.4992892220132
 20
295.88520849510218
 30
0.0
 11
333.99928922201315
 21
298.38520849510144
 31
0.0
  0
LINE
  8
0
  6
CONTINUOUS
 62
               3
  5
213
 10
336.49928922201394
 20
295.88520849510144
 30
0.0
 11
378.66439947829139
 21
294.41277039924739
 31
0.0
  0
LINE
  8
0
  6
CONTINUOUS
 62
               3
  5
214
 10
396.86326700198128
 20
278.11351906881544
 30
0.0
 11
382.0254359007115
 21
292.95135017008471
 31
0.0
  0
ARC
  8
0
  6
CONTINUOUS
 62
               3
  5
215
 10
393.32773309604875
 20
274.57798516288233
 30
0.0
 40
4.9999999999999991
 50
0.0
 51
44.999999999964672
  0
LINE
  8
0
  6
CONTINUOUS
 62
               3
  5
216
 10
333.32773309604875
 20
408.38520849510132
 30
0.0
 11
333.99928922201315
 21
408.38520849510132
 31
0.0
  0
LINE
  8
0
  6
CONTINUOUS
 62
               3
  5
217
 10
336.4992892220132
 20
410.88520849510155
 30
0.0
 11
333.99928922201315
 21
408.38520849510132
 31
0.0
  0
LINE
  8
0
  6
CONTINUOUS
 62
               3
  5
218
 10
336.49928922201315
 20
410.88520849510149
 30
0.0
 11
394.11676542418741
 21
412.89725510025374
 31
0.0
  0
LINE
  8
0
  6
CONTINUOUS
 62
               3
  5
219
 10
333.99928922201315
 20
408.38520849510132
 30
0.0
 11
333.99928922201315
 21
298.38520849510144
 31
0.0
  0
LINE
  8
0
  6
CONTINUOUS
 62
               3
  5
21A
 10
333.32773309604875
 20
295.78520849510141
 30
0.0
 11
333.32773309604875
 21
410.98520849510146
 31
0.0
  0
LINE
  8
0
  6
CONTINUOUS
 62
               3
  5
21B
 10
333.32773309604875
 20
410.98520849510146
 30
0.0
 11
330.82773309604875
 21
410.98520849510146
 31
0.0
  0
ARC
  8
0
  6
CONTINUOUS
 62
               3
  5
21C
 10
330.82773309604875
 20
408.48520849510146
 30
0.0
 40
2.5
 50
89.999999999932058
 51
179.99999999986184
  0
LINE
  8
0
  6
CONTINUOUS
 62
               3
  5
21D
 10
328.32773309604875
 20
408.48520849510146
 30
0.0
 11
328.32773309604875
 21
298.28520849510141
 31
0.0
  0
LINE
  8
0
  6
CONTINUOUS
 62
               3
  5
21E
 10
333.32773309604875
 20
295.78520849510141
 30
0.0
 11
330.82773309604875
 21
295.78520849510141
 31
0.0
  0
ARC
  8
0
  6
CONTINUOUS
 62
               3
  5
21F
 10
330.82773309604875
 20
298.28520849510141
 30
0.0
 40
2.5
 50
179.9999999998615
 51
269.99999999979229
  0
LINE
  8
0
  6
CONTINUOUS
 62
               3
  5
220
 10
336.4992892220132
 20
410.88520849510155
 30
0.0
 11
336.49928922201394
 21
295.88520849510144
 31
0.0
  0
ARC
  8
0
  6
CONTINUOUS
 62
               3
  5
221
 10
378.48990199477885
 20
289.41581626415194
 30
0.0
 40
5.0
 50
44.999999999966278
 51
87.999999999932285
  0
ARC
  8
0
  6
CONTINUOUS
 62
               3
  5
222
 10
393.94226794067492
 20
417.89420923534919
 30
0.0
 40
5.0
 50
271.99999999979184
 51
347.26981986142005
  0
LINE
  8
0
  6
CONTINUOUS
 62
               3
  5
223
 10
398.32773309604875
 20
274.57798516288233
 30
0.0
 11
398.32773309604875
 21
233.38520849510144
 31
0.0
  0
LINE
  8
0
  6
CONTINUOUS
 62
               3
  5
224
 10
398.32773309604875
 20
228.38520849510144
 30
0.0
 11
398.32773309604875
 21
115.38520849510161
 31
0.0
  0
LINE
  8
0
  6
CONTINUOUS
 62
               3
  5
225
 10
531.32773309604943
 20
-44.114791504897653
 30
0.0
 11
531.32773309604943
 21
-33.61479150489879
 31
0.0
  0
LINE
  8
0
  6
CONTINUOUS
 62
               3
  5
226
 10
415.3277330960492
 20
-33.61479150489879
 30
0.0
 11
415.3277330960492
 21
-44.114791504898108
 31
0.0
  0
LINE
  8
0
  6
CONTINUOUS
 62
               3
  5
227
 10
416.82773309604875
 20
-145.61479150489856
 30
0.0
 11
529.82773309604875
 21
-145.61479150489856
 31
0.0
  0
LINE
  8
0
  6
CONTINUOUS
 62
               3
  5
228
 10
416.82773309604875
 20
-145.61479150489856
 30
0.0
 11
416.82773309604875
 21
-45.614791504898562
 31
0.0
  0
LINE
  8
0
  6
CONTINUOUS
 62
               3
  5
229
 10
529.82773309604875
 20
-145.61479150489856
 30
0.0
 11
529.82773309604875
 21
-45.614791504898562
 31
0.0
  0
LINE
  8
0
  6
CONTINUOUS
 62
               3
  5
22A
 10
416.82773309604875
 20
-45.614791504898562
 30
0.0
 11
415.32773309604829
 21
-44.114791504898108
 31
0.0
  0
LINE
  8
0
  6
CONTINUOUS
 62
               3
  5
22B
 10
529.82773309604875
 20
-45.614791504898562
 30
0.0
 11
531.32773309604886
 21
-44.114791504898449
 31
0.0
  0
LINE
  8
0
  6
CONTINUOUS
 62
               3
  5
22C
 10
-707.59184500085951
 20
310.88520849510121
 30
0.0
 11
-745.75268880704414
 21
310.88520849510121
 31
0.0
  0
CIRCLE
  8
0
  6
CONTINUOUS
 62
               3
  5
22D
 10
-726.67226690395125
 20
284.88520849510132
 30
0.0
 40
41.849999999999994
  0
CIRCLE
  8
0
  6
CONTINUOUS
 62
               3
  5
22E
 10
-726.67226690395125
 20
284.88520849510132
 30
0.0
 40
40.75
  0
CIRCLE
  8
0
  6
CONTINUOUS
 62
               3
  5
22F
 10
-726.67226690395182
 20
284.88520849510132
 30
0.0
 40
36.399999999999999
  0
CIRCLE
  8
0
  6
CONTINUOUS
 62
               3
  5
230
 10
-726.67226690395182
 20
284.88520849510132
 30
0.0
 40
32.25
  0
LINE
  8
0
  6
CONTINUOUS
 62
               3
  5
231
 10
-699.62543252356625
 20
257.83837411471586
 30
0.0
 11
-697.85766557059947
 21
256.07060716174942
 31
0.0
  0
LINE
  8
0
  6
CONTINUOUS
 62
               3
  5
232
 10
-753.71910128433035
 20
257.83837411470904
 30
0.0
 11
-755.48686823730259
 21
256.07060716174885
 31
0.0
  0
ARC
  8
0
  6
CONTINUOUS
 62
               3
  5
233
 10
-726.67226690395182
 20
284.88520849510132
 30
0.0
 40
38.25
 50
224.999999999842
 51
314.99999999976745
  0
CIRCLE
  8
0
  6
CONTINUOUS
 62
               3
  5
234
 10
-126.67226690395125
 20
954.38520849510144
 30
0.0
 40
59.0
  0
CIRCLE
  8
0
  6
CONTINUOUS
 62
               3
  5
235
 10
482.61425631235664
 20
-509.57855141429809
 30
0.0
 40
75.0
  0
CIRCLE
  8
0
  6
CONTINUOUS
 62
               3
  5
236
 10
482.61425631235664
 20
-509.57855141429809
 30
0.0
 40
52.5
  0
LINE
  8
0
  6
CONTINUOUS
 62
               3
  5
237
 10
396.40375811173141
 20
-489.57855141429809
 30
0.0
 11
410.33009483835127
 21
-489.57855141429809
 31
0.0
  0
LINE
  8
0
  6
CONTINUOUS
 62
               3
  5
238
 10
410.33009483835127
 20
-529.5785514142982
 30
0.0
 11
396.40375811173141
 21
-529.5785514142982
 31
0.0
  0
ARC
  8
0
  6
CONTINUOUS
 62
               3
  5
239
 10
482.61425631235664
 20
-509.57855141429809
 30
0.0
 40
88.5
 50
166.93897588510336
 51
193.06102411468945
  0
LINE
  8
0
  6
CONTINUOUS
 62
               3
  5
23A
 10
462.61425631235664
 20
-595.7890496149231
 30
0.0
 11
462.61425631235664
 21
-581.86271288830324
 31
0.0
  0
LINE
  8
0
  6
CONTINUOUS
 62
               3
  5
23B
 10
502.61425631235664
 20
-581.86271288830324
 30
0.0
 11
502.61425631235664
 21
-595.7890496149231
 31
0.0
  0
ARC
  8
0
  6
CONTINUOUS
 62
               3
  5
23C
 10
482.61425631235664
 20
-509.57855141429809
 30
0.0
 40
88.5
 50
256.93897588505166
 51
283.06102411463769
  0
LINE
  8
0
  6
CONTINUOUS
 62
               3
  5
23D
 10
568.82475451298137
 20
-529.5785514142982
 30
0.0
 11
554.89841778636082
 21
-529.5785514142982
 31
0.0
  0
LINE
  8
0
  6
CONTINUOUS
 62
               3
  5
23E
 10
554.89841778636082
 20
-489.57855141429809
 30
0.0
 11
568.82475451298137
 21
-489.57855141429809
 31
0.0
  0
ARC
  8
0
  6
CONTINUOUS
 62
               3
  5
23F
 10
482.61425631235664
 20
-509.57855141429809
 30
0.0
 40
88.5
 50
346.93897588499982
 51
373.06102411458585
  0
LINE
  8
0
  6
CONTINUOUS
 62
               3
  5
240
 10
502.61425631235664
 20
-423.36805321367251
 30
0.0
 11
502.61425631235664
 21
-437.29438994029306
 31
0.0
  0
LINE
  8
0
  6
CONTINUOUS
 62
               3
  5
241
 10
462.61425631235664
 20
-437.29438994029306
 30
0.0
 11
462.61425631235664
 21
-423.36805321367251
 31
0.0
  0
ARC
  8
0
  6
CONTINUOUS
 62
               3
  5
242
 10
482.61425631235664
 20
-509.57855141429809
 30
0.0
 40
88.5
 50
76.938975885155216
 51
103.06102411474124
  0
LINE
  8
0
  6
CONTINUOUS
 62
               3
  5
243
 10
434.94613279149559
 20
-531.57855141429866
 30
0.0
 11
530.28237983321651
 21
-531.57855141429866
 31
0.0
  0
ARC
  8
0
  6
CONTINUOUS
 62
               3
  5
244
 10
495.11786796173777
 20
-500.87215378667906
 30
0.0
 40
54.763804151667173
 50
141.3859176367566
 51
145.15009542087031
  0
ARC
  8
0
  6
CONTINUOUS
 62
               3
  5
245
 10
482.61425631235664
 20
-509.57855141429809
 30
0.0
 40
51.5
 50
334.71098847326505
 51
410.95932736340404
  0
ARC
  8
0
  6
CONTINUOUS
 62
               3
  5
246
 10
482.61425631235664
 20
-509.57855141429809
 30
0.0
 40
51.5
 50
129.04067263628559
 51
205.28901152642416
  0
ARC
  8
0
  6
CONTINUOUS
 62
               3
  5
247
 10
482.61425631235664
 20
-509.57855141429809
 30
0.0
 40
77.5
 50
104.95524831658301
 51
128.57288309095932
  0
ARC
  8
0
  6
CONTINUOUS
 62
               3
  5
248
 10
482.61425631235664
 20
-509.57855141429809
 30
0.0
 40
77.5
 50
14.9552483166347
 51
75.044751683313535
  0
ARC
  8
0
  6
CONTINUOUS
 62
               3
  5
249
 10
482.61425631235664
 20
-509.57855141429809
 30
0.0
 40
77.5
 50
321.42711690878122
 51
345.04475168315804
  0
LINE
  8
0
  6
CONTINUOUS
 62
               3
  5
24A
 10
342.61425631235659
 20
-564.5785514142982
 30
0.0
 11
343.28581243832082
 21
-564.5785514142982
 31
0.0
  0
LINE
  8
0
  6
CONTINUOUS
 62
               3
  5
24B
 10
345.78581243832127
 20
-567.0785514142982
 30
0.0
 11
343.28581243832082
 21
-564.5785514142982
 31
0.0
  0
LINE
  8
0
  6
CONTINUOUS
 62
               3
  5
24C
 10
342.61425631235659
 20
-454.57855141429809
 30
0.0
 11
343.28581243832082
 21
-454.57855141429809
 31
0.0
  0
LINE
  8
0
  6
CONTINUOUS
 62
               3
  5
24D
 10
345.78581243832082
 20
-452.07855141429809
 30
0.0
 11
343.28581243832082
 21
-454.57855141429809
 31
0.0
  0
LINE
  8
0
  6
CONTINUOUS
 62
               3
  5
24E
 10
343.28581243832082
 20
-454.57855141429809
 30
0.0
 11
343.28581243832082
 21
-564.5785514142982
 31
0.0
  0
LINE
  8
0
  6
CONTINUOUS
 62
               3
  5
24F
 10
437.12392052597869
 20
-448.88895439595649
 30
0.0
 11
345.78581243832082
 21
-452.07855141429809
 31
0.0
  0
LINE
  8
0
  6
CONTINUOUS
 62
               3
  5
250
 10
417.7777845958056
 20
-569.59256647926588
 30
0.0
 11
345.78581243832139
 21
-567.0785514142982
 31
0.0
  0
LINE
  8
0
  6
CONTINUOUS
 62
               3
  5
251
 10
337.61425631235659
 20
-454.75010754026221
 30
0.0
 11
337.61425631235659
 21
-564.67855141429811
 31
0.0
  0
LINE
  8
0
  6
CONTINUOUS
 62
               3
  5
252
 10
342.61425631235659
 20
-567.17855141429811
 30
0.0
 11
342.61425631235659
 21
-451.97855141429795
 31
0.0
  0
LINE
  8
0
  6
CONTINUOUS
 62
               3
  5
253
 10
342.61425631235659
 20
-451.97855141429795
 30
0.0
 11
340.11425631235659
 21
-451.97855141429795
 31
0.0
  0
LINE
  8
0
  6
CONTINUOUS
 62
               3
  5
254
 10
342.61425631235659
 20
-567.17855141429811
 30
0.0
 11
340.11425631235659
 21
-567.17855141429811
 31
0.0
  0
ARC
  8
0
  6
CONTINUOUS
 62
               3
  5
255
 10
340.11425631235659
 20
-564.67855141429811
 30
0.0
 40
2.5
 50
179.99999999989538
 51
269.99999999984436
  0
ARC
  8
0
  6
CONTINUOUS
 62
               3
  5
256
 10
340.11425631235659
 20
-454.47855141429795
 30
0.0
 40
2.5
 50
89.999999999948997
 51
179.99999999989538
  0
LINE
  8
0
  6
CONTINUOUS
 62
               3
  5
257
 10
450.17585314573904
 20
-469.57855141429832
 30
0.0
 11
482.61425631235664
 21
-469.57855141429832
 31
0.0
  0
LINE
  8
0
  6
CONTINUOUS
 62
               3
  5
258
 10
482.61425631235664
 20
-469.57855141429832
 30
0.0
 11
516.61793258419539
 21
-469.57855141429832
 31
0.0
  0
LINE
  8
0
  6
CONTINUOUS
 62
               3
  5
259
 10
345.78581243832127
 20
-567.0785514142982
 30
0.0
 11
345.78581243832082
 21
-452.07855141429809
 31
0.0
  0
ARC
  8
0
  6
CONTINUOUS
 62
               3
  5
25A
 10
436.94942304246621
 20
-443.89200026086087
 30
0.0
 40
5.0
 50
271.99999999984402
 51
304.806757870252
  0
LINE
  8
0
  6
CONTINUOUS
 62
               3
  5
25B
 10
537.61425631235647
 20
-649.5785514142982
 30
0.0
 11
537.61425631235647
 21
-648.90699528833386
 31
0.0
  0
LINE
  8
0
  6
CONTINUOUS
 62
               3
  5
25C
 10
540.11425631235647
 20
-646.40699528833341
 30
0.0
 11
537.61425631235647
 21
-648.90699528833386
 31
0.0
  0
LINE
  8
0
  6
CONTINUOUS
 62
               3
  5
25D
 10
427.61425631235653
 20
-649.5785514142982
 30
0.0
 11
427.61425631235653
 21
-648.90699528833386
 31
0.0
  0
LINE
  8
0
  6
CONTINUOUS
 62
               3
  5
25E
 10
425.11425631235653
 20
-646.40699528833386
 30
0.0
 11
427.61425631235653
 21
-648.90699528833386
 31
0.0
  0
LINE
  8
0
  6
CONTINUOUS
 62
               3
  5
25F
 10
427.61425631235653
 20
-648.90699528833386
 30
0.0
 11
537.61425631235647
 21
-648.90699528833386
 31
0.0
  0
LINE
  8
0
  6
CONTINUOUS
 62
               3
  5
260
 10
427.78581243832065
 20
-654.5785514142982
 30
0.0
 11
537.71425631235661
 21
-654.5785514142982
 31
0.0
  0
LINE
  8
0
  6
CONTINUOUS
 62
               3
  5
261
 10
540.21425631235661
 20
-649.5785514142982
 30
0.0
 11
425.01425631235651
 21
-649.5785514142982
 31
0.0
  0
LINE
  8
0
  6
CONTINUOUS
 62
               3
  5
262
 10
425.01425631235651
 20
-649.5785514142982
 30
0.0
 11
425.01425631235651
 21
-652.0785514142982
 31
0.0
  0
LINE
  8
0
  6
CONTINUOUS
 62
               3
  5
263
 10
540.21425631235661
 20
-649.5785514142982
 30
0.0
 11
540.21425631235661
 21
-652.0785514142982
 31
0.0
  0
ARC
  8
0
  6
CONTINUOUS
 62
               3
  5
264
 10
537.71425631235661
 20
-652.0785514142982
 30
0.0
 40
2.5
 50
269.99999999984567
 51
359.99999999979337
  0
ARC
  8
0
  6
CONTINUOUS
 62
               3
  5
265
 10
427.51425631235651
 20
-652.0785514142982
 30
0.0
 40
2.5
 50
179.99999999989538
 51
269.99999999984567
  0
LINE
  8
0
  6
CONTINUOUS
 62
               3
  5
266
 10
540.11425631235647
 20
-646.40699528833341
 30
0.0
 11
425.11425631235653
 21
-646.40699528833386
 31
0.0
  0
LINE
  8
0
  6
CONTINUOUS
 62
               3
  5
267
 10
543.30385333069762
 20
-555.06888720067639
 30
0.0
 11
540.11425631235647
 21
-646.40699528833341
 31
0.0
  0
ARC
  8
0
  6
CONTINUOUS
 62
               3
  5
268
 10
548.30080746579324
 20
-555.24338468418921
 30
0.0
 40
5.0
 50
145.19324212948862
 51
177.99999999989819
  0
LINE
  8
0
  6
CONTINUOUS
 62
               3
  5
269
 10
422.60024124738851
 20
-574.41502313084914
 30
0.0
 11
425.11425631235653
 21
-646.40699528833386
 31
0.0
  0
ARC
  8
0
  6
CONTINUOUS
 62
               3
  5
26A
 10
417.60328711229312
 20
-574.58952061436105
 30
0.0
 40
5.0
 50
1.9999999999958187
 51
87.99999999994921
  0
LINE
  8
0
  6
CONTINUOUS
 62
               3
  5
26B
 10
407.61425631235664
 20
-818.07798516288233
 30
0.0
 11
557.6142563123567
 21
-818.07798516288233
 31
0.0
  0
LINE
  8
0
  6
CONTINUOUS
 62
               3
  5
26C
 10
394.11425631235642
 20
-828.07798516288233
 30
0.0
 11
394.11425631235642
 21
-835.07798516288187
 31
0.0
  0
LINE
  8
0
  6
CONTINUOUS
 62
               3
  5
26D
 10
394.11425631235642
 20
-828.07798516288233
 30
0.0
 11
407.61425631235664
 21
-818.07798516288233
 31
0.0
  0
ARC
  8
0
  6
CONTINUOUS
 62
               3
  5
26E
 10
405.61425631235676
 20
-839.66056085783759
 30
0.0
 40
4.9999999999999991
 50
0.0
 51
66.421821521760023
  0
LINE
  8
0
  6
CONTINUOUS
 62
               3
  5
26F
 10
394.11425631235642
 20
-835.07798516288187
 30
0.0
 11
571.11425631235625
 21
-835.07798516288187
 31
0.0
  0
ARC
  8
0
  6
CONTINUOUS
 62
               3
  5
270
 10
427.61425631235664
 20
-925.07798516288233
 30
0.0
 40
19.999999999999996
 50
148.21166938286279
 51
167.26981986159123
  0
LINE
  8
0
  6
CONTINUOUS
 62
               3
  5
271
 10
410.61425631235676
 20
-839.66056085783759
 30
0.0
 11
410.61425631235676
 21
-914.54233141002953
 31
0.0
  0
LINE
  8
0
  6
CONTINUOUS
 62
               3
  5
272
 10
554.61425631235647
 20
-909.54233141002908
 30
0.0
 11
554.61425631235647
 21
-839.66056085783759
 31
0.0
  0
LINE
  8
0
  6
CONTINUOUS
 62
               3
  5
273
 10
410.61425631235676
 20
-914.54233141002953
 30
0.0
 11
554.11425631235693
 21
-914.54233141002953
 31
0.0
  0
LINE
  8
0
  6
CONTINUOUS
 62
               3
  5
274
 10
462.61425631235664
 20
-835.07798516288187
 30
0.0
 11
462.61425631235664
 21
-818.07798516288233
 31
0.0
  0
LINE
  8
0
  6
CONTINUOUS
 62
               3
  5
275
 10
502.61425631235664
 20
-818.07798516288233
 30
0.0
 11
502.61425631235664
 21
-835.07798516288187
 31
0.0
  0
LINE
  8
0
  6
CONTINUOUS
 62
               3
  5
276
 10
462.61425631235664
 20
-828.07798516288233
 30
0.0
 11
502.61425631235664
 21
-828.07798516288233
 31
0.0
  0
LINE
  8
0
  6
CONTINUOUS
 62
               3
  5
277
 10
410.33009483835127
 20
-818.07798516288233
 30
0.0
 11
410.33009483835127
 21
-835.07798516288187
 31
0.0
  0
LINE
  8
0
  6
CONTINUOUS
 62
               3
  5
278
 10
396.40375811173141
 20
-828.07798516288233
 30
0.0
 11
396.40375811173141
 21
-835.07798516288187
 31
0.0
  0
LINE
  8
0
  6
CONTINUOUS
 62
               3
  5
279
 10
394.11425631235642
 20
-828.07798516288233
 30
0.0
 11
396.40375811173141
 21
-828.07798516288233
 31
0.0
  0
LINE
  8
0
  6
CONTINUOUS
 62
               3
  5
27A
 10
396.40375811173141
 20
-828.07798516288233
 30
0.0
 11
410.33009483835127
 21
-818.07798516288233
 31
0.0
  0
LINE
  8
0
  6
CONTINUOUS
 62
               3
  5
27B
 10
571.11425631235625
 20
-828.07798516288233
 30
0.0
 11
571.11425631235625
 21
-835.07798516288187
 31
0.0
  0
LINE
  8
0
  6
CONTINUOUS
 62
               3
  5
27C
 10
571.11425631235625
 20
-828.07798516288233
 30
0.0
 11
557.6142563123567
 21
-818.07798516288233
 31
0.0
  0
ARC
  8
0
  6
CONTINUOUS
 62
               3
  5
27D
 10
559.61425631235647
 20
-839.66056085783759
 30
0.0
 40
4.9999999999999991
 50
113.57817847813573
 51
179.99999999989538
  0
LINE
  8
0
  6
CONTINUOUS
 62
               3
  5
27E
 10
554.89841778636082
 20
-818.07798516288233
 30
0.0
 11
554.89841778636082
 21
-835.07798516288187
 31
0.0
  0
LINE
  8
0
  6
CONTINUOUS
 62
               3
  5
27F
 10
568.82475451298183
 20
-828.07798516288233
 30
0.0
 11
568.82475451298183
 21
-835.07798516288187
 31
0.0
  0
LINE
  8
0
  6
CONTINUOUS
 62
               3
  5
280
 10
571.11425631235625
 20
-828.07798516288233
 30
0.0
 11
568.82475451298183
 21
-828.07798516288233
 31
0.0
  0
LINE
  8
0
  6
CONTINUOUS
 62
               3
  5
281
 10
568.82475451298183
 20
-828.07798516288233
 30
0.0
 11
554.89841778636082
 21
-818.07798516288233
 31
0.0
  0
ARC
  8
0
  6
CONTINUOUS
 62
               3
  5
282
 10
417.61425631235664
 20
-1046.5779851628822
 30
0.0
 40
2.4999999999999996
 50
89.99999999994769
 51
269.99999999984567
  0
ARC
  8
0
  6
CONTINUOUS
 62
               3
  5
283
 10
557.6142563123567
 20
-1046.5779851628822
 30
0.0
 40
2.4999999999999996
 50
269.99999999984567
 51
449.99999999974102
  0
LINE
  8
0
  6
CONTINUOUS
 62
               3
  5
284
 10
342.61425631235659
 20
-1039.0779851628822
 30
0.0
 11
343.28581243832093
 21
-1039.0779851628822
 31
0.0
  0
LINE
  8
0
  6
CONTINUOUS
 62
               3
  5
285
 10
345.78581243832105
 20
-1041.5779851628818
 30
0.0
 11
343.28581243832093
 21
-1039.0779851628822
 31
0.0
  0
LINE
  8
0
  6
CONTINUOUS
 62
               3
  5
286
 10
345.78581243832184
 20
-1041.5779851628822
 30
0.0
 11
387.95092269459923
 21
-1043.0504232587364
 31
0.0
  0
LINE
  8
0
  6
CONTINUOUS
 62
               3
  5
287
 10
406.14979021828918
 20
-1059.3496745891684
 30
0.0
 11
391.3119591170194
 21
-1044.5118434878991
 31
0.0
  0
ARC
  8
0
  6
CONTINUOUS
 62
               3
  5
288
 10
402.61425631235664
 20
-1062.8852084951013
 30
0.0
 40
4.9999999999999991
 50
0.0
 51
44.999999999973191
  0
LINE
  8
0
  6
CONTINUOUS
 62
               3
  5
289
 10
342.61425631235659
 20
-929.07798516288233
 30
0.0
 11
343.28581243832093
 21
-929.07798516288233
 31
0.0
  0
LINE
  8
0
  6
CONTINUOUS
 62
               3
  5
28A
 10
345.78581243832105
 20
-926.57798516288233
 30
0.0
 11
343.28581243832093
 21
-929.07798516288233
 31
0.0
  0
LINE
  8
0
  6
CONTINUOUS
 62
               3
  5
28B
 10
345.78581243832093
 20
-926.57798516288233
 30
0.0
 11
403.4032886404953
 21
-924.56593855773019
 31
0.0
  0
LINE
  8
0
  6
CONTINUOUS
 62
               3
  5
28C
 10
343.28581243832093
 20
-929.07798516288233
 30
0.0
 11
343.28581243832093
 21
-1039.0779851628822
 31
0.0
  0
LINE
  8
0
  6
CONTINUOUS
 62
               3
  5
28D
 10
342.61425631235659
 20
-1041.6779851628821
 30
0.0
 11
342.61425631235659
 21
-926.47798516288242
 31
0.0
  0
LINE
  8
0
  6
CONTINUOUS
 62
               3
  5
28E
 10
342.61425631235659
 20
-926.47798516288242
 30
0.0
 11
340.11425631235659
 21
-926.47798516288242
 31
0.0
  0
ARC
  8
0
  6
CONTINUOUS
 62
               3
  5
28F
 10
340.11425631235659
 20
-928.97798516288242
 30
0.0
 40
2.5
 50
89.999999999948997
 51
179.99999999989538
  0
LINE
  8
0
  6
CONTINUOUS
 62
               3
  5
290
 10
337.61425631235659
 20
-928.97798516288242
 30
0.0
 11
337.61425631235659
 21
-1039.1779851628821
 31
0.0
  0
LINE
  8
0
  6
CONTINUOUS
 62
               3
  5
291
 10
342.61425631235659
 20
-1041.6779851628821
 30
0.0
 11
340.11425631235659
 21
-1041.6779851628821
 31
0.0
  0
ARC
  8
0
  6
CONTINUOUS
 62
               3
  5
292
 10
340.11425631235659
 20
-1039.1779851628821
 30
0.0
 40
2.5
 50
179.99999999989538
 51
269.99999999984436
  0
LINE
  8
0
  6
CONTINUOUS
 62
               3
  5
293
 10
345.78581243832105
 20
-926.57798516288233
 30
0.0
 11
345.78581243832184
 21
-1041.5779851628822
 31
0.0
  0
ARC
  8
0
  6
CONTINUOUS
 62
               3
  5
294
 10
387.77642521108675
 20
-1048.047377393832
 30
0.0
 40
5.0
 50
44.999999999975948
 51
87.999999999949253
  0
ARC
  8
0
  6
CONTINUOUS
 62
               3
  5
295
 10
403.22879115698282
 20
-919.56898442263457
 30
0.0
 40
5.0
 50
271.99999999984408
 51
347.26981986148661
  0
CIRCLE
  8
0
  6
CONTINUOUS
 62
               3
  5
296
 10
482.61425631235664
 20
-984.07798516288233
 30
0.0
 40
48.5
  0
CIRCLE
  8
0
  6
CONTINUOUS
 62
               3
  5
297
 10
482.61425631235664
 20
-984.07798516288233
 30
0.0
 40
47.299999999999997
  0
LINE
  8
0
  6
CONTINUOUS
 62
               3
  5
298
 10
450.79445115896209
 20
-1015.8977903162769
 30
0.0
 11
449.16810556223294
 21
-1017.524135913006
 31
0.0
  0
LINE
  8
0
  6
CONTINUOUS
 62
               3
  5
299
 10
514.43406146575126
 20
-1015.8977903162769
 30
0.0
 11
516.06040706248041
 21
-1017.524135913006
 31
0.0
  0
ARC
  8
0
  6
CONTINUOUS
 62
               3
  5
29A
 10
482.61425631235664
 20
-984.07798516288233
 30
0.0
 40
45.0
 50
224.99999999987043
 51
314.99999999981884
  0
CIRCLE
  8
0
  6
CONTINUOUS
 62
               3
  5
29B
 10
482.61425631235664
 20
-984.07798516288233
 30
0.0
 40
57.600000000000001
  0
ARC
  8
0
  6
CONTINUOUS
 62
               3
  5
29C
 10
460.11425631235721
 20
-1046.5779851628822
 30
0.0
 40
2.4999999999999996
 50
269.99999999984567
 51
449.99999999974102
  0
ARC
  8
0
  6
CONTINUOUS
 62
               3
  5
29D
 10
505.1142563123571
 20
-1046.5779851628822
 30
0.0
 40
2.4999999999999996
 50
89.99999999994769
 51
269.99999999984567
  0
LINE
  8
0
  6
CONTINUOUS
 62
               3
  5
29E
 10
417.61425631235664
 20
-1049.0779851628822
 30
0.0
 11
460.11425631235721
 21
-1049.0779851628822
 31
0.0
  0
LINE
  8
0
  6
CONTINUOUS
 62
               3
  5
29F
 10
417.61425631235664
 20
-1044.0779851628822
 30
0.0
 11
460.11425631235721
 21
-1044.0779851628822
 31
0.0
  0
LINE
  8
0
  6
CONTINUOUS
 62
               3
  5
2A0
 10
505.1142563123571
 20
-1044.0779851628822
 30
0.0
 11
557.6142563123567
 21
-1044.0779851628822
 31
0.0
  0
LINE
  8
0
  6
CONTINUOUS
 62
               3
  5
2A1
 10
505.1142563123571
 20
-1049.0779851628822
 30
0.0
 11
557.6142563123567
 21
-1049.0779851628822
 31
0.0
  0
CIRCLE
  8
0
  6
CONTINUOUS
 62
               3
  5
2A2
 10
482.61425631235664
 20
-509.57855141429809
 30
0.0
 40
59.0
  0
LINE
  8
0
  6
DASHED2
 62
               3
  5
2A3
 10
-178.17226690395148
 20
-145.61479150489856
 30
0.0
 11
-178.17226690395148
 21
-65.614791504898562
 31
0.0
  0
LINE
  8
0
  6
DASHED2
 62
               3
  5
2A4
 10
-75.172266903951595
 20
-145.61479150489856
 30
0.0
 11
-75.172266903951595
 21
-65.614791504898562
 31
0.0
  0
LINE
  8
0
  6
DASHED2
 62
               3
  5
2A5
 10
-778.17226690395148
 20
-145.61479150489879
 30
0.0
 11
-778.17226690395148
 21
-65.61479150489879
 31
0.0
  0
LINE
  8
0
  6
DASHED2
 62
               3
  5
2A6
 10
-675.17226690395159
 20
-145.61479150489879
 30
0.0
 11
-675.17226690395159
 21
-65.61479150489879
 31
0.0
  0
LINE
  8
0
  6
DASHED2
 62
               3
  5
2A7
 10
421.82773309604852
 20
-145.61479150489856
 30
0.0
 11
421.82773309604852
 21
-65.614791504898562
 31
0.0
  0
LINE
  8
0
  6
DASHED2
 62
               3
  5
2A8
 10
524.82773309604841
 20
-145.61479150489856
 30
0.0
 11
524.82773309604841
 21
-65.614791504898562
 31
0.0
  0
LINE
  8
0
  6
DASHDOT
 62
               4
  5
2A9
 10
-18.172266903951254
 20
954.38520849510144
 30
0.0
 11
-291.6722669039512
 21
954.38520849510144
 31
0.0
  0
LINE
  8
0
  6
DASHDOT
 62
               4
  5
2AA
 10
-126.67226690395125
 20
792.38520849510155
 30
0.0
 11
-126.67226690395124
 21
1062.8852084951018
 31
0.0
  0
LINE
  8
0
  6
DASHDOT
 62
               4
  5
2AB
 10
-58.147042128727094
 20
353.38520849510144
 30
0.0
 11
-194.84784132952632
 21
353.38520849510144
 31
0.0
  0
LINE
  8
0
  6
DASHDOT
 62
               4
  5
2AC
 10
-126.67226690395125
 20
539.38520849510144
 30
0.0
 11
-126.67226690395125
 21
-165.61479150489856
 31
0.0
  0
LINE
  8
0
  6
DASHDOT
 62
               4
  5
2AD
 10
-561.67226690395125
 20
353.38520849510144
 30
0.0
 11
-664.67226690395137
 21
353.38520849510144
 31
0.0
  0
LINE
  8
0
  6
DASHDOT
 62
               4
  5
2AE
 10
-726.67226690395125
 20
539.38520849510144
 30
0.0
 11
-726.67226690395125
 21
-165.61479150489879
 31
0.0
  0
LINE
  8
0
  6
DASHDOT
 62
               4
  5
2AF
 10
311.32773309604886
 20
353.38520849510144
 30
0.0
 11
411.32773309604886
 21
353.38520849510144
 31
0.0
  0
LINE
  8
0
  6
DASHDOT
 62
               4
  5
2B0
 10
473.32773309604875
 20
539.38520849510144
 30
0.0
 11
473.32773309604875
 21
-165.61479150489856
 31
0.0
  0
LINE
  8
0
  6
DASHDOT
 62
               4
  5
2B1
 10
-663.4021447926068
 20
284.88520849510132
 30
0.0
 11
-789.3027638316172
 21
284.88520849510132
 31
0.0
  0
LINE
  8
0
  6
DASHDOT
 62
               4
  5
2B2
 10
-663.4021447926068
 20
284.88520849510132
 30
0.0
 11
-789.3027638316172
 21
284.88520849510132
 31
0.0
  0
LINE
  8
0
  6
DASHDOT
 62
               4
  5
2B3
 10
-291.67226690395125
 20
284.88520849510144
 30
0.0
 11
-189.78696653007444
 21
284.88520849510144
 31
0.0
  0
LINE
  8
0
  6
DASHDOT
 62
               4
  5
2B4
 10
-518.81003595442007
 20
-631.762986986089
 30
0.0
 11
-518.81003595441985
 21
-502.76298698608912
 31
0.0
  0
LINE
  8
0
  6
DASHDOT
 62
               4
  5
2B5
 10
-576.81003595441985
 20
-573.762986986089
 30
0.0
 11
-460.81003595441996
 21
-573.762986986089
 31
0.0
  0
LINE
  8
0
  6
DASHDOT
 62
               4
  5
2B6
 10
-588.61321443852739
 20
-567.262986986089
 30
0.0
 11
-454.31003595441996
 21
-567.262986986089
 31
0.0
  0
LINE
  8
0
  6
DASHDOT
 62
               4
  5
2B7
 10
-394.91003595441987
 20
-567.262986986089
 30
0.0
 11
-296.31003595441996
 21
-567.262986986089
 31
0.0
  0
LINE
  8
0
  6
DASHDOT
 62
               4
  5
2B8
 10
-429.31003595441996
 20
-573.762986986089
 30
0.0
 11
-354.91003595441998
 21
-573.762986986089
 31
0.0
  0
LINE
  8
0
  6
DASHDOT
 62
               4
  5
2B9
 10
-642.71003595441971
 20
-567.262986986089
 30
0.0
 11
-741.31003595441985
 21
-567.26298698608855
 31
0.0
  0
LINE
  8
0
  6
DASHDOT
 62
               4
  5
2BA
 10
-608.31003595441985
 20
-573.762986986089
 30
0.0
 11
-682.71003595441971
 21
-573.762986986089
 31
0.0
  0
LINE
  8
0
  6
DASHDOT
 62
               4
  5
2BB
 10
-520.7559933501866
 20
-470.29510291705401
 30
0.0
 11
-520.7559933501866
 21
-337.29510291705401
 31
0.0
  0
LINE
  8
0
  6
DASHDOT
 62
               4
  5
2BC
 10
94.961656781929705
 20
-567.262986986089
 30
0.0
 11
193.56165678192986
 21
-567.262986986089
 31
0.0
  0
LINE
  8
0
  6
DASHDOT
 62
               4
  5
2BD
 10
69.961656781929705
 20
-581.762986986089
 30
0.0
 11
134.96165678192972
 21
-581.762986986089
 31
0.0
  0
LINE
  8
0
  6
DASHDOT
 62
               4
  5
2BE
 10
-55.794359443313283
 20
-581.762986986089
 30
0.0
 11
44.20564055668693
 21
-581.762986986089
 31
0.0
  0
LINE
  8
0
  6
DASHDOT
 62
               4
  5
2BF
 10
-5.794359443313283
 20
-631.762986986089
 30
0.0
 11
-5.7943594433130556
 21
-502.76298698608912
 31
0.0
  0
LINE
  8
0
  6
DASHDOT
 62
               4
  5
2C0
 10
-70.294359443313283
 20
-567.262986986089
 30
0.0
 11
64.249650336637941
 21
-567.262986986089
 31
0.0
  0
LINE
  8
0
  6
DASHDOT
 62
               4
  5
2C1
 10
-106.55037566855606
 20
-567.262986986089
 30
0.0
 11
-205.15037566855608
 21
-567.262986986089
 31
0.0
  0
LINE
  8
0
  6
DASHDOT
 62
               4
  5
2C2
 10
-81.550375668556057
 20
-581.762986986089
 30
0.0
 11
-146.55037566855606
 21
-581.762986986089
 31
0.0
  0
LINE
  8
0
  6
DASHDOT
 62
               4
  5
2C3
 10
-5.7943594433130556
 20
-481.00697076084634
 30
0.0
 11
-5.7943594433130556
 21
-357.40697076084621
 31
0.0
  0
LINE
  8
0
  6
DASHDOT
 62
               4
  5
2C4
 10
482.61425631235664
 20
-401.07855141429809
 30
0.0
 11
482.61425631235664
 21
-671.62533821412455
 31
0.0
  0
LINE
  8
0
  6
DASHDOT
 62
               4
  5
2C5
 10
320.6142563123567
 20
-509.57855141429809
 30
0.0
 11
591.11425631235693
 21
-509.57855141429809
 31
0.0
  0
LINE
  8
0
  6
DASHDOT
 62
               4
  5
2C6
 10
551.13948108758132
 20
-984.07798516288233
 30
0.0
 11
320.88564301892836
 21
-984.07798516288233
 31
0.0
  0
LINE
  8
0
  6
DASHDOT
 62
               4
  5
2C7
 10
482.61425631235664
 20
-798.07798516288233
 30
0.0
 11
482.61425631235664
 21
-1049.0779851628822
 31
0.0
  0
LINE
  8
0
  6
DASHDOT
 62
               4
  5
2C8
 10
432.61425631235664
 20
-998.57798516288233
 30
0.0
 11
532.61425631235693
 21
-998.57798516288233
 31
0.0
  0
LINE
  8
0
  6
DASHDOT
 62
               4
  5
2C9
 10
482.61425631235664
 20
-700.17855141429811
 30
0.0
 11
482.61425631235664
 21
-576.57855141429775
 31
0.0
  0
LINE
  8
0
  6
DASHDOT
 62
               4
  5
2CA
 10
282.61425631235659
 20
-990.57798516288233
 30
0.0
 11
357.01425631235657
 21
-990.57798516288233
 31
0.0
  0
LINE
  8
0
  6
DASHDOT
 62
               4
  5
2CB
 10
282.61425631235682
 20
-509.57855141429786
 30
0.0
 11
415.61425631235687
 21
-509.57855141429786
 31
0.0
  0
LINE
  8
0
  6
DASHDOT
 62
               4
  5
2CC
 10
-5.7943594433132972
 20
-1055.2629869860889
 30
0.0
 11
-5.7943594433132404
 21
-939.262986986089
 31
0.0
  0
LINE
  8
0
  6
DASHDOT
 62
               4
  5
2CD
 10
-63.79435944331324
 20
-997.262986986089
 30
0.0
 11
52.20564055668676
 21
-997.262986986089
 31
0.0
  0
LINE
  8
0
  6
DASHDOT
 62
               4
  5
2CE
 10
-55.79435944331324
 20
-1005.262986986089
 30
0.0
 11
44.20564055668676
 21
-1005.262986986089
 31
0.0
  0
LINE
  8
0
  6
DASHDOT
 62
               4
  5
2CF
 10
-169.72058769990218
 20
-1005.262986986089
 30
0.0
 11
-104.25129187983283
 21
-1005.262986986089
 31
0.0
  0
LINE
  8
0
  6
DASHDOT
 62
               4
  5
2D0
 10
-228.29435944331323
 20
-997.262986986089
 30
0.0
 11
-129.69435944331315
 21
-997.262986986089
 31
0.0
  0
LINE
  8
0
  6
DASHDOT
 62
               4
  5
2D1
 10
158.13186881327573
 20
-1005.2629869860892
 30
0.0
 11
92.662572993206354
 21
-1005.262986986089
 31
0.0
  0
LINE
  8
0
  6
DASHDOT
 62
               4
  5
2D2
 10
216.70564055668677
 20
-997.26298698608923
 30
0.0
 11
118.10564055668668
 21
-997.262986986089
 31
0.0
  0
LINE
  8
0
  6
DASHDOT
 62
               4
  5
2D3
 10
-5.7943594433132972
 20
-774.762986986089
 30
0.0
 11
-5.7943594433132972
 21
-898.80605454956947
 31
0.0
  0
ARC
  8
0
  6
CONTINUOUS
 62
               4
  5
2D4
 10
-405.60149575307605
 20
-6.2871899163609442
 30
0.0
 40
359.11818398045398
 50
13.306177675720029
 51
28.552443501596613
  0
ARC
  8
0
  6
CONTINUOUS
 62
               4
  5
2D5
 10
-127.00345337394538
 20
101.95948598620828
 30
0.0
 40
73.327111796148202
 50
342.62945642104523
 51
419.83689160529798
  0
LINE
  8
0
  6
CONTINUOUS
 62
               4
  5
2D6
 10
-183.17226690395125
 20
-45.614791504898562
 30
0.0
 11
-70.172266903951254
 21
-45.614791504898562
 31
0.0
  0
LINE
  8
0
  6
CONTINUOUS
 62
               4
  5
2D7
 10
-184.67226690395165
 20
-44.114791504898108
 30
0.0
 11
-68.672266903951709
 21
-44.114791504897653
 31
0.0
  0
LINE
  8
0
  6
CONTINUOUS
 62
               4
  5
2D8
 10
-803.67226690395114
 20
422.92086224795423
 30
0.0
 11
-798.67226690395114
 21
427.92086224795423
 31
0.0
  0
LINE
  8
0
  6
CONTINUOUS
 62
               4
  5
2D9
 10
-803.67226690395114
 20
229.23218489798433
 30
0.0
 11
-803.67226690395114
 21
115.27164026484616
 31
0.0
  0
LINE
  8
0
  6
CONTINUOUS
 62
               4
  5
2DA
 10
-803.67226690395114
 20
115.27164026484616
 30
0.0
 11
-786.94404250430011
 21
-31.343015904550043
 31
0.0
  0
LINE
  8
0
  6
CONTINUOUS
 62
               4
  5
2DB
 10
-784.67226690395137
 20
-33.614791504898562
 30
0.0
 11
-786.94404250430011
 21
-31.343015904550043
 31
0.0
  0
ARC
  8
0
  6
CONTINUOUS
 62
               4
  5
2DC
 10
-781.17226690395114
 20
412.38520849510144
 30
0.0
 40
19.999999999999996
 50
148.21166938283446
 51
179.9999999998621
  0
LINE
  8
0
  6
CONTINUOUS
 62
               4
  5
2DD
 10
-798.17226690395159
 20
422.92086224795423
 30
0.0
 11
-798.17226690395159
 21
427.9208622479548
 31
0.0
  0
LINE
  8
0
  6
CONTINUOUS
 62
               4
  5
2DE
 10
-798.67226690395114
 20
427.92086224795423
 30
0.0
 11
-798.17226690395159
 21
427.92086224795423
 31
0.0
  0
LINE
  8
0
  6
CONTINUOUS
 62
               4
  5
2DF
 10
-803.42226690395137
 20
422.67086224795423
 30
0.0
 11
-798.17226690395159
 21
427.92086224795423
 31
0.0
  0
LINE
  8
0
  6
CONTINUOUS
 62
               4
  5
2E0
 10
-803.42226690395137
 20
422.67086224795423
 30
0.0
 11
-803.67226690395114
 21
422.92086224795423
 31
0.0
  0
LINE
  8
0
  6
CONTINUOUS
 62
               4
  5
2E1
 10
-801.17226690395114
 20
228.2321848979841
 30
0.0
 11
-801.17226690395114
 21
115.41360055266568
 31
0.0
  0
LINE
  8
0
  6
CONTINUOUS
 62
               4
  5
2E2
 10
-803.42226690395137
 20
228.94682779084826
 30
0.0
 11
-803.42226690395137
 21
115.28583629362817
 31
0.0
  0
LINE
  8
0
  6
CONTINUOUS
 62
               4
  5
2E3
 10
-801.17226690395114
 20
115.41360055266568
 30
0.0
 11
-784.16903203760171
 21
-33.614791504899017
 31
0.0
  0
LINE
  8
0
  6
CONTINUOUS
 62
               4
  5
2E4
 10
-801.16903203760103
 20
115.38520849510138
 30
0.0
 11
-803.67226690395114
 21
115.27164026484616
 31
0.0
  0
LINE
  8
0
  6
CONTINUOUS
 62
               4
  5
2E5
 10
-803.42226690395137
 20
115.28583629362817
 30
0.0
 11
-786.66654145763005
 21
-31.570193464584918
 31
0.0
  0
LINE
  8
0
  6
CONTINUOUS
 62
               4
  5
2E6
 10
-784.16903203760171
 20
-33.614791504899017
 30
0.0
 11
-786.94404250430011
 21
-31.343015904550043
 31
0.0
  0
LINE
  8
0
  6
CONTINUOUS
 62
               4
  5
2E7
 10
-803.67226690395114
 20
422.92086224795423
 30
0.0
 11
-803.67226690395114
 21
232.23218489798421
 31
0.0
  0
LINE
  8
0
  6
CONTINUOUS
 62
               4
  5
2E8
 10
-803.42226690395137
 20
422.67086224795423
 30
0.0
 11
-803.42226690395137
 21
232.51754200511971
 31
0.0
  0
LINE
  8
0
  6
CONTINUOUS
 62
               4
  5
2E9
 10
-801.17226690395114
 20
412.53823209221855
 30
0.0
 11
-801.17226690395114
 21
233.38520849510121
 31
0.0
  0
LINE
  8
0
  6
CONTINUOUS
 62
               4
  5
2EA
 10
-724.65581879704712
 20
13.192348769288515
 30
0.0
 11
-766.84626690395135
 21
86.268348484544845
 31
0.0
  0
ARC
  8
0
  6
CONTINUOUS
 62
               4
  5
2EB
 10
-523.23072881618941
 20
178.20251183478592
 30
0.0
 40
260.38513933920774
 50
200.67520123176422
 51
219.32479876791382
  0
ARC
  8
0
  6
CONTINUOUS
 62
               4
  5
2EC
 10
-1363.7996925437933
 20
-307.1002056457902
 30
0.0
 40
714.90713506142345
 50
26.616707427978174
 51
33.38329257197578
  0
LINE
  8
0
  6
CONTINUOUS
 62
               4
  5
2ED
 10
-783.17226690395125
 20
-45.61479150489879
 30
0.0
 11
-670.17226690395125
 21
-45.61479150489879
 31
0.0
  0
LINE
  8
0
  6
CONTINUOUS
 62
               4
  5
2EE
 10
-784.67226690395171
 20
-44.114791504898335
 30
0.0
 11
-668.67226690395171
 21
-44.11479150489788
 31
0.0
  0
LINE
  8
0
  6
CONTINUOUS
 62
               4
  5
2EF
 10
550.32773309604863
 20
422.92086224795423
 30
0.0
 11
545.32773309604863
 21
427.92086224795423
 31
0.0
  0
LINE
  8
0
  6
CONTINUOUS
 62
               4
  5
2F0
 10
550.32773309604863
 20
229.23218489798455
 30
0.0
 11
550.32773309604863
 21
115.27164026484638
 31
0.0
  0
LINE
  8
0
  6
CONTINUOUS
 62
               4
  5
2F1
 10
550.32773309604863
 20
115.27164026484638
 30
0.0
 11
533.59950869639761
 21
-31.343015904549816
 31
0.0
  0
LINE
  8
0
  6
CONTINUOUS
 62
               4
  5
2F2
 10
531.32773309604886
 20
-33.614791504898335
 30
0.0
 11
533.59950869639761
 21
-31.343015904549816
 31
0.0
  0
ARC
  8
0
  6
CONTINUOUS
 62
               4
  5
2F3
 10
527.82773309604863
 20
412.38520849510144
 30
0.0
 40
19.999999999999996
 50
0.0
 51
31.788330617027448
  0
LINE
  8
0
  6
CONTINUOUS
 62
               4
  5
2F4
 10
544.82773309604909
 20
422.92086224795423
 30
0.0
 11
544.82773309604909
 21
427.9208622479548
 31
0.0
  0
LINE
  8
0
  6
CONTINUOUS
 62
               4
  5
2F5
 10
545.32773309604863
 20
427.92086224795423
 30
0.0
 11
544.82773309604909
 21
427.92086224795423
 31
0.0
  0
LINE
  8
0
  6
CONTINUOUS
 62
               4
  5
2F6
 10
550.07773309604886
 20
422.67086224795423
 30
0.0
 11
544.82773309604909
 21
427.92086224795423
 31
0.0
  0
LINE
  8
0
  6
CONTINUOUS
 62
               4
  5
2F7
 10
550.07773309604886
 20
422.67086224795423
 30
0.0
 11
550.32773309604863
 21
422.92086224795423
 31
0.0
  0
LINE
  8
0
  6
CONTINUOUS
 62
               4
  5
2F8
 10
547.82773309604863
 20
228.23218489798433
 30
0.0
 11
547.82773309604863
 21
115.41360055266591
 31
0.0
  0
LINE
  8
0
  6
CONTINUOUS
 62
               4
  5
2F9
 10
550.07773309604886
 20
228.94682779084849
 30
0.0
 11
550.07773309604886
 21
115.28583629362839
 31
0.0
  0
LINE
  8
0
  6
CONTINUOUS
 62
               4
  5
2FA
 10
547.82773309604863
 20
115.41360055266591
 30
0.0
 11
530.8244982296992
 21
-33.61479150489879
 31
0.0
  0
LINE
  8
0
  6
CONTINUOUS
 62
               4
  5
2FB
 10
547.82449822969852
 20
115.38520849510161
 30
0.0
 11
550.32773309604863
 21
115.27164026484638
 31
0.0
  0
LINE
  8
0
  6
CONTINUOUS
 62
               4
  5
2FC
 10
550.07773309604886
 20
115.28583629362839
 30
0.0
 11
533.32200764972754
 21
-31.57019346458469
 31
0.0
  0
LINE
  8
0
  6
CONTINUOUS
 62
               4
  5
2FD
 10
530.8244982296992
 20
-33.61479150489879
 30
0.0
 11
533.59950869639761
 21
-31.343015904549816
 31
0.0
  0
LINE
  8
0
  6
CONTINUOUS
 62
               4
  5
2FE
 10
550.32773309604863
 20
422.92086224795423
 30
0.0
 11
550.32773309604863
 21
232.23218489798444
 31
0.0
  0
LINE
  8
0
  6
CONTINUOUS
 62
               4
  5
2FF
 10
550.07773309604886
 20
422.67086224795423
 30
0.0
 11
550.07773309604886
 21
232.51754200511994
 31
0.0
  0
LINE
  8
0
  6
CONTINUOUS
 62
               4
  5
300
 10
547.82773309604863
 20
412.53823209221855
 30
0.0
 11
547.82773309604863
 21
233.38520849510144
 31
0.0
  0
LINE
  8
0
  6
CONTINUOUS
 62
               4
  5
301
 10
531.46886568255468
 20
61.600699438901756
 30
0.0
 11
407.81573309604823
 21
165.35799738615464
 31
0.0
  0
ARC
  8
0
  6
CONTINUOUS
 62
               4
  5
302
 10
-440.94458700449081
 20
-979.20041974079402
 30
0.0
 40
1424.9238755783815
 50
50.189956146228056
 51
53.440796050690921
  0
ARC
  8
0
  6
CONTINUOUS
 62
               4
  5
303
 10
536.90712193308173
 20
186.1578674099477
 30
0.0
 40
130.75634311527989
 50
189.153123340159
 51
212.7691831125899
  0
ARC
  8
0
  6
CONTINUOUS
 62
               4
  5
304
 10
534.69175859559982
 20
196.29188816118801
 30
0.0
 40
134.72974192119386
 50
216.90649751117132
 51
268.62928723390132
  0
ARC
  8
0
  6
CONTINUOUS
 62
               4
  5
305
 10
-260.30261500245956
 20
-762.86146241590734
 30
0.0
 40
1143.0835201141012
 50
46.158732653390111
 51
50.202696616617857
  0
LINE
  8
0
  6
CONTINUOUS
 62
               4
  5
306
 10
416.82773309604875
 20
-45.614791504898562
 30
0.0
 11
529.82773309604875
 21
-45.614791504898562
 31
0.0
  0
LINE
  8
0
  6
CONTINUOUS
 62
               4
  5
307
 10
415.32773309604829
 20
-44.114791504898108
 30
0.0
 11
531.32773309604829
 21
-44.114791504897653
 31
0.0
  0
POINT
  8
0
  6
CONTINUOUS
 62
               4
  5
308
 10
-373.71003595441994
 20
-522.762986986089
 30
0.0
  0
POINT
  8
0
  6
CONTINUOUS
 62
               4
  5
309
 10
-663.91003595441975
 20
-522.762986986089
 30
0.0
  0
POINT
  8
0
  6
CONTINUOUS
 62
               4
  5
30A
 10
-476.25599335018649
 20
-414.6951029170541
 30
0.0
  0
POINT
  8
0
  6
CONTINUOUS
 62
               4
  5
30B
 10
116.16165678192975
 20
-522.762986986089
 30
0.0
  0
POINT
  8
0
  6
CONTINUOUS
 62
               4
  5
30C
 10
-127.7503756685561
 20
-522.762986986089
 30
0.0
  0
POINT
  8
0
  6
CONTINUOUS
 62
               4
  5
30D
 10
38.70564055668693
 20
-434.8069707608463
 30
0.0
  0
LINE
  8
0
  6
CONTINUOUS
 62
               4
  5
30E
 10
559.61425631235647
 20
-914.54233141002953
 30
0.0
 11
554.61425631235647
 21
-909.54233141002953
 31
0.0
  0
ARC
  8
0
  6
CONTINUOUS
 62
               4
  5
30F
 10
537.11425631235647
 20
-925.07798516288233
 30
0.0
 40
19.999999999999996
 50
0.0
 51
31.78833061703342
  0
LINE
  8
0
  6
CONTINUOUS
 62
               4
  5
310
 10
554.11425631235693
 20
-914.54233141002953
 30
0.0
 11
554.11425631235693
 21
-909.54233141002908
 31
0.0
  0
LINE
  8
0
  6
CONTINUOUS
 62
               4
  5
311
 10
554.61425631235647
 20
-909.54233141002953
 30
0.0
 11
554.11425631235693
 21
-909.54233141002953
 31
0.0
  0
LINE
  8
0
  6
CONTINUOUS
 62
               4
  5
312
 10
559.3642563123567
 20
-914.79233141002953
 30
0.0
 11
554.11425631235693
 21
-909.54233141002953
 31
0.0
  0
LINE
  8
0
  6
CONTINUOUS
 62
               4
  5
313
 10
559.3642563123567
 20
-914.79233141002953
 30
0.0
 11
559.61425631235647
 21
-914.54233141002953
 31
0.0
  0
LINE
  8
0
  6
CONTINUOUS
 62
               4
  5
314
 10
559.61425631235647
 20
-914.54233141002953
 30
0.0
 11
559.61425631235647
 21
-1045.2310087599994
 31
0.0
  0
LINE
  8
0
  6
CONTINUOUS
 62
               4
  5
315
 10
559.3642563123567
 20
-914.79233141002953
 30
0.0
 11
559.3642563123567
 21
-1044.9456516528639
 31
0.0
  0
LINE
  8
0
  6
CONTINUOUS
 62
               4
  5
316
 10
557.11425631235647
 20
-924.9249615657651
 30
0.0
 11
557.11425631235647
 21
-1044.0779851628822
 31
0.0
  0
POINT
  8
0
  6
CONTINUOUS
 62
               4
  5
317
 10
527.1142563123567
 20
-653.97855141429829
 30
0.0
  0
POINT
  8
0
  6
CONTINUOUS
 62
               4
  5
318
 10
338.21425631235661
 20
-939.57798516288233
 30
0.0
  0
POINT
  8
0
  6
CONTINUOUS
 62
               4
  5
319
 10
338.21425631235672
 20
-554.07855141429775
 30
0.0
  0
POINT
  8
0
  6
CONTINUOUS
 62
               4
  5
31A
 10
-150.29435944331311
 20
-946.26298698608878
 30
0.0
  0
POINT
  8
0
  6
CONTINUOUS
 62
               4
  5
31B
 10
138.70564055668672
 20
-946.262986986089
 30
0.0
  0
POINT
  8
0
  6
CONTINUOUS
 62
               4
  5
31C
 10
45.205640556686873
 20
-852.76298698608923
 30
0.0
  0
LINE
  8
0
  6
DASHED2
 62
               4
  5
31D
 10
-183.67226690395171
 20
454.38520849510144
 30
0.0
 11
-69.672266903951936
 21
454.38520849510144
 31
0.0
  0
LINE
  8
0
  6
DASHED2
 62
               4
  5
31E
 10
-669.67226690395137
 20
454.38520849510144
 30
0.0
 11
-783.67226690395114
 21
454.38520849510144
 31
0.0
  0
LINE
  8
0
  6
DASHED2
 62
               4
  5
31F
 10
416.32773309604886
 20
454.38520849510144
 30
0.0
 11
530.32773309604863
 21
454.38520849510144
 31
0.0
  0
LINE
  8
0
  6
DASHED2
 62
               4
  5
320
 10
425.61425631235676
 20
-883.07798516288233
 30
0.0
 11
539.61425631235647
 21
-883.07798516288233
 31
0.0
  0
CIRCLE
  8
0
  6
DASHED
 62
               4
  5
321
 10
-5.7943594433132972
 20
-997.262986986089
 30
0.0
 40
33.5
  0
POINT
  8
0
  6
CONTINUOUS
 62
               5
  5
322
 10
-518.81003595442007
 20
-567.262986986089
 30
0.0
  0
POINT
  8
0
  6
CONTINUOUS
 62
               5
  5
323
 10
-345.57996444445962
 20
-568.55378106097817
 30
0.0
  0
POINT
  8
0
  6
CONTINUOUS
 62
               5
  5
324
 10
-692.04010746438007
 20
-568.55378106097771
 30
0.0
  0
POINT
  8
0
  6
CONTINUOUS
 62
               5
  5
325
 10
-522.04678742507554
 20
-386.56503140709378
 30
0.0
  0
POINT
  8
0
  6
CONTINUOUS
 62
               5
  5
326
 10
366.34432782231693
 20
-985.36877923777149
 30
0.0
  0
POINT
  8
0
  6
CONTINUOUS
 62
               5
  5
327
 10
366.34432782231704
 20
-508.28775733940893
 30
0.0
  0
POINT
  8
0
  6
CONTINUOUS
 62
               5
  5
328
 10
-5.7943594433132404
 20
-990.762986986089
 30
0.0
  0
POINT
  8
0
  6
CONTINUOUS
 62
               5
  5
329
 10
-179.02443095327345
 20
-992.05378106097771
 30
0.0
  0
POINT
  8
0
  6
CONTINUOUS
 62
               5
  5
32A
 10
167.43571206664706
 20
-992.05378106097794
 30
0.0
  0
POINT
  8
0
  6
CONTINUOUS
 62
               5
  5
32B
 10
-0.5851535182021763
 20
-824.03291547612878
 30
0.0
  0
CIRCLE
  8
0
  6
CONTINUOUS
 62
               7
  5
32C
 10
-518.81003595442007
 20
-573.762986986089
 30
0.0
 40
38.0
  0
CIRCLE
  8
0
  6
CONTINUOUS
 62
               7
  5
32D
 10
-518.81003595442007
 20
-573.762986986089
 30
0.0
 40
33.5
  0
LINE
  8
0
  6
CONTINUOUS
 62
               7
  5
32E
 10
-374.31003595441996
 20
-522.762986986089
 30
0.0
 11
-374.31003595441996
 21
-611.75775086541455
 31
0.0
  0
LINE
  8
0
  6
CONTINUOUS
 62
               7
  5
32F
 10
-373.71003595441994
 20
-522.762986986089
 30
0.0
 11
-374.31003595441996
 21
-522.762986986089
 31
0.0
  0
LINE
  8
0
  6
CONTINUOUS
 62
               7
  5
330
 10
-409.31003595441996
 20
-610.762986986089
 30
0.0
 11
-409.31003595441996
 21
-536.762986986089
 31
0.0
  0
LINE
  8
0
  6
CONTINUOUS
 62
               7
  5
331
 10
-316.31003595441996
 20
-610.762986986089
 30
0.0
 11
-316.31003595441996
 21
-523.762986986089
 31
0.0
  0
LINE
  8
0
  6
CONTINUOUS
 62
               7
  5
332
 10
-374.31003595441996
 20
-522.762986986089
 30
0.0
 11
-317.31003595441996
 21
-522.762986986089
 31
0.0
  0
LINE
  8
0
  6
CONTINUOUS
 62
               7
  5
333
 10
-408.31003595441996
 20
-611.762986986089
 30
0.0
 11
-317.31003595441996
 21
-611.762986986089
 31
0.0
  0
LINE
  8
0
  6
CONTINUOUS
 62
               7
  5
334
 10
-317.31003595441996
 20
-522.762986986089
 30
0.0
 11
-316.31003595441996
 21
-523.762986986089
 31
0.0
  0
LINE
  8
0
  6
CONTINUOUS
 62
               7
  5
335
 10
-316.31003595441996
 20
-610.762986986089
 30
0.0
 11
-317.31003595441996
 21
-611.762986986089
 31
0.0
  0
LINE
  8
0
  6
CONTINUOUS
 62
               7
  5
336
 10
-408.31003595441996
 20
-535.762986986089
 30
0.0
 11
-374.31003595441996
 21
-535.762986986089
 31
0.0
  0
CIRCLE
  8
0
  6
CONTINUOUS
 62
               7
  5
337
 10
-518.81003595442007
 20
-567.262986986089
 30
0.0
 40
44.5
  0
LINE
  8
0
  6
CONTINUOUS
 62
               7
  5
338
 10
-408.31003595441996
 20
-535.762986986089
 30
0.0
 11
-409.31003595441996
 21
-536.762986986089
 31
0.0
  0
LINE
  8
0
  6
CONTINUOUS
 62
               7
  5
339
 10
-409.31003595441996
 20
-610.762986986089
 30
0.0
 11
-408.31003595441996
 21
-611.762986986089
 31
0.0
  0
LINE
  8
0
  6
CONTINUOUS
 62
               7
  5
33A
 10
-663.31003595441985
 20
-522.762986986089
 30
0.0
 11
-663.31003595441985
 21
-611.75775086541455
 31
0.0
  0
LINE
  8
0
  6
CONTINUOUS
 62
               7
  5
33B
 10
-663.91003595441975
 20
-522.762986986089
 30
0.0
 11
-663.31003595441985
 21
-522.762986986089
 31
0.0
  0
LINE
  8
0
  6
CONTINUOUS
 62
               7
  5
33C
 10
-628.31003595441985
 20
-610.762986986089
 30
0.0
 11
-628.31003595441985
 21
-536.762986986089
 31
0.0
  0
LINE
  8
0
  6
CONTINUOUS
 62
               7
  5
33D
 10
-721.31003595441985
 20
-610.762986986089
 30
0.0
 11
-721.31003595441985
 21
-523.762986986089
 31
0.0
  0
LINE
  8
0
  6
CONTINUOUS
 62
               7
  5
33E
 10
-663.31003595441985
 20
-522.762986986089
 30
0.0
 11
-720.31003595441985
 21
-522.762986986089
 31
0.0
  0
LINE
  8
0
  6
CONTINUOUS
 62
               7
  5
33F
 10
-629.31003595441985
 20
-611.762986986089
 30
0.0
 11
-720.31003595441985
 21
-611.762986986089
 31
0.0
  0
LINE
  8
0
  6
CONTINUOUS
 62
               7
  5
340
 10
-720.31003595441985
 20
-522.762986986089
 30
0.0
 11
-721.31003595441985
 21
-523.762986986089
 31
0.0
  0
LINE
  8
0
  6
CONTINUOUS
 62
               7
  5
341
 10
-721.31003595441985
 20
-610.762986986089
 30
0.0
 11
-720.31003595441985
 21
-611.762986986089
 31
0.0
  0
LINE
  8
0
  6
CONTINUOUS
 62
               7
  5
342
 10
-629.31003595441985
 20
-535.762986986089
 30
0.0
 11
-663.31003595441985
 21
-535.762986986089
 31
0.0
  0
LINE
  8
0
  6
CONTINUOUS
 62
               7
  5
343
 10
-629.31003595441985
 20
-535.762986986089
 30
0.0
 11
-628.31003595441985
 21
-536.762986986089
 31
0.0
  0
LINE
  8
0
  6
CONTINUOUS
 62
               7
  5
344
 10
-628.31003595441985
 20
-610.762986986089
 30
0.0
 11
-629.31003595441985
 21
-611.762986986089
 31
0.0
  0
LINE
  8
0
  6
CONTINUOUS
 62
               7
  5
345
 10
-476.25599335018649
 20
-415.29510291705424
 30
0.0
 11
-565.25075722951192
 21
-415.29510291705401
 31
0.0
  0
LINE
  8
0
  6
CONTINUOUS
 62
               7
  5
346
 10
-476.25599335018649
 20
-414.6951029170541
 30
0.0
 11
-476.25599335018649
 21
-415.29510291705424
 31
0.0
  0
LINE
  8
0
  6
CONTINUOUS
 62
               7
  5
347
 10
-557.75599335018637
 20
-450.29510291705401
 30
0.0
 11
-483.75599335018649
 21
-450.29510291705424
 31
0.0
  0
LINE
  8
0
  6
CONTINUOUS
 62
               7
  5
348
 10
-564.25599335018637
 20
-357.29510291705401
 30
0.0
 11
-477.25599335018649
 21
-357.29510291705424
 31
0.0
  0
LINE
  8
0
  6
CONTINUOUS
 62
               7
  5
349
 10
-476.25599335018649
 20
-415.29510291705424
 30
0.0
 11
-476.25599335018649
 21
-358.29510291705424
 31
0.0
  0
LINE
  8
0
  6
CONTINUOUS
 62
               7
  5
34A
 10
-558.75599335018637
 20
-449.29510291705401
 30
0.0
 11
-558.75599335018637
 21
-415.29510291705401
 31
0.0
  0
LINE
  8
0
  6
CONTINUOUS
 62
               7
  5
34B
 10
-476.25599335018649
 20
-358.29510291705424
 30
0.0
 11
-477.25599335018649
 21
-357.29510291705424
 31
0.0
  0
LINE
  8
0
  6
CONTINUOUS
 62
               7
  5
34C
 10
-564.25599335018637
 20
-357.29510291705401
 30
0.0
 11
-565.25599335018637
 21
-358.29510291705401
 31
0.0
  0
LINE
  8
0
  6
CONTINUOUS
 62
               7
  5
34D
 10
-482.75599335018649
 20
-449.29510291705424
 30
0.0
 11
-482.75599335018649
 21
-415.29510291705401
 31
0.0
  0
LINE
  8
0
  6
CONTINUOUS
 62
               7
  5
34E
 10
-482.75599335018649
 20
-449.29510291705424
 30
0.0
 11
-483.75599335018649
 21
-450.29510291705424
 31
0.0
  0
LINE
  8
0
  6
CONTINUOUS
 62
               7
  5
34F
 10
-557.75599335018637
 20
-450.29510291705401
 30
0.0
 11
-558.75599335018637
 21
-449.29510291705401
 31
0.0
  0
LINE
  8
0
  6
CONTINUOUS
 62
               7
  5
350
 10
-565.25599335018637
 20
-415.29510291705401
 30
0.0
 11
-565.25599335018637
 21
-358.29510291705401
 31
0.0
  0
LINE
  8
0
  6
CONTINUOUS
 62
               7
  5
351
 10
89.961656781929705
 20
-610.762986986089
 30
0.0
 11
89.961656781929705
 21
-552.762986986089
 31
0.0
  0
LINE
  8
0
  6
CONTINUOUS
 62
               7
  5
352
 10
115.56165678192961
 20
-522.762986986089
 30
0.0
 11
115.56165678192961
 21
-611.762986986089
 31
0.0
  0
LINE
  8
0
  6
CONTINUOUS
 62
               7
  5
353
 10
116.16165678192975
 20
-522.762986986089
 30
0.0
 11
115.56165678192961
 21
-522.762986986089
 31
0.0
  0
LINE
  8
0
  6
CONTINUOUS
 62
               7
  5
354
 10
173.56165678192986
 20
-610.762986986089
 30
0.0
 11
173.56165678192986
 21
-523.762986986089
 31
0.0
  0
CIRCLE
  8
0
  6
CONTINUOUS
 62
               7
  5
355
 10
-5.794359443313283
 20
-581.762986986089
 30
0.0
 40
30.0
  0
CIRCLE
  8
0
  6
CONTINUOUS
 62
               7
  5
356
 10
-5.794359443313283
 20
-581.762986986089
 30
0.0
 40
25.5
  0
CIRCLE
  8
0
  6
CONTINUOUS
 62
               7
  5
357
 10
-5.794359443313283
 20
-567.262986986089
 30
0.0
 40
44.5
  0
LINE
  8
0
  6
CONTINUOUS
 62
               7
  5
358
 10
115.69610852741003
 20
-522.762986986089
 30
0.0
 11
172.56165678192986
 21
-522.762986986089
 31
0.0
  0
LINE
  8
0
  6
CONTINUOUS
 62
               7
  5
359
 10
90.961656781929705
 20
-611.762986986089
 30
0.0
 11
172.56165678192986
 21
-611.762986986089
 31
0.0
  0
LINE
  8
0
  6
CONTINUOUS
 62
               7
  5
35A
 10
90.961656781929705
 20
-551.762986986089
 30
0.0
 11
115.56165678192961
 21
-551.762986986089
 31
0.0
  0
LINE
  8
0
  6
CONTINUOUS
 62
               7
  5
35B
 10
90.961656781929705
 20
-551.762986986089
 30
0.0
 11
89.961656781929705
 21
-552.762986986089
 31
0.0
  0
LINE
  8
0
  6
CONTINUOUS
 62
               7
  5
35C
 10
172.56165678192986
 20
-522.762986986089
 30
0.0
 11
173.56165678192986
 21
-523.762986986089
 31
0.0
  0
LINE
  8
0
  6
CONTINUOUS
 62
               7
  5
35D
 10
89.961656781929705
 20
-610.762986986089
 30
0.0
 11
90.961656781929705
 21
-611.762986986089
 31
0.0
  0
LINE
  8
0
  6
CONTINUOUS
 62
               7
  5
35E
 10
173.56165678192986
 20
-610.762986986089
 30
0.0
 11
172.56165678192986
 21
-611.762986986089
 31
0.0
  0
LINE
  8
0
  6
CONTINUOUS
 62
               7
  5
35F
 10
-101.55037566855606
 20
-610.762986986089
 30
0.0
 11
-101.55037566855606
 21
-552.762986986089
 31
0.0
  0
LINE
  8
0
  6
CONTINUOUS
 62
               7
  5
360
 10
-127.15037566855608
 20
-522.762986986089
 30
0.0
 11
-127.15037566855608
 21
-611.762986986089
 31
0.0
  0
LINE
  8
0
  6
CONTINUOUS
 62
               7
  5
361
 10
-127.7503756685561
 20
-522.762986986089
 30
0.0
 11
-127.15037566855608
 21
-522.762986986089
 31
0.0
  0
LINE
  8
0
  6
CONTINUOUS
 62
               7
  5
362
 10
-185.15037566855608
 20
-610.762986986089
 30
0.0
 11
-185.15037566855608
 21
-523.762986986089
 31
0.0
  0
LINE
  8
0
  6
CONTINUOUS
 62
               7
  5
363
 10
-127.28482741403639
 20
-522.762986986089
 30
0.0
 11
-184.15037566855608
 21
-522.762986986089
 31
0.0
  0
LINE
  8
0
  6
CONTINUOUS
 62
               7
  5
364
 10
-102.55037566855606
 20
-611.762986986089
 30
0.0
 11
-184.15037566855608
 21
-611.762986986089
 31
0.0
  0
LINE
  8
0
  6
CONTINUOUS
 62
               7
  5
365
 10
-102.55037566855606
 20
-551.762986986089
 30
0.0
 11
-127.15037566855608
 21
-551.762986986089
 31
0.0
  0
LINE
  8
0
  6
CONTINUOUS
 62
               7
  5
366
 10
-102.55037566855606
 20
-551.762986986089
 30
0.0
 11
-101.55037566855606
 21
-552.762986986089
 31
0.0
  0
LINE
  8
0
  6
CONTINUOUS
 62
               7
  5
367
 10
-184.15037566855608
 20
-522.762986986089
 30
0.0
 11
-185.15037566855608
 21
-523.762986986089
 31
0.0
  0
LINE
  8
0
  6
CONTINUOUS
 62
               7
  5
368
 10
-101.55037566855606
 20
-610.762986986089
 30
0.0
 11
-102.55037566855606
 21
-611.762986986089
 31
0.0
  0
LINE
  8
0
  6
CONTINUOUS
 62
               7
  5
369
 10
-185.15037566855608
 20
-610.762986986089
 30
0.0
 11
-184.15037566855608
 21
-611.762986986089
 31
0.0
  0
LINE
  8
0
  6
CONTINUOUS
 62
               7
  5
36A
 10
-34.794359443313056
 20
-461.00697076084634
 30
0.0
 11
23.20564055668693
 21
-461.00697076084634
 31
0.0
  0
LINE
  8
0
  6
CONTINUOUS
 62
               7
  5
36B
 10
38.70564055668693
 20
-435.40697076084621
 30
0.0
 11
-50.294359443313056
 21
-435.40697076084621
 31
0.0
  0
LINE
  8
0
  6
CONTINUOUS
 62
               7
  5
36C
 10
38.70564055668693
 20
-434.8069707608463
 30
0.0
 11
38.70564055668693
 21
-435.40697076084621
 31
0.0
  0
LINE
  8
0
  6
CONTINUOUS
 62
               7
  5
36D
 10
-49.294359443313056
 20
-377.40697076084621
 30
0.0
 11
37.70564055668693
 21
-377.40697076084621
 31
0.0
  0
LINE
  8
0
  6
CONTINUOUS
 62
               7
  5
36E
 10
38.70564055668693
 20
-435.27251901536602
 30
0.0
 11
38.70564055668693
 21
-378.40697076084621
 31
0.0
  0
LINE
  8
0
  6
CONTINUOUS
 62
               7
  5
36F
 10
-35.794359443313056
 20
-460.00697076084634
 30
0.0
 11
-35.794359443313056
 21
-435.40697076084621
 31
0.0
  0
LINE
  8
0
  6
CONTINUOUS
 62
               7
  5
370
 10
24.20564055668693
 20
-460.00697076084634
 30
0.0
 11
24.20564055668693
 21
-435.40697076084621
 31
0.0
  0
LINE
  8
0
  6
CONTINUOUS
 62
               7
  5
371
 10
24.20564055668693
 20
-460.00697076084634
 30
0.0
 11
23.20564055668693
 21
-461.00697076084634
 31
0.0
  0
LINE
  8
0
  6
CONTINUOUS
 62
               7
  5
372
 10
38.70564055668693
 20
-378.40697076084621
 30
0.0
 11
37.70564055668693
 21
-377.40697076084621
 31
0.0
  0
LINE
  8
0
  6
CONTINUOUS
 62
               7
  5
373
 10
-34.794359443313056
 20
-461.00697076084634
 30
0.0
 11
-35.794359443313056
 21
-460.00697076084634
 31
0.0
  0
LINE
  8
0
  6
CONTINUOUS
 62
               7
  5
374
 10
-49.294359443313056
 20
-377.40697076084621
 30
0.0
 11
-50.294359443313056
 21
-378.40697076084621
 31
0.0
  0
LINE
  8
0
  6
CONTINUOUS
 62
               7
  5
375
 10
-50.294359443313056
 20
-435.27251901536579
 30
0.0
 11
-50.294359443313056
 21
-378.40697076084621
 31
0.0
  0
CIRCLE
  8
0
  6
CONTINUOUS
 62
               7
  5
376
 10
482.61425631235664
 20
-998.57798516288233
 30
0.0
 40
25.5
  0
CIRCLE
  8
0
  6
CONTINUOUS
 62
               7
  5
377
 10
482.61425631235664
 20
-984.07798516288233
 30
0.0
 40
44.5
  0
CIRCLE
  8
0
  6
CONTINUOUS
 62
               7
  5
378
 10
482.61425631235664
 20
-998.57798516288233
 30
0.0
 40
30.0
  0
LINE
  8
0
  6
CONTINUOUS
 62
               7
  5
379
 10
453.61425631235664
 20
-680.17855141429811
 30
0.0
 11
511.61425631235664
 21
-680.17855141429811
 31
0.0
  0
LINE
  8
0
  6
CONTINUOUS
 62
               7
  5
37A
 10
527.1142563123567
 20
-654.5785514142982
 30
0.0
 11
438.11425631235664
 21
-654.5785514142982
 31
0.0
  0
LINE
  8
0
  6
CONTINUOUS
 62
               7
  5
37B
 10
527.1142563123567
 20
-653.97855141429829
 30
0.0
 11
527.1142563123567
 21
-654.5785514142982
 31
0.0
  0
LINE
  8
0
  6
CONTINUOUS
 62
               7
  5
37C
 10
439.11425631235664
 20
-596.57855141429775
 30
0.0
 11
526.1142563123567
 21
-596.57855141429775
 31
0.0
  0
LINE
  8
0
  6
CONTINUOUS
 62
               7
  5
37D
 10
527.1142563123567
 20
-654.44409966881778
 30
0.0
 11
527.1142563123567
 21
-597.57855141429775
 31
0.0
  0
LINE
  8
0
  6
CONTINUOUS
 62
               7
  5
37E
 10
452.61425631235664
 20
-679.17855141429811
 30
0.0
 11
452.61425631235664
 21
-654.5785514142982
 31
0.0
  0
LINE
  8
0
  6
CONTINUOUS
 62
               7
  5
37F
 10
512.6142563123567
 20
-679.17855141429811
 30
0.0
 11
512.6142563123567
 21
-654.5785514142982
 31
0.0
  0
LINE
  8
0
  6
CONTINUOUS
 62
               7
  5
380
 10
512.6142563123567
 20
-679.17855141429811
 30
0.0
 11
511.61425631235664
 21
-680.17855141429811
 31
0.0
  0
LINE
  8
0
  6
CONTINUOUS
 62
               7
  5
381
 10
527.1142563123567
 20
-597.57855141429775
 30
0.0
 11
526.1142563123567
 21
-596.57855141429775
 31
0.0
  0
LINE
  8
0
  6
CONTINUOUS
 62
               7
  5
382
 10
453.61425631235664
 20
-680.17855141429811
 30
0.0
 11
452.61425631235664
 21
-679.17855141429811
 31
0.0
  0
LINE
  8
0
  6
CONTINUOUS
 62
               7
  5
383
 10
439.11425631235664
 20
-596.57855141429775
 30
0.0
 11
438.11425631235664
 21
-597.57855141429775
 31
0.0
  0
LINE
  8
0
  6
CONTINUOUS
 62
               7
  5
384
 10
438.11425631235664
 20
-654.44409966881778
 30
0.0
 11
438.11425631235664
 21
-597.57855141429775
 31
0.0
  0
LINE
  8
0
  6
CONTINUOUS
 62
               7
  5
385
 10
337.61425631235659
 20
-939.57798516288233
 30
0.0
 11
337.61425631235659
 21
-1028.5727490422078
 31
0.0
  0
LINE
  8
0
  6
CONTINUOUS
 62
               7
  5
386
 10
338.21425631235661
 20
-939.57798516288233
 30
0.0
 11
337.61425631235659
 21
-939.57798516288233
 31
0.0
  0
LINE
  8
0
  6
CONTINUOUS
 62
               7
  5
387
 10
302.61425631235659
 20
-1027.5779851628822
 30
0.0
 11
302.61425631235659
 21
-953.57798516288233
 31
0.0
  0
LINE
  8
0
  6
CONTINUOUS
 62
               7
  5
388
 10
395.61425631235664
 20
-1027.5779851628822
 30
0.0
 11
395.61425631235664
 21
-940.57798516288233
 31
0.0
  0
LINE
  8
0
  6
CONTINUOUS
 62
               7
  5
389
 10
337.61425631235659
 20
-939.57798516288233
 30
0.0
 11
394.61425631235664
 21
-939.57798516288233
 31
0.0
  0
LINE
  8
0
  6
CONTINUOUS
 62
               7
  5
38A
 10
303.61425631235659
 20
-1028.5779851628822
 30
0.0
 11
394.61425631235664
 21
-1028.5779851628822
 31
0.0
  0
LINE
  8
0
  6
CONTINUOUS
 62
               7
  5
38B
 10
394.61425631235664
 20
-939.57798516288233
 30
0.0
 11
395.61425631235664
 21
-940.57798516288233
 31
0.0
  0
LINE
  8
0
  6
CONTINUOUS
 62
               7
  5
38C
 10
395.61425631235664
 20
-1027.5779851628822
 30
0.0
 11
394.61425631235664
 21
-1028.5779851628822
 31
0.0
  0
LINE
  8
0
  6
CONTINUOUS
 62
               7
  5
38D
 10
303.61425631235659
 20
-952.57798516288233
 30
0.0
 11
337.61425631235659
 21
-952.57798516288233
 31
0.0
  0
LINE
  8
0
  6
CONTINUOUS
 62
               7
  5
38E
 10
303.61425631235659
 20
-952.57798516288233
 30
0.0
 11
302.61425631235659
 21
-953.57798516288233
 31
0.0
  0
LINE
  8
0
  6
CONTINUOUS
 62
               7
  5
38F
 10
302.61425631235659
 20
-1027.5779851628822
 30
0.0
 11
303.61425631235659
 21
-1028.5779851628822
 31
0.0
  0
LINE
  8
0
  6
CONTINUOUS
 62
               7
  5
390
 10
337.61425631235659
 20
-554.07855141429775
 30
0.0
 11
337.61425631235682
 21
-465.08378753497232
 31
0.0
  0
LINE
  8
0
  6
CONTINUOUS
 62
               7
  5
391
 10
338.21425631235672
 20
-554.07855141429775
 30
0.0
 11
337.61425631235659
 21
-554.07855141429775
 31
0.0
  0
LINE
  8
0
  6
CONTINUOUS
 62
               7
  5
392
 10
302.61425631235682
 20
-472.57855141429786
 30
0.0
 11
302.61425631235659
 21
-546.57855141429775
 31
0.0
  0
LINE
  8
0
  6
CONTINUOUS
 62
               7
  5
393
 10
395.61425631235687
 20
-466.07855141429809
 30
0.0
 11
395.61425631235664
 21
-553.07855141429775
 31
0.0
  0
LINE
  8
0
  6
CONTINUOUS
 62
               7
  5
394
 10
337.61425631235659
 20
-554.07855141429775
 30
0.0
 11
394.61425631235664
 21
-554.07855141429775
 31
0.0
  0
LINE
  8
0
  6
CONTINUOUS
 62
               7
  5
395
 10
303.61425631235682
 20
-471.57855141429786
 30
0.0
 11
337.61425631235682
 21
-471.57855141429786
 31
0.0
  0
LINE
  8
0
  6
CONTINUOUS
 62
               7
  5
396
 10
394.61425631235664
 20
-554.07855141429775
 30
0.0
 11
395.61425631235664
 21
-553.07855141429775
 31
0.0
  0
LINE
  8
0
  6
CONTINUOUS
 62
               7
  5
397
 10
395.61425631235687
 20
-466.07855141429809
 30
0.0
 11
394.61425631235687
 21
-465.07855141429809
 31
0.0
  0
LINE
  8
0
  6
CONTINUOUS
 62
               7
  5
398
 10
303.61425631235659
 20
-547.57855141429775
 30
0.0
 11
337.61425631235682
 21
-547.57855141429775
 31
0.0
  0
LINE
  8
0
  6
CONTINUOUS
 62
               7
  5
399
 10
303.61425631235659
 20
-547.57855141429775
 30
0.0
 11
302.61425631235659
 21
-546.57855141429775
 31
0.0
  0
LINE
  8
0
  6
CONTINUOUS
 62
               7
  5
39A
 10
302.61425631235682
 20
-472.57855141429786
 30
0.0
 11
303.61425631235682
 21
-471.57855141429786
 31
0.0
  0
LINE
  8
0
  6
CONTINUOUS
 62
               7
  5
39B
 10
337.61425631235682
 20
-465.07855141429786
 30
0.0
 11
394.61425631235687
 21
-465.07855141429786
 31
0.0
  0
CIRCLE
  8
0
  6
CONTINUOUS
 62
               7
  5
39C
 10
-5.7943594433132404
 20
-997.262986986089
 30
0.0
 40
38.0
  0
LINE
  8
0
  6
CONTINUOUS
 62
               7
  5
39D
 10
-150.29435944331311
 20
-959.26298698608878
 30
0.0
 11
-150.29435944331323
 21
-1035.2577508654144
 31
0.0
  0
LINE
  8
0
  6
CONTINUOUS
 62
               7
  5
39E
 10
-150.29435944331311
 20
-946.26298698608878
 30
0.0
 11
-149.69435944331315
 21
-946.26298698608878
 31
0.0
  0
LINE
  8
0
  6
CONTINUOUS
 62
               7
  5
39F
 10
-208.29435944331323
 20
-1034.2629869860889
 30
0.0
 11
-208.29435944331323
 21
-960.26298698608878
 31
0.0
  0
LINE
  8
0
  6
CONTINUOUS
 62
               7
  5
3A0
 10
-150.29435944331323
 20
-1035.2629869860889
 30
0.0
 11
-125.69435944331316
 21
-1035.2629869860889
 31
0.0
  0
LINE
  8
0
  6
CONTINUOUS
 62
               7
  5
3A1
 10
-208.29435944331323
 20
-1034.2629869860889
 30
0.0
 11
-207.29435944331323
 21
-1035.2629869860889
 31
0.0
  0
LINE
  8
0
  6
CONTINUOUS
 62
               7
  5
3A2
 10
-207.29435944331323
 20
-959.26298698608878
 30
0.0
 11
-150.29435944331311
 21
-959.26298698608878
 31
0.0
  0
LINE
  8
0
  6
CONTINUOUS
 62
               7
  5
3A3
 10
-115.29435944331324
 20
-1034.2629869860889
 30
0.0
 11
-116.29435944331324
 21
-1035.2629869860889
 31
0.0
  0
CIRCLE
  8
0
  6
CONTINUOUS
 62
               7
  5
3A4
 10
-5.7943594433132972
 20
-1005.262986986089
 30
0.0
 40
30.0
  0
CIRCLE
  8
0
  6
CONTINUOUS
 62
               7
  5
3A5
 10
-5.7943594433132972
 20
-1005.262986986089
 30
0.0
 40
0.1981604108525852
  0
CIRCLE
  8
0
  6
CONTINUOUS
 62
               7
  5
3A6
 10
-5.7943594433132972
 20
-1005.262986986089
 30
0.0
 40
25.5
  0
LINE
  8
0
  6
CONTINUOUS
 62
               7
  5
3A7
 10
-124.69435944331316
 20
-1034.2629869860889
 30
0.0
 11
-124.69435944331316
 21
-976.262986986089
 31
0.0
  0
LINE
  8
0
  6
CONTINUOUS
 62
               7
  5
3A8
 10
-150.29435944331311
 20
-975.262986986089
 30
0.0
 11
-125.69435944331316
 21
-975.262986986089
 31
0.0
  0
LINE
  8
0
  6
CONTINUOUS
 62
               7
  5
3A9
 10
-150.29435944331323
 20
-1035.2577508654144
 30
0.0
 11
-207.29435944331323
 21
-1035.2629869860889
 31
0.0
  0
LINE
  8
0
  6
CONTINUOUS
 62
               7
  5
3AA
 10
-207.29435944331323
 20
-959.26298698608878
 30
0.0
 11
-208.29435944331323
 21
-960.26298698608878
 31
0.0
  0
LINE
  8
0
  6
CONTINUOUS
 62
               7
  5
3AB
 10
-125.69435944331316
 20
-975.262986986089
 30
0.0
 11
-124.69435944331316
 21
-976.262986986089
 31
0.0
  0
LINE
  8
0
  6
CONTINUOUS
 62
               7
  5
3AC
 10
-124.69435944331316
 20
-1034.2629869860889
 30
0.0
 11
-125.69435944331316
 21
-1035.2629869860889
 31
0.0
  0
LINE
  8
0
  6
CONTINUOUS
 62
               7
  5
3AD
 10
138.70564055668672
 20
-959.262986986089
 30
0.0
 11
138.70564055668666
 21
-1035.2577508654144
 31
0.0
  0
LINE
  8
0
  6
CONTINUOUS
 62
               7
  5
3AE
 10
138.70564055668672
 20
-946.262986986089
 30
0.0
 11
138.10564055668675
 21
-946.262986986089
 31
0.0
  0
LINE
  8
0
  6
CONTINUOUS
 62
               7
  5
3AF
 10
196.70564055668672
 20
-1034.2629869860889
 30
0.0
 11
196.70564055668677
 21
-960.262986986089
 31
0.0
  0
LINE
  8
0
  6
CONTINUOUS
 62
               7
  5
3B0
 10
138.70564055668666
 20
-1035.2629869860889
 30
0.0
 11
114.10564055668662
 21
-1035.2629869860889
 31
0.0
  0
LINE
  8
0
  6
CONTINUOUS
 62
               7
  5
3B1
 10
196.70564055668672
 20
-1034.2629869860889
 30
0.0
 11
195.70564055668672
 21
-1035.2629869860889
 31
0.0
  0
LINE
  8
0
  6
CONTINUOUS
 62
               7
  5
3B2
 10
195.70564055668677
 20
-959.262986986089
 30
0.0
 11
138.70564055668672
 21
-959.262986986089
 31
0.0
  0
LINE
  8
0
  6
CONTINUOUS
 62
               7
  5
3B3
 10
103.7056405566867
 20
-1034.2629869860889
 30
0.0
 11
104.7056405566867
 21
-1035.2629869860889
 31
0.0
  0
LINE
  8
0
  6
CONTINUOUS
 62
               7
  5
3B4
 10
113.10564055668662
 20
-1034.2629869860889
 30
0.0
 11
113.10564055668668
 21
-976.26298698608923
 31
0.0
  0
LINE
  8
0
  6
CONTINUOUS
 62
               7
  5
3B5
 10
138.70564055668666
 20
-975.26298698608923
 30
0.0
 11
114.10564055668668
 21
-975.26298698608923
 31
0.0
  0
LINE
  8
0
  6
CONTINUOUS
 62
               7
  5
3B6
 10
138.70564055668666
 20
-1035.2577508654144
 30
0.0
 11
195.70564055668672
 21
-1035.2629869860889
 31
0.0
  0
LINE
  8
0
  6
CONTINUOUS
 62
               7
  5
3B7
 10
195.70564055668677
 20
-959.262986986089
 30
0.0
 11
196.70564055668677
 21
-960.262986986089
 31
0.0
  0
LINE
  8
0
  6
CONTINUOUS
 62
               7
  5
3B8
 10
114.10564055668668
 20
-975.26298698608923
 30
0.0
 11
113.10564055668668
 21
-976.26298698608923
 31
0.0
  0
LINE
  8
0
  6
CONTINUOUS
 62
               7
  5
3B9
 10
113.10564055668662
 20
-1034.2629869860889
 30
0.0
 11
114.10564055668662
 21
-1035.2629869860889
 31
0.0
  0
LINE
  8
0
  6
CONTINUOUS
 62
               7
  5
3BA
 10
32.205640556686873
 20
-852.76298698608923
 30
0.0
 11
-43.789123322638673
 21
-852.762986986089
 31
0.0
  0
LINE
  8
0
  6
CONTINUOUS
 62
               7
  5
3BB
 10
45.205640556686873
 20
-852.16298698608909
 30
0.0
 11
45.205640556686873
 21
-852.76298698608923
 31
0.0
  0
LINE
  8
0
  6
CONTINUOUS
 62
               7
  5
3BC
 10
-42.79435944331307
 20
-794.762986986089
 30
0.0
 11
31.20564055668693
 21
-794.762986986089
 31
0.0
  0
LINE
  8
0
  6
CONTINUOUS
 62
               7
  5
3BD
 10
-35.794359443313127
 20
-852.762986986089
 30
0.0
 11
-35.794359443313127
 21
-877.36298698608914
 31
0.0
  0
LINE
  8
0
  6
CONTINUOUS
 62
               7
  5
3BE
 10
-42.79435944331307
 20
-794.762986986089
 30
0.0
 11
-43.79435944331307
 21
-795.762986986089
 31
0.0
  0
LINE
  8
0
  6
CONTINUOUS
 62
               7
  5
3BF
 10
32.20564055668693
 20
-795.762986986089
 30
0.0
 11
32.205640556686873
 21
-852.76298698608923
 31
0.0
  0
LINE
  8
0
  6
CONTINUOUS
 62
               7
  5
3C0
 10
-34.794359443313184
 20
-887.762986986089
 30
0.0
 11
-35.794359443313184
 21
-886.762986986089
 31
0.0
  0
LINE
  8
0
  6
CONTINUOUS
 62
               7
  5
3C1
 10
-34.794359443313127
 20
-878.36298698608914
 30
0.0
 11
23.205640556686703
 21
-878.36298698608914
 31
0.0
  0
LINE
  8
0
  6
CONTINUOUS
 62
               7
  5
3C2
 10
24.205640556686703
 20
-852.76298698608923
 30
0.0
 11
24.205640556686703
 21
-877.36298698608914
 31
0.0
  0
LINE
  8
0
  6
CONTINUOUS
 62
               7
  5
3C3
 10
-43.789123322638673
 20
-852.762986986089
 30
0.0
 11
-43.79435944331307
 21
-795.762986986089
 31
0.0
  0
LINE
  8
0
  6
CONTINUOUS
 62
               7
  5
3C4
 10
32.20564055668693
 20
-795.762986986089
 30
0.0
 11
31.20564055668693
 21
-794.762986986089
 31
0.0
  0
LINE
  8
0
  6
CONTINUOUS
 62
               7
  5
3C5
 10
24.205640556686703
 20
-877.36298698608914
 30
0.0
 11
23.205640556686703
 21
-878.36298698608914
 31
0.0
  0
LINE
  8
0
  6
CONTINUOUS
 62
               7
  5
3C6
 10
-34.794359443313127
 20
-878.36298698608914
 30
0.0
 11
-35.794359443313127
 21
-877.36298698608914
 31
0.0
  0
CIRCLE
  8
0
  6
DASHED
 62
               7
  5
3C7
 10
-518.81003595442007
 20
-567.262986986089
 30
0.0
 40
40.0
  0
CIRCLE
  8
0
  6
DASHED
 62
               7
  5
3C8
 10
-5.794359443313283
 20
-567.262986986089
 30
0.0
 40
40.0
  0
CIRCLE
  8
0
  6
DASHED
 62
               7
  5
3C9
 10
482.61425631235664
 20
-984.07798516288233
 30
0.0
 40
40.0
  0
TEXT
  8
0
 62
               3
  5
3CA
 10
-518.81003595442007
 20
-651.762986986089
 30
0.0
 40
40.0
  1
EMB_80×65
 41
0.8
 72
               1
 11
-518.81003595442007
 21
-651.762986986089
 31
0.0
 73
               3
  0
TEXT
  8
0
 62
               3
  5
3CB
 10
-5.794359443313283
 20
-651.762986986089
 30
0.0
 40
40.0
  1
EMB_80×50
 41
0.8
 72
               1
 11
-5.794359443313283
 21
-651.762986986089
 31
0.0
 73
               3
  0
TEXT
  8
0
 62
               3
  5
3CC
 10
478.91685233471634
 20
-330.13218290907867
 30
0.0
 40
40.0
  1
EMB使用例
 41
0.8
 72
               1
 11
478.91685233471634
 21
-330.13218290907867
 31
0.0
 73
               3
  0
TEXT
  8
0
 62
               3
  5
3CD
 10
-250.41497099484215
 20
-275.77204700873926
 30
0.0
 40
35.0
  1
横枝管に呼び６５、５０の管を接続するときは、EMBをご使用ください。
 41
0.8
 72
               1
 11
-250.41497099484215
 21
-275.77204700873926
 31
0.0
 73
               3
  0
TEXT
  8
0
 62
               3
  5
3CE
 10
-5.7943594433132972
 20
-1081.7629869860889
 30
0.0
 40
40.0
  1
EMB_65×50
 41
0.8
 72
               1
 11
-5.7943594433132972
 21
-1081.7629869860889
 31
0.0
 73
               3
  0
ENDSEC
  0
EOF
