  0
SECTION
  2
HEADER
  9
$ACADVER
  1
AC1009
  9
$INSBASE
 10
0.0
 20
0.0
 30
0.0
  9
$EXTMIN
 10
-716.6257304643259
 20
-1539.2115742691442
 30
0.0
  9
$EXTMAX
 10
745.91225368063397
 20
663.94115727893893
 30
0.0
  9
$LIMMIN
 10
-762.33004246885594
 20
-1608.0600971300219
  9
$LIMMAX
 10
791.61656568516401
 20
732.78968013981648
  9
$ORTHOMODE
 70
               0
  9
$REGENMODE
 70
               1
  9
$FILLMODE
 70
               1
  9
$QTEXTMODE
 70
               0
  9
$MIRRTEXT
 70
               1
  9
$DRAGMODE
 70
               2
  9
$LTSCALE
 40
1.0
  9
$OSMODE
 70
               0
  9
$ATTMODE
 70
               1
  9
$TEXTSIZE
 40
0.2
  9
$TRACEWID
 40
0.05
  9
$TEXTSTYLE
  7
STANDARD
  9
$CLAYER
  8
0
  9
$CELTYPE
  6
CONTINUOUS
  9
$CECOLOR
 62
             256
  9
$DIMSCALE
 40
1.0
  9
$DIMASZ
 40
0.18
  9
$DIMEXO
 40
0.0625
  9
$DIMDLI
 40
0.38
  9
$DIMRND
 40
0.0
  9
$DIMDLE
 40
0.0
  9
$DIMEXE
 40
0.18
  9
$DIMTP
 40
0.0
  9
$DIMTM
 40
0.0
  9
$DIMTXT
 40
0.18
  9
$DIMCEN
 40
0.09
  9
$DIMTSZ
 40
0.0
  9
$DIMTOL
 70
               0
  9
$DIMLIM
 70
               0
  9
$DIMTIH
 70
               1
  9
$DIMTOH
 70
               1
  9
$DIMSE1
 70
               0
  9
$DIMSE2
 70
               0
  9
$DIMTAD
 70
               0
  9
$DIMZIN
 70
               0
  9
$DIMBLK
  1

  9
$DIMASO
 70
               1
  9
$DIMSHO
 70
               1
  9
$DIMPOST
  1

  9
$DIMAPOST
  1

  9
$DIMALT
 70
               0
  9
$DIMALTD
 70
               2
  9
$DIMALTF
 40
25.399999999999999
  9
$DIMLFAC
 40
1.0
  9
$DIMTOFL
 70
               0
  9
$DIMTVP
 40
0.0
  9
$DIMTIX
 70
               0
  9
$DIMSOXD
 70
               0
  9
$DIMSAH
 70
               0
  9
$DIMBLK1
  1

  9
$DIMBLK2
  1

  9
$DIMSTYLE
  2
STANDARD
  9
$DIMCLRD
 70
               0
  9
$DIMCLRE
 70
               0
  9
$DIMCLRT
 70
               0
  9
$DIMTFAC
 40
1.0
  9
$DIMGAP
 40
0.09
  9
$LUNITS
 70
               2
  9
$LUPREC
 70
               4
  9
$AXISMODE
 70
               0
  9
$AXISUNIT
 10
0.0
 20
0.0
  9
$SKETCHINC
 40
0.1
  9
$FILLETRAD
 40
0.0
  9
$AUNITS
 70
               0
  9
$AUPREC
 70
               0
  9
$MENU
  1
acad
  9
$ELEVATION
 40
0.0
  9
$PELEVATION
 40
0.0
  9
$THICKNESS
 40
0.0
  9
$LIMCHECK
 70
               0
  9
$BLIPMODE
 70
               1
  9
$CHAMFERA
 40
0.0
  9
$CHAMFERB
 40
0.0
  9
$SKPOLY
 70
               0
  9
$TDCREATE
 40
0.000000000
  9
$TDUPDATE
 40
0.000000000
  9
$TDINDWG
 40
0.0000000000
  9
$TDUSRTIMER
 40
0.0000000000
  9
$USRTIMER
 70
               1
  9
$ANGBASE
 50
0.0
  9
$ANGDIR
 70
               0
  9
$PDMODE
 70
               0
  9
$PDSIZE
 40
1.0
  9
$PLINEWID
 40
0.0
  9
$COORDS
 70
               1
  9
$SPLFRAME
 70
               0
  9
$SPLINETYPE
 70
               6
  9
$SPLINESEGS
 70
               8
  9
$ATTDIA
 70
               0
  9
$ATTREQ
 70
               1
  9
$HANDLING
 70
               1
  9
$HANDSEED
  5
362
  9
$SURFTAB1
 70
               6
  9
$SURFTAB2
 70
               6
  9
$SURFTYPE
 70
               6
  9
$SURFU
 70
               6
  9
$SURFV
 70
               6
  9
$UCSNAME
  2

  9
$UCSORG
 10
0.0
 20
0.0
 30
0.0
  9
$UCSXDIR
 10
1.0
 20
0.0
 30
0.0
  9
$UCSYDIR
 10
0.0
 20
1.0
 30
0.0
  9
$PUCSNAME
  2

  9
$PUCSORG
 10
0.0
 20
0.0
 30
0.0
  9
$PUCSXDIR
 10
1.0
 20
0.0
 30
0.0
  9
$PUCSYDIR
 10
0.0
 20
1.0
 30
0.0
  9
$USERI1
 70
               0
  9
$USERI2
 70
               0
  9
$USERI3
 70
               0
  9
$USERI4
 70
               0
  9
$USERI5
 70
               0
  9
$USERR1
 40
0.0
  9
$USERR2
 40
0.0
  9
$USERR3
 40
0.0
  9
$USERR4
 40
0.0
  9
$USERR5
 40
0.0
  9
$WORLDVIEW
 70
               1
  9
$SHADEDGE
 70
               3
  9
$SHADEDIF
 70
              70
  9
$TILEMODE
 70
               1
  9
$MAXACTVP
 70
              16
  9
$PINSBASE
 10
0.0
 20
0.0
 30
0.0
  9
$PLIMCHECK
 70
               0
  9
$PEXTMIN
 10
1.0000000000000000E+20
 20
1.0000000000000000E+20
 30
1.0000000000000000E+20
  9
$PEXTMAX
 10
-1.0000000000000000E+20
 20
-1.0000000000000000E+20
 30
-1.0000000000000000E+20
  9
$PLIMMIN
 10
0.0
 20
0.0
  9
$PLIMMAX
 10
12.0
 20
9.0
  9
$UNITMODE
 70
               0
  9
$VISRETAIN
 70
               0
  9
$PLINEGEN
 70
               1
  9
$PSLTSCALE
 70
               0
  9
$TREEDEPTH
 70
            3020
  9
$DWGCODEPAGE
  3
dos932
  0
ENDSEC
  0
SECTION
  2
TABLES
  0
TABLE
  2
VPORT
 70
               1
  0
VPORT
  2
*ACTIVE
 70
               0
 10
0.0
 20
0.0
 11
1.0
 21
1.0
 12
14.643261608154035
 22
-437.63520849510269
 13
0.0
 23
0.0
 14
1.0
 24
1.0
 15
0.0
 25
0.0
 16
0.0
 26
0.0
 36
1.0
 17
0.0
 27
0.0
 37
0.0
 40
2340.8497772698383
 41
0.663838672281827
 42
50.0
 43
0.0
 44
0.0
 50
0.0
 51
0.0
 71
               0
 72
             100
 73
               1
 74
               1
 75
               0
 76
               0
 77
               0
 78
               0
  0
ENDTAB
  0
TABLE
  2
LTYPE
 70
              26
  0
LTYPE
  2
CONTINUOUS
 70
               0
  3
Solid line
 72
              65
 73
               0
 40
0.0
  0
LTYPE
  2
HIDDENX2
 70
               0
  3
CADPAC FUSION LINETYPE
 72
              65
 73
               2
 40
64.0
 49
48.0
 49
-16.0
  0
LTYPE
  2
HIDDEN
 70
               0
  3
CADPAC FUSION LINETYPE
 72
              65
 73
               2
 40
48.0
 49
32.0
 49
-16.0
  0
LTYPE
  2
HIDDEN2
 70
               0
  3
CADPAC FUSION LINETYPE
 72
              65
 73
               2
 40
40.0
 49
24.0
 49
-16.0
  0
LTYPE
  2
DASHED
 70
               0
  3
CADPAC FUSION LINETYPE
 72
              65
 73
               2
 40
48.0
 49
32.0
 49
-16.0
  0
LTYPE
  2
DASHED2
 70
               0
  3
CADPAC FUSION LINETYPE
 72
              65
 73
               2
 40
36.0
 49
24.0
 49
-12.0
  0
LTYPE
  2
DASHEDX2
 70
               0
  3
CADPAC FUSION LINETYPE
 72
              65
 73
               2
 40
72.0
 49
48.0
 49
-24.0
  0
LTYPE
  2
DOTX2
 70
               0
  3
CADPAC FUSION LINETYPE
 72
              65
 73
               2
 40
20.0
 49
0.0
 49
-20.0
  0
LTYPE
  2
DOT
 70
               0
  3
CADPAC FUSION LINETYPE
 72
              65
 73
               2
 40
16.0
 49
0.0
 49
-16.0
  0
LTYPE
  2
DOTS
 70
               0
  3
CADPAC FUSION LINETYPE
 72
              65
 73
               2
 40
16.0
 49
0.0
 49
-16.0
  0
LTYPE
  2
DOT2
 70
               0
  3
CADPAC FUSION LINETYPE
 72
              65
 73
               2
 40
12.0
 49
0.0
 49
-12.0
  0
LTYPE
  2
CENTERX2
 70
               0
  3
CADPAC FUSION LINETYPE
 72
              65
 73
               4
 40
96.0
 49
40.0
 49
-20.0
 49
16.0
 49
-20.0
  0
LTYPE
  2
CENTER
 70
               0
  3
CADPAC FUSION LINETYPE
 72
              65
 73
               4
 40
73.599999999999994
 49
32.0
 49
-16.0
 49
9.5999999999999996
 49
-16.0
  0
LTYPE
  2
CENTER2
 70
               0
  3
CADPAC FUSION LINETYPE
 72
              65
 73
               4
 40
51.200000000000003
 49
24.0
 49
-12.0
 49
3.2000000000000002
 49
-12.0
  0
LTYPE
  2
DASHDOTX2
 70
               0
  3
CADPAC FUSION LINETYPE
 72
              65
 73
               4
 40
80.0
 49
40.0
 49
-20.0
 49
0.0
 49
-20.0
  0
LTYPE
  2
DASHDOT
 70
               0
  3
CADPAC FUSION LINETYPE
 72
              65
 73
               4
 40
64.0
 49
32.0
 49
-16.0
 49
0.0
 49
-16.0
  0
LTYPE
  2
DASHDOT2
 70
               0
  3
CADPAC FUSION LINETYPE
 72
              65
 73
               4
 40
48.0
 49
24.0
 49
-12.0
 49
0.0
 49
-12.0
  0
LTYPE
  2
DIVIDEX2
 70
               0
  3
CADPAC FUSION LINETYPE
 72
              65
 73
               6
 40
100.0
 49
40.0
 49
-20.0
 49
0.0
 49
-20.0
 49
0.0
 49
-20.0
  0
LTYPE
  2
DIVIDE
 70
               0
  3
CADPAC FUSION LINETYPE
 72
              65
 73
               6
 40
80.0
 49
32.0
 49
-16.0
 49
0.0
 49
-16.0
 49
0.0
 49
-16.0
  0
LTYPE
  2
DIVIDE2
 70
               0
  3
CADPAC FUSION LINETYPE
 72
              65
 73
               6
 40
60.0
 49
24.0
 49
-12.0
 49
0.0
 49
-12.0
 49
0.0
 49
-12.0
  0
LTYPE
  2
BORDERX2
 70
               0
  3
CADPAC FUSION LINETYPE
 72
              65
 73
               6
 40
140.0
 49
40.0
 49
-20.0
 49
40.0
 49
-20.0
 49
0.0
 49
-20.0
  0
LTYPE
  2
BORDER
 70
               0
  3
CADPAC FUSION LINETYPE
 72
              65
 73
               6
 40
112.0
 49
32.0
 49
-16.0
 49
32.0
 49
-16.0
 49
0.0
 49
-16.0
  0
LTYPE
  2
BORDER2
 70
               0
  3
CADPAC FUSION LINETYPE
 72
              65
 73
               6
 40
84.0
 49
24.0
 49
-12.0
 49
24.0
 49
-12.0
 49
0.0
 49
-12.0
  0
LTYPE
  2
PHANTOMX2
 70
               0
  3
CADPAC FUSION LINETYPE
 72
              65
 73
               6
 40
120.0
 49
40.0
 49
-16.0
 49
16.0
 49
-16.0
 49
16.0
 49
-16.0
  0
LTYPE
  2
PHANTOM
 70
               0
  3
CADPAC FUSION LINETYPE
 72
              65
 73
               6
 40
99.199999999999989
 49
32.0
 49
-16.0
 49
9.5999999999999996
 49
-16.0
 49
9.5999999999999996
 49
-16.0
  0
LTYPE
  2
PHANTOM2
 70
               0
  3
CADPAC FUSION LINETYPE
 72
              65
 73
               6
 40
84.799999999999997
 49
24.0
 49
-16.0
 49
6.4000000000000004
 49
-16.0
 49
6.4000000000000004
 49
-16.0
  0
ENDTAB
  0
TABLE
  2
LAYER
 70
             256
  0
LAYER
  2
0
 70
               0
 62
               7
  6
CONTINUOUS
  0
LAYER
  2
LAYER001
 70
               0
 62
               7
  6
CONTINUOUS
  0
LAYER
  2
LAYER002
 70
               0
 62
               7
  6
CONTINUOUS
  0
LAYER
  2
LAYER003
 70
               0
 62
               7
  6
CONTINUOUS
  0
LAYER
  2
LAYER004
 70
               0
 62
               7
  6
CONTINUOUS
  0
LAYER
  2
LAYER005
 70
               0
 62
               7
  6
CONTINUOUS
  0
LAYER
  2
LAYER006
 70
               0
 62
               7
  6
CONTINUOUS
  0
LAYER
  2
LAYER007
 70
               0
 62
               7
  6
CONTINUOUS
  0
LAYER
  2
LAYER008
 70
               0
 62
               7
  6
CONTINUOUS
  0
LAYER
  2
LAYER009
 70
               0
 62
               7
  6
CONTINUOUS
  0
LAYER
  2
LAYER010
 70
               0
 62
               7
  6
CONTINUOUS
  0
LAYER
  2
LAYER011
 70
               0
 62
               7
  6
CONTINUOUS
  0
LAYER
  2
LAYER012
 70
               0
 62
               7
  6
CONTINUOUS
  0
LAYER
  2
LAYER013
 70
               0
 62
               7
  6
CONTINUOUS
  0
LAYER
  2
LAYER014
 70
               0
 62
               7
  6
CONTINUOUS
  0
LAYER
  2
LAYER015
 70
               0
 62
               7
  6
CONTINUOUS
  0
LAYER
  2
LAYER016
 70
               0
 62
               7
  6
CONTINUOUS
  0
LAYER
  2
LAYER017
 70
               0
 62
               7
  6
CONTINUOUS
  0
LAYER
  2
LAYER018
 70
               0
 62
               7
  6
CONTINUOUS
  0
LAYER
  2
LAYER019
 70
               0
 62
               7
  6
CONTINUOUS
  0
LAYER
  2
LAYER020
 70
               0
 62
               7
  6
CONTINUOUS
  0
LAYER
  2
LAYER021
 70
               0
 62
               7
  6
CONTINUOUS
  0
LAYER
  2
LAYER022
 70
               0
 62
               7
  6
CONTINUOUS
  0
LAYER
  2
LAYER023
 70
               0
 62
               7
  6
CONTINUOUS
  0
LAYER
  2
LAYER024
 70
               0
 62
               7
  6
CONTINUOUS
  0
LAYER
  2
LAYER025
 70
               0
 62
               7
  6
CONTINUOUS
  0
LAYER
  2
LAYER026
 70
               0
 62
               7
  6
CONTINUOUS
  0
LAYER
  2
LAYER027
 70
               0
 62
               7
  6
CONTINUOUS
  0
LAYER
  2
LAYER028
 70
               0
 62
               7
  6
CONTINUOUS
  0
LAYER
  2
LAYER029
 70
               0
 62
               7
  6
CONTINUOUS
  0
LAYER
  2
LAYER030
 70
               0
 62
               7
  6
CONTINUOUS
  0
LAYER
  2
LAYER031
 70
               0
 62
               7
  6
CONTINUOUS
  0
LAYER
  2
LAYER032
 70
               0
 62
               7
  6
CONTINUOUS
  0
LAYER
  2
LAYER033
 70
               0
 62
               7
  6
CONTINUOUS
  0
LAYER
  2
LAYER034
 70
               0
 62
               7
  6
CONTINUOUS
  0
LAYER
  2
LAYER035
 70
               0
 62
               7
  6
CONTINUOUS
  0
LAYER
  2
LAYER036
 70
               0
 62
               7
  6
CONTINUOUS
  0
LAYER
  2
LAYER037
 70
               0
 62
               7
  6
CONTINUOUS
  0
LAYER
  2
LAYER038
 70
               0
 62
               7
  6
CONTINUOUS
  0
LAYER
  2
LAYER039
 70
               0
 62
               7
  6
CONTINUOUS
  0
LAYER
  2
LAYER040
 70
               0
 62
               7
  6
CONTINUOUS
  0
LAYER
  2
LAYER041
 70
               0
 62
               7
  6
CONTINUOUS
  0
LAYER
  2
LAYER042
 70
               0
 62
               7
  6
CONTINUOUS
  0
LAYER
  2
LAYER043
 70
               0
 62
               7
  6
CONTINUOUS
  0
LAYER
  2
LAYER044
 70
               0
 62
               7
  6
CONTINUOUS
  0
LAYER
  2
LAYER045
 70
               0
 62
               7
  6
CONTINUOUS
  0
LAYER
  2
LAYER046
 70
               0
 62
               7
  6
CONTINUOUS
  0
LAYER
  2
LAYER047
 70
               0
 62
               7
  6
CONTINUOUS
  0
LAYER
  2
LAYER048
 70
               0
 62
               7
  6
CONTINUOUS
  0
LAYER
  2
LAYER049
 70
               0
 62
               7
  6
CONTINUOUS
  0
LAYER
  2
LAYER050
 70
               0
 62
               7
  6
CONTINUOUS
  0
LAYER
  2
LAYER051
 70
               0
 62
               7
  6
CONTINUOUS
  0
LAYER
  2
LAYER052
 70
               0
 62
               7
  6
CONTINUOUS
  0
LAYER
  2
LAYER053
 70
               0
 62
               7
  6
CONTINUOUS
  0
LAYER
  2
LAYER054
 70
               0
 62
               7
  6
CONTINUOUS
  0
LAYER
  2
LAYER055
 70
               0
 62
               7
  6
CONTINUOUS
  0
LAYER
  2
LAYER056
 70
               0
 62
               7
  6
CONTINUOUS
  0
LAYER
  2
LAYER057
 70
               0
 62
               7
  6
CONTINUOUS
  0
LAYER
  2
LAYER058
 70
               0
 62
               7
  6
CONTINUOUS
  0
LAYER
  2
LAYER059
 70
               0
 62
               7
  6
CONTINUOUS
  0
LAYER
  2
LAYER060
 70
               0
 62
               7
  6
CONTINUOUS
  0
LAYER
  2
LAYER061
 70
               0
 62
               7
  6
CONTINUOUS
  0
LAYER
  2
LAYER062
 70
               0
 62
               7
  6
CONTINUOUS
  0
LAYER
  2
LAYER063
 70
               0
 62
               7
  6
CONTINUOUS
  0
LAYER
  2
LAYER064
 70
               0
 62
               7
  6
CONTINUOUS
  0
LAYER
  2
LAYER065
 70
               0
 62
               7
  6
CONTINUOUS
  0
LAYER
  2
LAYER066
 70
               0
 62
               7
  6
CONTINUOUS
  0
LAYER
  2
LAYER067
 70
               0
 62
               7
  6
CONTINUOUS
  0
LAYER
  2
LAYER068
 70
               0
 62
               7
  6
CONTINUOUS
  0
LAYER
  2
LAYER069
 70
               0
 62
               7
  6
CONTINUOUS
  0
LAYER
  2
LAYER070
 70
               0
 62
               7
  6
CONTINUOUS
  0
LAYER
  2
LAYER071
 70
               0
 62
               7
  6
CONTINUOUS
  0
LAYER
  2
LAYER072
 70
               0
 62
               7
  6
CONTINUOUS
  0
LAYER
  2
LAYER073
 70
               0
 62
               7
  6
CONTINUOUS
  0
LAYER
  2
LAYER074
 70
               0
 62
               7
  6
CONTINUOUS
  0
LAYER
  2
LAYER075
 70
               0
 62
               7
  6
CONTINUOUS
  0
LAYER
  2
LAYER076
 70
               0
 62
               7
  6
CONTINUOUS
  0
LAYER
  2
LAYER077
 70
               0
 62
               7
  6
CONTINUOUS
  0
LAYER
  2
LAYER078
 70
               0
 62
               7
  6
CONTINUOUS
  0
LAYER
  2
LAYER079
 70
               0
 62
               7
  6
CONTINUOUS
  0
LAYER
  2
LAYER080
 70
               0
 62
               7
  6
CONTINUOUS
  0
LAYER
  2
LAYER081
 70
               0
 62
               7
  6
CONTINUOUS
  0
LAYER
  2
LAYER082
 70
               0
 62
               7
  6
CONTINUOUS
  0
LAYER
  2
LAYER083
 70
               0
 62
               7
  6
CONTINUOUS
  0
LAYER
  2
LAYER084
 70
               0
 62
               7
  6
CONTINUOUS
  0
LAYER
  2
LAYER085
 70
               0
 62
               7
  6
CONTINUOUS
  0
LAYER
  2
LAYER086
 70
               0
 62
               7
  6
CONTINUOUS
  0
LAYER
  2
LAYER087
 70
               0
 62
               7
  6
CONTINUOUS
  0
LAYER
  2
LAYER088
 70
               0
 62
               7
  6
CONTINUOUS
  0
LAYER
  2
LAYER089
 70
               0
 62
               7
  6
CONTINUOUS
  0
LAYER
  2
LAYER090
 70
               0
 62
               7
  6
CONTINUOUS
  0
LAYER
  2
LAYER091
 70
               0
 62
               7
  6
CONTINUOUS
  0
LAYER
  2
LAYER092
 70
               0
 62
               7
  6
CONTINUOUS
  0
LAYER
  2
LAYER093
 70
               0
 62
               7
  6
CONTINUOUS
  0
LAYER
  2
LAYER094
 70
               0
 62
               7
  6
CONTINUOUS
  0
LAYER
  2
LAYER095
 70
               0
 62
               7
  6
CONTINUOUS
  0
LAYER
  2
LAYER096
 70
               0
 62
               7
  6
CONTINUOUS
  0
LAYER
  2
LAYER097
 70
               0
 62
               7
  6
CONTINUOUS
  0
LAYER
  2
LAYER098
 70
               0
 62
               7
  6
CONTINUOUS
  0
LAYER
  2
LAYER099
 70
               0
 62
               7
  6
CONTINUOUS
  0
LAYER
  2
LAYER100
 70
               0
 62
               7
  6
CONTINUOUS
  0
LAYER
  2
LAYER101
 70
               0
 62
               7
  6
CONTINUOUS
  0
LAYER
  2
LAYER102
 70
               0
 62
               7
  6
CONTINUOUS
  0
LAYER
  2
LAYER103
 70
               0
 62
               7
  6
CONTINUOUS
  0
LAYER
  2
LAYER104
 70
               0
 62
               7
  6
CONTINUOUS
  0
LAYER
  2
LAYER105
 70
               0
 62
               7
  6
CONTINUOUS
  0
LAYER
  2
LAYER106
 70
               0
 62
               7
  6
CONTINUOUS
  0
LAYER
  2
LAYER107
 70
               0
 62
               7
  6
CONTINUOUS
  0
LAYER
  2
LAYER108
 70
               0
 62
               7
  6
CONTINUOUS
  0
LAYER
  2
LAYER109
 70
               0
 62
               7
  6
CONTINUOUS
  0
LAYER
  2
LAYER110
 70
               0
 62
               7
  6
CONTINUOUS
  0
LAYER
  2
LAYER111
 70
               0
 62
               7
  6
CONTINUOUS
  0
LAYER
  2
LAYER112
 70
               0
 62
               7
  6
CONTINUOUS
  0
LAYER
  2
LAYER113
 70
               0
 62
               7
  6
CONTINUOUS
  0
LAYER
  2
LAYER114
 70
               0
 62
               7
  6
CONTINUOUS
  0
LAYER
  2
LAYER115
 70
               0
 62
               7
  6
CONTINUOUS
  0
LAYER
  2
LAYER116
 70
               0
 62
               7
  6
CONTINUOUS
  0
LAYER
  2
LAYER117
 70
               0
 62
               7
  6
CONTINUOUS
  0
LAYER
  2
LAYER118
 70
               0
 62
               7
  6
CONTINUOUS
  0
LAYER
  2
LAYER119
 70
               0
 62
               7
  6
CONTINUOUS
  0
LAYER
  2
LAYER120
 70
               0
 62
               7
  6
CONTINUOUS
  0
LAYER
  2
LAYER121
 70
               0
 62
               7
  6
CONTINUOUS
  0
LAYER
  2
LAYER122
 70
               0
 62
               7
  6
CONTINUOUS
  0
LAYER
  2
LAYER123
 70
               0
 62
               7
  6
CONTINUOUS
  0
LAYER
  2
LAYER124
 70
               0
 62
               7
  6
CONTINUOUS
  0
LAYER
  2
LAYER125
 70
               0
 62
               7
  6
CONTINUOUS
  0
LAYER
  2
LAYER126
 70
               0
 62
               7
  6
CONTINUOUS
  0
LAYER
  2
LAYER127
 70
               0
 62
               7
  6
CONTINUOUS
  0
LAYER
  2
LAYER128
 70
               0
 62
               7
  6
CONTINUOUS
  0
LAYER
  2
LAYER129
 70
               0
 62
               7
  6
CONTINUOUS
  0
LAYER
  2
LAYER130
 70
               0
 62
               7
  6
CONTINUOUS
  0
LAYER
  2
LAYER131
 70
               0
 62
               7
  6
CONTINUOUS
  0
LAYER
  2
LAYER132
 70
               0
 62
               7
  6
CONTINUOUS
  0
LAYER
  2
LAYER133
 70
               0
 62
               7
  6
CONTINUOUS
  0
LAYER
  2
LAYER134
 70
               0
 62
               7
  6
CONTINUOUS
  0
LAYER
  2
LAYER135
 70
               0
 62
               7
  6
CONTINUOUS
  0
LAYER
  2
LAYER136
 70
               0
 62
               7
  6
CONTINUOUS
  0
LAYER
  2
LAYER137
 70
               0
 62
               7
  6
CONTINUOUS
  0
LAYER
  2
LAYER138
 70
               0
 62
               7
  6
CONTINUOUS
  0
LAYER
  2
LAYER139
 70
               0
 62
               7
  6
CONTINUOUS
  0
LAYER
  2
LAYER140
 70
               0
 62
               7
  6
CONTINUOUS
  0
LAYER
  2
LAYER141
 70
               0
 62
               7
  6
CONTINUOUS
  0
LAYER
  2
LAYER142
 70
               0
 62
               7
  6
CONTINUOUS
  0
LAYER
  2
LAYER143
 70
               0
 62
               7
  6
CONTINUOUS
  0
LAYER
  2
LAYER144
 70
               0
 62
               7
  6
CONTINUOUS
  0
LAYER
  2
LAYER145
 70
               0
 62
               7
  6
CONTINUOUS
  0
LAYER
  2
LAYER146
 70
               0
 62
               7
  6
CONTINUOUS
  0
LAYER
  2
LAYER147
 70
               0
 62
               7
  6
CONTINUOUS
  0
LAYER
  2
LAYER148
 70
               0
 62
               7
  6
CONTINUOUS
  0
LAYER
  2
LAYER149
 70
               0
 62
               7
  6
CONTINUOUS
  0
LAYER
  2
LAYER150
 70
               0
 62
               7
  6
CONTINUOUS
  0
LAYER
  2
LAYER151
 70
               0
 62
               7
  6
CONTINUOUS
  0
LAYER
  2
LAYER152
 70
               0
 62
               7
  6
CONTINUOUS
  0
LAYER
  2
LAYER153
 70
               0
 62
               7
  6
CONTINUOUS
  0
LAYER
  2
LAYER154
 70
               0
 62
               7
  6
CONTINUOUS
  0
LAYER
  2
LAYER155
 70
               0
 62
               7
  6
CONTINUOUS
  0
LAYER
  2
LAYER156
 70
               0
 62
               7
  6
CONTINUOUS
  0
LAYER
  2
LAYER157
 70
               0
 62
               7
  6
CONTINUOUS
  0
LAYER
  2
LAYER158
 70
               0
 62
               7
  6
CONTINUOUS
  0
LAYER
  2
LAYER159
 70
               0
 62
               7
  6
CONTINUOUS
  0
LAYER
  2
LAYER160
 70
               0
 62
               7
  6
CONTINUOUS
  0
LAYER
  2
LAYER161
 70
               0
 62
               7
  6
CONTINUOUS
  0
LAYER
  2
LAYER162
 70
               0
 62
               7
  6
CONTINUOUS
  0
LAYER
  2
LAYER163
 70
               0
 62
               7
  6
CONTINUOUS
  0
LAYER
  2
LAYER164
 70
               0
 62
               7
  6
CONTINUOUS
  0
LAYER
  2
LAYER165
 70
               0
 62
               7
  6
CONTINUOUS
  0
LAYER
  2
LAYER166
 70
               0
 62
               7
  6
CONTINUOUS
  0
LAYER
  2
LAYER167
 70
               0
 62
               7
  6
CONTINUOUS
  0
LAYER
  2
LAYER168
 70
               0
 62
               7
  6
CONTINUOUS
  0
LAYER
  2
LAYER169
 70
               0
 62
               7
  6
CONTINUOUS
  0
LAYER
  2
LAYER170
 70
               0
 62
               7
  6
CONTINUOUS
  0
LAYER
  2
LAYER171
 70
               0
 62
               7
  6
CONTINUOUS
  0
LAYER
  2
LAYER172
 70
               0
 62
               7
  6
CONTINUOUS
  0
LAYER
  2
LAYER173
 70
               0
 62
               7
  6
CONTINUOUS
  0
LAYER
  2
LAYER174
 70
               0
 62
               7
  6
CONTINUOUS
  0
LAYER
  2
LAYER175
 70
               0
 62
               7
  6
CONTINUOUS
  0
LAYER
  2
LAYER176
 70
               0
 62
               7
  6
CONTINUOUS
  0
LAYER
  2
LAYER177
 70
               0
 62
               7
  6
CONTINUOUS
  0
LAYER
  2
LAYER178
 70
               0
 62
               7
  6
CONTINUOUS
  0
LAYER
  2
LAYER179
 70
               0
 62
               7
  6
CONTINUOUS
  0
LAYER
  2
LAYER180
 70
               0
 62
               7
  6
CONTINUOUS
  0
LAYER
  2
LAYER181
 70
               0
 62
               7
  6
CONTINUOUS
  0
LAYER
  2
LAYER182
 70
               0
 62
               7
  6
CONTINUOUS
  0
LAYER
  2
LAYER183
 70
               0
 62
               7
  6
CONTINUOUS
  0
LAYER
  2
LAYER184
 70
               0
 62
               7
  6
CONTINUOUS
  0
LAYER
  2
LAYER185
 70
               0
 62
               7
  6
CONTINUOUS
  0
LAYER
  2
LAYER186
 70
               0
 62
               7
  6
CONTINUOUS
  0
LAYER
  2
LAYER187
 70
               0
 62
               7
  6
CONTINUOUS
  0
LAYER
  2
LAYER188
 70
               0
 62
               7
  6
CONTINUOUS
  0
LAYER
  2
LAYER189
 70
               0
 62
               7
  6
CONTINUOUS
  0
LAYER
  2
LAYER190
 70
               0
 62
               7
  6
CONTINUOUS
  0
LAYER
  2
LAYER191
 70
               0
 62
               7
  6
CONTINUOUS
  0
LAYER
  2
LAYER192
 70
               0
 62
               7
  6
CONTINUOUS
  0
LAYER
  2
LAYER193
 70
               0
 62
               7
  6
CONTINUOUS
  0
LAYER
  2
LAYER194
 70
               0
 62
               7
  6
CONTINUOUS
  0
LAYER
  2
LAYER195
 70
               0
 62
               7
  6
CONTINUOUS
  0
LAYER
  2
LAYER196
 70
               0
 62
               7
  6
CONTINUOUS
  0
LAYER
  2
LAYER197
 70
               0
 62
               7
  6
CONTINUOUS
  0
LAYER
  2
LAYER198
 70
               0
 62
               7
  6
CONTINUOUS
  0
LAYER
  2
LAYER199
 70
               0
 62
               7
  6
CONTINUOUS
  0
LAYER
  2
LAYER200
 70
               0
 62
               7
  6
CONTINUOUS
  0
LAYER
  2
LAYER201
 70
               0
 62
               7
  6
CONTINUOUS
  0
LAYER
  2
LAYER202
 70
               0
 62
               7
  6
CONTINUOUS
  0
LAYER
  2
LAYER203
 70
               0
 62
               7
  6
CONTINUOUS
  0
LAYER
  2
LAYER204
 70
               0
 62
               7
  6
CONTINUOUS
  0
LAYER
  2
LAYER205
 70
               0
 62
               7
  6
CONTINUOUS
  0
LAYER
  2
LAYER206
 70
               0
 62
               7
  6
CONTINUOUS
  0
LAYER
  2
LAYER207
 70
               0
 62
               7
  6
CONTINUOUS
  0
LAYER
  2
LAYER208
 70
               0
 62
               7
  6
CONTINUOUS
  0
LAYER
  2
LAYER209
 70
               0
 62
               7
  6
CONTINUOUS
  0
LAYER
  2
LAYER210
 70
               0
 62
               7
  6
CONTINUOUS
  0
LAYER
  2
LAYER211
 70
               0
 62
               7
  6
CONTINUOUS
  0
LAYER
  2
LAYER212
 70
               0
 62
               7
  6
CONTINUOUS
  0
LAYER
  2
LAYER213
 70
               0
 62
               7
  6
CONTINUOUS
  0
LAYER
  2
LAYER214
 70
               0
 62
               7
  6
CONTINUOUS
  0
LAYER
  2
LAYER215
 70
               0
 62
               7
  6
CONTINUOUS
  0
LAYER
  2
LAYER216
 70
               0
 62
               7
  6
CONTINUOUS
  0
LAYER
  2
LAYER217
 70
               0
 62
               7
  6
CONTINUOUS
  0
LAYER
  2
LAYER218
 70
               0
 62
               7
  6
CONTINUOUS
  0
LAYER
  2
LAYER219
 70
               0
 62
               7
  6
CONTINUOUS
  0
LAYER
  2
LAYER220
 70
               0
 62
               7
  6
CONTINUOUS
  0
LAYER
  2
LAYER221
 70
               0
 62
               7
  6
CONTINUOUS
  0
LAYER
  2
LAYER222
 70
               0
 62
               7
  6
CONTINUOUS
  0
LAYER
  2
LAYER223
 70
               0
 62
               7
  6
CONTINUOUS
  0
LAYER
  2
LAYER224
 70
               0
 62
               7
  6
CONTINUOUS
  0
LAYER
  2
LAYER225
 70
               0
 62
               7
  6
CONTINUOUS
  0
LAYER
  2
LAYER226
 70
               0
 62
               7
  6
CONTINUOUS
  0
LAYER
  2
LAYER227
 70
               0
 62
               7
  6
CONTINUOUS
  0
LAYER
  2
LAYER228
 70
               0
 62
               7
  6
CONTINUOUS
  0
LAYER
  2
LAYER229
 70
               0
 62
               7
  6
CONTINUOUS
  0
LAYER
  2
LAYER230
 70
               0
 62
               7
  6
CONTINUOUS
  0
LAYER
  2
LAYER231
 70
               0
 62
               7
  6
CONTINUOUS
  0
LAYER
  2
LAYER232
 70
               0
 62
               7
  6
CONTINUOUS
  0
LAYER
  2
LAYER233
 70
               0
 62
               7
  6
CONTINUOUS
  0
LAYER
  2
LAYER234
 70
               0
 62
               7
  6
CONTINUOUS
  0
LAYER
  2
LAYER235
 70
               0
 62
               7
  6
CONTINUOUS
  0
LAYER
  2
LAYER236
 70
               0
 62
               7
  6
CONTINUOUS
  0
LAYER
  2
LAYER237
 70
               0
 62
               7
  6
CONTINUOUS
  0
LAYER
  2
LAYER238
 70
               0
 62
               7
  6
CONTINUOUS
  0
LAYER
  2
LAYER239
 70
               0
 62
               7
  6
CONTINUOUS
  0
LAYER
  2
LAYER240
 70
               0
 62
               7
  6
CONTINUOUS
  0
LAYER
  2
LAYER241
 70
               0
 62
               7
  6
CONTINUOUS
  0
LAYER
  2
LAYER242
 70
               0
 62
               7
  6
CONTINUOUS
  0
LAYER
  2
LAYER243
 70
               0
 62
               7
  6
CONTINUOUS
  0
LAYER
  2
LAYER244
 70
               0
 62
               7
  6
CONTINUOUS
  0
LAYER
  2
LAYER245
 70
               0
 62
               7
  6
CONTINUOUS
  0
LAYER
  2
LAYER246
 70
               0
 62
               7
  6
CONTINUOUS
  0
LAYER
  2
LAYER247
 70
               0
 62
               7
  6
CONTINUOUS
  0
LAYER
  2
LAYER248
 70
               0
 62
               7
  6
CONTINUOUS
  0
LAYER
  2
LAYER249
 70
               0
 62
               7
  6
CONTINUOUS
  0
LAYER
  2
LAYER250
 70
               0
 62
               7
  6
CONTINUOUS
  0
LAYER
  2
LAYER251
 70
               0
 62
               7
  6
CONTINUOUS
  0
LAYER
  2
LAYER252
 70
               0
 62
               7
  6
CONTINUOUS
  0
LAYER
  2
LAYER253
 70
               0
 62
               7
  6
CONTINUOUS
  0
LAYER
  2
LAYER254
 70
               0
 62
               7
  6
CONTINUOUS
  0
LAYER
  2
LAYER255
 70
               0
 62
               7
  6
CONTINUOUS
  0
ENDTAB
  0
TABLE
  2
STYLE
 70
               1
  0
STYLE
  2
STANDARD
 70
               0
 40
0.0
 41
0.8
 50
0.0
 71
               0
 42
40.0
  3
MS PGothic.ttf
  4

  0
ENDTAB
  0
TABLE
  2
VIEW
 70
               0
  0
VIEW
  2
QQQQ
 70
               0
 40
2340.8497772698383
 10
14.643261608154035
 20
-437.63520849510269
 41
1553.9466081540199
 11
0.0
 21
0.0
 31
1.0
 12
100.0
 22
100.0
 32
0.0
 42
50.0
 43
0.0
 44
0.0
 50
0.0
 71
               0
  0
ENDTAB
  0
TABLE
  2
UCS
 70
               0
  0
ENDTAB
  0
TABLE
  2
APPID
 70
               1
  0
APPID
  2
ACAD
 70
               0
  0
ENDTAB
  0
TABLE
  2
DIMSTYLE
 70
               1
  0
DIMSTYLE
  2
STANDARD
 70
               0
  3

  4

  5

  6

  7

 40
1.0
 41
0.18
 42
0.0625
 43
0.38
 44
0.18
 45
0.0
 46
0.0
 47
0.0
 48
0.0
140
0.18
141
0.09
142
0.0
143
25.399999999999999
144
1.0
145
0.0
146
1.0
147
0.09
 71
               0
 72
               0
 73
               1
 74
               1
 75
               0
 76
               0
 77
               0
 78
               0
170
               0
171
               2
172
               0
173
               0
174
               0
175
               0
176
               0
177
               0
178
               0
  0
ENDTAB
  0
ENDSEC
  0
SECTION
  2
BLOCKS
  0
ENDSEC
  0
SECTION
  2
ENTITIES
  0
LINE
  8
0
  6
DASHDOT
 62
               4
  5
136
 10
-600.00000000000023
 20
106.42716448160115
 30
0.0
 11
-600.00000000000023
 21
-598.57283551839907
 31
0.0
  0
LINE
  8
0
  6
DASHDOT
 62
               4
  5
137
 10
599.99999999999977
 20
106.42716448160127
 30
0.0
 11
599.99999999999977
 21
-621.57283551839873
 31
0.0
  0
LINE
  8
0
  6
DASHDOT
 62
               4
  5
138
 10
-0.0000000000002274
 20
106.42716448160104
 30
0.0
 11
-0.0000000000001828
 21
-621.57283551839885
 31
0.0
  0
LINE
  8
0
  6
DASHDOT
 62
               4
  5
139
 10
-0.0000000000001099
 20
621.57283551839885
 30
0.0
 11
-0.0000000000004121
 21
426.42716448160127
 31
0.0
  0
LINE
  8
0
  6
DASHDOT
 62
               4
  5
13A
 10
-165.00000000000023
 20
521.42716448160127
 30
0.0
 11
105.90917727531797
 21
521.42716448160127
 31
0.0
  0
LINE
  8
0
  6
DASHDOT
 62
               4
  5
13B
 10
-531.47477522477539
 20
-79.572835518398961
 30
0.0
 11
-668.1755744255745
 21
-79.572835518398961
 31
0.0
  0
LINE
  8
0
  6
DASHDOT
 62
               4
  5
13C
 10
-162.00000000000011
 20
-79.572835518398847
 30
0.0
 11
-62.000000000000099
 21
-79.572835518398847
 31
0.0
  0
LINE
  8
0
  6
DASHDOT
 62
               4
  5
13D
 10
-392.13776905046893
 20
-1065.7210309995917
 30
0.0
 11
-392.13776905046882
 21
-936.72103099959156
 31
0.0
  0
LINE
  8
0
  6
DASHDOT
 62
               4
  5
13E
 10
-450.13776905046893
 20
-1007.7210309995916
 30
0.0
 11
-334.13776905046893
 21
-1007.7210309995916
 31
0.0
  0
LINE
  8
0
  6
DASHDOT
 62
               4
  5
13F
 10
-461.94094753457637
 20
-1001.2210309995916
 30
0.0
 11
-327.63776905046893
 21
-1001.2210309995916
 31
0.0
  0
LINE
  8
0
  6
DASHDOT
 62
               4
  5
140
 10
-268.23776905046884
 20
-1001.2210309995916
 30
0.0
 11
-169.63776905046893
 21
-1001.2210309995916
 31
0.0
  0
LINE
  8
0
  6
DASHDOT
 62
               4
  5
141
 10
-302.63776905046893
 20
-1007.7210309995916
 30
0.0
 11
-228.23776905046896
 21
-1007.7210309995916
 31
0.0
  0
LINE
  8
0
  6
DASHDOT
 62
               4
  5
142
 10
-516.0377690504688
 20
-1001.2210309995913
 30
0.0
 11
-614.63776905046893
 21
-1001.2210309995911
 31
0.0
  0
LINE
  8
0
  6
DASHDOT
 62
               4
  5
143
 10
-481.63776905046893
 20
-1007.7210309995913
 30
0.0
 11
-556.0377690504688
 21
-1007.7210309995913
 31
0.0
  0
LINE
  8
0
  6
DASHDOT
 62
               4
  5
144
 10
-394.08372644623546
 20
-904.25314693055645
 30
0.0
 11
-394.08372644623546
 21
-771.25314693055645
 31
0.0
  0
LINE
  8
0
  6
DASHDOT
 62
               4
  5
145
 10
221.63392368588075
 20
-1001.2210309995916
 30
0.0
 11
320.23392368588088
 21
-1001.2210309995916
 31
0.0
  0
LINE
  8
0
  6
DASHDOT
 62
               4
  5
146
 10
196.63392368588075
 20
-1015.7210309995916
 30
0.0
 11
261.63392368588075
 21
-1015.7210309995916
 31
0.0
  0
LINE
  8
0
  6
DASHDOT
 62
               4
  5
147
 10
70.877907460637743
 20
-1015.7210309995916
 30
0.0
 11
170.87790746063797
 21
-1015.7210309995916
 31
0.0
  0
LINE
  8
0
  6
DASHDOT
 62
               4
  5
148
 10
120.87790746063774
 20
-1065.7210309995917
 30
0.0
 11
120.87790746063797
 21
-936.72103099959156
 31
0.0
  0
LINE
  8
0
  6
DASHDOT
 62
               4
  5
149
 10
56.377907460637743
 20
-1001.2210309995916
 30
0.0
 11
190.92191724058898
 21
-1001.2210309995916
 31
0.0
  0
LINE
  8
0
  6
DASHDOT
 62
               4
  5
14A
 10
20.121891235394969
 20
-1001.2210309995916
 30
0.0
 11
-78.478108764605054
 21
-1001.2210309995916
 31
0.0
  0
LINE
  8
0
  6
DASHDOT
 62
               4
  5
14B
 10
45.121891235394969
 20
-1015.7210309995916
 30
0.0
 11
-19.878108764605031
 21
-1015.7210309995916
 31
0.0
  0
LINE
  8
0
  6
DASHDOT
 62
               4
  5
14C
 10
120.87790746063797
 20
-914.96501477434879
 30
0.0
 11
120.87790746063797
 21
-791.36501477434865
 31
0.0
  0
LINE
  8
0
  6
DASHDOT
 62
               4
  5
14D
 10
609.28652321630761
 20
-835.03659542780053
 30
0.0
 11
609.28652321630761
 21
-1105.5833822276268
 31
0.0
  0
LINE
  8
0
  6
DASHDOT
 62
               4
  5
14E
 10
447.28652321630773
 20
-943.53659542780053
 30
0.0
 11
717.78652321630784
 21
-943.53659542780053
 31
0.0
  0
LINE
  8
0
  6
DASHDOT
 62
               4
  5
14F
 10
677.81174799153234
 20
-1418.036029176385
 30
0.0
 11
447.55790992287939
 21
-1418.036029176385
 31
0.0
  0
LINE
  8
0
  6
DASHDOT
 62
               4
  5
150
 10
609.28652321630761
 20
-1232.036029176385
 30
0.0
 11
609.28652321630761
 21
-1483.036029176385
 31
0.0
  0
LINE
  8
0
  6
DASHDOT
 62
               4
  5
151
 10
559.28652321630761
 20
-1432.536029176385
 30
0.0
 11
659.28652321630784
 21
-1432.536029176385
 31
0.0
  0
LINE
  8
0
  6
DASHDOT
 62
               4
  5
152
 10
609.28652321630761
 20
-1134.1365954278008
 30
0.0
 11
609.28652321630761
 21
-1010.5365954278004
 31
0.0
  0
LINE
  8
0
  6
DASHDOT
 62
               4
  5
153
 10
409.28652321630761
 20
-1424.536029176385
 30
0.0
 11
483.68652321630759
 21
-1424.536029176385
 31
0.0
  0
LINE
  8
0
  6
DASHDOT
 62
               4
  5
154
 10
409.28652321630784
 20
-943.53659542780031
 30
0.0
 11
542.28652321630784
 21
-943.53659542780031
 31
0.0
  0
ARC
  8
0
  6
CONTINUOUS
 62
               4
  5
155
 10
-878.92922884912446
 20
-439.24523392986134
 30
0.0
 40
359.11818398045398
 50
13.303286818137405
 51
28.552443501612977
  0
ARC
  8
0
  6
CONTINUOUS
 62
               4
  5
156
 10
-600.33118646999378
 20
-330.99855802729212
 30
0.0
 40
73.327111796148202
 50
342.62945642124168
 51
419.8368916055386
  0
LINE
  8
0
  6
CONTINUOUS
 62
               4
  5
157
 10
-656.99999999999977
 20
-479.57283551840123
 30
0.0
 11
-542.99999999999977
 21
-479.57283551840123
 31
0.0
  0
LINE
  8
0
  6
CONTINUOUS
 62
               4
  5
158
 10
-657.99999999999977
 20
-478.57283551840123
 30
0.0
 11
-541.99999999999977
 21
-478.57283551840078
 31
0.0
  0
LINE
  8
0
  6
CONTINUOUS
 62
               4
  5
159
 10
76.999999999999773
 20
-10.037181765546279
 30
0.0
 11
71.999999999999773
 21
-5.0371817655462792
 31
0.0
  0
ARC
  8
0
  6
CONTINUOUS
 62
               4
  5
15A
 10
54.499999999999773
 20
-20.572835518399074
 30
0.0
 40
19.999999999999996
 50
0.0
 51
31.788330617045649
  0
LINE
  8
0
  6
CONTINUOUS
 62
               4
  5
15B
 10
71.500000000000227
 20
-10.037181765546279
 30
0.0
 11
71.500000000000227
 21
-5.0371817655457107
 31
0.0
  0
LINE
  8
0
  6
CONTINUOUS
 62
               4
  5
15C
 10
71.999999999999773
 20
-5.0371817655462792
 30
0.0
 11
71.500000000000227
 21
-5.0371817655462792
 31
0.0
  0
LINE
  8
0
  6
CONTINUOUS
 62
               4
  5
15D
 10
76.749999999999773
 20
-10.287181765546165
 30
0.0
 11
71.500000000000227
 21
-5.0371817655462792
 31
0.0
  0
LINE
  8
0
  6
CONTINUOUS
 62
               4
  5
15E
 10
76.749999999999773
 20
-10.287181765546165
 30
0.0
 11
76.999999999999773
 21
-10.037181765546279
 31
0.0
  0
LINE
  8
0
  6
CONTINUOUS
 62
               4
  5
15F
 10
76.999999999999773
 20
-10.037181765546279
 30
0.0
 11
76.999999999999773
 21
-200.72585911551607
 31
0.0
  0
LINE
  8
0
  6
CONTINUOUS
 62
               4
  5
160
 10
76.749999999999773
 20
-10.287181765546165
 30
0.0
 11
76.749999999999773
 21
-200.44050200838058
 31
0.0
  0
LINE
  8
0
  6
CONTINUOUS
 62
               4
  5
161
 10
74.499999999999773
 20
-20.572835518399074
 30
0.0
 11
74.499999999999773
 21
-199.72585911551619
 31
0.0
  0
LINE
  8
0
  6
CONTINUOUS
 62
               4
  5
162
 10
76.999999999999773
 20
-203.72585911551596
 30
0.0
 11
76.999999999999773
 21
-317.68640374865413
 31
0.0
  0
LINE
  8
0
  6
CONTINUOUS
 62
               4
  5
163
 10
74.499999999999773
 20
-204.72585911551619
 30
0.0
 11
74.499999999999773
 21
-317.5444434608346
 31
0.0
  0
LINE
  8
0
  6
CONTINUOUS
 62
               4
  5
164
 10
76.749999999999773
 20
-204.01121622265202
 30
0.0
 11
76.749999999999773
 21
-317.67220771987206
 31
0.0
  0
LINE
  8
0
  6
CONTINUOUS
 62
               4
  5
165
 10
74.496765133649433
 20
-317.57283551839885
 30
0.0
 11
76.999999999999773
 21
-317.68640374865413
 31
0.0
  0
LINE
  8
0
  6
CONTINUOUS
 62
               4
  5
166
 10
58.141132586505819
 20
-371.35734457459876
 30
0.0
 11
-65.512000000000853
 21
-267.60004662734593
 31
0.0
  0
ARC
  8
0
  6
CONTINUOUS
 62
               4
  5
167
 10
-914.2723201005399
 20
-1412.1584637542946
 30
0.0
 40
1424.9238755783815
 50
50.18995614625684
 51
53.440796050721552
  0
ARC
  8
0
  6
CONTINUOUS
 62
               4
  5
168
 10
63.579388837032866
 20
-246.80017660355281
 30
0.0
 40
130.75634311527989
 50
189.15312334026754
 51
212.76918311271189
  0
ARC
  8
0
  6
CONTINUOUS
 62
               4
  5
169
 10
61.364025499550962
 20
-236.6661558523125
 30
0.0
 40
134.72974192119386
 50
216.90649751129573
 51
268.62928723405531
  0
ARC
  8
0
  6
CONTINUOUS
 62
               4
  5
16A
 10
-733.63034809850865
 20
-1195.8195064294077
 30
0.0
 40
1143.0835201141012
 50
46.158732653416578
 51
50.202696616646634
  0
LINE
  8
0
  6
CONTINUOUS
 62
               4
  5
16B
 10
57.999999999999773
 20
-466.7799205851876
 30
0.0
 11
60.271775600348747
 21
-464.50814498483908
 31
0.0
  0
LINE
  8
0
  6
CONTINUOUS
 62
               4
  5
16C
 10
57.496765133650342
 20
-466.77992058518805
 30
0.0
 11
60.271775600348747
 21
-464.50814498483908
 31
0.0
  0
LINE
  8
0
  6
CONTINUOUS
 62
               4
  5
16D
 10
76.999999999999773
 20
-317.68640374865413
 30
0.0
 11
60.271775600348747
 21
-464.50814498483908
 31
0.0
  0
LINE
  8
0
  6
CONTINUOUS
 62
               4
  5
16E
 10
74.499999999999773
 20
-317.5444434608346
 30
0.0
 11
57.496765133650342
 21
-466.77992058518805
 31
0.0
  0
LINE
  8
0
  6
CONTINUOUS
 62
               4
  5
16F
 10
76.749999999999773
 20
-317.67220771987206
 30
0.0
 11
59.994274553678451
 21
-464.73532254487395
 31
0.0
  0
LINE
  8
0
  6
CONTINUOUS
 62
               4
  5
170
 10
-57.000000000000341
 20
-479.57283551840112
 30
0.0
 11
56.999999999999602
 21
-479.57283551840112
 31
0.0
  0
LINE
  8
0
  6
CONTINUOUS
 62
               4
  5
171
 10
-58.000000000000284
 20
-478.57283551840112
 30
0.0
 11
57.999999999999659
 21
-478.57283551840067
 31
0.0
  0
ARC
  8
0
  6
CONTINUOUS
 62
               4
  5
172
 10
574.21603418803375
 20
-20.572835518398961
 30
0.0
 40
17.566965811965957
 50
0.0
 51
36.851448659223728
  0
LINE
  8
0
  6
CONTINUOUS
 62
               4
  5
173
 10
611.72700000000009
 20
-5.0371817655461655
 30
0.0
 11
588.27299999999946
 21
-5.0371817655461655
 31
0.0
  0
ARC
  8
0
  6
CONTINUOUS
 62
               4
  5
174
 10
625.78396581196534
 20
-20.572835518398961
 30
0.0
 40
17.566965811965957
 50
143.14855134074139
 51
179.99999999996521
  0
LINE
  8
0
  6
CONTINUOUS
 62
               4
  5
175
 10
588.27299999999946
 20
-10.037181765546165
 30
0.0
 11
588.27299999999946
 21
-5.0371817655461655
 31
0.0
  0
LINE
  8
0
  6
CONTINUOUS
 62
               4
  5
176
 10
611.72700000000009
 20
-10.037181765546165
 30
0.0
 11
611.72700000000009
 21
-5.0371817655461655
 31
0.0
  0
LINE
  8
0
  6
CONTINUOUS
 62
               4
  5
177
 10
588.27299999999946
 20
-5.0371817655461655
 30
0.0
 11
593.99999999999977
 21
-10.037181765546165
 31
0.0
  0
LINE
  8
0
  6
CONTINUOUS
 62
               4
  5
178
 10
605.99999999999932
 20
-10.037181765546165
 30
0.0
 11
611.72700000000009
 21
-5.0371817655461655
 31
0.0
  0
LINE
  8
0
  6
CONTINUOUS
 62
               4
  5
179
 10
593.99999999999977
 20
-10.037181765546165
 30
0.0
 11
605.99999999999932
 21
-10.037181765546165
 31
0.0
  0
LINE
  8
0
  6
CONTINUOUS
 62
               4
  5
17A
 10
605.99999999999932
 20
-200.72585911551596
 30
0.0
 11
593.99999999999977
 21
-200.72585911551596
 31
0.0
  0
ARC
  8
0
  6
CONTINUOUS
 62
               4
  5
17B
 10
591.93835546658443
 20
-202.13993896398267
 30
0.0
 40
2.4999999999999996
 50
34.446185822137501
 51
93.562780573777502
  0
ARC
  8
0
  6
CONTINUOUS
 62
               4
  5
17C
 10
608.06164453341512
 20
-202.13993896398267
 30
0.0
 40
2.4999999999999996
 50
86.437219426188165
 51
145.55381417782667
  0
LINE
  8
0
  6
CONTINUOUS
 62
               4
  5
17D
 10
605.99999999999932
 20
-203.72585911551585
 30
0.0
 11
593.99999999999977
 21
-203.72585911551585
 31
0.0
  0
ARC
  8
0
  6
CONTINUOUS
 62
               4
  5
17E
 10
591.93835546658443
 20
-202.31177926704947
 30
0.0
 40
2.4999999999999996
 50
266.43721942615377
 51
325.55381417779284
  0
ARC
  8
0
  6
CONTINUOUS
 62
               4
  5
17F
 10
608.06164453341512
 20
-202.31177926704947
 30
0.0
 40
2.4999999999999996
 50
214.44618582210367
 51
273.56278057374317
  0
LINE
  8
0
  6
CONTINUOUS
 62
               4
  5
180
 10
591.78299999999967
 20
-204.72585911551607
 30
0.0
 11
591.78299999999967
 21
-466.77992058518799
 31
0.0
  0
LINE
  8
0
  6
CONTINUOUS
 62
               4
  5
181
 10
608.21699999999942
 20
-204.81177926704947
 30
0.0
 11
608.21699999999942
 21
-466.77992058518799
 31
0.0
  0
LINE
  8
0
  6
CONTINUOUS
 62
               4
  5
182
 10
593.99999999999977
 20
-203.72585911551585
 30
0.0
 11
593.99999999999977
 21
-464.50814498483896
 31
0.0
  0
LINE
  8
0
  6
CONTINUOUS
 62
               4
  5
183
 10
605.99999999999932
 20
-464.50814498483896
 30
0.0
 11
605.99999999999932
 21
-203.72585911551585
 31
0.0
  0
LINE
  8
0
  6
CONTINUOUS
 62
               4
  5
184
 10
608.21699999999942
 20
-317.57283551839879
 30
0.0
 11
591.78299999999967
 21
-317.57283551839879
 31
0.0
  0
LINE
  8
0
  6
CONTINUOUS
 62
               4
  5
185
 10
593.99999999999977
 20
-464.50814498483896
 30
0.0
 11
605.99999999999932
 21
-464.50814498483896
 31
0.0
  0
LINE
  8
0
  6
CONTINUOUS
 62
               4
  5
186
 10
591.78299999999967
 20
-466.77992058518799
 30
0.0
 11
593.99999999999977
 21
-464.50814498483896
 31
0.0
  0
LINE
  8
0
  6
CONTINUOUS
 62
               4
  5
187
 10
605.99999999999932
 20
-464.50814498483896
 30
0.0
 11
608.21699999999942
 21
-466.77992058518799
 31
0.0
  0
LINE
  8
0
  6
CONTINUOUS
 62
               4
  5
188
 10
591.78299999999967
 20
-20.572835518398961
 30
0.0
 11
591.78299999999967
 21
-199.72585911551607
 31
0.0
  0
LINE
  8
0
  6
CONTINUOUS
 62
               4
  5
189
 10
608.21699999999942
 20
-20.572835518398961
 30
0.0
 11
608.21699999999942
 21
-199.72585911551607
 31
0.0
  0
LINE
  8
0
  6
CONTINUOUS
 62
               4
  5
18A
 10
605.99999999999932
 20
-200.72585911551596
 30
0.0
 11
605.99999999999932
 21
-10.037181765546165
 31
0.0
  0
LINE
  8
0
  6
CONTINUOUS
 62
               4
  5
18B
 10
593.99999999999977
 20
-10.037181765546165
 30
0.0
 11
593.99999999999977
 21
-200.72585911551596
 31
0.0
  0
ARC
  8
0
  6
CONTINUOUS
 62
               4
  5
18C
 10
585.02192705347193
 20
-321.87008517198041
 30
0.0
 40
59.149634972654262
 50
186.4999999999639
 51
236.78754046664218
  0
ARC
  8
0
  6
CONTINUOUS
 62
               4
  5
18D
 10
605.92691953069357
 20
-310.02106807322878
 30
0.0
 40
81.261593956721953
 50
186.49999999996388
 51
229.00792456449784
  0
ARC
  8
0
  6
CONTINUOUS
 62
               4
  5
18E
 10
460.68129117650443
 20
-394.35858689792343
 30
0.0
 40
204.24864340422488
 50
353.49999999993162
 51
373.4368021674054
  0
ARC
  8
0
  6
CONTINUOUS
 62
               4
  5
18F
 10
498.3723009445655
 20
-392.07416982851572
 30
0.0
 40
167.18634723772169
 50
351.25933879886691
 51
375.67746336847057
  0
LINE
  8
0
  6
CONTINUOUS
 62
               4
  5
190
 10
542.99999999999955
 20
-479.57283551840067
 30
0.0
 11
656.99999999999955
 21
-479.57283551840067
 31
0.0
  0
LINE
  8
0
  6
CONTINUOUS
 62
               4
  5
191
 10
541.99999999999966
 20
-478.57283551840067
 30
0.0
 11
657.99999999999955
 21
-478.57283551840021
 31
0.0
  0
POINT
  8
0
  6
CONTINUOUS
 62
               4
  5
192
 10
-247.03776905046891
 20
-956.72103099959156
 30
0.0
  0
POINT
  8
0
  6
CONTINUOUS
 62
               4
  5
193
 10
-537.23776905046884
 20
-956.72103099959133
 30
0.0
  0
POINT
  8
0
  6
CONTINUOUS
 62
               4
  5
194
 10
-349.58372644623546
 20
-848.65314693055655
 30
0.0
  0
POINT
  8
0
  6
CONTINUOUS
 62
               4
  5
195
 10
242.83392368588079
 20
-956.72103099959156
 30
0.0
  0
POINT
  8
0
  6
CONTINUOUS
 62
               4
  5
196
 10
-1.0781087646050764
 20
-956.72103099959156
 30
0.0
  0
POINT
  8
0
  6
CONTINUOUS
 62
               4
  5
197
 10
165.37790746063797
 20
-868.76501477434874
 30
0.0
  0
LINE
  8
0
  6
CONTINUOUS
 62
               4
  5
198
 10
686.2865232163075
 20
-1348.5003754235322
 30
0.0
 11
681.2865232163075
 21
-1343.5003754235322
 31
0.0
  0
ARC
  8
0
  6
CONTINUOUS
 62
               4
  5
199
 10
663.7865232163075
 20
-1359.036029176385
 30
0.0
 40
19.999999999999996
 50
0.0
 51
31.788330617039573
  0
LINE
  8
0
  6
CONTINUOUS
 62
               4
  5
19A
 10
680.78652321630796
 20
-1348.5003754235322
 30
0.0
 11
680.78652321630796
 21
-1343.5003754235318
 31
0.0
  0
LINE
  8
0
  6
CONTINUOUS
 62
               4
  5
19B
 10
681.2865232163075
 20
-1343.5003754235322
 30
0.0
 11
680.78652321630796
 21
-1343.5003754235322
 31
0.0
  0
LINE
  8
0
  6
CONTINUOUS
 62
               4
  5
19C
 10
686.03652321630773
 20
-1348.7503754235322
 30
0.0
 11
680.78652321630796
 21
-1343.5003754235322
 31
0.0
  0
LINE
  8
0
  6
CONTINUOUS
 62
               4
  5
19D
 10
686.03652321630773
 20
-1348.7503754235322
 30
0.0
 11
686.2865232163075
 21
-1348.5003754235322
 31
0.0
  0
LINE
  8
0
  6
CONTINUOUS
 62
               4
  5
19E
 10
686.2865232163075
 20
-1348.5003754235322
 30
0.0
 11
686.2865232163075
 21
-1479.1890527735018
 31
0.0
  0
LINE
  8
0
  6
CONTINUOUS
 62
               4
  5
19F
 10
686.03652321630773
 20
-1348.7503754235322
 30
0.0
 11
686.03652321630773
 21
-1478.9036956663663
 31
0.0
  0
LINE
  8
0
  6
CONTINUOUS
 62
               4
  5
1A0
 10
683.7865232163075
 20
-1358.8830055792678
 30
0.0
 11
683.7865232163075
 21
-1478.036029176385
 31
0.0
  0
POINT
  8
0
  6
CONTINUOUS
 62
               4
  5
1A1
 10
653.78652321630761
 20
-1087.9365954278005
 30
0.0
  0
POINT
  8
0
  6
CONTINUOUS
 62
               4
  5
1A2
 10
464.88652321630764
 20
-1373.536029176385
 30
0.0
  0
POINT
  8
0
  6
CONTINUOUS
 62
               4
  5
1A3
 10
464.88652321630775
 20
-988.03659542780031
 30
0.0
  0
LINE
  8
0
  6
DASHED2
 62
               4
  5
1A4
 10
-657.00000000000068
 20
21.427164481601153
 30
0.0
 11
-543.00000000000091
 21
21.427164481601153
 31
0.0
  0
LINE
  8
0
  6
DASHED2
 62
               4
  5
1A5
 10
-57.000000000000227
 20
21.427164481601039
 30
0.0
 11
56.999999999999773
 21
21.427164481601039
 31
0.0
  0
LINE
  8
0
  6
DASHED2
 62
               4
  5
1A6
 10
542.99999999999977
 20
21.427164481601153
 30
0.0
 11
656.99999999999977
 21
21.427164481601153
 31
0.0
  0
LINE
  8
0
  6
DASHED2
 62
               4
  5
1A7
 10
552.28652321630773
 20
-1317.036029176385
 30
0.0
 11
666.2865232163075
 21
-1317.036029176385
 31
0.0
  0
LINE
  8
0
  6
CONTINUOUS
 62
               3
  5
1A8
 10
-674.99999999999977
 20
86.427164481601153
 30
0.0
 11
-525.00000000000023
 21
86.427164481601153
 31
0.0
  0
LINE
  8
0
  6
CONTINUOUS
 62
               3
  5
1A9
 10
-688.49999999999977
 20
76.427164481601153
 30
0.0
 11
-688.49999999999977
 21
69.42716448160138
 31
0.0
  0
LINE
  8
0
  6
CONTINUOUS
 62
               3
  5
1AA
 10
-688.49999999999977
 20
76.427164481601153
 30
0.0
 11
-674.99999999999977
 21
86.427164481601153
 31
0.0
  0
ARC
  8
0
  6
CONTINUOUS
 62
               3
  5
1AB
 10
-676.99999999999955
 20
64.844588786645659
 30
0.0
 40
4.9999999999999991
 50
0.0
 51
66.421821521785233
  0
LINE
  8
0
  6
CONTINUOUS
 62
               3
  5
1AC
 10
-688.49999999999977
 20
69.42716448160138
 30
0.0
 11
-511.5
 21
69.42716448160138
 31
0.0
  0
ARC
  8
0
  6
CONTINUOUS
 62
               3
  5
1AD
 10
-654.99999999999977
 20
-20.572835518398961
 30
0.0
 40
19.999999999999996
 50
148.21166938291961
 51
179.99999999996521
  0
LINE
  8
0
  6
CONTINUOUS
 62
               3
  5
1AE
 10
-671.99999999999955
 20
64.844588786645659
 30
0.0
 11
-671.99999999999955
 21
-10.037181765546165
 31
0.0
  0
ARC
  8
0
  6
CONTINUOUS
 62
               3
  5
1AF
 10
-545.00000000000023
 20
-20.572835518398961
 30
0.0
 40
19.999999999999996
 50
0.0
 51
31.78833061704556
  0
LINE
  8
0
  6
CONTINUOUS
 62
               3
  5
1B0
 10
-527.99999999999977
 20
-10.037181765546165
 30
0.0
 11
-527.99999999999977
 21
64.844588786645659
 31
0.0
  0
LINE
  8
0
  6
CONTINUOUS
 62
               3
  5
1B1
 10
-657.99999999999977
 20
-466.77992058518794
 30
0.0
 11
-674.99999999999977
 21
-317.57283551839873
 31
0.0
  0
LINE
  8
0
  6
CONTINUOUS
 62
               3
  5
1B2
 10
-525.00000000000023
 20
-317.57283551839873
 30
0.0
 11
-525.00000000000068
 21
-204.72585911551607
 31
0.0
  0
LINE
  8
0
  6
CONTINUOUS
 62
               3
  5
1B3
 10
-674.99999999999977
 20
-204.72585911551607
 30
0.0
 11
-674.99999999999977
 21
-317.57283551839873
 31
0.0
  0
LINE
  8
0
  6
CONTINUOUS
 62
               3
  5
1B4
 10
-671.99999999999955
 20
-10.037181765546165
 30
0.0
 11
-527.99999999999977
 21
-10.037181765546165
 31
0.0
  0
LINE
  8
0
  6
CONTINUOUS
 62
               3
  5
1B5
 10
-619.99999999999977
 20
69.42716448160138
 30
0.0
 11
-619.99999999999977
 21
86.427164481601153
 31
0.0
  0
LINE
  8
0
  6
CONTINUOUS
 62
               3
  5
1B6
 10
-580.00000000000023
 20
86.427164481601153
 30
0.0
 11
-580.00000000000023
 21
69.42716448160138
 31
0.0
  0
LINE
  8
0
  6
CONTINUOUS
 62
               3
  5
1B7
 10
-619.99999999999977
 20
76.427164481601153
 30
0.0
 11
-580.00000000000023
 21
76.427164481601153
 31
0.0
  0
LINE
  8
0
  6
CONTINUOUS
 62
               3
  5
1B8
 10
-672.28416147400389
 20
86.427164481601153
 30
0.0
 11
-672.28416147400389
 21
69.42716448160138
 31
0.0
  0
LINE
  8
0
  6
CONTINUOUS
 62
               3
  5
1B9
 10
-686.2104982006249
 20
76.427164481601153
 30
0.0
 11
-686.2104982006249
 21
69.42716448160138
 31
0.0
  0
LINE
  8
0
  6
CONTINUOUS
 62
               3
  5
1BA
 10
-688.49999999999977
 20
76.427164481601153
 30
0.0
 11
-686.2104982006249
 21
76.427164481601153
 31
0.0
  0
LINE
  8
0
  6
CONTINUOUS
 62
               3
  5
1BB
 10
-686.2104982006249
 20
76.427164481601153
 30
0.0
 11
-672.28416147400389
 21
86.427164481601153
 31
0.0
  0
LINE
  8
0
  6
CONTINUOUS
 62
               3
  5
1BC
 10
-511.5
 20
76.427164481601153
 30
0.0
 11
-511.5
 21
69.42716448160138
 31
0.0
  0
LINE
  8
0
  6
CONTINUOUS
 62
               3
  5
1BD
 10
-511.5
 20
76.427164481601153
 30
0.0
 11
-525.00000000000023
 21
86.427164481601153
 31
0.0
  0
ARC
  8
0
  6
CONTINUOUS
 62
               3
  5
1BE
 10
-522.99999999999977
 20
64.844588786645659
 30
0.0
 40
4.9999999999999991
 50
113.57817847818021
 51
179.99999999996524
  0
LINE
  8
0
  6
CONTINUOUS
 62
               3
  5
1BF
 10
-527.71583852599474
 20
86.427164481601153
 30
0.0
 11
-527.71583852599474
 21
69.42716448160138
 31
0.0
  0
LINE
  8
0
  6
CONTINUOUS
 62
               3
  5
1C0
 10
-513.78950179937442
 20
76.427164481601153
 30
0.0
 11
-513.78950179937442
 21
69.42716448160138
 31
0.0
  0
LINE
  8
0
  6
CONTINUOUS
 62
               3
  5
1C1
 10
-511.5
 20
76.427164481601153
 30
0.0
 11
-513.78950179937442
 21
76.427164481601153
 31
0.0
  0
LINE
  8
0
  6
CONTINUOUS
 62
               3
  5
1C2
 10
-513.78950179937442
 20
76.427164481601153
 30
0.0
 11
-527.71583852599474
 21
86.427164481601153
 31
0.0
  0
LINE
  8
0
  6
CONTINUOUS
 62
               3
  5
1C3
 10
-657.99999999999977
 20
-466.77992058518748
 30
0.0
 11
-541.99999999999955
 21
-466.77992058518794
 31
0.0
  0
ARC
  8
0
  6
CONTINUOUS
 62
               3
  5
1C4
 10
-674.99999999999977
 20
-202.22585911551607
 30
0.0
 40
2.4999999999999996
 50
89.999999999981569
 51
269.99999999994731
  0
LINE
  8
0
  6
CONTINUOUS
 62
               3
  5
1C5
 10
-674.99999999999977
 20
-20.572835518398961
 30
0.0
 11
-674.99999999999977
 21
-199.72585911551607
 31
0.0
  0
LINE
  8
0
  6
CONTINUOUS
 62
               3
  5
1C6
 10
-525.00000000000068
 20
-199.72585911551607
 30
0.0
 11
-525.00000000000023
 21
-20.572835518398961
 31
0.0
  0
LINE
  8
0
  6
CONTINUOUS
 62
               3
  5
1C7
 10
-674.99999999999977
 20
-317.57283551839873
 30
0.0
 11
-541.0509999999997
 21
-317.57283551839851
 31
0.0
  0
LINE
  8
0
  6
CONTINUOUS
 62
               3
  5
1C8
 10
-528.24363345646043
 20
-317.57283551839851
 30
0.0
 11
-525.00000000000023
 21
-317.57283551839851
 31
0.0
  0
LINE
  8
0
  6
CONTINUOUS
 62
               3
  5
1C9
 10
-541.99999999999955
 20
-466.77992058518794
 30
0.0
 11
-529.44773922227364
 21
-356.61014166503196
 31
0.0
  0
LINE
  8
0
  6
CONTINUOUS
 62
               3
  5
1CA
 10
-527.47543193129013
 20
-339.29942273893448
 30
0.0
 11
-525.00000000000023
 21
-317.57283551839873
 31
0.0
  0
LINE
  8
0
  6
CONTINUOUS
 62
               3
  5
1CB
 10
-674.99999999999977
 20
-204.72585911551607
 30
0.0
 11
-600.00000000000023
 21
-204.72585911551607
 31
0.0
  0
LINE
  8
0
  6
CONTINUOUS
 62
               3
  5
1CC
 10
-674.99999999999977
 20
-199.72585911551607
 30
0.0
 11
-600.00000000000023
 21
-199.72585911551607
 31
0.0
  0
ARC
  8
0
  6
CONTINUOUS
 62
               3
  5
1CD
 10
-525.00000000000068
 20
-202.22585911551607
 30
0.0
 40
2.4999999999999996
 50
269.99999999994731
 51
449.99999999991297
  0
LINE
  8
0
  6
CONTINUOUS
 62
               3
  5
1CE
 10
-525.00000000000068
 20
-204.72585911551607
 30
0.0
 11
-600.00000000000023
 21
-204.72585911551607
 31
0.0
  0
LINE
  8
0
  6
CONTINUOUS
 62
               3
  5
1CF
 10
-525.00000000000068
 20
-199.72585911551607
 30
0.0
 11
-600.00000000000023
 21
-199.72585911551607
 31
0.0
  0
LINE
  8
0
  6
CONTINUOUS
 62
               3
  5
1D0
 10
-656.99999999999977
 20
-579.57283551840123
 30
0.0
 11
-542.99999999999977
 21
-579.57283551840123
 31
0.0
  0
LINE
  8
0
  6
CONTINUOUS
 62
               3
  5
1D1
 10
-541.99999999999955
 20
-478.57283551840055
 30
0.0
 11
-541.99999999999955
 21
-466.77992058518794
 31
0.0
  0
LINE
  8
0
  6
CONTINUOUS
 62
               3
  5
1D2
 10
-657.99999999999977
 20
-466.77992058518794
 30
0.0
 11
-657.99999999999977
 21
-478.57283551840112
 31
0.0
  0
LINE
  8
0
  6
CONTINUOUS
 62
               3
  5
1D3
 10
-656.99999999999977
 20
-579.57283551840123
 30
0.0
 11
-656.99999999999977
 21
-479.57283551840123
 31
0.0
  0
LINE
  8
0
  6
CONTINUOUS
 62
               3
  5
1D4
 10
-542.99999999999977
 20
-579.57283551840123
 30
0.0
 11
-542.99999999999977
 21
-479.57283551840123
 31
0.0
  0
LINE
  8
0
  6
CONTINUOUS
 62
               3
  5
1D5
 10
-656.99999999999977
 20
-479.57283551840123
 30
0.0
 11
-657.99999999999977
 21
-478.57283551840123
 31
0.0
  0
LINE
  8
0
  6
CONTINUOUS
 62
               3
  5
1D6
 10
-542.99999999999977
 20
-479.57283551840123
 30
0.0
 11
-541.99999999999977
 21
-478.57283551840078
 31
0.0
  0
CIRCLE
  8
0
  6
CONTINUOUS
 62
               3
  5
1D7
 10
-600.00000000000023
 20
-79.572835518398961
 30
0.0
 40
57.5
  0
LINE
  8
0
  6
CONTINUOUS
 62
               3
  5
1D8
 10
-75.000000000000227
 20
86.427164481601039
 30
0.0
 11
74.999999999999773
 21
86.427164481601039
 31
0.0
  0
LINE
  8
0
  6
CONTINUOUS
 62
               3
  5
1D9
 10
-88.500000000000682
 20
76.427164481601039
 30
0.0
 11
-88.500000000000682
 21
69.427164481601267
 31
0.0
  0
LINE
  8
0
  6
CONTINUOUS
 62
               3
  5
1DA
 10
-88.500000000000682
 20
76.427164481601039
 30
0.0
 11
-75.000000000000227
 21
86.427164481601039
 31
0.0
  0
ARC
  8
0
  6
CONTINUOUS
 62
               3
  5
1DB
 10
-77.000000000000227
 20
64.844588786645545
 30
0.0
 40
4.9999999999999991
 50
0.0
 51
66.42182152178539
  0
LINE
  8
0
  6
CONTINUOUS
 62
               3
  5
1DC
 10
-88.500000000000682
 20
69.427164481601267
 30
0.0
 11
88.499999999999318
 21
69.427164481601267
 31
0.0
  0
LINE
  8
0
  6
CONTINUOUS
 62
               3
  5
1DD
 10
-20.000000000000227
 20
69.427164481601267
 30
0.0
 11
-20.000000000000227
 21
86.427164481601039
 31
0.0
  0
LINE
  8
0
  6
CONTINUOUS
 62
               3
  5
1DE
 10
19.999999999999773
 20
86.427164481601039
 30
0.0
 11
19.999999999999773
 21
69.427164481601267
 31
0.0
  0
LINE
  8
0
  6
CONTINUOUS
 62
               3
  5
1DF
 10
-20.000000000000227
 20
76.427164481601039
 30
0.0
 11
19.999999999999773
 21
76.427164481601039
 31
0.0
  0
LINE
  8
0
  6
CONTINUOUS
 62
               3
  5
1E0
 10
-72.284161474005714
 20
86.427164481601039
 30
0.0
 11
-72.284161474005714
 21
69.427164481601267
 31
0.0
  0
LINE
  8
0
  6
CONTINUOUS
 62
               3
  5
1E1
 10
-86.21049820062558
 20
76.427164481601039
 30
0.0
 11
-86.21049820062558
 21
69.427164481601267
 31
0.0
  0
LINE
  8
0
  6
CONTINUOUS
 62
               3
  5
1E2
 10
-88.500000000000682
 20
76.427164481601039
 30
0.0
 11
-86.21049820062558
 21
76.427164481601039
 31
0.0
  0
LINE
  8
0
  6
CONTINUOUS
 62
               3
  5
1E3
 10
-86.21049820062558
 20
76.427164481601039
 30
0.0
 11
-72.284161474005714
 21
86.427164481601039
 31
0.0
  0
LINE
  8
0
  6
CONTINUOUS
 62
               3
  5
1E4
 10
88.499999999999318
 20
76.427164481601039
 30
0.0
 11
88.499999999999318
 21
69.427164481601267
 31
0.0
  0
LINE
  8
0
  6
CONTINUOUS
 62
               3
  5
1E5
 10
88.499999999999318
 20
76.427164481601039
 30
0.0
 11
74.999999999999773
 21
86.427164481601039
 31
0.0
  0
ARC
  8
0
  6
CONTINUOUS
 62
               3
  5
1E6
 10
76.999999999999773
 20
64.844588786645545
 30
0.0
 40
4.9999999999999991
 50
113.57817847817991
 51
179.99999999996524
  0
LINE
  8
0
  6
CONTINUOUS
 62
               3
  5
1E7
 10
72.284161474003895
 20
86.427164481601039
 30
0.0
 11
72.284161474003895
 21
69.427164481601267
 31
0.0
  0
LINE
  8
0
  6
CONTINUOUS
 62
               3
  5
1E8
 10
86.210498200625125
 20
76.427164481601039
 30
0.0
 11
86.210498200625125
 21
69.427164481601267
 31
0.0
  0
LINE
  8
0
  6
CONTINUOUS
 62
               3
  5
1E9
 10
88.499999999999318
 20
76.427164481601039
 30
0.0
 11
86.210498200625125
 21
76.427164481601039
 31
0.0
  0
LINE
  8
0
  6
CONTINUOUS
 62
               3
  5
1EA
 10
86.210498200625125
 20
76.427164481601039
 30
0.0
 11
72.284161474003895
 21
86.427164481601039
 31
0.0
  0
LINE
  8
0
  6
CONTINUOUS
 62
               3
  5
1EB
 10
-72.000000000000227
 20
64.844588786645545
 30
0.0
 11
-72.000000000000227
 21
-10.037181765546279
 31
0.0
  0
LINE
  8
0
  6
CONTINUOUS
 62
               3
  5
1EC
 10
71.999999999999773
 20
-5.0371817655457107
 30
0.0
 11
71.999999999999773
 21
64.844588786645545
 31
0.0
  0
LINE
  8
0
  6
CONTINUOUS
 62
               3
  5
1ED
 10
-72.000000000000227
 20
-10.037181765546279
 30
0.0
 11
71.500000000000227
 21
-10.037181765546279
 31
0.0
  0
ARC
  8
0
  6
CONTINUOUS
 62
               3
  5
1EE
 10
-55.000000000000227
 20
-20.572835518399074
 30
0.0
 40
19.999999999999996
 50
148.21166938291955
 51
167.66157415426349
  0
ARC
  8
0
  6
CONTINUOUS
 62
               3
  5
1EF
 10
-79.422562107144699
 20
-15.2306954862878
 30
0.0
 40
4.9999999999999991
 50
271.9999999999485
 51
347.66157415422873
  0
ARC
  8
0
  6
CONTINUOUS
 62
               3
  5
1F0
 10
-75.000000000000227
 20
-202.22585911551619
 30
0.0
 40
2.4999999999999996
 50
89.999999999982535
 51
269.99999999994793
  0
ARC
  8
0
  6
CONTINUOUS
 62
               3
  5
1F1
 10
74.999999999999773
 20
-202.22585911551619
 30
0.0
 40
2.4999999999999996
 50
269.99999999994793
 51
449.99999999991297
  0
LINE
  8
0
  6
CONTINUOUS
 62
               3
  5
1F2
 10
-75.000000000000227
 20
-199.72585911551619
 30
0.0
 11
-0.0000000000002274
 21
-199.72585911551619
 31
0.0
  0
LINE
  8
0
  6
CONTINUOUS
 62
               3
  5
1F3
 10
-0.0000000000002274
 20
-199.72585911551619
 30
0.0
 11
74.999999999999773
 21
-199.72585911551619
 31
0.0
  0
LINE
  8
0
  6
CONTINUOUS
 62
               3
  5
1F4
 10
-75.000000000000227
 20
-204.72585911551619
 30
0.0
 11
-0.0000000000002274
 21
-204.72585911551619
 31
0.0
  0
LINE
  8
0
  6
CONTINUOUS
 62
               3
  5
1F5
 10
-0.0000000000002274
 20
-204.72585911551619
 30
0.0
 11
74.999999999999773
 21
-204.72585911551619
 31
0.0
  0
ARC
  8
0
  6
CONTINUOUS
 62
               3
  5
1F6
 10
-80.000000000000227
 20
-158.38005885061807
 30
0.0
 40
4.9999999999999991
 50
0.0
 51
44.999999999990344
  0
LINE
  8
0
  6
CONTINUOUS
 62
               3
  5
1F7
 10
-75.000000000000227
 20
-158.38005885061807
 30
0.0
 11
-75.000000000000227
 21
-199.72585911551619
 31
0.0
  0
LINE
  8
0
  6
CONTINUOUS
 62
               3
  5
1F8
 10
-76.464466094067745
 20
-154.84452494468496
 30
0.0
 11
-91.473853321302329
 21
-139.83513771745083
 31
0.0
  0
LINE
  8
0
  6
CONTINUOUS
 62
               3
  5
1F9
 10
-140.00000000000023
 20
-134.57283551839896
 30
0.0
 11
-139.32844387403583
 21
-134.57283551839896
 31
0.0
  0
LINE
  8
0
  6
CONTINUOUS
 62
               3
  5
1FA
 10
-137.00000000000011
 20
-136.90127939243393
 30
0.0
 11
-139.32844387403583
 21
-134.57283551839896
 31
0.0
  0
LINE
  8
0
  6
CONTINUOUS
 62
               3
  5
1FB
 10
-137.00000000000011
 20
-136.90127939243393
 30
0.0
 11
-94.83488974372284
 21
-138.37371748828798
 31
0.0
  0
ARC
  8
0
  6
CONTINUOUS
 62
               3
  5
1FC
 10
-95.009387227235266
 20
-143.37067162338303
 30
0.0
 40
4.9999999999999991
 50
44.999999999990344
 51
87.999999999983288
  0
LINE
  8
0
  6
CONTINUOUS
 62
               3
  5
1FD
 10
-140.00000000000023
 20
-24.572835518399074
 30
0.0
 11
-139.32844387403583
 21
-24.572835518399074
 31
0.0
  0
LINE
  8
0
  6
CONTINUOUS
 62
               3
  5
1FE
 10
-137.00000000000011
 20
-22.244391644363191
 30
0.0
 11
-139.32844387403583
 21
-24.572835518399074
 31
0.0
  0
LINE
  8
0
  6
CONTINUOUS
 62
               3
  5
1FF
 10
-137.00000000000011
 20
-22.244391644363191
 30
0.0
 11
-79.248064623632445
 21
-20.227649621382852
 31
0.0
  0
LINE
  8
0
  6
CONTINUOUS
 62
               3
  5
200
 10
-139.32844387403583
 20
-24.572835518399074
 30
0.0
 11
-139.32844387403583
 21
-134.57283551839896
 31
0.0
  0
LINE
  8
0
  6
CONTINUOUS
 62
               3
  5
201
 10
-137.00000000000011
 20
-136.90127939243393
 30
0.0
 11
-137.00000000000011
 21
-22.244391644363191
 31
0.0
  0
LINE
  8
0
  6
CONTINUOUS
 62
               3
  5
202
 10
-140.00000000000023
 20
-136.9012793924345
 30
0.0
 11
-140.00000000000023
 21
-22.244391644363191
 31
0.0
  0
LINE
  8
0
  6
CONTINUOUS
 62
               3
  5
203
 10
-140.00000000000023
 20
-22.244391644363191
 30
0.0
 11
-142.50000000000023
 21
-22.244391644363191
 31
0.0
  0
ARC
  8
0
  6
CONTINUOUS
 62
               3
  5
204
 10
-142.50000000000023
 20
-24.744391644363191
 30
0.0
 40
2.5
 50
89.999999999982862
 51
179.99999999996524
  0
LINE
  8
0
  6
CONTINUOUS
 62
               3
  5
205
 10
-145.00000000000023
 20
-24.744391644363191
 30
0.0
 11
-145.00000000000023
 21
-134.4012793924345
 31
0.0
  0
LINE
  8
0
  6
CONTINUOUS
 62
               3
  5
206
 10
-140.00000000000023
 20
-136.9012793924345
 30
0.0
 11
-142.50000000000023
 21
-136.9012793924345
 31
0.0
  0
ARC
  8
0
  6
CONTINUOUS
 62
               3
  5
207
 10
-142.50000000000023
 20
-134.4012793924345
 30
0.0
 40
2.5
 50
179.99999999996507
 51
269.99999999994793
  0
LINE
  8
0
  6
CONTINUOUS
 62
               3
  5
208
 10
-75.000000000000227
 20
-204.72585911551619
 30
0.0
 11
-75.000000000000227
 21
-317.57283551839885
 31
0.0
  0
LINE
  8
0
  6
CONTINUOUS
 62
               3
  5
209
 10
-1.9728332801512352
 20
-317.57283551839885
 30
0.0
 11
74.496765133649433
 21
-317.57283551839885
 31
0.0
  0
LINE
  8
0
  6
CONTINUOUS
 62
               3
  5
20A
 10
-75.000000000000227
 20
-317.57283551839885
 30
0.0
 11
-46.368107792057117
 21
-317.57283551839885
 31
0.0
  0
LINE
  8
0
  6
CONTINUOUS
 62
               3
  5
20B
 10
-58.000000000000227
 20
-466.77992058518805
 30
0.0
 11
-75.000000000000227
 21
-317.57283551839885
 31
0.0
  0
LINE
  8
0
  6
CONTINUOUS
 62
               3
  5
20C
 10
-58.000000000000227
 20
-466.7799205851876
 30
0.0
 11
57.999999999999773
 21
-466.77992058518805
 31
0.0
  0
LINE
  8
0
  6
CONTINUOUS
 62
               3
  5
20D
 10
-57.000000000000341
 20
-579.57283551840112
 30
0.0
 11
56.999999999999602
 21
-579.57283551840112
 31
0.0
  0
LINE
  8
0
  6
CONTINUOUS
 62
               3
  5
20E
 10
-57.000000000000341
 20
-579.57283551840112
 30
0.0
 11
-57.000000000000341
 21
-479.57283551840112
 31
0.0
  0
LINE
  8
0
  6
CONTINUOUS
 62
               3
  5
20F
 10
56.999999999999602
 20
-579.57283551840112
 30
0.0
 11
56.999999999999602
 21
-479.57283551840112
 31
0.0
  0
LINE
  8
0
  6
CONTINUOUS
 62
               3
  5
210
 10
-57.000000000000341
 20
-479.57283551840112
 30
0.0
 11
-58.000000000000284
 21
-478.57283551840112
 31
0.0
  0
LINE
  8
0
  6
CONTINUOUS
 62
               3
  5
211
 10
56.999999999999602
 20
-479.57283551840112
 30
0.0
 11
57.999999999999659
 21
-478.57283551840067
 31
0.0
  0
LINE
  8
0
  6
CONTINUOUS
 62
               3
  5
212
 10
-58.000000000000341
 20
-466.77992058518805
 30
0.0
 11
-58.000000000000341
 21
-478.57283551840112
 31
0.0
  0
LINE
  8
0
  6
CONTINUOUS
 62
               3
  5
213
 10
57.999999999999886
 20
-478.57283551840067
 30
0.0
 11
57.999999999999886
 21
-466.77992058518805
 31
0.0
  0
LINE
  8
0
  6
CONTINUOUS
 62
               3
  5
214
 10
674.99999999999977
 20
86.427164481601153
 30
0.0
 11
524.99999999999977
 21
86.427164481601153
 31
0.0
  0
LINE
  8
0
  6
CONTINUOUS
 62
               3
  5
215
 10
688.49999999999977
 20
76.427164481601153
 30
0.0
 11
688.49999999999977
 21
69.42716448160138
 31
0.0
  0
LINE
  8
0
  6
CONTINUOUS
 62
               3
  5
216
 10
688.49999999999977
 20
76.427164481601153
 30
0.0
 11
674.99999999999977
 21
86.427164481601153
 31
0.0
  0
ARC
  8
0
  6
CONTINUOUS
 62
               3
  5
217
 10
676.99999999999977
 20
64.844588786645659
 30
0.0
 40
4.9999999999999991
 50
113.57817847818021
 51
179.99999999996524
  0
LINE
  8
0
  6
CONTINUOUS
 62
               3
  5
218
 10
688.49999999999977
 20
69.42716448160138
 30
0.0
 11
511.49999999999983
 21
69.42716448160138
 31
0.0
  0
ARC
  8
0
  6
CONTINUOUS
 62
               3
  5
219
 10
654.99999999999977
 20
-20.572835518398961
 30
0.0
 40
19.999999999999996
 50
0.0
 51
31.78833061704556
  0
LINE
  8
0
  6
CONTINUOUS
 62
               3
  5
21A
 10
671.99999999999977
 20
64.844588786645659
 30
0.0
 11
671.99999999999977
 21
-10.037181765546165
 31
0.0
  0
ARC
  8
0
  6
CONTINUOUS
 62
               3
  5
21B
 10
544.99999999999977
 20
-20.572835518398961
 30
0.0
 40
19.999999999999996
 50
148.21166938291961
 51
179.99999999996521
  0
LINE
  8
0
  6
CONTINUOUS
 62
               3
  5
21C
 10
527.99999999999977
 20
-10.037181765546165
 30
0.0
 11
527.99999999999977
 21
64.844588786645659
 31
0.0
  0
LINE
  8
0
  6
CONTINUOUS
 62
               3
  5
21D
 10
657.99999999999977
 20
-466.77992058518799
 30
0.0
 11
674.99999999999977
 21
-317.57283551839879
 31
0.0
  0
LINE
  8
0
  6
CONTINUOUS
 62
               3
  5
21E
 10
541.99999999999977
 20
-466.77992058518799
 30
0.0
 11
524.99999999999977
 21
-317.57283551839879
 31
0.0
  0
LINE
  8
0
  6
CONTINUOUS
 62
               3
  5
21F
 10
674.99999999999977
 20
-204.72585911551607
 30
0.0
 11
674.99999999999977
 21
-317.57283551839879
 31
0.0
  0
LINE
  8
0
  6
CONTINUOUS
 62
               3
  5
220
 10
619.99999999999977
 20
69.42716448160138
 30
0.0
 11
619.99999999999977
 21
86.427164481601153
 31
0.0
  0
LINE
  8
0
  6
CONTINUOUS
 62
               3
  5
221
 10
579.99999999999977
 20
86.427164481601153
 30
0.0
 11
579.99999999999977
 21
69.42716448160138
 31
0.0
  0
LINE
  8
0
  6
CONTINUOUS
 62
               3
  5
222
 10
619.99999999999977
 20
76.427164481601153
 30
0.0
 11
579.99999999999977
 21
76.427164481601153
 31
0.0
  0
LINE
  8
0
  6
CONTINUOUS
 62
               3
  5
223
 10
672.28416147400435
 20
86.427164481601153
 30
0.0
 11
672.28416147400435
 21
69.42716448160138
 31
0.0
  0
LINE
  8
0
  6
CONTINUOUS
 62
               3
  5
224
 10
686.21049820062512
 20
76.427164481601153
 30
0.0
 11
686.21049820062512
 21
69.42716448160138
 31
0.0
  0
LINE
  8
0
  6
CONTINUOUS
 62
               3
  5
225
 10
688.49999999999977
 20
76.427164481601153
 30
0.0
 11
686.21049820062512
 21
76.427164481601153
 31
0.0
  0
LINE
  8
0
  6
CONTINUOUS
 62
               3
  5
226
 10
686.21049820062512
 20
76.427164481601153
 30
0.0
 11
672.28416147400435
 21
86.427164481601153
 31
0.0
  0
LINE
  8
0
  6
CONTINUOUS
 62
               3
  5
227
 10
511.49999999999983
 20
76.427164481601153
 30
0.0
 11
511.49999999999983
 21
69.42716448160138
 31
0.0
  0
LINE
  8
0
  6
CONTINUOUS
 62
               3
  5
228
 10
511.49999999999983
 20
76.427164481601153
 30
0.0
 11
524.99999999999977
 21
86.427164481601153
 31
0.0
  0
ARC
  8
0
  6
CONTINUOUS
 62
               3
  5
229
 10
522.99999999999977
 20
64.844588786645659
 30
0.0
 40
4.9999999999999991
 50
0.0
 51
66.421821521785233
  0
LINE
  8
0
  6
CONTINUOUS
 62
               3
  5
22A
 10
527.7158385259952
 20
86.427164481601153
 30
0.0
 11
527.7158385259952
 21
69.42716448160138
 31
0.0
  0
LINE
  8
0
  6
CONTINUOUS
 62
               3
  5
22B
 10
513.78950179937442
 20
76.427164481601153
 30
0.0
 11
513.78950179937442
 21
69.42716448160138
 31
0.0
  0
LINE
  8
0
  6
CONTINUOUS
 62
               3
  5
22C
 10
511.49999999999983
 20
76.427164481601153
 30
0.0
 11
513.78950179937442
 21
76.427164481601153
 31
0.0
  0
LINE
  8
0
  6
CONTINUOUS
 62
               3
  5
22D
 10
513.78950179937442
 20
76.427164481601153
 30
0.0
 11
527.7158385259952
 21
86.427164481601153
 31
0.0
  0
LINE
  8
0
  6
CONTINUOUS
 62
               3
  5
22E
 10
657.99999999999977
 20
-466.77992058518743
 30
0.0
 11
541.99999999999977
 21
-466.77992058518799
 31
0.0
  0
LINE
  8
0
  6
CONTINUOUS
 62
               3
  5
22F
 10
671.99999999999977
 20
-10.037181765546165
 30
0.0
 11
611.72700000000009
 21
-10.037181765546165
 31
0.0
  0
LINE
  8
0
  6
CONTINUOUS
 62
               3
  5
230
 10
588.27299999999946
 20
-10.037181765546165
 30
0.0
 11
527.99999999999977
 21
-10.037181765546165
 31
0.0
  0
ARC
  8
0
  6
CONTINUOUS
 62
               3
  5
231
 10
674.99999999999977
 20
-202.22585911551607
 30
0.0
 40
2.4999999999999996
 50
269.99999999994731
 51
449.99999999991297
  0
LINE
  8
0
  6
CONTINUOUS
 62
               3
  5
232
 10
524.99999999999977
 20
-199.72585911551607
 30
0.0
 11
591.78299999999967
 21
-199.72585911551607
 31
0.0
  0
LINE
  8
0
  6
CONTINUOUS
 62
               3
  5
233
 10
608.21699999999942
 20
-199.72585911551607
 30
0.0
 11
674.99999999999977
 21
-199.72585911551607
 31
0.0
  0
LINE
  8
0
  6
CONTINUOUS
 62
               3
  5
234
 10
524.99999999999977
 20
-204.72585911551607
 30
0.0
 11
591.93835546658443
 21
-204.72585911551607
 31
0.0
  0
LINE
  8
0
  6
CONTINUOUS
 62
               3
  5
235
 10
608.21699999999942
 20
-204.72585911551607
 30
0.0
 11
674.99999999999977
 21
-204.72585911551607
 31
0.0
  0
LINE
  8
0
  6
CONTINUOUS
 62
               3
  5
236
 10
674.99999999999977
 20
-317.57283551839879
 30
0.0
 11
608.21699999999942
 21
-317.57283551839879
 31
0.0
  0
LINE
  8
0
  6
CONTINUOUS
 62
               3
  5
237
 10
591.78299999999967
 20
-317.57283551839879
 30
0.0
 11
524.99999999999977
 21
-317.57283551839879
 31
0.0
  0
LINE
  8
0
  6
CONTINUOUS
 62
               3
  5
238
 10
524.99999999999977
 20
-317.57283551839879
 30
0.0
 11
524.99999999999977
 21
-204.72585911551607
 31
0.0
  0
LINE
  8
0
  6
CONTINUOUS
 62
               3
  5
239
 10
524.99999999999977
 20
-199.72585911551607
 30
0.0
 11
524.99999999999977
 21
-20.572835518398961
 31
0.0
  0
LINE
  8
0
  6
CONTINUOUS
 62
               3
  5
23A
 10
674.99999999999977
 20
-20.572835518398961
 30
0.0
 11
674.99999999999977
 21
-199.72585911551607
 31
0.0
  0
ARC
  8
0
  6
CONTINUOUS
 62
               3
  5
23B
 10
524.99999999999977
 20
-202.22585911551607
 30
0.0
 40
2.4999999999999996
 50
89.999999999981569
 51
269.99999999994731
  0
LINE
  8
0
  6
CONTINUOUS
 62
               3
  5
23C
 10
542.99999999999955
 20
-579.57283551840067
 30
0.0
 11
656.99999999999955
 21
-579.57283551840067
 31
0.0
  0
LINE
  8
0
  6
CONTINUOUS
 62
               3
  5
23D
 10
542.99999999999955
 20
-579.57283551840067
 30
0.0
 11
542.99999999999955
 21
-479.57283551840067
 31
0.0
  0
LINE
  8
0
  6
CONTINUOUS
 62
               3
  5
23E
 10
656.99999999999955
 20
-579.57283551840067
 30
0.0
 11
656.99999999999955
 21
-479.57283551840067
 31
0.0
  0
LINE
  8
0
  6
CONTINUOUS
 62
               3
  5
23F
 10
542.99999999999955
 20
-479.57283551840067
 30
0.0
 11
541.99999999999966
 21
-478.57283551840067
 31
0.0
  0
LINE
  8
0
  6
CONTINUOUS
 62
               3
  5
240
 10
656.99999999999955
 20
-479.57283551840067
 30
0.0
 11
657.99999999999955
 21
-478.57283551840021
 31
0.0
  0
LINE
  8
0
  6
CONTINUOUS
 62
               3
  5
241
 10
657.99999999999989
 20
-466.77992058518799
 30
0.0
 11
657.99999999999989
 21
-478.57283551839993
 31
0.0
  0
LINE
  8
0
  6
CONTINUOUS
 62
               3
  5
242
 10
541.99999999999966
 20
-478.57283551840067
 30
0.0
 11
541.99999999999966
 21
-466.77992058518799
 31
0.0
  0
CIRCLE
  8
0
  6
CONTINUOUS
 62
               3
  5
243
 10
-0.0000000000002345
 20
521.42716448160115
 30
0.0
 40
52.5
  0
LINE
  8
0
  6
CONTINUOUS
 62
               3
  5
244
 10
-86.21049820062558
 20
541.42716448160115
 30
0.0
 11
-72.284161474005714
 21
541.42716448160115
 31
0.0
  0
LINE
  8
0
  6
CONTINUOUS
 62
               3
  5
245
 10
-72.284161474005714
 20
501.42716448160115
 30
0.0
 11
-86.21049820062558
 21
501.42716448160115
 31
0.0
  0
ARC
  8
0
  6
CONTINUOUS
 62
               3
  5
246
 10
-0.0000000000002345
 20
521.42716448160115
 30
0.0
 40
88.5
 50
166.9389758851672
 51
193.0610241147632
  0
LINE
  8
0
  6
CONTINUOUS
 62
               3
  5
247
 10
-20.000000000000234
 20
435.21666628097626
 30
0.0
 11
-20.000000000000234
 21
449.14300300759612
 31
0.0
  0
LINE
  8
0
  6
CONTINUOUS
 62
               3
  5
248
 10
19.999999999999766
 20
449.14300300759612
 30
0.0
 11
19.999999999999766
 21
435.21666628097626
 31
0.0
  0
ARC
  8
0
  6
CONTINUOUS
 62
               3
  5
249
 10
-0.0000000000002345
 20
521.42716448160115
 30
0.0
 40
88.5
 50
256.93897588514983
 51
283.06102411474581
  0
LINE
  8
0
  6
CONTINUOUS
 62
               3
  5
24A
 10
86.210498200624215
 20
501.42716448160115
 30
0.0
 11
72.284161474003895
 21
501.42716448160115
 31
0.0
  0
LINE
  8
0
  6
CONTINUOUS
 62
               3
  5
24B
 10
72.284161474003895
 20
541.42716448160115
 30
0.0
 11
86.210498200624215
 21
541.42716448160115
 31
0.0
  0
ARC
  8
0
  6
CONTINUOUS
 62
               3
  5
24C
 10
-0.0000000000002345
 20
521.42716448160115
 30
0.0
 40
88.5
 50
346.93897588513238
 51
373.06102411472841
  0
LINE
  8
0
  6
CONTINUOUS
 62
               3
  5
24D
 10
19.999999999999766
 20
607.63766268222673
 30
0.0
 11
19.999999999999766
 21
593.71132595560618
 31
0.0
  0
LINE
  8
0
  6
CONTINUOUS
 62
               3
  5
24E
 10
-20.000000000000234
 20
593.71132595560618
 30
0.0
 11
-20.000000000000234
 21
607.63766268222673
 31
0.0
  0
ARC
  8
0
  6
CONTINUOUS
 62
               3
  5
24F
 10
-0.0000000000002345
 20
521.42716448160115
 30
0.0
 40
88.5
 50
76.938975885184604
 51
103.06102411478064
  0
LINE
  8
0
  6
CONTINUOUS
 62
               3
  5
250
 10
-47.668123520861407
 20
499.4271644816007
 30
0.0
 11
47.668123520859574
 21
499.4271644816007
 31
0.0
  0
ARC
  8
0
  6
CONTINUOUS
 62
               3
  5
251
 10
12.503611649380893
 20
530.13356210922018
 30
0.0
 40
54.763804151667173
 50
141.38591763681058
 51
145.15009542092582
  0
ARC
  8
0
  6
CONTINUOUS
 62
               3
  5
252
 10
-0.0000000000002345
 20
521.42716448160115
 30
0.0
 40
51.5
 50
334.710988473393
 51
410.9593273635611
  0
ARC
  8
0
  6
CONTINUOUS
 62
               3
  5
253
 10
-0.0000000000002345
 20
521.42716448160115
 30
0.0
 40
51.5
 50
129.04067263633499
 51
205.28901152650258
  0
ARC
  8
0
  6
CONTINUOUS
 62
               3
  5
254
 10
-0.0000000000002345
 20
521.42716448160115
 30
0.0
 40
77.5
 50
104.95524831662307
 51
128.77769173213565
  0
ARC
  8
0
  6
CONTINUOUS
 62
               3
  5
255
 10
-0.0000000000002345
 20
521.42716448160115
 30
0.0
 40
77.5
 50
14.955248316640434
 51
75.04475168334217
  0
LINE
  8
0
  6
CONTINUOUS
 62
               3
  5
256
 10
-32.438403166617704
 20
561.42716448160093
 30
0.0
 11
34.003676271838451
 21
561.42716448160093
 31
0.0
  0
ARC
  8
0
  6
CONTINUOUS
 62
               3
  5
257
 10
-45.914517386780247
 20
455.91489774369109
 30
0.0
 40
5.0
 50
54.975163505556509
 51
87.999999999983132
  0
ARC
  8
0
  6
CONTINUOUS
 62
               3
  5
258
 10
-45.914517386778741
 20
586.93943121951213
 30
0.0
 40
5.0
 50
271.99999999994748
 51
305.02483649437085
  0
ARC
  8
0
  6
CONTINUOUS
 62
               3
  5
259
 10
-0.0000000000002345
 20
521.42716448160115
 30
0.0
 40
77.5
 50
231.22230826779372
 51
255.04475168330734
  0
ARC
  8
0
  6
CONTINUOUS
 62
               3
  5
25A
 10
-0.0000000000002345
 20
521.42716448160115
 30
0.0
 40
77.5
 50
284.95524831658821
 51
345.04475168328997
  0
CIRCLE
  8
0
  6
CONTINUOUS
 62
               3
  5
25B
 10
-0.0000000000002345
 20
521.42716448160115
 30
0.0
 40
75.0
  0
LINE
  8
0
  6
CONTINUOUS
 62
               3
  5
25C
 10
-140.00000000000023
 20
466.42716448160115
 30
0.0
 11
-139.328443874036
 21
466.42716448160115
 31
0.0
  0
LINE
  8
0
  6
CONTINUOUS
 62
               3
  5
25D
 10
-137.00000000000011
 20
464.09872060756572
 30
0.0
 11
-139.328443874036
 21
466.42716448160115
 31
0.0
  0
LINE
  8
0
  6
CONTINUOUS
 62
               3
  5
25E
 10
-140.00000000000023
 20
576.42716448160115
 30
0.0
 11
-139.328443874036
 21
576.42716448160115
 31
0.0
  0
LINE
  8
0
  6
CONTINUOUS
 62
               3
  5
25F
 10
-137.00000000000011
 20
578.75560835563726
 30
0.0
 11
-139.328443874036
 21
576.42716448160115
 31
0.0
  0
LINE
  8
0
  6
CONTINUOUS
 62
               3
  5
260
 10
-139.328443874036
 20
576.42716448160115
 30
0.0
 11
-139.328443874036
 21
466.42716448160115
 31
0.0
  0
LINE
  8
0
  6
CONTINUOUS
 62
               3
  5
261
 10
-137.00000000000011
 20
464.09872060756572
 30
0.0
 11
-137.00000000000011
 21
578.75560835563726
 31
0.0
  0
LINE
  8
0
  6
CONTINUOUS
 62
               3
  5
262
 10
-145.00000000000023
 20
576.25560835563726
 30
0.0
 11
-145.00000000000023
 21
466.59872060756572
 31
0.0
  0
LINE
  8
0
  6
CONTINUOUS
 62
               3
  5
263
 10
-140.00000000000023
 20
464.09872060756572
 30
0.0
 11
-140.00000000000023
 21
578.75560835563726
 31
0.0
  0
LINE
  8
0
  6
CONTINUOUS
 62
               3
  5
264
 10
-140.00000000000023
 20
578.75560835563726
 30
0.0
 11
-142.50000000000023
 21
578.75560835563726
 31
0.0
  0
LINE
  8
0
  6
CONTINUOUS
 62
               3
  5
265
 10
-140.00000000000023
 20
464.09872060756572
 30
0.0
 11
-142.50000000000023
 21
464.09872060756572
 31
0.0
  0
ARC
  8
0
  6
CONTINUOUS
 62
               3
  5
266
 10
-142.50000000000023
 20
466.59872060756572
 30
0.0
 40
2.5
 50
179.99999999996572
 51
269.99999999994793
  0
ARC
  8
0
  6
CONTINUOUS
 62
               3
  5
267
 10
-142.50000000000023
 20
576.25560835563726
 30
0.0
 40
2.5
 50
89.999999999982862
 51
179.99999999996572
  0
LINE
  8
0
  6
CONTINUOUS
 62
               3
  5
268
 10
-45.740019903267751
 20
460.91185187878648
 30
0.0
 11
-137.00000000000011
 21
464.09872060756572
 31
0.0
  0
LINE
  8
0
  6
CONTINUOUS
 62
               3
  5
269
 10
-45.74001990326623
 20
581.94247708441674
 30
0.0
 11
-137.00000000000011
 21
578.75560835563726
 31
0.0
  0
LINE
  8
0
  6
CONTINUOUS
 62
               3
  5
26A
 10
-573.2126429075206
 20
-51.572835518399074
 30
0.0
 11
-626.78735709247962
 21
-51.572835518399074
 31
0.0
  0
CIRCLE
  8
0
  6
CONTINUOUS
 62
               3
  5
26B
 10
-600.00000000000023
 20
-79.572835518398961
 30
0.0
 40
38.75
  0
CIRCLE
  8
0
  6
CONTINUOUS
 62
               3
  5
26C
 10
-600.00000000000023
 20
-79.572835518398961
 30
0.0
 40
47.299999999999997
  0
LINE
  8
0
  6
CONTINUOUS
 62
               3
  5
26D
 10
-631.81980515339478
 20
-111.39264067179329
 30
0.0
 11
-633.44615075012393
 21
-113.01898626852267
 31
0.0
  0
LINE
  8
0
  6
CONTINUOUS
 62
               3
  5
26E
 10
-568.18019484660545
 20
-111.39264067179329
 30
0.0
 11
-566.55384924987652
 21
-113.01898626852267
 31
0.0
  0
ARC
  8
0
  6
CONTINUOUS
 62
               3
  5
26F
 10
-600.00000000000023
 20
-79.572835518398961
 30
0.0
 40
45.0
 50
224.99999999995646
 51
314.99999999993912
  0
CIRCLE
  8
0
  6
CONTINUOUS
 62
               3
  5
270
 10
-0.0000000000001099
 20
521.42716448160127
 30
0.0
 40
59.0
  0
CIRCLE
  8
0
  6
CONTINUOUS
 62
               3
  5
271
 10
609.28652321630761
 20
-943.53659542780053
 30
0.0
 40
75.0
  0
CIRCLE
  8
0
  6
CONTINUOUS
 62
               3
  5
272
 10
609.28652321630761
 20
-943.53659542780053
 30
0.0
 40
52.5
  0
LINE
  8
0
  6
CONTINUOUS
 62
               3
  5
273
 10
523.07602501568238
 20
-923.53659542780053
 30
0.0
 11
537.00236174230224
 21
-923.53659542780053
 31
0.0
  0
LINE
  8
0
  6
CONTINUOUS
 62
               3
  5
274
 10
537.00236174230224
 20
-963.53659542780053
 30
0.0
 11
523.07602501568238
 21
-963.53659542780053
 31
0.0
  0
ARC
  8
0
  6
CONTINUOUS
 62
               3
  5
275
 10
609.28652321630761
 20
-943.53659542780053
 30
0.0
 40
88.5
 50
166.93897588513528
 51
193.06102411472631
  0
LINE
  8
0
  6
CONTINUOUS
 62
               3
  5
276
 10
589.28652321630761
 20
-1029.7470936284253
 30
0.0
 11
589.28652321630761
 21
-1015.8207569018056
 31
0.0
  0
LINE
  8
0
  6
CONTINUOUS
 62
               3
  5
277
 10
629.28652321630761
 20
-1015.8207569018056
 30
0.0
 11
629.28652321630761
 21
-1029.7470936284253
 31
0.0
  0
ARC
  8
0
  6
CONTINUOUS
 62
               3
  5
278
 10
609.28652321630761
 20
-943.53659542780053
 30
0.0
 40
88.5
 50
256.93897588510077
 51
283.06102411469175
  0
LINE
  8
0
  6
CONTINUOUS
 62
               3
  5
279
 10
695.49702141693228
 20
-963.53659542780053
 30
0.0
 11
681.57068469031185
 21
-963.53659542780053
 31
0.0
  0
LINE
  8
0
  6
CONTINUOUS
 62
               3
  5
27A
 10
681.57068469031185
 20
-923.53659542780053
 30
0.0
 11
695.49702141693228
 21
-923.53659542780053
 31
0.0
  0
ARC
  8
0
  6
CONTINUOUS
 62
               3
  5
27B
 10
609.28652321630761
 20
-943.53659542780053
 30
0.0
 40
88.5
 50
346.9389758850661
 51
373.06102411465713
  0
LINE
  8
0
  6
CONTINUOUS
 62
               3
  5
27C
 10
629.28652321630761
 20
-857.32609722717496
 30
0.0
 11
629.28652321630761
 21
-871.2524339537955
 31
0.0
  0
LINE
  8
0
  6
CONTINUOUS
 62
               3
  5
27D
 10
589.28652321630761
 20
-871.2524339537955
 30
0.0
 11
589.28652321630761
 21
-857.32609722717496
 31
0.0
  0
ARC
  8
0
  6
CONTINUOUS
 62
               3
  5
27E
 10
609.28652321630761
 20
-943.53659542780053
 30
0.0
 40
88.5
 50
76.938975885169896
 51
103.06102411476094
  0
LINE
  8
0
  6
CONTINUOUS
 62
               3
  5
27F
 10
561.61839969544656
 20
-965.53659542780099
 30
0.0
 11
656.95464673716754
 21
-965.53659542780099
 31
0.0
  0
ARC
  8
0
  6
CONTINUOUS
 62
               3
  5
280
 10
621.79013486568874
 20
-934.83019780018151
 30
0.0
 40
54.763804151667173
 50
141.3859176367836
 51
145.15009542089808
  0
ARC
  8
0
  6
CONTINUOUS
 62
               3
  5
281
 10
609.28652321630761
 20
-943.53659542780053
 30
0.0
 40
51.5
 50
334.71098847332905
 51
410.9593273634826
  0
ARC
  8
0
  6
CONTINUOUS
 62
               3
  5
282
 10
609.28652321630761
 20
-943.53659542780053
 30
0.0
 40
51.5
 50
129.04067263631032
 51
205.28901152646336
  0
ARC
  8
0
  6
CONTINUOUS
 62
               3
  5
283
 10
609.28652321630761
 20
-943.53659542780053
 30
0.0
 40
77.5
 50
104.955248316603
 51
128.57288309098388
  0
ARC
  8
0
  6
CONTINUOUS
 62
               3
  5
284
 10
609.28652321630761
 20
-943.53659542780053
 30
0.0
 40
77.5
 50
14.955248316637585
 51
75.044751683327831
  0
ARC
  8
0
  6
CONTINUOUS
 62
               3
  5
285
 10
609.28652321630761
 20
-943.53659542780053
 30
0.0
 40
77.5
 50
321.42711690884255
 51
345.04475168322404
  0
LINE
  8
0
  6
CONTINUOUS
 62
               3
  5
286
 10
469.28652321630761
 20
-998.53659542780053
 30
0.0
 11
469.95807934227184
 21
-998.53659542780053
 31
0.0
  0
LINE
  8
0
  6
CONTINUOUS
 62
               3
  5
287
 10
472.4580793422723
 20
-1001.0365954278005
 30
0.0
 11
469.95807934227184
 21
-998.53659542780053
 31
0.0
  0
LINE
  8
0
  6
CONTINUOUS
 62
               3
  5
288
 10
469.28652321630761
 20
-888.53659542780053
 30
0.0
 11
469.95807934227184
 21
-888.53659542780053
 31
0.0
  0
LINE
  8
0
  6
CONTINUOUS
 62
               3
  5
289
 10
472.45807934227184
 20
-886.03659542780053
 30
0.0
 11
469.95807934227184
 21
-888.53659542780053
 31
0.0
  0
LINE
  8
0
  6
CONTINUOUS
 62
               3
  5
28A
 10
469.95807934227184
 20
-888.53659542780053
 30
0.0
 11
469.95807934227184
 21
-998.53659542780053
 31
0.0
  0
LINE
  8
0
  6
CONTINUOUS
 62
               3
  5
28B
 10
563.79618742992966
 20
-882.84699840945893
 30
0.0
 11
472.45807934227184
 21
-886.03659542780053
 31
0.0
  0
LINE
  8
0
  6
CONTINUOUS
 62
               3
  5
28C
 10
544.45005149975657
 20
-1003.5506104927682
 30
0.0
 11
472.45807934227241
 21
-1001.0365954278005
 31
0.0
  0
LINE
  8
0
  6
CONTINUOUS
 62
               3
  5
28D
 10
464.28652321630761
 20
-888.70815155376465
 30
0.0
 11
464.28652321630761
 21
-998.63659542780056
 31
0.0
  0
LINE
  8
0
  6
CONTINUOUS
 62
               3
  5
28E
 10
469.28652321630761
 20
-1001.1365954278006
 30
0.0
 11
469.28652321630761
 21
-885.93659542780051
 31
0.0
  0
LINE
  8
0
  6
CONTINUOUS
 62
               3
  5
28F
 10
469.28652321630761
 20
-885.93659542780051
 30
0.0
 11
466.78652321630761
 21
-885.93659542780051
 31
0.0
  0
LINE
  8
0
  6
CONTINUOUS
 62
               3
  5
290
 10
469.28652321630761
 20
-1001.1365954278006
 30
0.0
 11
466.78652321630761
 21
-1001.1365954278006
 31
0.0
  0
ARC
  8
0
  6
CONTINUOUS
 62
               3
  5
291
 10
466.78652321630761
 20
-998.63659542780056
 30
0.0
 40
2.5
 50
179.99999999993088
 51
269.99999999989649
  0
ARC
  8
0
  6
CONTINUOUS
 62
               3
  5
292
 10
466.78652321630761
 20
-888.43659542780051
 30
0.0
 40
2.5
 50
89.999999999965596
 51
179.99999999993088
  0
LINE
  8
0
  6
CONTINUOUS
 62
               3
  5
293
 10
576.84812004969001
 20
-903.53659542780076
 30
0.0
 11
609.28652321630761
 21
-903.53659542780076
 31
0.0
  0
LINE
  8
0
  6
CONTINUOUS
 62
               3
  5
294
 10
609.28652321630761
 20
-903.53659542780076
 30
0.0
 11
643.2901994881463
 21
-903.53659542780076
 31
0.0
  0
LINE
  8
0
  6
CONTINUOUS
 62
               3
  5
295
 10
472.4580793422723
 20
-1001.0365954278005
 30
0.0
 11
472.45807934227184
 21
-886.03659542780053
 31
0.0
  0
ARC
  8
0
  6
CONTINUOUS
 62
               3
  5
296
 10
563.62168994641718
 20
-877.85004427436343
 30
0.0
 40
5.0
 50
271.99999999989558
 51
304.80675787031049
  0
LINE
  8
0
  6
CONTINUOUS
 62
               3
  5
297
 10
664.2865232163075
 20
-1083.5365954278004
 30
0.0
 11
664.2865232163075
 21
-1082.8650393018361
 31
0.0
  0
LINE
  8
0
  6
CONTINUOUS
 62
               3
  5
298
 10
666.7865232163075
 20
-1080.3650393018356
 30
0.0
 11
664.2865232163075
 21
-1082.8650393018361
 31
0.0
  0
LINE
  8
0
  6
CONTINUOUS
 62
               3
  5
299
 10
554.2865232163075
 20
-1083.5365954278004
 30
0.0
 11
554.2865232163075
 21
-1082.8650393018361
 31
0.0
  0
LINE
  8
0
  6
CONTINUOUS
 62
               3
  5
29A
 10
551.7865232163075
 20
-1080.3650393018361
 30
0.0
 11
554.2865232163075
 21
-1082.8650393018361
 31
0.0
  0
LINE
  8
0
  6
CONTINUOUS
 62
               3
  5
29B
 10
554.2865232163075
 20
-1082.8650393018361
 30
0.0
 11
664.2865232163075
 21
-1082.8650393018361
 31
0.0
  0
LINE
  8
0
  6
CONTINUOUS
 62
               3
  5
29C
 10
554.45807934227162
 20
-1088.5365954278004
 30
0.0
 11
664.38652321630752
 21
-1088.5365954278004
 31
0.0
  0
LINE
  8
0
  6
CONTINUOUS
 62
               3
  5
29D
 10
666.88652321630752
 20
-1083.5365954278004
 30
0.0
 11
551.68652321630748
 21
-1083.5365954278004
 31
0.0
  0
LINE
  8
0
  6
CONTINUOUS
 62
               3
  5
29E
 10
551.68652321630748
 20
-1083.5365954278004
 30
0.0
 11
551.68652321630748
 21
-1086.0365954278004
 31
0.0
  0
LINE
  8
0
  6
CONTINUOUS
 62
               3
  5
29F
 10
666.88652321630752
 20
-1083.5365954278004
 30
0.0
 11
666.88652321630752
 21
-1086.0365954278004
 31
0.0
  0
ARC
  8
0
  6
CONTINUOUS
 62
               3
  5
2A0
 10
664.38652321630752
 20
-1086.0365954278004
 30
0.0
 40
2.5
 50
269.99999999989615
 51
359.99999999986142
  0
ARC
  8
0
  6
CONTINUOUS
 62
               3
  5
2A1
 10
554.18652321630748
 20
-1086.0365954278004
 30
0.0
 40
2.5
 50
179.99999999993057
 51
269.99999999989626
  0
LINE
  8
0
  6
CONTINUOUS
 62
               3
  5
2A2
 10
666.7865232163075
 20
-1080.3650393018356
 30
0.0
 11
551.7865232163075
 21
-1080.3650393018361
 31
0.0
  0
LINE
  8
0
  6
CONTINUOUS
 62
               3
  5
2A3
 10
669.97612023464865
 20
-989.02693121417906
 30
0.0
 11
666.7865232163075
 21
-1080.3650393018356
 31
0.0
  0
ARC
  8
0
  6
CONTINUOUS
 62
               3
  5
2A4
 10
674.97307436974415
 20
-989.20142869769154
 30
0.0
 40
5.0
 50
145.19324212951597
 51
177.9999999999317
  0
LINE
  8
0
  6
CONTINUOUS
 62
               3
  5
2A5
 10
549.27250815133948
 20
-1008.3730671443515
 30
0.0
 11
551.7865232163075
 21
-1080.3650393018361
 31
0.0
  0
ARC
  8
0
  6
CONTINUOUS
 62
               3
  5
2A6
 10
544.27555401624409
 20
-1008.5475646278637
 30
0.0
 40
5.0
 50
1.9999999999967224
 51
87.999999999966334
  0
LINE
  8
0
  6
CONTINUOUS
 62
               3
  5
2A7
 10
534.28652321630761
 20
-1252.036029176385
 30
0.0
 11
684.28652321630761
 21
-1252.036029176385
 31
0.0
  0
LINE
  8
0
  6
CONTINUOUS
 62
               3
  5
2A8
 10
520.78652321630739
 20
-1262.036029176385
 30
0.0
 11
520.78652321630739
 21
-1269.0360291763845
 31
0.0
  0
LINE
  8
0
  6
CONTINUOUS
 62
               3
  5
2A9
 10
520.78652321630739
 20
-1262.036029176385
 30
0.0
 11
534.28652321630761
 21
-1252.036029176385
 31
0.0
  0
ARC
  8
0
  6
CONTINUOUS
 62
               3
  5
2AA
 10
532.28652321630773
 20
-1273.6186048713403
 30
0.0
 40
4.9999999999999991
 50
0.0
 51
66.4218215217725
  0
LINE
  8
0
  6
CONTINUOUS
 62
               3
  5
2AB
 10
520.78652321630739
 20
-1269.0360291763845
 30
0.0
 11
697.78652321630727
 21
-1269.0360291763845
 31
0.0
  0
ARC
  8
0
  6
CONTINUOUS
 62
               3
  5
2AC
 10
554.28652321630761
 20
-1359.036029176385
 30
0.0
 40
19.999999999999996
 50
148.21166938289122
 51
167.2698198616232
  0
LINE
  8
0
  6
CONTINUOUS
 62
               3
  5
2AD
 10
537.28652321630773
 20
-1273.6186048713403
 30
0.0
 11
537.28652321630773
 21
-1348.5003754235322
 31
0.0
  0
LINE
  8
0
  6
CONTINUOUS
 62
               3
  5
2AE
 10
681.2865232163075
 20
-1343.5003754235318
 30
0.0
 11
681.2865232163075
 21
-1273.6186048713403
 31
0.0
  0
LINE
  8
0
  6
CONTINUOUS
 62
               3
  5
2AF
 10
537.28652321630773
 20
-1348.5003754235322
 30
0.0
 11
680.78652321630796
 21
-1348.5003754235322
 31
0.0
  0
LINE
  8
0
  6
CONTINUOUS
 62
               3
  5
2B0
 10
589.28652321630761
 20
-1269.0360291763845
 30
0.0
 11
589.28652321630761
 21
-1252.036029176385
 31
0.0
  0
LINE
  8
0
  6
CONTINUOUS
 62
               3
  5
2B1
 10
629.28652321630761
 20
-1252.036029176385
 30
0.0
 11
629.28652321630761
 21
-1269.0360291763845
 31
0.0
  0
LINE
  8
0
  6
CONTINUOUS
 62
               3
  5
2B2
 10
589.28652321630761
 20
-1262.036029176385
 30
0.0
 11
629.28652321630761
 21
-1262.036029176385
 31
0.0
  0
LINE
  8
0
  6
CONTINUOUS
 62
               3
  5
2B3
 10
537.00236174230224
 20
-1252.036029176385
 30
0.0
 11
537.00236174230224
 21
-1269.0360291763845
 31
0.0
  0
LINE
  8
0
  6
CONTINUOUS
 62
               3
  5
2B4
 10
523.07602501568238
 20
-1262.036029176385
 30
0.0
 11
523.07602501568238
 21
-1269.0360291763845
 31
0.0
  0
LINE
  8
0
  6
CONTINUOUS
 62
               3
  5
2B5
 10
520.78652321630739
 20
-1262.036029176385
 30
0.0
 11
523.07602501568238
 21
-1262.036029176385
 31
0.0
  0
LINE
  8
0
  6
CONTINUOUS
 62
               3
  5
2B6
 10
523.07602501568238
 20
-1262.036029176385
 30
0.0
 11
537.00236174230224
 21
-1252.036029176385
 31
0.0
  0
LINE
  8
0
  6
CONTINUOUS
 62
               3
  5
2B7
 10
697.78652321630727
 20
-1262.036029176385
 30
0.0
 11
697.78652321630727
 21
-1269.0360291763845
 31
0.0
  0
LINE
  8
0
  6
CONTINUOUS
 62
               3
  5
2B8
 10
697.78652321630727
 20
-1262.036029176385
 30
0.0
 11
684.28652321630761
 21
-1252.036029176385
 31
0.0
  0
ARC
  8
0
  6
CONTINUOUS
 62
               3
  5
2B9
 10
686.2865232163075
 20
-1273.6186048713403
 30
0.0
 40
4.9999999999999991
 50
113.57817847815815
 51
179.99999999993057
  0
LINE
  8
0
  6
CONTINUOUS
 62
               3
  5
2BA
 10
681.57068469031185
 20
-1252.036029176385
 30
0.0
 11
681.57068469031185
 21
-1269.0360291763845
 31
0.0
  0
LINE
  8
0
  6
CONTINUOUS
 62
               3
  5
2BB
 10
695.49702141693285
 20
-1262.036029176385
 30
0.0
 11
695.49702141693285
 21
-1269.0360291763845
 31
0.0
  0
LINE
  8
0
  6
CONTINUOUS
 62
               3
  5
2BC
 10
697.78652321630727
 20
-1262.036029176385
 30
0.0
 11
695.49702141693285
 21
-1262.036029176385
 31
0.0
  0
LINE
  8
0
  6
CONTINUOUS
 62
               3
  5
2BD
 10
695.49702141693285
 20
-1262.036029176385
 30
0.0
 11
681.57068469031185
 21
-1252.036029176385
 31
0.0
  0
ARC
  8
0
  6
CONTINUOUS
 62
               3
  5
2BE
 10
544.28652321630761
 20
-1480.536029176385
 30
0.0
 40
2.4999999999999996
 50
89.999999999965354
 51
269.99999999989632
  0
ARC
  8
0
  6
CONTINUOUS
 62
               3
  5
2BF
 10
684.28652321630761
 20
-1480.536029176385
 30
0.0
 40
2.4999999999999996
 50
269.99999999989649
 51
449.99999999982703
  0
LINE
  8
0
  6
CONTINUOUS
 62
               3
  5
2C0
 10
469.28652321630761
 20
-1473.036029176385
 30
0.0
 11
469.95807934227196
 21
-1473.036029176385
 31
0.0
  0
LINE
  8
0
  6
CONTINUOUS
 62
               3
  5
2C1
 10
472.45807934227207
 20
-1475.5360291763841
 30
0.0
 11
469.95807934227196
 21
-1473.036029176385
 31
0.0
  0
LINE
  8
0
  6
CONTINUOUS
 62
               3
  5
2C2
 10
472.45807934227287
 20
-1475.536029176385
 30
0.0
 11
514.6231895985502
 21
-1477.0084672722392
 31
0.0
  0
LINE
  8
0
  6
CONTINUOUS
 62
               3
  5
2C3
 10
532.82205712224015
 20
-1493.3077186026708
 30
0.0
 11
517.98422602097037
 21
-1478.4698875014014
 31
0.0
  0
ARC
  8
0
  6
CONTINUOUS
 62
               3
  5
2C4
 10
529.28652321630761
 20
-1496.8432525086041
 30
0.0
 40
4.9999999999999991
 50
0.0
 51
44.99999999998176
  0
LINE
  8
0
  6
CONTINUOUS
 62
               3
  5
2C5
 10
469.28652321630761
 20
-1363.036029176385
 30
0.0
 11
469.95807934227196
 21
-1363.036029176385
 31
0.0
  0
LINE
  8
0
  6
CONTINUOUS
 62
               3
  5
2C6
 10
472.45807934227207
 20
-1360.536029176385
 30
0.0
 11
469.95807934227196
 21
-1363.036029176385
 31
0.0
  0
LINE
  8
0
  6
CONTINUOUS
 62
               3
  5
2C7
 10
472.45807934227196
 20
-1360.536029176385
 30
0.0
 11
530.07555554444627
 21
-1358.5239825712324
 31
0.0
  0
LINE
  8
0
  6
CONTINUOUS
 62
               3
  5
2C8
 10
469.95807934227196
 20
-1363.036029176385
 30
0.0
 11
469.95807934227196
 21
-1473.036029176385
 31
0.0
  0
LINE
  8
0
  6
CONTINUOUS
 62
               3
  5
2C9
 10
469.28652321630761
 20
-1475.6360291763849
 30
0.0
 11
469.28652321630761
 21
-1360.4360291763851
 31
0.0
  0
LINE
  8
0
  6
CONTINUOUS
 62
               3
  5
2CA
 10
469.28652321630761
 20
-1360.4360291763851
 30
0.0
 11
466.78652321630761
 21
-1360.4360291763851
 31
0.0
  0
ARC
  8
0
  6
CONTINUOUS
 62
               3
  5
2CB
 10
466.78652321630761
 20
-1362.9360291763851
 30
0.0
 40
2.5
 50
89.999999999965596
 51
179.99999999993057
  0
LINE
  8
0
  6
CONTINUOUS
 62
               3
  5
2CC
 10
464.28652321630761
 20
-1362.9360291763851
 30
0.0
 11
464.28652321630761
 21
-1473.1360291763849
 31
0.0
  0
LINE
  8
0
  6
CONTINUOUS
 62
               3
  5
2CD
 10
469.28652321630761
 20
-1475.6360291763849
 30
0.0
 11
466.78652321630761
 21
-1475.6360291763849
 31
0.0
  0
ARC
  8
0
  6
CONTINUOUS
 62
               3
  5
2CE
 10
466.78652321630761
 20
-1473.1360291763849
 30
0.0
 40
2.5
 50
179.99999999993057
 51
269.99999999989649
  0
LINE
  8
0
  6
CONTINUOUS
 62
               3
  5
2CF
 10
472.45807934227207
 20
-1360.536029176385
 30
0.0
 11
472.45807934227287
 21
-1475.536029176385
 31
0.0
  0
ARC
  8
0
  6
CONTINUOUS
 62
               3
  5
2D0
 10
514.44869211503772
 20
-1482.0054214073343
 30
0.0
 40
5.0
 50
44.999999999983494
 51
87.999999999965766
  0
ARC
  8
0
  6
CONTINUOUS
 62
               3
  5
2D1
 10
529.90105806093379
 20
-1353.5270284361372
 30
0.0
 40
5.0
 50
271.99999999989535
 51
347.26981986155278
  0
CIRCLE
  8
0
  6
CONTINUOUS
 62
               3
  5
2D2
 10
609.28652321630761
 20
-1418.036029176385
 30
0.0
 40
48.5
  0
CIRCLE
  8
0
  6
CONTINUOUS
 62
               3
  5
2D3
 10
609.28652321630761
 20
-1418.036029176385
 30
0.0
 40
47.299999999999997
  0
LINE
  8
0
  6
CONTINUOUS
 62
               3
  5
2D4
 10
577.46671806291306
 20
-1449.8558343297796
 30
0.0
 11
575.84037246618391
 21
-1451.4821799265087
 31
0.0
  0
LINE
  8
0
  6
CONTINUOUS
 62
               3
  5
2D5
 10
641.10632836970228
 20
-1449.8558343297796
 30
0.0
 11
642.73267396643132
 21
-1451.4821799265087
 31
0.0
  0
ARC
  8
0
  6
CONTINUOUS
 62
               3
  5
2D6
 10
609.28652321630761
 20
-1418.036029176385
 30
0.0
 40
45.0
 50
224.99999999991346
 51
314.99999999987898
  0
CIRCLE
  8
0
  6
CONTINUOUS
 62
               3
  5
2D7
 10
609.28652321630761
 20
-1418.036029176385
 30
0.0
 40
57.600000000000001
  0
ARC
  8
0
  6
CONTINUOUS
 62
               3
  5
2D8
 10
586.78652321630818
 20
-1480.536029176385
 30
0.0
 40
2.4999999999999996
 50
269.99999999989626
 51
449.99999999982697
  0
ARC
  8
0
  6
CONTINUOUS
 62
               3
  5
2D9
 10
631.78652321630818
 20
-1480.536029176385
 30
0.0
 40
2.4999999999999996
 50
89.999999999965439
 51
269.99999999989615
  0
LINE
  8
0
  6
CONTINUOUS
 62
               3
  5
2DA
 10
544.28652321630761
 20
-1483.036029176385
 30
0.0
 11
586.78652321630818
 21
-1483.036029176385
 31
0.0
  0
LINE
  8
0
  6
CONTINUOUS
 62
               3
  5
2DB
 10
544.28652321630761
 20
-1478.036029176385
 30
0.0
 11
586.78652321630818
 21
-1478.036029176385
 31
0.0
  0
LINE
  8
0
  6
CONTINUOUS
 62
               3
  5
2DC
 10
631.78652321630818
 20
-1478.036029176385
 30
0.0
 11
684.28652321630761
 21
-1478.036029176385
 31
0.0
  0
LINE
  8
0
  6
CONTINUOUS
 62
               3
  5
2DD
 10
631.78652321630818
 20
-1483.036029176385
 30
0.0
 11
684.28652321630761
 21
-1483.036029176385
 31
0.0
  0
CIRCLE
  8
0
  6
CONTINUOUS
 62
               3
  5
2DE
 10
609.28652321630761
 20
-943.53659542780053
 30
0.0
 40
59.0
  0
LINE
  8
0
  6
DASHED2
 62
               3
  5
2DF
 10
51.499999999999432
 20
-579.57283551840112
 30
0.0
 11
51.499999999999432
 21
-499.57283551840112
 31
0.0
  0
LINE
  8
0
  6
DASHED2
 62
               3
  5
2E0
 10
-51.500000000000455
 20
-579.57283551840112
 30
0.0
 11
-51.500000000000455
 21
-499.57283551840112
 31
0.0
  0
LINE
  8
0
  6
CONTINUOUS
 62
               7
  5
2E1
 10
-663.78789823551779
 20
-415.9801897390164
 30
0.0
 11
-663.2999999999995
 21
-419.97278031100132
 31
0.0
  0
ARC
  8
0
  6
CONTINUOUS
 62
               7
  5
2E2
 10
-535.68251706098658
 20
-402.47659435360583
 30
0.0
 40
128.81125135152257
 50
186.12760128452126
 51
187.80650690830214
  0
CIRCLE
  8
0
  6
CONTINUOUS
 62
               7
  5
2E3
 10
-392.13776905046893
 20
-1007.7210309995916
 30
0.0
 40
38.0
  0
CIRCLE
  8
0
  6
CONTINUOUS
 62
               7
  5
2E4
 10
-392.13776905046893
 20
-1007.7210309995916
 30
0.0
 40
33.5
  0
LINE
  8
0
  6
CONTINUOUS
 62
               7
  5
2E5
 10
-247.63776905046893
 20
-956.72103099959156
 30
0.0
 11
-247.63776905046893
 21
-1045.7157948789172
 31
0.0
  0
LINE
  8
0
  6
CONTINUOUS
 62
               7
  5
2E6
 10
-247.03776905046891
 20
-956.72103099959156
 30
0.0
 11
-247.63776905046893
 21
-956.72103099959156
 31
0.0
  0
LINE
  8
0
  6
CONTINUOUS
 62
               7
  5
2E7
 10
-282.63776905046893
 20
-1044.7210309995917
 30
0.0
 11
-282.63776905046893
 21
-970.72103099959156
 31
0.0
  0
LINE
  8
0
  6
CONTINUOUS
 62
               7
  5
2E8
 10
-189.63776905046893
 20
-1044.7210309995917
 30
0.0
 11
-189.63776905046893
 21
-957.72103099959156
 31
0.0
  0
LINE
  8
0
  6
CONTINUOUS
 62
               7
  5
2E9
 10
-247.63776905046893
 20
-956.72103099959156
 30
0.0
 11
-190.63776905046893
 21
-956.72103099959156
 31
0.0
  0
LINE
  8
0
  6
CONTINUOUS
 62
               7
  5
2EA
 10
-281.63776905046893
 20
-1045.7210309995917
 30
0.0
 11
-190.63776905046893
 21
-1045.7210309995917
 31
0.0
  0
LINE
  8
0
  6
CONTINUOUS
 62
               7
  5
2EB
 10
-190.63776905046893
 20
-956.72103099959156
 30
0.0
 11
-189.63776905046893
 21
-957.72103099959156
 31
0.0
  0
LINE
  8
0
  6
CONTINUOUS
 62
               7
  5
2EC
 10
-189.63776905046893
 20
-1044.7210309995917
 30
0.0
 11
-190.63776905046893
 21
-1045.7210309995917
 31
0.0
  0
LINE
  8
0
  6
CONTINUOUS
 62
               7
  5
2ED
 10
-281.63776905046893
 20
-969.72103099959156
 30
0.0
 11
-247.63776905046893
 21
-969.72103099959156
 31
0.0
  0
CIRCLE
  8
0
  6
CONTINUOUS
 62
               7
  5
2EE
 10
-392.13776905046893
 20
-1001.2210309995916
 30
0.0
 40
44.5
  0
LINE
  8
0
  6
CONTINUOUS
 62
               7
  5
2EF
 10
-281.63776905046893
 20
-969.72103099959156
 30
0.0
 11
-282.63776905046893
 21
-970.72103099959156
 31
0.0
  0
LINE
  8
0
  6
CONTINUOUS
 62
               7
  5
2F0
 10
-282.63776905046893
 20
-1044.7210309995917
 30
0.0
 11
-281.63776905046893
 21
-1045.7210309995917
 31
0.0
  0
LINE
  8
0
  6
CONTINUOUS
 62
               7
  5
2F1
 10
-536.63776905046882
 20
-956.72103099959133
 30
0.0
 11
-536.63776905046893
 21
-1045.7157948789168
 31
0.0
  0
LINE
  8
0
  6
CONTINUOUS
 62
               7
  5
2F2
 10
-537.23776905046884
 20
-956.72103099959133
 30
0.0
 11
-536.63776905046882
 21
-956.72103099959133
 31
0.0
  0
LINE
  8
0
  6
CONTINUOUS
 62
               7
  5
2F3
 10
-501.63776905046893
 20
-1044.7210309995912
 30
0.0
 11
-501.63776905046882
 21
-970.72103099959133
 31
0.0
  0
LINE
  8
0
  6
CONTINUOUS
 62
               7
  5
2F4
 10
-594.63776905046893
 20
-1044.7210309995912
 30
0.0
 11
-594.63776905046882
 21
-957.72103099959133
 31
0.0
  0
LINE
  8
0
  6
CONTINUOUS
 62
               7
  5
2F5
 10
-536.63776905046882
 20
-956.72103099959133
 30
0.0
 11
-593.63776905046882
 21
-956.72103099959133
 31
0.0
  0
LINE
  8
0
  6
CONTINUOUS
 62
               7
  5
2F6
 10
-502.63776905046893
 20
-1045.7210309995912
 30
0.0
 11
-593.63776905046893
 21
-1045.7210309995912
 31
0.0
  0
LINE
  8
0
  6
CONTINUOUS
 62
               7
  5
2F7
 10
-593.63776905046882
 20
-956.72103099959133
 30
0.0
 11
-594.63776905046882
 21
-957.72103099959133
 31
0.0
  0
LINE
  8
0
  6
CONTINUOUS
 62
               7
  5
2F8
 10
-594.63776905046893
 20
-1044.7210309995912
 30
0.0
 11
-593.63776905046893
 21
-1045.7210309995912
 31
0.0
  0
LINE
  8
0
  6
CONTINUOUS
 62
               7
  5
2F9
 10
-502.63776905046882
 20
-969.72103099959133
 30
0.0
 11
-536.63776905046882
 21
-969.72103099959133
 31
0.0
  0
LINE
  8
0
  6
CONTINUOUS
 62
               7
  5
2FA
 10
-502.63776905046882
 20
-969.72103099959133
 30
0.0
 11
-501.63776905046882
 21
-970.72103099959133
 31
0.0
  0
LINE
  8
0
  6
CONTINUOUS
 62
               7
  5
2FB
 10
-501.63776905046893
 20
-1044.7210309995912
 30
0.0
 11
-502.63776905046893
 21
-1045.7210309995912
 31
0.0
  0
LINE
  8
0
  6
CONTINUOUS
 62
               7
  5
2FC
 10
-349.58372644623546
 20
-849.25314693055668
 30
0.0
 11
-438.57849032556101
 21
-849.25314693055645
 31
0.0
  0
LINE
  8
0
  6
CONTINUOUS
 62
               7
  5
2FD
 10
-349.58372644623546
 20
-848.65314693055655
 30
0.0
 11
-349.58372644623546
 21
-849.25314693055668
 31
0.0
  0
LINE
  8
0
  6
CONTINUOUS
 62
               7
  5
2FE
 10
-431.08372644623546
 20
-884.25314693055645
 30
0.0
 11
-357.08372644623546
 21
-884.25314693055668
 31
0.0
  0
LINE
  8
0
  6
CONTINUOUS
 62
               7
  5
2FF
 10
-437.58372644623535
 20
-791.25314693055645
 30
0.0
 11
-350.58372644623546
 21
-791.25314693055668
 31
0.0
  0
LINE
  8
0
  6
CONTINUOUS
 62
               7
  5
300
 10
-349.58372644623546
 20
-849.25314693055668
 30
0.0
 11
-349.58372644623546
 21
-792.25314693055668
 31
0.0
  0
LINE
  8
0
  6
CONTINUOUS
 62
               7
  5
301
 10
-432.08372644623546
 20
-883.25314693055645
 30
0.0
 11
-432.08372644623546
 21
-849.25314693055645
 31
0.0
  0
LINE
  8
0
  6
CONTINUOUS
 62
               7
  5
302
 10
-349.58372644623546
 20
-792.25314693055668
 30
0.0
 11
-350.58372644623546
 21
-791.25314693055668
 31
0.0
  0
LINE
  8
0
  6
CONTINUOUS
 62
               7
  5
303
 10
-437.58372644623535
 20
-791.25314693055645
 30
0.0
 11
-438.58372644623535
 21
-792.25314693055645
 31
0.0
  0
LINE
  8
0
  6
CONTINUOUS
 62
               7
  5
304
 10
-356.08372644623546
 20
-883.25314693055668
 30
0.0
 11
-356.08372644623546
 21
-849.25314693055645
 31
0.0
  0
LINE
  8
0
  6
CONTINUOUS
 62
               7
  5
305
 10
-356.08372644623546
 20
-883.25314693055668
 30
0.0
 11
-357.08372644623546
 21
-884.25314693055668
 31
0.0
  0
LINE
  8
0
  6
CONTINUOUS
 62
               7
  5
306
 10
-431.08372644623546
 20
-884.25314693055645
 30
0.0
 11
-432.08372644623546
 21
-883.25314693055645
 31
0.0
  0
LINE
  8
0
  6
CONTINUOUS
 62
               7
  5
307
 10
-438.58372644623546
 20
-849.25314693055645
 30
0.0
 11
-438.58372644623546
 21
-792.25314693055645
 31
0.0
  0
LINE
  8
0
  6
CONTINUOUS
 62
               7
  5
308
 10
216.63392368588075
 20
-1044.7210309995917
 30
0.0
 11
216.63392368588075
 21
-986.72103099959156
 31
0.0
  0
LINE
  8
0
  6
CONTINUOUS
 62
               7
  5
309
 10
242.23392368588065
 20
-956.72103099959156
 30
0.0
 11
242.23392368588065
 21
-1045.7210309995917
 31
0.0
  0
LINE
  8
0
  6
CONTINUOUS
 62
               7
  5
30A
 10
242.83392368588079
 20
-956.72103099959156
 30
0.0
 11
242.23392368588065
 21
-956.72103099959156
 31
0.0
  0
LINE
  8
0
  6
CONTINUOUS
 62
               7
  5
30B
 10
300.23392368588088
 20
-1044.7210309995917
 30
0.0
 11
300.23392368588088
 21
-957.72103099959156
 31
0.0
  0
CIRCLE
  8
0
  6
CONTINUOUS
 62
               7
  5
30C
 10
120.87790746063774
 20
-1015.7210309995916
 30
0.0
 40
30.0
  0
CIRCLE
  8
0
  6
CONTINUOUS
 62
               7
  5
30D
 10
120.87790746063774
 20
-1015.7210309995916
 30
0.0
 40
25.5
  0
CIRCLE
  8
0
  6
CONTINUOUS
 62
               7
  5
30E
 10
120.87790746063774
 20
-1001.2210309995916
 30
0.0
 40
44.5
  0
LINE
  8
0
  6
CONTINUOUS
 62
               7
  5
30F
 10
242.36837543136107
 20
-956.72103099959156
 30
0.0
 11
299.23392368588088
 21
-956.72103099959156
 31
0.0
  0
LINE
  8
0
  6
CONTINUOUS
 62
               7
  5
310
 10
217.63392368588075
 20
-1045.7210309995917
 30
0.0
 11
299.23392368588088
 21
-1045.7210309995917
 31
0.0
  0
LINE
  8
0
  6
CONTINUOUS
 62
               7
  5
311
 10
217.63392368588075
 20
-985.72103099959156
 30
0.0
 11
242.23392368588065
 21
-985.72103099959156
 31
0.0
  0
LINE
  8
0
  6
CONTINUOUS
 62
               7
  5
312
 10
217.63392368588075
 20
-985.72103099959156
 30
0.0
 11
216.63392368588075
 21
-986.72103099959156
 31
0.0
  0
LINE
  8
0
  6
CONTINUOUS
 62
               7
  5
313
 10
299.23392368588088
 20
-956.72103099959156
 30
0.0
 11
300.23392368588088
 21
-957.72103099959156
 31
0.0
  0
LINE
  8
0
  6
CONTINUOUS
 62
               7
  5
314
 10
216.63392368588075
 20
-1044.7210309995917
 30
0.0
 11
217.63392368588075
 21
-1045.7210309995917
 31
0.0
  0
LINE
  8
0
  6
CONTINUOUS
 62
               7
  5
315
 10
300.23392368588088
 20
-1044.7210309995917
 30
0.0
 11
299.23392368588088
 21
-1045.7210309995917
 31
0.0
  0
LINE
  8
0
  6
CONTINUOUS
 62
               7
  5
316
 10
25.121891235394969
 20
-1044.7210309995917
 30
0.0
 11
25.121891235394969
 21
-986.72103099959156
 31
0.0
  0
LINE
  8
0
  6
CONTINUOUS
 62
               7
  5
317
 10
-0.4781087646050537
 20
-956.72103099959156
 30
0.0
 11
-0.4781087646050537
 21
-1045.7210309995917
 31
0.0
  0
LINE
  8
0
  6
CONTINUOUS
 62
               7
  5
318
 10
-1.0781087646050764
 20
-956.72103099959156
 30
0.0
 11
-0.4781087646050537
 21
-956.72103099959156
 31
0.0
  0
LINE
  8
0
  6
CONTINUOUS
 62
               7
  5
319
 10
-58.478108764605054
 20
-1044.7210309995917
 30
0.0
 11
-58.478108764605054
 21
-957.72103099959156
 31
0.0
  0
LINE
  8
0
  6
CONTINUOUS
 62
               7
  5
31A
 10
-0.6125605100853591
 20
-956.72103099959156
 30
0.0
 11
-57.478108764605054
 21
-956.72103099959156
 31
0.0
  0
LINE
  8
0
  6
CONTINUOUS
 62
               7
  5
31B
 10
24.121891235394969
 20
-1045.7210309995917
 30
0.0
 11
-57.478108764605054
 21
-1045.7210309995917
 31
0.0
  0
LINE
  8
0
  6
CONTINUOUS
 62
               7
  5
31C
 10
24.121891235394969
 20
-985.72103099959156
 30
0.0
 11
-0.4781087646050537
 21
-985.72103099959156
 31
0.0
  0
LINE
  8
0
  6
CONTINUOUS
 62
               7
  5
31D
 10
24.121891235394969
 20
-985.72103099959156
 30
0.0
 11
25.121891235394969
 21
-986.72103099959156
 31
0.0
  0
LINE
  8
0
  6
CONTINUOUS
 62
               7
  5
31E
 10
-57.478108764605054
 20
-956.72103099959156
 30
0.0
 11
-58.478108764605054
 21
-957.72103099959156
 31
0.0
  0
LINE
  8
0
  6
CONTINUOUS
 62
               7
  5
31F
 10
25.121891235394969
 20
-1044.7210309995917
 30
0.0
 11
24.121891235394969
 21
-1045.7210309995917
 31
0.0
  0
LINE
  8
0
  6
CONTINUOUS
 62
               7
  5
320
 10
-58.478108764605054
 20
-1044.7210309995917
 30
0.0
 11
-57.478108764605054
 21
-1045.7210309995917
 31
0.0
  0
LINE
  8
0
  6
CONTINUOUS
 62
               7
  5
321
 10
91.877907460637971
 20
-894.96501477434879
 30
0.0
 11
149.87790746063797
 21
-894.96501477434879
 31
0.0
  0
LINE
  8
0
  6
CONTINUOUS
 62
               7
  5
322
 10
165.37790746063797
 20
-869.36501477434865
 30
0.0
 11
76.377907460637971
 21
-869.36501477434865
 31
0.0
  0
LINE
  8
0
  6
CONTINUOUS
 62
               7
  5
323
 10
165.37790746063797
 20
-868.76501477434874
 30
0.0
 11
165.37790746063797
 21
-869.36501477434865
 31
0.0
  0
LINE
  8
0
  6
CONTINUOUS
 62
               7
  5
324
 10
77.377907460637971
 20
-811.36501477434865
 30
0.0
 11
164.37790746063797
 21
-811.36501477434865
 31
0.0
  0
LINE
  8
0
  6
CONTINUOUS
 62
               7
  5
325
 10
165.37790746063797
 20
-869.23056302886846
 30
0.0
 11
165.37790746063797
 21
-812.36501477434865
 31
0.0
  0
LINE
  8
0
  6
CONTINUOUS
 62
               7
  5
326
 10
90.877907460637971
 20
-893.96501477434879
 30
0.0
 11
90.877907460637971
 21
-869.36501477434865
 31
0.0
  0
LINE
  8
0
  6
CONTINUOUS
 62
               7
  5
327
 10
150.87790746063797
 20
-893.96501477434879
 30
0.0
 11
150.87790746063797
 21
-869.36501477434865
 31
0.0
  0
LINE
  8
0
  6
CONTINUOUS
 62
               7
  5
328
 10
150.87790746063797
 20
-893.96501477434879
 30
0.0
 11
149.87790746063797
 21
-894.96501477434879
 31
0.0
  0
LINE
  8
0
  6
CONTINUOUS
 62
               7
  5
329
 10
165.37790746063797
 20
-812.36501477434865
 30
0.0
 11
164.37790746063797
 21
-811.36501477434865
 31
0.0
  0
LINE
  8
0
  6
CONTINUOUS
 62
               7
  5
32A
 10
91.877907460637971
 20
-894.96501477434879
 30
0.0
 11
90.877907460637971
 21
-893.96501477434879
 31
0.0
  0
LINE
  8
0
  6
CONTINUOUS
 62
               7
  5
32B
 10
77.377907460637971
 20
-811.36501477434865
 30
0.0
 11
76.377907460637971
 21
-812.36501477434865
 31
0.0
  0
LINE
  8
0
  6
CONTINUOUS
 62
               7
  5
32C
 10
76.377907460637971
 20
-869.23056302886823
 30
0.0
 11
76.377907460637971
 21
-812.36501477434865
 31
0.0
  0
CIRCLE
  8
0
  6
CONTINUOUS
 62
               7
  5
32D
 10
609.28652321630761
 20
-1432.536029176385
 30
0.0
 40
25.5
  0
CIRCLE
  8
0
  6
CONTINUOUS
 62
               7
  5
32E
 10
609.28652321630761
 20
-1418.036029176385
 30
0.0
 40
44.5
  0
CIRCLE
  8
0
  6
CONTINUOUS
 62
               7
  5
32F
 10
609.28652321630761
 20
-1432.536029176385
 30
0.0
 40
30.0
  0
LINE
  8
0
  6
CONTINUOUS
 62
               7
  5
330
 10
580.28652321630761
 20
-1114.1365954278003
 30
0.0
 11
638.28652321630761
 21
-1114.1365954278003
 31
0.0
  0
LINE
  8
0
  6
CONTINUOUS
 62
               7
  5
331
 10
653.78652321630761
 20
-1088.5365954278004
 30
0.0
 11
564.78652321630761
 21
-1088.5365954278004
 31
0.0
  0
LINE
  8
0
  6
CONTINUOUS
 62
               7
  5
332
 10
653.78652321630761
 20
-1087.9365954278005
 30
0.0
 11
653.78652321630761
 21
-1088.5365954278004
 31
0.0
  0
LINE
  8
0
  6
CONTINUOUS
 62
               7
  5
333
 10
565.78652321630761
 20
-1030.5365954278004
 30
0.0
 11
652.78652321630761
 21
-1030.5365954278004
 31
0.0
  0
LINE
  8
0
  6
CONTINUOUS
 62
               7
  5
334
 10
653.78652321630761
 20
-1088.40214368232
 30
0.0
 11
653.78652321630761
 21
-1031.5365954278004
 31
0.0
  0
LINE
  8
0
  6
CONTINUOUS
 62
               7
  5
335
 10
579.28652321630761
 20
-1113.1365954278003
 30
0.0
 11
579.28652321630761
 21
-1088.5365954278004
 31
0.0
  0
LINE
  8
0
  6
CONTINUOUS
 62
               7
  5
336
 10
639.28652321630761
 20
-1113.1365954278003
 30
0.0
 11
639.28652321630761
 21
-1088.5365954278004
 31
0.0
  0
LINE
  8
0
  6
CONTINUOUS
 62
               7
  5
337
 10
639.28652321630761
 20
-1113.1365954278003
 30
0.0
 11
638.28652321630761
 21
-1114.1365954278003
 31
0.0
  0
LINE
  8
0
  6
CONTINUOUS
 62
               7
  5
338
 10
653.78652321630761
 20
-1031.5365954278004
 30
0.0
 11
652.78652321630761
 21
-1030.5365954278004
 31
0.0
  0
LINE
  8
0
  6
CONTINUOUS
 62
               7
  5
339
 10
580.28652321630761
 20
-1114.1365954278003
 30
0.0
 11
579.28652321630761
 21
-1113.1365954278003
 31
0.0
  0
LINE
  8
0
  6
CONTINUOUS
 62
               7
  5
33A
 10
565.78652321630761
 20
-1030.5365954278004
 30
0.0
 11
564.78652321630761
 21
-1031.5365954278004
 31
0.0
  0
LINE
  8
0
  6
CONTINUOUS
 62
               7
  5
33B
 10
564.78652321630761
 20
-1088.40214368232
 30
0.0
 11
564.78652321630761
 21
-1031.5365954278004
 31
0.0
  0
LINE
  8
0
  6
CONTINUOUS
 62
               7
  5
33C
 10
464.28652321630761
 20
-1373.536029176385
 30
0.0
 11
464.28652321630761
 21
-1462.5307930557105
 31
0.0
  0
LINE
  8
0
  6
CONTINUOUS
 62
               7
  5
33D
 10
464.88652321630764
 20
-1373.536029176385
 30
0.0
 11
464.28652321630761
 21
-1373.536029176385
 31
0.0
  0
LINE
  8
0
  6
CONTINUOUS
 62
               7
  5
33E
 10
429.28652321630761
 20
-1461.536029176385
 30
0.0
 11
429.28652321630761
 21
-1387.536029176385
 31
0.0
  0
LINE
  8
0
  6
CONTINUOUS
 62
               7
  5
33F
 10
522.28652321630761
 20
-1461.536029176385
 30
0.0
 11
522.28652321630761
 21
-1374.536029176385
 31
0.0
  0
LINE
  8
0
  6
CONTINUOUS
 62
               7
  5
340
 10
464.28652321630761
 20
-1373.536029176385
 30
0.0
 11
521.28652321630761
 21
-1373.536029176385
 31
0.0
  0
LINE
  8
0
  6
CONTINUOUS
 62
               7
  5
341
 10
430.28652321630761
 20
-1462.536029176385
 30
0.0
 11
521.28652321630761
 21
-1462.536029176385
 31
0.0
  0
LINE
  8
0
  6
CONTINUOUS
 62
               7
  5
342
 10
521.28652321630761
 20
-1373.536029176385
 30
0.0
 11
522.28652321630761
 21
-1374.536029176385
 31
0.0
  0
LINE
  8
0
  6
CONTINUOUS
 62
               7
  5
343
 10
522.28652321630761
 20
-1461.536029176385
 30
0.0
 11
521.28652321630761
 21
-1462.536029176385
 31
0.0
  0
LINE
  8
0
  6
CONTINUOUS
 62
               7
  5
344
 10
430.28652321630761
 20
-1386.536029176385
 30
0.0
 11
464.28652321630761
 21
-1386.536029176385
 31
0.0
  0
LINE
  8
0
  6
CONTINUOUS
 62
               7
  5
345
 10
430.28652321630761
 20
-1386.536029176385
 30
0.0
 11
429.28652321630761
 21
-1387.536029176385
 31
0.0
  0
LINE
  8
0
  6
CONTINUOUS
 62
               7
  5
346
 10
429.28652321630761
 20
-1461.536029176385
 30
0.0
 11
430.28652321630761
 21
-1462.536029176385
 31
0.0
  0
LINE
  8
0
  6
CONTINUOUS
 62
               7
  5
347
 10
464.28652321630761
 20
-988.03659542780031
 30
0.0
 11
464.28652321630784
 21
-899.04183154847476
 31
0.0
  0
LINE
  8
0
  6
CONTINUOUS
 62
               7
  5
348
 10
464.88652321630775
 20
-988.03659542780031
 30
0.0
 11
464.28652321630761
 21
-988.03659542780031
 31
0.0
  0
LINE
  8
0
  6
CONTINUOUS
 62
               7
  5
349
 10
429.28652321630784
 20
-906.53659542780031
 30
0.0
 11
429.28652321630761
 21
-980.53659542780031
 31
0.0
  0
LINE
  8
0
  6
CONTINUOUS
 62
               7
  5
34A
 10
522.28652321630784
 20
-900.03659542780053
 30
0.0
 11
522.28652321630761
 21
-987.03659542780031
 31
0.0
  0
LINE
  8
0
  6
CONTINUOUS
 62
               7
  5
34B
 10
464.28652321630761
 20
-988.03659542780031
 30
0.0
 11
521.28652321630761
 21
-988.03659542780031
 31
0.0
  0
LINE
  8
0
  6
CONTINUOUS
 62
               7
  5
34C
 10
430.28652321630784
 20
-905.53659542780031
 30
0.0
 11
464.28652321630784
 21
-905.53659542780031
 31
0.0
  0
LINE
  8
0
  6
CONTINUOUS
 62
               7
  5
34D
 10
521.28652321630761
 20
-988.03659542780031
 30
0.0
 11
522.28652321630761
 21
-987.03659542780031
 31
0.0
  0
LINE
  8
0
  6
CONTINUOUS
 62
               7
  5
34E
 10
522.28652321630784
 20
-900.03659542780053
 30
0.0
 11
521.28652321630784
 21
-899.03659542780053
 31
0.0
  0
LINE
  8
0
  6
CONTINUOUS
 62
               7
  5
34F
 10
430.28652321630761
 20
-981.53659542780031
 30
0.0
 11
464.28652321630784
 21
-981.53659542780031
 31
0.0
  0
LINE
  8
0
  6
CONTINUOUS
 62
               7
  5
350
 10
430.28652321630761
 20
-981.53659542780031
 30
0.0
 11
429.28652321630761
 21
-980.53659542780031
 31
0.0
  0
LINE
  8
0
  6
CONTINUOUS
 62
               7
  5
351
 10
429.28652321630784
 20
-906.53659542780031
 30
0.0
 11
430.28652321630784
 21
-905.53659542780031
 31
0.0
  0
LINE
  8
0
  6
CONTINUOUS
 62
               7
  5
352
 10
464.28652321630784
 20
-899.03659542780031
 30
0.0
 11
521.28652321630784
 21
-899.03659542780031
 31
0.0
  0
CIRCLE
  8
0
  6
DASHED
 62
               7
  5
353
 10
-392.13776905046893
 20
-1001.2210309995916
 30
0.0
 40
40.0
  0
CIRCLE
  8
0
  6
DASHED
 62
               7
  5
354
 10
120.87790746063774
 20
-1001.2210309995916
 30
0.0
 40
40.0
  0
CIRCLE
  8
0
  6
DASHED
 62
               7
  5
355
 10
609.28652321630761
 20
-1418.036029176385
 30
0.0
 40
40.0
  0
POINT
  8
0
  6
CONTINUOUS
 62
               5
  5
356
 10
-392.13776905046893
 20
-1001.2210309995916
 30
0.0
  0
POINT
  8
0
  6
CONTINUOUS
 62
               5
  5
357
 10
-218.90769754050859
 20
-1002.5118250744805
 30
0.0
  0
POINT
  8
0
  6
CONTINUOUS
 62
               5
  5
358
 10
-565.36784056042916
 20
-1002.5118250744803
 30
0.0
  0
POINT
  8
0
  6
CONTINUOUS
 62
               5
  5
359
 10
-395.37452052112451
 20
-820.52307542059623
 30
0.0
  0
POINT
  8
0
  6
CONTINUOUS
 62
               5
  5
35A
 10
493.01659472626795
 20
-1419.3268232512737
 30
0.0
  0
POINT
  8
0
  6
CONTINUOUS
 62
               5
  5
35B
 10
493.01659472626807
 20
-942.24580135291137
 30
0.0
  0
TEXT
  8
0
 62
               3
  5
35C
 10
-392.13776905046893
 20
-1085.7210309995912
 30
0.0
 40
40.0
  1
EMB_80×65
 41
0.8
 72
               1
 11
-392.13776905046893
 21
-1085.7210309995912
 31
0.0
 73
               3
  0
TEXT
  8
0
 62
               3
  5
35D
 10
120.87790746063774
 20
-1085.7210309995917
 30
0.0
 40
40.0
  1
EMB_80×50
 41
0.8
 72
               1
 11
120.87790746063774
 21
-1085.7210309995917
 31
0.0
 73
               3
  0
TEXT
  8
0
 62
               3
  5
35E
 10
605.58911923866731
 20
-764.09022692258122
 30
0.0
 40
40.0
  1
EMB使用例
 41
0.8
 72
               1
 11
605.58911923866731
 21
-764.09022692258122
 31
0.0
 73
               3
  0
TEXT
  8
0
 62
               3
  5
35F
 10
-123.74270409089112
 20
-709.73009102224171
 30
0.0
 40
35.0
  1
横枝管に呼び６５、５０の管を接続するときは、EMBをご使用ください。
 41
0.8
 72
               1
 11
-123.74270409089112
 21
-709.73009102224171
 31
0.0
 73
               3
  0
ENDSEC
  0
EOF
