  0
SECTION
  2
HEADER
  9
$ACADVER
  1
AC1009
  9
$INSBASE
 10
0.0
 20
0.0
 30
0.0
  9
$EXTMIN
 10
-597.4799999999999
 20
-548.50987968460595
 30
0.0
  9
$EXTMAX
 10
597.4799999999999
 20
548.50987968460606
 30
0.0
  9
$LIMMIN
 10
-634.82249999999988
 20
-582.79174716489388
  9
$LIMMAX
 10
634.82249999999988
 20
582.79174716489388
  9
$ORTHOMODE
 70
               0
  9
$REGENMODE
 70
               1
  9
$FILLMODE
 70
               1
  9
$QTEXTMODE
 70
               0
  9
$MIRRTEXT
 70
               1
  9
$DRAGMODE
 70
               2
  9
$LTSCALE
 40
1.0
  9
$OSMODE
 70
               0
  9
$ATTMODE
 70
               1
  9
$TEXTSIZE
 40
0.2
  9
$TRACEWID
 40
0.05
  9
$TEXTSTYLE
  7
STANDARD
  9
$CLAYER
  8
0
  9
$CELTYPE
  6
CONTINUOUS
  9
$CECOLOR
 62
             256
  9
$DIMSCALE
 40
1.0
  9
$DIMASZ
 40
0.18
  9
$DIMEXO
 40
0.0625
  9
$DIMDLI
 40
0.38
  9
$DIMRND
 40
0.0
  9
$DIMDLE
 40
0.0
  9
$DIMEXE
 40
0.18
  9
$DIMTP
 40
0.0
  9
$DIMTM
 40
0.0
  9
$DIMTXT
 40
0.18
  9
$DIMCEN
 40
0.09
  9
$DIMTSZ
 40
0.0
  9
$DIMTOL
 70
               0
  9
$DIMLIM
 70
               0
  9
$DIMTIH
 70
               1
  9
$DIMTOH
 70
               1
  9
$DIMSE1
 70
               0
  9
$DIMSE2
 70
               0
  9
$DIMTAD
 70
               0
  9
$DIMZIN
 70
               0
  9
$DIMBLK
  1

  9
$DIMASO
 70
               1
  9
$DIMSHO
 70
               1
  9
$DIMPOST
  1

  9
$DIMAPOST
  1

  9
$DIMALT
 70
               0
  9
$DIMALTD
 70
               2
  9
$DIMALTF
 40
25.399999999999999
  9
$DIMLFAC
 40
1.0
  9
$DIMTOFL
 70
               0
  9
$DIMTVP
 40
0.0
  9
$DIMTIX
 70
               0
  9
$DIMSOXD
 70
               0
  9
$DIMSAH
 70
               0
  9
$DIMBLK1
  1

  9
$DIMBLK2
  1

  9
$DIMSTYLE
  2
STANDARD
  9
$DIMCLRD
 70
               0
  9
$DIMCLRE
 70
               0
  9
$DIMCLRT
 70
               0
  9
$DIMTFAC
 40
1.0
  9
$DIMGAP
 40
0.09
  9
$LUNITS
 70
               2
  9
$LUPREC
 70
               4
  9
$AXISMODE
 70
               0
  9
$AXISUNIT
 10
0.0
 20
0.0
  9
$SKETCHINC
 40
0.1
  9
$FILLETRAD
 40
0.0
  9
$AUNITS
 70
               0
  9
$AUPREC
 70
               0
  9
$MENU
  1
acad
  9
$ELEVATION
 40
0.0
  9
$PELEVATION
 40
0.0
  9
$THICKNESS
 40
0.0
  9
$LIMCHECK
 70
               0
  9
$BLIPMODE
 70
               1
  9
$CHAMFERA
 40
0.0
  9
$CHAMFERB
 40
0.0
  9
$SKPOLY
 70
               0
  9
$TDCREATE
 40
0.000000000
  9
$TDUPDATE
 40
0.000000000
  9
$TDINDWG
 40
0.0000000000
  9
$TDUSRTIMER
 40
0.0000000000
  9
$USRTIMER
 70
               1
  9
$ANGBASE
 50
0.0
  9
$ANGDIR
 70
               0
  9
$PDMODE
 70
               0
  9
$PDSIZE
 40
1.0
  9
$PLINEWID
 40
0.0
  9
$COORDS
 70
               1
  9
$SPLFRAME
 70
               0
  9
$SPLINETYPE
 70
               6
  9
$SPLINESEGS
 70
               8
  9
$ATTDIA
 70
               0
  9
$ATTREQ
 70
               1
  9
$HANDLING
 70
               1
  9
$HANDSEED
  5
247
  9
$SURFTAB1
 70
               6
  9
$SURFTAB2
 70
               6
  9
$SURFTYPE
 70
               6
  9
$SURFU
 70
               6
  9
$SURFV
 70
               6
  9
$UCSNAME
  2

  9
$UCSORG
 10
0.0
 20
0.0
 30
0.0
  9
$UCSXDIR
 10
1.0
 20
0.0
 30
0.0
  9
$UCSYDIR
 10
0.0
 20
1.0
 30
0.0
  9
$PUCSNAME
  2

  9
$PUCSORG
 10
0.0
 20
0.0
 30
0.0
  9
$PUCSXDIR
 10
1.0
 20
0.0
 30
0.0
  9
$PUCSYDIR
 10
0.0
 20
1.0
 30
0.0
  9
$USERI1
 70
               0
  9
$USERI2
 70
               0
  9
$USERI3
 70
               0
  9
$USERI4
 70
               0
  9
$USERI5
 70
               0
  9
$USERR1
 40
0.0
  9
$USERR2
 40
0.0
  9
$USERR3
 40
0.0
  9
$USERR4
 40
0.0
  9
$USERR5
 40
0.0
  9
$WORLDVIEW
 70
               1
  9
$SHADEDGE
 70
               3
  9
$SHADEDIF
 70
              70
  9
$TILEMODE
 70
               1
  9
$MAXACTVP
 70
              16
  9
$PINSBASE
 10
0.0
 20
0.0
 30
0.0
  9
$PLIMCHECK
 70
               0
  9
$PEXTMIN
 10
1.0000000000000000E+20
 20
1.0000000000000000E+20
 30
1.0000000000000000E+20
  9
$PEXTMAX
 10
-1.0000000000000000E+20
 20
-1.0000000000000000E+20
 30
-1.0000000000000000E+20
  9
$PLIMMIN
 10
0.0
 20
0.0
  9
$PLIMMAX
 10
12.0
 20
9.0
  9
$UNITMODE
 70
               0
  9
$VISRETAIN
 70
               0
  9
$PLINEGEN
 70
               1
  9
$PSLTSCALE
 70
               0
  9
$TREEDEPTH
 70
            3020
  9
$DWGCODEPAGE
  3
dos932
  0
ENDSEC
  0
SECTION
  2
TABLES
  0
TABLE
  2
VPORT
 70
               1
  0
VPORT
  2
*ACTIVE
 70
               0
 10
0.0
 20
0.0
 11
1.0
 21
1.0
 12
0.0
 22
0.0
 13
0.0
 23
0.0
 14
1.0
 24
1.0
 15
0.0
 25
0.0
 16
0.0
 26
0.0
 36
1.0
 17
0.0
 27
0.0
 37
0.0
 40
1165.5834943297878
 41
1.0892784654007541
 42
50.0
 43
0.0
 44
0.0
 50
0.0
 51
0.0
 71
               0
 72
             100
 73
               1
 74
               1
 75
               0
 76
               0
 77
               0
 78
               0
  0
ENDTAB
  0
TABLE
  2
LTYPE
 70
              26
  0
LTYPE
  2
CONTINUOUS
 70
               0
  3
Solid line
 72
              65
 73
               0
 40
0.0
  0
LTYPE
  2
HIDDENX2
 70
               0
  3
CADPAC FUSION LINETYPE
 72
              65
 73
               2
 40
47.560000000000002
 49
35.670000000000002
 49
-11.890000000000001
  0
LTYPE
  2
HIDDEN
 70
               0
  3
CADPAC FUSION LINETYPE
 72
              65
 73
               2
 40
35.670000000000002
 49
23.780000000000001
 49
-11.890000000000001
  0
LTYPE
  2
HIDDEN2
 70
               0
  3
CADPAC FUSION LINETYPE
 72
              65
 73
               2
 40
29.725000000000001
 49
17.835000000000001
 49
-11.890000000000001
  0
LTYPE
  2
DASHED
 70
               0
  3
CADPAC FUSION LINETYPE
 72
              65
 73
               2
 40
35.670000000000002
 49
23.780000000000001
 49
-11.890000000000001
  0
LTYPE
  2
DASHED2
 70
               0
  3
CADPAC FUSION LINETYPE
 72
              65
 73
               2
 40
26.752500000000001
 49
17.835000000000001
 49
-8.9175000000000004
  0
LTYPE
  2
DASHEDX2
 70
               0
  3
CADPAC FUSION LINETYPE
 72
              65
 73
               2
 40
53.505000000000003
 49
35.670000000000002
 49
-17.835000000000001
  0
LTYPE
  2
DOTX2
 70
               0
  3
CADPAC FUSION LINETYPE
 72
              65
 73
               2
 40
14.862500000000001
 49
0.0
 49
-14.862500000000001
  0
LTYPE
  2
DOT
 70
               0
  3
CADPAC FUSION LINETYPE
 72
              65
 73
               2
 40
11.890000000000001
 49
0.0
 49
-11.890000000000001
  0
LTYPE
  2
DOTS
 70
               0
  3
CADPAC FUSION LINETYPE
 72
              65
 73
               2
 40
11.890000000000001
 49
0.0
 49
-11.890000000000001
  0
LTYPE
  2
DOT2
 70
               0
  3
CADPAC FUSION LINETYPE
 72
              65
 73
               2
 40
8.9175000000000004
 49
0.0
 49
-8.9175000000000004
  0
LTYPE
  2
CENTERX2
 70
               0
  3
CADPAC FUSION LINETYPE
 72
              65
 73
               4
 40
71.340000000000003
 49
29.725000000000001
 49
-14.862500000000001
 49
11.890000000000001
 49
-14.862500000000001
  0
LTYPE
  2
CENTER
 70
               0
  3
CADPAC FUSION LINETYPE
 72
              65
 73
               4
 40
54.694000000000003
 49
23.780000000000001
 49
-11.890000000000001
 49
7.1340000000000003
 49
-11.890000000000001
  0
LTYPE
  2
CENTER2
 70
               0
  3
CADPAC FUSION LINETYPE
 72
              65
 73
               4
 40
38.048000000000002
 49
17.835000000000001
 49
-8.9175000000000004
 49
2.3780000000000001
 49
-8.9175000000000004
  0
LTYPE
  2
DASHDOTX2
 70
               0
  3
CADPAC FUSION LINETYPE
 72
              65
 73
               4
 40
59.450000000000003
 49
29.725000000000001
 49
-14.862500000000001
 49
0.0
 49
-14.862500000000001
  0
LTYPE
  2
DASHDOT
 70
               0
  3
CADPAC FUSION LINETYPE
 72
              65
 73
               4
 40
47.560000000000002
 49
23.780000000000001
 49
-11.890000000000001
 49
0.0
 49
-11.890000000000001
  0
LTYPE
  2
DASHDOT2
 70
               0
  3
CADPAC FUSION LINETYPE
 72
              65
 73
               4
 40
35.670000000000002
 49
17.835000000000001
 49
-8.9175000000000004
 49
0.0
 49
-8.9175000000000004
  0
LTYPE
  2
DIVIDEX2
 70
               0
  3
CADPAC FUSION LINETYPE
 72
              65
 73
               6
 40
74.3125
 49
29.725000000000001
 49
-14.862500000000001
 49
0.0
 49
-14.862500000000001
 49
0.0
 49
-14.862500000000001
  0
LTYPE
  2
DIVIDE
 70
               0
  3
CADPAC FUSION LINETYPE
 72
              65
 73
               6
 40
59.450000000000003
 49
23.780000000000001
 49
-11.890000000000001
 49
0.0
 49
-11.890000000000001
 49
0.0
 49
-11.890000000000001
  0
LTYPE
  2
DIVIDE2
 70
               0
  3
CADPAC FUSION LINETYPE
 72
              65
 73
               6
 40
44.587500000000006
 49
17.835000000000001
 49
-8.9175000000000004
 49
0.0
 49
-8.9175000000000004
 49
0.0
 49
-8.9175000000000004
  0
LTYPE
  2
BORDERX2
 70
               0
  3
CADPAC FUSION LINETYPE
 72
              65
 73
               6
 40
104.03750000000001
 49
29.725000000000001
 49
-14.862500000000001
 49
29.725000000000001
 49
-14.862500000000001
 49
0.0
 49
-14.862500000000001
  0
LTYPE
  2
BORDER
 70
               0
  3
CADPAC FUSION LINETYPE
 72
              65
 73
               6
 40
83.230000000000004
 49
23.780000000000001
 49
-11.890000000000001
 49
23.780000000000001
 49
-11.890000000000001
 49
0.0
 49
-11.890000000000001
  0
LTYPE
  2
BORDER2
 70
               0
  3
CADPAC FUSION LINETYPE
 72
              65
 73
               6
 40
62.422499999999999
 49
17.835000000000001
 49
-8.9175000000000004
 49
17.835000000000001
 49
-8.9175000000000004
 49
0.0
 49
-8.9175000000000004
  0
LTYPE
  2
PHANTOMX2
 70
               0
  3
CADPAC FUSION LINETYPE
 72
              65
 73
               6
 40
89.175000000000011
 49
29.725000000000001
 49
-11.890000000000001
 49
11.890000000000001
 49
-11.890000000000001
 49
11.890000000000001
 49
-11.890000000000001
  0
LTYPE
  2
PHANTOM
 70
               0
  3
CADPAC FUSION LINETYPE
 72
              65
 73
               6
 40
73.718000000000004
 49
23.780000000000001
 49
-11.890000000000001
 49
7.1340000000000003
 49
-11.890000000000001
 49
7.1340000000000003
 49
-11.890000000000001
  0
LTYPE
  2
PHANTOM2
 70
               0
  3
CADPAC FUSION LINETYPE
 72
              65
 73
               6
 40
63.017000000000003
 49
17.835000000000001
 49
-11.890000000000001
 49
4.7560000000000002
 49
-11.890000000000001
 49
4.7560000000000002
 49
-11.890000000000001
  0
ENDTAB
  0
TABLE
  2
LAYER
 70
             256
  0
LAYER
  2
0
 70
               0
 62
               7
  6
CONTINUOUS
  0
LAYER
  2
LAYER001
 70
               0
 62
               7
  6
CONTINUOUS
  0
LAYER
  2
LAYER002
 70
               0
 62
               7
  6
CONTINUOUS
  0
LAYER
  2
LAYER003
 70
               0
 62
               7
  6
CONTINUOUS
  0
LAYER
  2
LAYER004
 70
               0
 62
               7
  6
CONTINUOUS
  0
LAYER
  2
LAYER005
 70
               0
 62
               7
  6
CONTINUOUS
  0
LAYER
  2
LAYER006
 70
               0
 62
               7
  6
CONTINUOUS
  0
LAYER
  2
LAYER007
 70
               0
 62
               7
  6
CONTINUOUS
  0
LAYER
  2
LAYER008
 70
               0
 62
               7
  6
CONTINUOUS
  0
LAYER
  2
LAYER009
 70
               0
 62
               7
  6
CONTINUOUS
  0
LAYER
  2
LAYER010
 70
               0
 62
               7
  6
CONTINUOUS
  0
LAYER
  2
LAYER011
 70
               0
 62
               7
  6
CONTINUOUS
  0
LAYER
  2
LAYER012
 70
               0
 62
               7
  6
CONTINUOUS
  0
LAYER
  2
LAYER013
 70
               0
 62
               7
  6
CONTINUOUS
  0
LAYER
  2
LAYER014
 70
               0
 62
               7
  6
CONTINUOUS
  0
LAYER
  2
LAYER015
 70
               0
 62
               7
  6
CONTINUOUS
  0
LAYER
  2
LAYER016
 70
               0
 62
               7
  6
CONTINUOUS
  0
LAYER
  2
LAYER017
 70
               0
 62
               7
  6
CONTINUOUS
  0
LAYER
  2
LAYER018
 70
               0
 62
               7
  6
CONTINUOUS
  0
LAYER
  2
LAYER019
 70
               0
 62
               7
  6
CONTINUOUS
  0
LAYER
  2
LAYER020
 70
               0
 62
               7
  6
CONTINUOUS
  0
LAYER
  2
LAYER021
 70
               0
 62
               7
  6
CONTINUOUS
  0
LAYER
  2
LAYER022
 70
               0
 62
               7
  6
CONTINUOUS
  0
LAYER
  2
LAYER023
 70
               0
 62
               7
  6
CONTINUOUS
  0
LAYER
  2
LAYER024
 70
               0
 62
               7
  6
CONTINUOUS
  0
LAYER
  2
LAYER025
 70
               0
 62
               7
  6
CONTINUOUS
  0
LAYER
  2
LAYER026
 70
               0
 62
               7
  6
CONTINUOUS
  0
LAYER
  2
LAYER027
 70
               0
 62
               7
  6
CONTINUOUS
  0
LAYER
  2
LAYER028
 70
               0
 62
               7
  6
CONTINUOUS
  0
LAYER
  2
LAYER029
 70
               0
 62
               7
  6
CONTINUOUS
  0
LAYER
  2
LAYER030
 70
               0
 62
               7
  6
CONTINUOUS
  0
LAYER
  2
LAYER031
 70
               0
 62
               7
  6
CONTINUOUS
  0
LAYER
  2
LAYER032
 70
               0
 62
               7
  6
CONTINUOUS
  0
LAYER
  2
LAYER033
 70
               0
 62
               7
  6
CONTINUOUS
  0
LAYER
  2
LAYER034
 70
               0
 62
               7
  6
CONTINUOUS
  0
LAYER
  2
LAYER035
 70
               0
 62
               7
  6
CONTINUOUS
  0
LAYER
  2
LAYER036
 70
               0
 62
               7
  6
CONTINUOUS
  0
LAYER
  2
LAYER037
 70
               0
 62
               7
  6
CONTINUOUS
  0
LAYER
  2
LAYER038
 70
               0
 62
               7
  6
CONTINUOUS
  0
LAYER
  2
LAYER039
 70
               0
 62
               7
  6
CONTINUOUS
  0
LAYER
  2
LAYER040
 70
               0
 62
               7
  6
CONTINUOUS
  0
LAYER
  2
LAYER041
 70
               0
 62
               7
  6
CONTINUOUS
  0
LAYER
  2
LAYER042
 70
               0
 62
               7
  6
CONTINUOUS
  0
LAYER
  2
LAYER043
 70
               0
 62
               7
  6
CONTINUOUS
  0
LAYER
  2
LAYER044
 70
               0
 62
               7
  6
CONTINUOUS
  0
LAYER
  2
LAYER045
 70
               0
 62
               7
  6
CONTINUOUS
  0
LAYER
  2
LAYER046
 70
               0
 62
               7
  6
CONTINUOUS
  0
LAYER
  2
LAYER047
 70
               0
 62
               7
  6
CONTINUOUS
  0
LAYER
  2
LAYER048
 70
               0
 62
               7
  6
CONTINUOUS
  0
LAYER
  2
LAYER049
 70
               0
 62
               7
  6
CONTINUOUS
  0
LAYER
  2
LAYER050
 70
               0
 62
               7
  6
CONTINUOUS
  0
LAYER
  2
LAYER051
 70
               0
 62
               7
  6
CONTINUOUS
  0
LAYER
  2
LAYER052
 70
               0
 62
               7
  6
CONTINUOUS
  0
LAYER
  2
LAYER053
 70
               0
 62
               7
  6
CONTINUOUS
  0
LAYER
  2
LAYER054
 70
               0
 62
               7
  6
CONTINUOUS
  0
LAYER
  2
LAYER055
 70
               0
 62
               7
  6
CONTINUOUS
  0
LAYER
  2
LAYER056
 70
               0
 62
               7
  6
CONTINUOUS
  0
LAYER
  2
LAYER057
 70
               0
 62
               7
  6
CONTINUOUS
  0
LAYER
  2
LAYER058
 70
               0
 62
               7
  6
CONTINUOUS
  0
LAYER
  2
LAYER059
 70
               0
 62
               7
  6
CONTINUOUS
  0
LAYER
  2
LAYER060
 70
               0
 62
               7
  6
CONTINUOUS
  0
LAYER
  2
LAYER061
 70
               0
 62
               7
  6
CONTINUOUS
  0
LAYER
  2
LAYER062
 70
               0
 62
               7
  6
CONTINUOUS
  0
LAYER
  2
LAYER063
 70
               0
 62
               7
  6
CONTINUOUS
  0
LAYER
  2
LAYER064
 70
               0
 62
               7
  6
CONTINUOUS
  0
LAYER
  2
LAYER065
 70
               0
 62
               7
  6
CONTINUOUS
  0
LAYER
  2
LAYER066
 70
               0
 62
               7
  6
CONTINUOUS
  0
LAYER
  2
LAYER067
 70
               0
 62
               7
  6
CONTINUOUS
  0
LAYER
  2
LAYER068
 70
               0
 62
               7
  6
CONTINUOUS
  0
LAYER
  2
LAYER069
 70
               0
 62
               7
  6
CONTINUOUS
  0
LAYER
  2
LAYER070
 70
               0
 62
               7
  6
CONTINUOUS
  0
LAYER
  2
LAYER071
 70
               0
 62
               7
  6
CONTINUOUS
  0
LAYER
  2
LAYER072
 70
               0
 62
               7
  6
CONTINUOUS
  0
LAYER
  2
LAYER073
 70
               0
 62
               7
  6
CONTINUOUS
  0
LAYER
  2
LAYER074
 70
               0
 62
               7
  6
CONTINUOUS
  0
LAYER
  2
LAYER075
 70
               0
 62
               7
  6
CONTINUOUS
  0
LAYER
  2
LAYER076
 70
               0
 62
               7
  6
CONTINUOUS
  0
LAYER
  2
LAYER077
 70
               0
 62
               7
  6
CONTINUOUS
  0
LAYER
  2
LAYER078
 70
               0
 62
               7
  6
CONTINUOUS
  0
LAYER
  2
LAYER079
 70
               0
 62
               7
  6
CONTINUOUS
  0
LAYER
  2
LAYER080
 70
               0
 62
               7
  6
CONTINUOUS
  0
LAYER
  2
LAYER081
 70
               0
 62
               7
  6
CONTINUOUS
  0
LAYER
  2
LAYER082
 70
               0
 62
               7
  6
CONTINUOUS
  0
LAYER
  2
LAYER083
 70
               0
 62
               7
  6
CONTINUOUS
  0
LAYER
  2
LAYER084
 70
               0
 62
               7
  6
CONTINUOUS
  0
LAYER
  2
LAYER085
 70
               0
 62
               7
  6
CONTINUOUS
  0
LAYER
  2
LAYER086
 70
               0
 62
               7
  6
CONTINUOUS
  0
LAYER
  2
LAYER087
 70
               0
 62
               7
  6
CONTINUOUS
  0
LAYER
  2
LAYER088
 70
               0
 62
               7
  6
CONTINUOUS
  0
LAYER
  2
LAYER089
 70
               0
 62
               7
  6
CONTINUOUS
  0
LAYER
  2
LAYER090
 70
               0
 62
               7
  6
CONTINUOUS
  0
LAYER
  2
LAYER091
 70
               0
 62
               7
  6
CONTINUOUS
  0
LAYER
  2
LAYER092
 70
               0
 62
               7
  6
CONTINUOUS
  0
LAYER
  2
LAYER093
 70
               0
 62
               7
  6
CONTINUOUS
  0
LAYER
  2
LAYER094
 70
               0
 62
               7
  6
CONTINUOUS
  0
LAYER
  2
LAYER095
 70
               0
 62
               7
  6
CONTINUOUS
  0
LAYER
  2
LAYER096
 70
               0
 62
               7
  6
CONTINUOUS
  0
LAYER
  2
LAYER097
 70
               0
 62
               7
  6
CONTINUOUS
  0
LAYER
  2
LAYER098
 70
               0
 62
               7
  6
CONTINUOUS
  0
LAYER
  2
LAYER099
 70
               0
 62
               7
  6
CONTINUOUS
  0
LAYER
  2
LAYER100
 70
               0
 62
               7
  6
CONTINUOUS
  0
LAYER
  2
LAYER101
 70
               0
 62
               7
  6
CONTINUOUS
  0
LAYER
  2
LAYER102
 70
               0
 62
               7
  6
CONTINUOUS
  0
LAYER
  2
LAYER103
 70
               0
 62
               7
  6
CONTINUOUS
  0
LAYER
  2
LAYER104
 70
               0
 62
               7
  6
CONTINUOUS
  0
LAYER
  2
LAYER105
 70
               0
 62
               7
  6
CONTINUOUS
  0
LAYER
  2
LAYER106
 70
               0
 62
               7
  6
CONTINUOUS
  0
LAYER
  2
LAYER107
 70
               0
 62
               7
  6
CONTINUOUS
  0
LAYER
  2
LAYER108
 70
               0
 62
               7
  6
CONTINUOUS
  0
LAYER
  2
LAYER109
 70
               0
 62
               7
  6
CONTINUOUS
  0
LAYER
  2
LAYER110
 70
               0
 62
               7
  6
CONTINUOUS
  0
LAYER
  2
LAYER111
 70
               0
 62
               7
  6
CONTINUOUS
  0
LAYER
  2
LAYER112
 70
               0
 62
               7
  6
CONTINUOUS
  0
LAYER
  2
LAYER113
 70
               0
 62
               7
  6
CONTINUOUS
  0
LAYER
  2
LAYER114
 70
               0
 62
               7
  6
CONTINUOUS
  0
LAYER
  2
LAYER115
 70
               0
 62
               7
  6
CONTINUOUS
  0
LAYER
  2
LAYER116
 70
               0
 62
               7
  6
CONTINUOUS
  0
LAYER
  2
LAYER117
 70
               0
 62
               7
  6
CONTINUOUS
  0
LAYER
  2
LAYER118
 70
               0
 62
               7
  6
CONTINUOUS
  0
LAYER
  2
LAYER119
 70
               0
 62
               7
  6
CONTINUOUS
  0
LAYER
  2
LAYER120
 70
               0
 62
               7
  6
CONTINUOUS
  0
LAYER
  2
LAYER121
 70
               0
 62
               7
  6
CONTINUOUS
  0
LAYER
  2
LAYER122
 70
               0
 62
               7
  6
CONTINUOUS
  0
LAYER
  2
LAYER123
 70
               0
 62
               7
  6
CONTINUOUS
  0
LAYER
  2
LAYER124
 70
               0
 62
               7
  6
CONTINUOUS
  0
LAYER
  2
LAYER125
 70
               0
 62
               7
  6
CONTINUOUS
  0
LAYER
  2
LAYER126
 70
               0
 62
               7
  6
CONTINUOUS
  0
LAYER
  2
LAYER127
 70
               0
 62
               7
  6
CONTINUOUS
  0
LAYER
  2
LAYER128
 70
               0
 62
               7
  6
CONTINUOUS
  0
LAYER
  2
LAYER129
 70
               0
 62
               7
  6
CONTINUOUS
  0
LAYER
  2
LAYER130
 70
               0
 62
               7
  6
CONTINUOUS
  0
LAYER
  2
LAYER131
 70
               0
 62
               7
  6
CONTINUOUS
  0
LAYER
  2
LAYER132
 70
               0
 62
               7
  6
CONTINUOUS
  0
LAYER
  2
LAYER133
 70
               0
 62
               7
  6
CONTINUOUS
  0
LAYER
  2
LAYER134
 70
               0
 62
               7
  6
CONTINUOUS
  0
LAYER
  2
LAYER135
 70
               0
 62
               7
  6
CONTINUOUS
  0
LAYER
  2
LAYER136
 70
               0
 62
               7
  6
CONTINUOUS
  0
LAYER
  2
LAYER137
 70
               0
 62
               7
  6
CONTINUOUS
  0
LAYER
  2
LAYER138
 70
               0
 62
               7
  6
CONTINUOUS
  0
LAYER
  2
LAYER139
 70
               0
 62
               7
  6
CONTINUOUS
  0
LAYER
  2
LAYER140
 70
               0
 62
               7
  6
CONTINUOUS
  0
LAYER
  2
LAYER141
 70
               0
 62
               7
  6
CONTINUOUS
  0
LAYER
  2
LAYER142
 70
               0
 62
               7
  6
CONTINUOUS
  0
LAYER
  2
LAYER143
 70
               0
 62
               7
  6
CONTINUOUS
  0
LAYER
  2
LAYER144
 70
               0
 62
               7
  6
CONTINUOUS
  0
LAYER
  2
LAYER145
 70
               0
 62
               7
  6
CONTINUOUS
  0
LAYER
  2
LAYER146
 70
               0
 62
               7
  6
CONTINUOUS
  0
LAYER
  2
LAYER147
 70
               0
 62
               7
  6
CONTINUOUS
  0
LAYER
  2
LAYER148
 70
               0
 62
               7
  6
CONTINUOUS
  0
LAYER
  2
LAYER149
 70
               0
 62
               7
  6
CONTINUOUS
  0
LAYER
  2
LAYER150
 70
               0
 62
               7
  6
CONTINUOUS
  0
LAYER
  2
LAYER151
 70
               0
 62
               7
  6
CONTINUOUS
  0
LAYER
  2
LAYER152
 70
               0
 62
               7
  6
CONTINUOUS
  0
LAYER
  2
LAYER153
 70
               0
 62
               7
  6
CONTINUOUS
  0
LAYER
  2
LAYER154
 70
               0
 62
               7
  6
CONTINUOUS
  0
LAYER
  2
LAYER155
 70
               0
 62
               7
  6
CONTINUOUS
  0
LAYER
  2
LAYER156
 70
               0
 62
               7
  6
CONTINUOUS
  0
LAYER
  2
LAYER157
 70
               0
 62
               7
  6
CONTINUOUS
  0
LAYER
  2
LAYER158
 70
               0
 62
               7
  6
CONTINUOUS
  0
LAYER
  2
LAYER159
 70
               0
 62
               7
  6
CONTINUOUS
  0
LAYER
  2
LAYER160
 70
               0
 62
               7
  6
CONTINUOUS
  0
LAYER
  2
LAYER161
 70
               0
 62
               7
  6
CONTINUOUS
  0
LAYER
  2
LAYER162
 70
               0
 62
               7
  6
CONTINUOUS
  0
LAYER
  2
LAYER163
 70
               0
 62
               7
  6
CONTINUOUS
  0
LAYER
  2
LAYER164
 70
               0
 62
               7
  6
CONTINUOUS
  0
LAYER
  2
LAYER165
 70
               0
 62
               7
  6
CONTINUOUS
  0
LAYER
  2
LAYER166
 70
               0
 62
               7
  6
CONTINUOUS
  0
LAYER
  2
LAYER167
 70
               0
 62
               7
  6
CONTINUOUS
  0
LAYER
  2
LAYER168
 70
               0
 62
               7
  6
CONTINUOUS
  0
LAYER
  2
LAYER169
 70
               0
 62
               7
  6
CONTINUOUS
  0
LAYER
  2
LAYER170
 70
               0
 62
               7
  6
CONTINUOUS
  0
LAYER
  2
LAYER171
 70
               0
 62
               7
  6
CONTINUOUS
  0
LAYER
  2
LAYER172
 70
               0
 62
               7
  6
CONTINUOUS
  0
LAYER
  2
LAYER173
 70
               0
 62
               7
  6
CONTINUOUS
  0
LAYER
  2
LAYER174
 70
               0
 62
               7
  6
CONTINUOUS
  0
LAYER
  2
LAYER175
 70
               0
 62
               7
  6
CONTINUOUS
  0
LAYER
  2
LAYER176
 70
               0
 62
               7
  6
CONTINUOUS
  0
LAYER
  2
LAYER177
 70
               0
 62
               7
  6
CONTINUOUS
  0
LAYER
  2
LAYER178
 70
               0
 62
               7
  6
CONTINUOUS
  0
LAYER
  2
LAYER179
 70
               0
 62
               7
  6
CONTINUOUS
  0
LAYER
  2
LAYER180
 70
               0
 62
               7
  6
CONTINUOUS
  0
LAYER
  2
LAYER181
 70
               0
 62
               7
  6
CONTINUOUS
  0
LAYER
  2
LAYER182
 70
               0
 62
               7
  6
CONTINUOUS
  0
LAYER
  2
LAYER183
 70
               0
 62
               7
  6
CONTINUOUS
  0
LAYER
  2
LAYER184
 70
               0
 62
               7
  6
CONTINUOUS
  0
LAYER
  2
LAYER185
 70
               0
 62
               7
  6
CONTINUOUS
  0
LAYER
  2
LAYER186
 70
               0
 62
               7
  6
CONTINUOUS
  0
LAYER
  2
LAYER187
 70
               0
 62
               7
  6
CONTINUOUS
  0
LAYER
  2
LAYER188
 70
               0
 62
               7
  6
CONTINUOUS
  0
LAYER
  2
LAYER189
 70
               0
 62
               7
  6
CONTINUOUS
  0
LAYER
  2
LAYER190
 70
               0
 62
               7
  6
CONTINUOUS
  0
LAYER
  2
LAYER191
 70
               0
 62
               7
  6
CONTINUOUS
  0
LAYER
  2
LAYER192
 70
               0
 62
               7
  6
CONTINUOUS
  0
LAYER
  2
LAYER193
 70
               0
 62
               7
  6
CONTINUOUS
  0
LAYER
  2
LAYER194
 70
               0
 62
               7
  6
CONTINUOUS
  0
LAYER
  2
LAYER195
 70
               0
 62
               7
  6
CONTINUOUS
  0
LAYER
  2
LAYER196
 70
               0
 62
               7
  6
CONTINUOUS
  0
LAYER
  2
LAYER197
 70
               0
 62
               7
  6
CONTINUOUS
  0
LAYER
  2
LAYER198
 70
               0
 62
               7
  6
CONTINUOUS
  0
LAYER
  2
LAYER199
 70
               0
 62
               7
  6
CONTINUOUS
  0
LAYER
  2
LAYER200
 70
               0
 62
               7
  6
CONTINUOUS
  0
LAYER
  2
LAYER201
 70
               0
 62
               7
  6
CONTINUOUS
  0
LAYER
  2
LAYER202
 70
               0
 62
               7
  6
CONTINUOUS
  0
LAYER
  2
LAYER203
 70
               0
 62
               7
  6
CONTINUOUS
  0
LAYER
  2
LAYER204
 70
               0
 62
               7
  6
CONTINUOUS
  0
LAYER
  2
LAYER205
 70
               0
 62
               7
  6
CONTINUOUS
  0
LAYER
  2
LAYER206
 70
               0
 62
               7
  6
CONTINUOUS
  0
LAYER
  2
LAYER207
 70
               0
 62
               7
  6
CONTINUOUS
  0
LAYER
  2
LAYER208
 70
               0
 62
               7
  6
CONTINUOUS
  0
LAYER
  2
LAYER209
 70
               0
 62
               7
  6
CONTINUOUS
  0
LAYER
  2
LAYER210
 70
               0
 62
               7
  6
CONTINUOUS
  0
LAYER
  2
LAYER211
 70
               0
 62
               7
  6
CONTINUOUS
  0
LAYER
  2
LAYER212
 70
               0
 62
               7
  6
CONTINUOUS
  0
LAYER
  2
LAYER213
 70
               0
 62
               7
  6
CONTINUOUS
  0
LAYER
  2
LAYER214
 70
               0
 62
               7
  6
CONTINUOUS
  0
LAYER
  2
LAYER215
 70
               0
 62
               7
  6
CONTINUOUS
  0
LAYER
  2
LAYER216
 70
               0
 62
               7
  6
CONTINUOUS
  0
LAYER
  2
LAYER217
 70
               0
 62
               7
  6
CONTINUOUS
  0
LAYER
  2
LAYER218
 70
               0
 62
               7
  6
CONTINUOUS
  0
LAYER
  2
LAYER219
 70
               0
 62
               7
  6
CONTINUOUS
  0
LAYER
  2
LAYER220
 70
               0
 62
               7
  6
CONTINUOUS
  0
LAYER
  2
LAYER221
 70
               0
 62
               7
  6
CONTINUOUS
  0
LAYER
  2
LAYER222
 70
               0
 62
               7
  6
CONTINUOUS
  0
LAYER
  2
LAYER223
 70
               0
 62
               7
  6
CONTINUOUS
  0
LAYER
  2
LAYER224
 70
               0
 62
               7
  6
CONTINUOUS
  0
LAYER
  2
LAYER225
 70
               0
 62
               7
  6
CONTINUOUS
  0
LAYER
  2
LAYER226
 70
               0
 62
               7
  6
CONTINUOUS
  0
LAYER
  2
LAYER227
 70
               0
 62
               7
  6
CONTINUOUS
  0
LAYER
  2
LAYER228
 70
               0
 62
               7
  6
CONTINUOUS
  0
LAYER
  2
LAYER229
 70
               0
 62
               7
  6
CONTINUOUS
  0
LAYER
  2
LAYER230
 70
               0
 62
               7
  6
CONTINUOUS
  0
LAYER
  2
LAYER231
 70
               0
 62
               7
  6
CONTINUOUS
  0
LAYER
  2
LAYER232
 70
               0
 62
               7
  6
CONTINUOUS
  0
LAYER
  2
LAYER233
 70
               0
 62
               7
  6
CONTINUOUS
  0
LAYER
  2
LAYER234
 70
               0
 62
               7
  6
CONTINUOUS
  0
LAYER
  2
LAYER235
 70
               0
 62
               7
  6
CONTINUOUS
  0
LAYER
  2
LAYER236
 70
               0
 62
               7
  6
CONTINUOUS
  0
LAYER
  2
LAYER237
 70
               0
 62
               7
  6
CONTINUOUS
  0
LAYER
  2
LAYER238
 70
               0
 62
               7
  6
CONTINUOUS
  0
LAYER
  2
LAYER239
 70
               0
 62
               7
  6
CONTINUOUS
  0
LAYER
  2
LAYER240
 70
               0
 62
               7
  6
CONTINUOUS
  0
LAYER
  2
LAYER241
 70
               0
 62
               7
  6
CONTINUOUS
  0
LAYER
  2
LAYER242
 70
               0
 62
               7
  6
CONTINUOUS
  0
LAYER
  2
LAYER243
 70
               0
 62
               7
  6
CONTINUOUS
  0
LAYER
  2
LAYER244
 70
               0
 62
               7
  6
CONTINUOUS
  0
LAYER
  2
LAYER245
 70
               0
 62
               7
  6
CONTINUOUS
  0
LAYER
  2
LAYER246
 70
               0
 62
               7
  6
CONTINUOUS
  0
LAYER
  2
LAYER247
 70
               0
 62
               7
  6
CONTINUOUS
  0
LAYER
  2
LAYER248
 70
               0
 62
               7
  6
CONTINUOUS
  0
LAYER
  2
LAYER249
 70
               0
 62
               7
  6
CONTINUOUS
  0
LAYER
  2
LAYER250
 70
               0
 62
               7
  6
CONTINUOUS
  0
LAYER
  2
LAYER251
 70
               0
 62
               7
  6
CONTINUOUS
  0
LAYER
  2
LAYER252
 70
               0
 62
               7
  6
CONTINUOUS
  0
LAYER
  2
LAYER253
 70
               0
 62
               7
  6
CONTINUOUS
  0
LAYER
  2
LAYER254
 70
               0
 62
               7
  6
CONTINUOUS
  0
LAYER
  2
LAYER255
 70
               0
 62
               7
  6
CONTINUOUS
  0
ENDTAB
  0
TABLE
  2
STYLE
 70
               1
  0
STYLE
  2
STANDARD
 70
               0
 40
0.0
 41
1.0
 50
0.0
 71
               0
 42
0.0
  3
txt
  4

  0
ENDTAB
  0
TABLE
  2
VIEW
 70
               0
  0
VIEW
  2
QQQQ
 70
               0
 40
1165.5834943297878
 10
0.0
 20
0.0
 41
1269.6449999999998
 11
0.0
 21
0.0
 31
1.0
 12
100.0
 22
100.0
 32
0.0
 42
50.0
 43
0.0
 44
0.0
 50
0.0
 71
               0
  0
ENDTAB
  0
TABLE
  2
UCS
 70
               0
  0
ENDTAB
  0
TABLE
  2
APPID
 70
               1
  0
APPID
  2
ACAD
 70
               0
  0
ENDTAB
  0
TABLE
  2
DIMSTYLE
 70
               1
  0
DIMSTYLE
  2
STANDARD
 70
               0
  3

  4

  5

  6

  7

 40
1.0
 41
0.18
 42
0.0625
 43
0.38
 44
0.18
 45
0.0
 46
0.0
 47
0.0
 48
0.0
140
0.18
141
0.09
142
0.0
143
25.399999999999999
144
1.0
145
0.0
146
1.0
147
0.09
 71
               0
 72
               0
 73
               1
 74
               1
 75
               0
 76
               0
 77
               0
 78
               0
170
               0
171
               2
172
               0
173
               0
174
               0
175
               0
176
               0
177
               0
178
               0
  0
ENDTAB
  0
ENDSEC
  0
SECTION
  2
BLOCKS
  0
ENDSEC
  0
SECTION
  2
ENTITIES
  0
LINE
  8
0
  6
CONTINUOUS
 62
               3
  5
136
 10
-65.000000000000085
 20
-104.08161636346938
 30
0.0
 11
-65.000000000000099
 21
-155.37136943413279
 31
0.0
  0
ARC
  8
0
  6
CONTINUOUS
 62
               3
  5
137
 10
-55.000000000000099
 20
-90.024393031250071
 30
0.0
 40
2.4999999999999996
 50
89.999999999999801
 51
269.99999999999937
  0
ARC
  8
0
  6
CONTINUOUS
 62
               3
  5
138
 10
64.999999999999886
 20
-90.024393031250071
 30
0.0
 40
2.4999999999999996
 50
269.99999999999937
 51
449.99999999999898
  0
LINE
  8
0
  6
CONTINUOUS
 62
               3
  5
139
 10
-65.000000000000099
 20
26.15522460033597
 30
0.0
 11
-65.000000000000085
 21
6.5475824253091162
 31
0.0
  0
LINE
  8
0
  6
CONTINUOUS
 62
               3
  5
13A
 10
-55.000000000000099
 20
-87.524393031250071
 30
0.0
 11
64.999999999999886
 21
-87.524393031250071
 31
0.0
  0
LINE
  8
0
  6
CONTINUOUS
 62
               3
  5
13B
 10
-55.000000000000099
 20
-92.524393031250071
 30
0.0
 11
64.999999999999886
 21
-92.524393031250071
 31
0.0
  0
LINE
  8
0
  6
CONTINUOUS
 62
               3
  5
13C
 10
-20.000000000000306
 20
347.07848214803812
 30
0.0
 11
-20.000000000000298
 21
361.52904410199233
 31
0.0
  0
LINE
  8
0
  6
CONTINUOUS
 62
               3
  5
13D
 10
19.999999999999691
 20
361.19318776480168
 30
0.0
 11
19.999999999999691
 21
347.07848214803812
 31
0.0
  0
LINE
  8
0
  6
CONTINUOUS
 62
               3
  5
13E
 10
-46.017395837626538
 20
464.81976457741473
 30
0.0
 11
-126.99999999999999
 21
461.99178972461834
 31
0.0
  0
LINE
  8
0
  6
CONTINUOUS
 62
               3
  5
13F
 10
-130.00000000000009
 20
459.66334585058314
 30
0.0
 11
-129.32844387403566
 21
459.66334585058314
 31
0.0
  0
LINE
  8
0
  6
CONTINUOUS
 62
               3
  5
140
 10
-126.99999999999999
 20
375.83490197654748
 30
0.0
 11
-126.99999999999999
 21
461.99178972461834
 31
0.0
  0
LINE
  8
0
  6
CONTINUOUS
 62
               3
  5
141
 10
-46.01739583762739
 20
373.00692712375201
 30
0.0
 11
-126.99999999999999
 21
375.83490197654748
 31
0.0
  0
LINE
  8
0
  6
CONTINUOUS
 62
               3
  5
142
 10
-130.00000000000009
 20
378.16334585058314
 30
0.0
 11
-129.32844387403566
 21
378.16334585058314
 31
0.0
  0
LINE
  8
0
  6
CONTINUOUS
 62
               3
  5
143
 10
-126.99999999999999
 20
461.99178972461834
 30
0.0
 11
-129.32844387403566
 21
459.66334585058314
 31
0.0
  0
LINE
  8
0
  6
CONTINUOUS
 62
               3
  5
144
 10
-126.99999999999999
 20
375.83490197654748
 30
0.0
 11
-129.32844387403566
 21
378.16334585058314
 31
0.0
  0
LINE
  8
0
  6
CONTINUOUS
 62
               3
  5
145
 10
-129.32844387403566
 20
459.66334585058314
 30
0.0
 11
-129.32844387403566
 21
378.16334585058314
 31
0.0
  0
LINE
  8
0
  6
CONTINUOUS
 62
               3
  5
146
 10
-135.00000000000009
 20
459.49178972461846
 30
0.0
 11
-135.00000000000009
 21
378.33490197654748
 31
0.0
  0
LINE
  8
0
  6
CONTINUOUS
 62
               3
  5
147
 10
-130.00000000000009
 20
375.83490197654748
 30
0.0
 11
-130.00000000000009
 21
461.99178972461846
 31
0.0
  0
LINE
  8
0
  6
CONTINUOUS
 62
               3
  5
148
 10
-130.00000000000009
 20
461.99178972461846
 30
0.0
 11
-132.50000000000009
 21
461.99178972461846
 31
0.0
  0
LINE
  8
0
  6
CONTINUOUS
 62
               3
  5
149
 10
-130.00000000000009
 20
375.83490197654748
 30
0.0
 11
-132.50000000000009
 21
375.83490197654748
 31
0.0
  0
ARC
  8
0
  6
CONTINUOUS
 62
               3
  5
14A
 10
-132.50000000000009
 20
378.33490197654748
 30
0.0
 40
2.5
 50
179.9999999999996
 51
269.99999999999937
  0
ARC
  8
0
  6
CONTINUOUS
 62
               3
  5
14B
 10
-132.50000000000009
 20
459.49178972461846
 30
0.0
 40
2.5
 50
89.999999999999801
 51
179.9999999999996
  0
LINE
  8
0
  6
CONTINUOUS
 62
               3
  5
14C
 10
-126.99999999999997
 20
-0.4459491572146703
 30
0.0
 11
-69.82550251648783
 21
1.5506282902138366
 31
0.0
  0
LINE
  8
0
  6
CONTINUOUS
 62
               3
  5
14D
 10
-126.99999999999997
 20
-86.6028369052855
 30
0.0
 11
-126.99999999999997
 21
-0.4459491572146703
 31
0.0
  0
LINE
  8
0
  6
CONTINUOUS
 62
               3
  5
14E
 10
-126.99999999999997
 20
-86.6028369052855
 30
0.0
 11
-80.690152323673004
 21
-88.2200124211885
 31
0.0
  0
ARC
  8
0
  6
CONTINUOUS
 62
               3
  5
14F
 10
-70.000000000000085
 20
6.5475824253091162
 30
0.0
 40
4.9999999999999991
 50
272.00000000000045
 51
359.9999999999992
  0
LINE
  8
0
  6
CONTINUOUS
 62
               3
  5
150
 10
-77.329115901252777
 20
-89.681432650351297
 30
0.0
 11
-66.464466094067888
 21
-100.54608245753654
 31
0.0
  0
ARC
  8
0
  6
CONTINUOUS
 62
               3
  5
151
 10
-80.86464980718597
 20
-93.216966556283637
 30
0.0
 40
4.9999999999999991
 50
44.999999999998977
 51
87.99999999999882
  0
ARC
  8
0
  6
CONTINUOUS
 62
               3
  5
152
 10
-70.000000000000085
 20
-104.08161636346938
 30
0.0
 40
4.9999999999999991
 50
0.0
 51
44.999999999999901
  0
LINE
  8
0
  6
CONTINUOUS
 62
               3
  5
153
 10
-130.00000000000009
 20
-2.7743930312498435
 30
0.0
 11
-129.32844387403557
 21
-2.7743930312498435
 31
0.0
  0
LINE
  8
0
  6
CONTINUOUS
 62
               3
  5
154
 10
-130.00000000000009
 20
-84.2743930312499
 30
0.0
 11
-129.32844387403557
 21
-84.2743930312499
 31
0.0
  0
LINE
  8
0
  6
CONTINUOUS
 62
               3
  5
155
 10
-126.99999999999997
 20
-0.4459491572146703
 30
0.0
 11
-129.32844387403557
 21
-2.7743930312498435
 31
0.0
  0
LINE
  8
0
  6
CONTINUOUS
 62
               3
  5
156
 10
-126.99999999999997
 20
-86.6028369052855
 30
0.0
 11
-129.32844387403557
 21
-84.2743930312499
 31
0.0
  0
LINE
  8
0
  6
CONTINUOUS
 62
               3
  5
157
 10
-129.32844387403557
 20
-2.7743930312498435
 30
0.0
 11
-129.32844387403557
 21
-84.2743930312499
 31
0.0
  0
LINE
  8
0
  6
CONTINUOUS
 62
               3
  5
158
 10
-135.00000000000009
 20
-2.9459491572145282
 30
0.0
 11
-135.00000000000009
 21
-84.1028369052855
 31
0.0
  0
LINE
  8
0
  6
CONTINUOUS
 62
               3
  5
159
 10
-130.00000000000009
 20
-86.6028369052855
 30
0.0
 11
-130.00000000000009
 21
-0.4459491572145282
 31
0.0
  0
LINE
  8
0
  6
CONTINUOUS
 62
               3
  5
15A
 10
-130.00000000000009
 20
-0.4459491572145282
 30
0.0
 11
-132.50000000000009
 21
-0.4459491572145282
 31
0.0
  0
LINE
  8
0
  6
CONTINUOUS
 62
               3
  5
15B
 10
-130.00000000000009
 20
-86.6028369052855
 30
0.0
 11
-132.50000000000009
 21
-86.6028369052855
 31
0.0
  0
ARC
  8
0
  6
CONTINUOUS
 62
               3
  5
15C
 10
-132.50000000000009
 20
-84.1028369052855
 30
0.0
 40
2.5
 50
179.9999999999996
 51
269.99999999999937
  0
ARC
  8
0
  6
CONTINUOUS
 62
               3
  5
15D
 10
-132.50000000000009
 20
-2.9459491572145282
 30
0.0
 40
2.5
 50
89.999999999999801
 51
179.9999999999996
  0
ARC
  8
0
  6
CONTINUOUS
 62
               3
  5
15E
 10
-0.0000000000002736
 20
420.78898034866313
 30
0.0
 40
76.375634498080188
 50
254.81932855955753
 51
285.18067144044119
  0
LINE
  8
0
  6
CONTINUOUS
 62
               3
  5
15F
 10
71.834863702544482
 20
398.91334585058303
 30
0.0
 11
58.086368194002574
 21
398.91334585058303
 31
0.0
  0
LINE
  8
0
  6
CONTINUOUS
 62
               3
  5
160
 10
58.137462938722628
 20
438.91334585058303
 30
0.0
 11
71.834863702544482
 21
438.91334585058303
 31
0.0
  0
ARC
  8
0
  6
CONTINUOUS
 62
               3
  5
161
 10
-1.8756344980804656
 20
418.91334585058303
 30
0.0
 40
76.375634498080188
 50
344.81932855955733
 51
375.18067144044102
  0
LINE
  8
0
  6
CONTINUOUS
 62
               3
  5
162
 10
19.999999999999815
 20
490.74820955312782
 30
0.0
 11
19.999999999999815
 21
476.7807285010316
 31
0.0
  0
LINE
  8
0
  6
CONTINUOUS
 62
               3
  5
163
 10
-20.000000000000192
 20
476.44487216384084
 30
0.0
 11
-20.000000000000188
 21
490.74820955312782
 31
0.0
  0
ARC
  8
0
  6
CONTINUOUS
 62
               3
  5
164
 10
-0.0000000000002203
 20
417.03771135250292
 30
0.0
 40
76.375634498080188
 50
74.819328559557945
 51
105.18067144044161
  0
LINE
  8
0
  6
CONTINUOUS
 62
               3
  5
165
 10
-71.83486370254505
 20
438.91334585058303
 30
0.0
 11
-57.169762724290123
 21
438.91334585058303
 31
0.0
  0
LINE
  8
0
  6
CONTINUOUS
 62
               3
  5
166
 10
-57.118667979570063
 20
398.91334585058303
 30
0.0
 11
-71.83486370254505
 21
398.91334585058303
 31
0.0
  0
ARC
  8
0
  6
CONTINUOUS
 62
               3
  5
167
 10
1.8756344980799007
 20
418.91334585058303
 30
0.0
 40
76.375634498080188
 50
164.81932855955776
 51
195.18067144044142
  0
ARC
  8
0
  6
CONTINUOUS
 62
               3
  5
168
 10
-0.0000000000002292
 20
418.91334585058303
 30
0.0
 40
67.499999999999957
 50
287.23528525708718
 51
342.76471474291139
  0
ARC
  8
0
  6
CONTINUOUS
 62
               3
  5
169
 10
-0.0000000000002824
 20
418.91334585058303
 30
0.0
 40
65.0
 50
287.92021313939165
 51
342.07978686060699
  0
ARC
  8
0
  6
CONTINUOUS
 62
               3
  5
16A
 10
-0.0000000000002292
 20
418.91334585058303
 30
0.0
 40
67.499999999999957
 50
222.70632390520862
 51
252.76471474291148
  0
ARC
  8
0
  6
CONTINUOUS
 62
               3
  5
16B
 10
-0.0000000000002824
 20
418.91334585058303
 30
0.0
 40
65.0
 50
197.92021313939182
 51
252.07978686060716
  0
ARC
  8
0
  6
CONTINUOUS
 62
               3
  5
16C
 10
-0.0000000000002292
 20
418.91334585058303
 30
0.0
 40
67.499999999999957
 50
17.235285257087856
 51
72.764714742911892
  0
ARC
  8
0
  6
CONTINUOUS
 62
               3
  5
16D
 10
-0.0000000000002292
 20
418.91334585058303
 30
0.0
 40
67.499999999999957
 50
107.23528525708761
 51
137.29367609478942
  0
ARC
  8
0
  6
CONTINUOUS
 62
               3
  5
16E
 10
-0.0000000000002824
 20
418.91334585058303
 30
0.0
 40
65.0
 50
17.920213139392249
 51
72.079786860607399
  0
ARC
  8
0
  6
CONTINUOUS
 62
               3
  5
16F
 10
-0.0000000000002824
 20
418.91334585058303
 30
0.0
 40
65.0
 50
107.92021313939196
 51
162.07978686060736
  0
LINE
  8
0
  6
CONTINUOUS
 62
               3
  5
170
 10
-565.00000000000011
 20
-92.524393031250071
 30
0.0
 11
-565.00000000000011
 21
-155.37136943413279
 31
0.0
  0
ARC
  8
0
  6
CONTINUOUS
 62
               3
  5
171
 10
-435.00000000000011
 20
-90.024393031250071
 30
0.0
 40
2.4999999999999996
 50
269.99999999999937
 51
449.99999999999898
  0
LINE
  8
0
  6
CONTINUOUS
 62
               3
  5
172
 10
-565.0
 20
26.15522460033597
 30
0.0
 11
-565.00000000000011
 21
-87.524393031250071
 31
0.0
  0
ARC
  8
0
  6
CONTINUOUS
 62
               3
  5
173
 10
-565.00000000000011
 20
-90.024393031250071
 30
0.0
 40
2.4999999999999996
 50
89.999999999999787
 51
269.99999999999937
  0
LINE
  8
0
  6
CONTINUOUS
 62
               3
  5
174
 10
-435.00000000000011
 20
-92.524393031250071
 30
0.0
 11
-435.00000000000023
 21
-155.37136943413279
 31
0.0
  0
LINE
  8
0
  6
CONTINUOUS
 62
               3
  5
175
 10
-435.00000000000023
 20
26.15522460033597
 30
0.0
 11
-435.00000000000011
 21
-87.524393031250071
 31
0.0
  0
ARC
  8
0
  6
CONTINUOUS
 62
               3
  5
176
 10
-522.49999999999955
 20
-90.024393031250071
 30
0.0
 40
2.4999999999999996
 50
269.99999999999937
 51
449.99999999999898
  0
ARC
  8
0
  6
CONTINUOUS
 62
               3
  5
177
 10
-477.49999999999955
 20
-90.024393031250071
 30
0.0
 40
2.4999999999999996
 50
89.999999999999801
 51
269.99999999999937
  0
CIRCLE
  8
0
  6
CONTINUOUS
 62
               3
  5
178
 10
-500.00000000000068
 20
-43.524393031250298
 30
0.0
 40
43.078500000000005
  0
LINE
  8
0
  6
CONTINUOUS
 62
               3
  5
179
 10
-516.62077013859528
 20
-25.524393031250185
 30
0.0
 11
-483.37922986140609
 21
-25.524393031250185
 31
0.0
  0
CIRCLE
  8
0
  6
CONTINUOUS
 62
               3
  5
17A
 10
-500.00000000000068
 20
-43.524393031250298
 30
0.0
 40
34.100000000000001
  0
CIRCLE
  8
0
  6
CONTINUOUS
 62
               3
  5
17B
 10
-500.00000000000068
 20
-43.524393031250298
 30
0.0
 40
28.649999999999999
  0
CIRCLE
  8
0
  6
CONTINUOUS
 62
               3
  5
17C
 10
-500.00000000000068
 20
-43.524393031250298
 30
0.0
 40
33.0
  0
CIRCLE
  8
0
  6
CONTINUOUS
 62
               3
  5
17D
 10
-500.00000000000068
 20
-43.524393031250298
 30
0.0
 40
24.5
  0
LINE
  8
0
  6
CONTINUOUS
 62
               3
  5
17E
 10
-521.5667568261905
 20
-65.091149857439831
 30
0.0
 11
-523.33452377915626
 21
-66.858916810406782
 31
0.0
  0
LINE
  8
0
  6
CONTINUOUS
 62
               3
  5
17F
 10
-478.43324317381115
 20
-65.091149857439831
 30
0.0
 11
-476.66547622084477
 21
-66.858916810406498
 31
0.0
  0
ARC
  8
0
  6
CONTINUOUS
 62
               3
  5
180
 10
-500.0000000000008
 20
-43.524393031250014
 30
0.0
 40
30.5
 50
224.99999999999949
 51
314.99999999999937
  0
LINE
  8
0
  6
CONTINUOUS
 62
               3
  5
181
 10
-565.00000000000011
 20
-92.524393031250071
 30
0.0
 11
-522.49999999999955
 21
-92.524393031250071
 31
0.0
  0
LINE
  8
0
  6
CONTINUOUS
 62
               3
  5
182
 10
-477.49999999999955
 20
-92.524393031250071
 30
0.0
 11
-435.00000000000011
 21
-92.524393031250071
 31
0.0
  0
LINE
  8
0
  6
CONTINUOUS
 62
               3
  5
183
 10
-565.00000000000011
 20
-87.524393031250071
 30
0.0
 11
-522.49999999999955
 21
-87.524393031250071
 31
0.0
  0
LINE
  8
0
  6
CONTINUOUS
 62
               3
  5
184
 10
-477.49999999999955
 20
-87.524393031250071
 30
0.0
 11
-435.00000000000011
 21
-87.524393031250071
 31
0.0
  0
LINE
  8
0
  6
CONTINUOUS
 62
               3
  5
185
 10
564.99999999999989
 20
-92.524393031250213
 30
0.0
 11
564.99999999999977
 21
-155.37136943413293
 31
0.0
  0
ARC
  8
0
  6
CONTINUOUS
 62
               3
  5
186
 10
434.99999999999989
 20
-90.024393031250213
 30
0.0
 40
2.4999999999999996
 50
89.999999999999787
 51
269.99999999999937
  0
LINE
  8
0
  6
CONTINUOUS
 62
               3
  5
187
 10
564.99999999999977
 20
26.155224600335828
 30
0.0
 11
564.99999999999989
 21
-87.524393031250213
 31
0.0
  0
ARC
  8
0
  6
CONTINUOUS
 62
               3
  5
188
 10
565.0
 20
-90.024393031250213
 30
0.0
 40
2.4999999999999996
 50
269.99999999999937
 51
449.99999999999898
  0
LINE
  8
0
  6
CONTINUOUS
 62
               3
  5
189
 10
434.99999999999994
 20
-92.524393031250213
 30
0.0
 11
434.99999999999994
 21
-155.37136943413293
 31
0.0
  0
LINE
  8
0
  6
CONTINUOUS
 62
               3
  5
18A
 10
435.0
 20
26.155224600335828
 30
0.0
 11
434.99999999999994
 21
-87.524393031250213
 31
0.0
  0
LINE
  8
0
  6
CONTINUOUS
 62
               3
  5
18B
 10
564.99999999999989
 20
-92.524393031250213
 30
0.0
 11
508.21699999999942
 21
-92.524393031250213
 31
0.0
  0
LINE
  8
0
  6
CONTINUOUS
 62
               3
  5
18C
 10
491.78299999999956
 20
-92.524393031250213
 30
0.0
 11
434.99999999999989
 21
-92.524393031250213
 31
0.0
  0
LINE
  8
0
  6
CONTINUOUS
 62
               3
  5
18D
 10
564.99999999999989
 20
-87.524393031250213
 30
0.0
 11
508.21699999999998
 21
-87.524393031250213
 31
0.0
  0
LINE
  8
0
  6
CONTINUOUS
 62
               3
  5
18E
 10
491.78299999999956
 20
-87.524393031250213
 30
0.0
 11
434.99999999999989
 21
-87.524393031250213
 31
0.0
  0
LINE
  8
0
  6
CONTINUOUS
 62
               3
  5
18F
 10
-74.499999999999829
 20
112.5629088924793
 30
0.0
 11
-74.499999999999829
 21
107.5629088924793
 31
0.0
  0
LINE
  8
0
  6
CONTINUOUS
 62
               3
  5
190
 10
-74.499999999999829
 20
112.5629088924793
 30
0.0
 11
-60.999999999999915
 21
122.47560696874993
 31
0.0
  0
LINE
  8
0
  6
CONTINUOUS
 62
               3
  5
191
 10
-74.499999999999829
 20
107.5629088924793
 30
0.0
 11
-63.825502516487383
 21
107.19014722641725
 31
0.0
  0
ARC
  8
0
  6
CONTINUOUS
 62
               3
  5
192
 10
-63.999999999999922
 20
102.19319309132183
 30
0.0
 40
5.0
 50
0.0
 51
87.999999999999417
  0
LINE
  8
0
  6
CONTINUOUS
 62
               3
  5
193
 10
74.499999999999943
 20
112.5629088924793
 30
0.0
 11
74.499999999999943
 21
107.5629088924793
 31
0.0
  0
LINE
  8
0
  6
CONTINUOUS
 62
               3
  5
194
 10
74.499999999999943
 20
112.5629088924793
 30
0.0
 11
61.000000000000007
 21
122.47560696874993
 31
0.0
  0
LINE
  8
0
  6
CONTINUOUS
 62
               3
  5
195
 10
74.499999999999943
 20
107.5629088924793
 30
0.0
 11
63.82550251648744
 21
107.19014722641725
 31
0.0
  0
ARC
  8
0
  6
CONTINUOUS
 62
               3
  5
196
 10
63.999999999999972
 20
102.19319309132183
 30
0.0
 40
5.0
 50
92.000000000000213
 51
179.99999999999963
  0
LINE
  8
0
  6
CONTINUOUS
 62
               3
  5
197
 10
-60.999999999999915
 20
122.47560696874993
 30
0.0
 11
61.000000000000007
 21
122.47560696874993
 31
0.0
  0
LINE
  8
0
  6
CONTINUOUS
 62
               3
  5
198
 10
-60.511976087981736
 20
105.77560696874977
 30
0.0
 11
60.511976087981829
 21
105.77560696874977
 31
0.0
  0
LINE
  8
0
  6
CONTINUOUS
 62
               3
  5
199
 10
-19.999999999999936
 20
105.77560696874977
 30
0.0
 11
-19.999999999999936
 21
122.47560696874993
 31
0.0
  0
LINE
  8
0
  6
CONTINUOUS
 62
               3
  5
19A
 10
20.000000000000064
 20
122.47560696874993
 30
0.0
 11
20.000000000000064
 21
105.77560696874977
 31
0.0
  0
LINE
  8
0
  6
CONTINUOUS
 62
               3
  5
19B
 10
-19.999999999999936
 20
112.5629088924793
 30
0.0
 11
20.000000000000064
 21
112.5629088924793
 31
0.0
  0
LINE
  8
0
  6
CONTINUOUS
 62
               3
  5
19C
 10
20.000000000000064
 20
107.5629088924793
 30
0.0
 11
-19.999999999999936
 21
107.5629088924793
 31
0.0
  0
LINE
  8
0
  6
CONTINUOUS
 62
               3
  5
19D
 10
-60.999999999999915
 20
122.47560696874993
 30
0.0
 11
-60.999999999999915
 21
106.19319309132175
 31
0.0
  0
LINE
  8
0
  6
CONTINUOUS
 62
               3
  5
19E
 10
61.000000000000007
 20
122.47560696874993
 30
0.0
 11
61.000000000000007
 21
106.19319309132175
 31
0.0
  0
LINE
  8
0
  6
CONTINUOUS
 62
               3
  5
19F
 10
-58.999999999999922
 20
102.19319309132183
 30
0.0
 11
-58.999999999999922
 21
40.6466013465255
 31
0.0
  0
ARC
  8
0
  6
CONTINUOUS
 62
               3
  5
1A0
 10
-63.999999999999922
 20
40.6466013465255
 30
0.0
 40
5.0
 50
315.01704217218719
 51
359.9999999999992
  0
ARC
  8
0
  6
CONTINUOUS
 62
               3
  5
1A1
 10
-49.499999999999964
 20
26.15522460033597
 30
0.0
 40
15.5
 50
135.01704217218645
 51
179.9999999999996
  0
LINE
  8
0
  6
CONTINUOUS
 62
               3
  5
1A2
 10
59.00000000000005
 20
102.19319309132183
 30
0.0
 11
59.000000000000028
 21
43.030692564046689
 31
0.0
  0
LINE
  8
0
  6
CONTINUOUS
 62
               3
  5
1A3
 10
-574.49999999999989
 20
112.5629088924793
 30
0.0
 11
-574.49999999999989
 21
107.5629088924793
 31
0.0
  0
LINE
  8
0
  6
CONTINUOUS
 62
               3
  5
1A4
 10
-574.49999999999989
 20
112.5629088924793
 30
0.0
 11
-560.99999999999989
 21
122.47560696874993
 31
0.0
  0
LINE
  8
0
  6
CONTINUOUS
 62
               3
  5
1A5
 10
-574.49999999999989
 20
107.5629088924793
 30
0.0
 11
-563.8255025164874
 21
107.19014722641725
 31
0.0
  0
ARC
  8
0
  6
CONTINUOUS
 62
               3
  5
1A6
 10
-564.0
 20
102.19319309132183
 30
0.0
 40
5.0
 50
0.0
 51
87.999999999999417
  0
LINE
  8
0
  6
CONTINUOUS
 62
               3
  5
1A7
 10
-425.50000000000011
 20
112.5629088924793
 30
0.0
 11
-425.50000000000011
 21
107.5629088924793
 31
0.0
  0
LINE
  8
0
  6
CONTINUOUS
 62
               3
  5
1A8
 10
-425.50000000000011
 20
112.5629088924793
 30
0.0
 11
-439.0
 21
122.47560696874993
 31
0.0
  0
LINE
  8
0
  6
CONTINUOUS
 62
               3
  5
1A9
 10
-425.50000000000011
 20
107.5629088924793
 30
0.0
 11
-436.1744974835126
 21
107.19014722641725
 31
0.0
  0
ARC
  8
0
  6
CONTINUOUS
 62
               3
  5
1AA
 10
-436.00000000000006
 20
102.19319309132183
 30
0.0
 40
5.0
 50
92.000000000000213
 51
179.99999999999963
  0
LINE
  8
0
  6
CONTINUOUS
 62
               3
  5
1AB
 10
-560.99999999999989
 20
122.47560696874993
 30
0.0
 11
-439.0
 21
122.47560696874993
 31
0.0
  0
LINE
  8
0
  6
CONTINUOUS
 62
               3
  5
1AC
 10
-560.51197608798168
 20
105.77560696874977
 30
0.0
 11
-439.48802391201821
 21
105.77560696874977
 31
0.0
  0
LINE
  8
0
  6
CONTINUOUS
 62
               3
  5
1AD
 10
-520.0
 20
105.77560696874977
 30
0.0
 11
-520.0
 21
122.47560696874993
 31
0.0
  0
LINE
  8
0
  6
CONTINUOUS
 62
               3
  5
1AE
 10
-480.0
 20
122.47560696874993
 30
0.0
 11
-480.0
 21
105.77560696874977
 31
0.0
  0
LINE
  8
0
  6
CONTINUOUS
 62
               3
  5
1AF
 10
-520.0
 20
112.5629088924793
 30
0.0
 11
-480.0
 21
112.5629088924793
 31
0.0
  0
LINE
  8
0
  6
CONTINUOUS
 62
               3
  5
1B0
 10
-480.0
 20
107.5629088924793
 30
0.0
 11
-520.0
 21
107.5629088924793
 31
0.0
  0
LINE
  8
0
  6
CONTINUOUS
 62
               3
  5
1B1
 10
-560.99999999999989
 20
122.47560696874993
 30
0.0
 11
-560.99999999999989
 21
106.19319309132175
 31
0.0
  0
LINE
  8
0
  6
CONTINUOUS
 62
               3
  5
1B2
 10
-439.0
 20
122.47560696874993
 30
0.0
 11
-439.0
 21
106.19319309132175
 31
0.0
  0
LINE
  8
0
  6
CONTINUOUS
 62
               3
  5
1B3
 10
-559.0
 20
102.19319309132183
 30
0.0
 11
-559.0
 21
40.6466013465255
 31
0.0
  0
ARC
  8
0
  6
CONTINUOUS
 62
               3
  5
1B4
 10
-564.0
 20
40.6466013465255
 30
0.0
 40
5.0
 50
315.01704217218719
 51
359.9999999999992
  0
ARC
  8
0
  6
CONTINUOUS
 62
               3
  5
1B5
 10
-549.5
 20
26.15522460033597
 30
0.0
 40
15.5
 50
135.01704217218645
 51
179.9999999999996
  0
LINE
  8
0
  6
CONTINUOUS
 62
               3
  5
1B6
 10
-441.0
 20
102.19319309132183
 30
0.0
 11
-441.0
 21
40.6466013465255
 31
0.0
  0
ARC
  8
0
  6
CONTINUOUS
 62
               3
  5
1B7
 10
-436.00000000000028
 20
40.6466013465255
 30
0.0
 40
5.0
 50
179.9999999999996
 51
224.98295782781159
  0
ARC
  8
0
  6
CONTINUOUS
 62
               3
  5
1B8
 10
-450.50000000000023
 20
26.15522460033597
 30
0.0
 40
15.5
 50
0.0
 51
44.982957827813138
  0
LINE
  8
0
  6
CONTINUOUS
 62
               3
  5
1B9
 10
425.50000000000011
 20
112.56290889247916
 30
0.0
 11
425.50000000000011
 21
107.56290889247916
 31
0.0
  0
LINE
  8
0
  6
CONTINUOUS
 62
               3
  5
1BA
 10
425.50000000000011
 20
112.56290889247916
 30
0.0
 11
439.00000000000011
 21
122.47560696874979
 31
0.0
  0
LINE
  8
0
  6
CONTINUOUS
 62
               3
  5
1BB
 10
425.50000000000011
 20
107.56290889247916
 30
0.0
 11
436.1744974835126
 21
107.19014722641711
 31
0.0
  0
ARC
  8
0
  6
CONTINUOUS
 62
               3
  5
1BC
 10
436.00000000000006
 20
102.19319309132169
 30
0.0
 40
5.0
 50
0.0
 51
87.999999999999417
  0
LINE
  8
0
  6
CONTINUOUS
 62
               3
  5
1BD
 10
574.49999999999989
 20
112.56290889247916
 30
0.0
 11
574.49999999999989
 21
107.56290889247916
 31
0.0
  0
LINE
  8
0
  6
CONTINUOUS
 62
               3
  5
1BE
 10
574.49999999999989
 20
112.56290889247916
 30
0.0
 11
561.0
 21
122.47560696874979
 31
0.0
  0
LINE
  8
0
  6
CONTINUOUS
 62
               3
  5
1BF
 10
574.49999999999989
 20
107.56290889247916
 30
0.0
 11
563.8255025164874
 21
107.19014722641711
 31
0.0
  0
ARC
  8
0
  6
CONTINUOUS
 62
               3
  5
1C0
 10
563.99999999999989
 20
102.19319309132169
 30
0.0
 40
5.0
 50
92.000000000000213
 51
179.99999999999963
  0
LINE
  8
0
  6
CONTINUOUS
 62
               3
  5
1C1
 10
439.00000000000011
 20
122.47560696874979
 30
0.0
 11
561.0
 21
122.47560696874979
 31
0.0
  0
LINE
  8
0
  6
CONTINUOUS
 62
               3
  5
1C2
 10
439.48802391201826
 20
105.77560696874963
 30
0.0
 11
560.51197608798179
 21
105.77560696874963
 31
0.0
  0
LINE
  8
0
  6
CONTINUOUS
 62
               3
  5
1C3
 10
480.0
 20
105.77560696874963
 30
0.0
 11
480.0
 21
122.47560696874979
 31
0.0
  0
LINE
  8
0
  6
CONTINUOUS
 62
               3
  5
1C4
 10
520.0
 20
122.47560696874979
 30
0.0
 11
520.0
 21
105.77560696874963
 31
0.0
  0
LINE
  8
0
  6
CONTINUOUS
 62
               3
  5
1C5
 10
480.0
 20
112.56290889247916
 30
0.0
 11
520.0
 21
112.56290889247916
 31
0.0
  0
LINE
  8
0
  6
CONTINUOUS
 62
               3
  5
1C6
 10
520.0
 20
107.56290889247916
 30
0.0
 11
480.0
 21
107.56290889247916
 31
0.0
  0
LINE
  8
0
  6
CONTINUOUS
 62
               3
  5
1C7
 10
439.00000000000011
 20
122.47560696874979
 30
0.0
 11
439.00000000000011
 21
106.1931930913216
 31
0.0
  0
LINE
  8
0
  6
CONTINUOUS
 62
               3
  5
1C8
 10
561.0
 20
122.47560696874979
 30
0.0
 11
561.0
 21
106.1931930913216
 31
0.0
  0
LINE
  8
0
  6
CONTINUOUS
 62
               3
  5
1C9
 10
441.00000000000006
 20
102.19319309132169
 30
0.0
 11
441.00000000000006
 21
40.646601346525358
 31
0.0
  0
ARC
  8
0
  6
CONTINUOUS
 62
               3
  5
1CA
 10
436.00000000000006
 20
40.646601346525358
 30
0.0
 40
5.0
 50
315.01704217218719
 51
359.9999999999992
  0
ARC
  8
0
  6
CONTINUOUS
 62
               3
  5
1CB
 10
450.5
 20
26.155224600335828
 30
0.0
 40
15.5
 50
135.01704217218645
 51
179.9999999999996
  0
LINE
  8
0
  6
CONTINUOUS
 62
               3
  5
1CC
 10
559.0
 20
102.19319309132169
 30
0.0
 11
559.0
 21
40.646601346525358
 31
0.0
  0
ARC
  8
0
  6
CONTINUOUS
 62
               3
  5
1CD
 10
563.99999999999977
 20
40.646601346525358
 30
0.0
 40
5.0
 50
179.9999999999996
 51
224.98295782781159
  0
ARC
  8
0
  6
CONTINUOUS
 62
               3
  5
1CE
 10
549.49999999999977
 20
26.155224600335828
 30
0.0
 40
15.5
 50
0.0
 51
44.982957827813138
  0
CIRCLE
  8
0
  6
CONTINUOUS
 62
               3
  5
1CF
 10
0.4838501072162522
 20
418.98695813291658
 30
0.0
 40
61.000000000000007
  0
CIRCLE
  8
0
  6
CONTINUOUS
 62
               3
  5
1D0
 10
-0.0000000000000604
 20
418.91334585058303
 30
0.0
 40
47.0
  0
LINE
  8
0
  6
CONTINUOUS
 62
               3
  5
1D1
 10
-545.50000000000011
 20
-326.52067289309809
 30
0.0
 11
-565.00000000000011
 21
-155.37136943413284
 31
0.0
  0
LINE
  8
0
  6
CONTINUOUS
 62
               3
  5
1D2
 10
-565.00000000000011
 20
-155.37136943413284
 30
0.0
 11
-435.50323486635034
 21
-155.37136943413284
 31
0.0
  0
LINE
  8
0
  6
CONTINUOUS
 62
               3
  5
1D3
 10
-545.49999999999989
 20
-391.43063398893446
 30
0.0
 11
-545.50000000000011
 21
-326.52067289309809
 31
0.0
  0
LINE
  8
0
  6
CONTINUOUS
 62
               3
  5
1D4
 10
-454.50000000000028
 20
-391.43063398893446
 30
0.0
 11
-454.50000000000028
 21
-326.52067289309809
 31
0.0
  0
LINE
  8
0
  6
CONTINUOUS
 62
               3
  5
1D5
 10
-545.50000000000011
 20
-326.52067289309809
 30
0.0
 11
-454.50000000000028
 21
-326.52067289309809
 31
0.0
  0
LINE
  8
0
  6
CONTINUOUS
 62
               3
  5
1D6
 10
-454.50000000000028
 20
-326.52067289309809
 30
0.0
 11
-435.00000000000023
 21
-155.37136943413284
 31
0.0
  0
LINE
  8
0
  6
CONTINUOUS
 62
               3
  5
1D7
 10
-544.50000000000068
 20
-392.43063398893446
 30
0.0
 11
-544.50000000000068
 21
-490.11554167225438
 31
0.0
  0
LINE
  8
0
  6
CONTINUOUS
 62
               3
  5
1D8
 10
-544.50000000000068
 20
-490.11554167225438
 30
0.0
 11
-542.09114864100479
 21
-492.52439303125027
 31
0.0
  0
LINE
  8
0
  6
CONTINUOUS
 62
               3
  5
1D9
 10
-544.50000000000068
 20
-392.43063398893446
 30
0.0
 11
-545.50000000000068
 21
-391.43063398893446
 31
0.0
  0
LINE
  8
0
  6
CONTINUOUS
 62
               3
  5
1DA
 10
-542.09114864100479
 20
-492.52439303125027
 30
0.0
 11
-457.90885135899555
 21
-492.52439303125027
 31
0.0
  0
LINE
  8
0
  6
CONTINUOUS
 62
               3
  5
1DB
 10
-455.49999999999966
 20
-392.43063398893446
 30
0.0
 11
-455.49999999999966
 21
-490.11554167225438
 31
0.0
  0
LINE
  8
0
  6
CONTINUOUS
 62
               3
  5
1DC
 10
-455.49999999999966
 20
-490.11554167225438
 30
0.0
 11
-457.90885135899555
 21
-492.52439303125027
 31
0.0
  0
LINE
  8
0
  6
CONTINUOUS
 62
               3
  5
1DD
 10
-455.49999999999966
 20
-392.43063398893446
 30
0.0
 11
-454.49999999999972
 21
-391.43063398893446
 31
0.0
  0
LINE
  8
0
  6
CONTINUOUS
 62
               3
  5
1DE
 10
-544.50000000000068
 20
-392.43063398893446
 30
0.0
 11
-455.49999999999966
 21
-392.43063398893446
 31
0.0
  0
LINE
  8
0
  6
CONTINUOUS
 62
               3
  5
1DF
 10
-454.49999999999972
 20
-391.43063398893446
 30
0.0
 11
-545.50000000000068
 21
-391.43063398893446
 31
0.0
  0
LINE
  8
0
  6
CONTINUOUS
 62
               3
  5
1E0
 10
-65.000000000000085
 20
-155.37136943413284
 30
0.0
 11
64.49676513364966
 21
-155.37136943413284
 31
0.0
  0
LINE
  8
0
  6
CONTINUOUS
 62
               3
  5
1E1
 10
-45.500000000000099
 20
-326.52067289309809
 30
0.0
 11
-65.000000000000099
 21
-155.37136943413284
 31
0.0
  0
LINE
  8
0
  6
CONTINUOUS
 62
               3
  5
1E2
 10
-45.500000000000639
 20
-391.43063398893446
 30
0.0
 11
-45.500000000000099
 21
-326.52067289309809
 31
0.0
  0
LINE
  8
0
  6
CONTINUOUS
 62
               3
  5
1E3
 10
45.500000000000313
 20
-391.43063398893446
 30
0.0
 11
45.499999999999815
 21
-326.52067289309809
 31
0.0
  0
LINE
  8
0
  6
CONTINUOUS
 62
               3
  5
1E4
 10
-45.500000000000099
 20
-326.52067289309809
 30
0.0
 11
45.499999999999815
 21
-326.52067289309809
 31
0.0
  0
LINE
  8
0
  6
CONTINUOUS
 62
               3
  5
1E5
 10
-44.500000000000696
 20
-392.43063398893446
 30
0.0
 11
-45.500000000000639
 21
-391.43063398893446
 31
0.0
  0
LINE
  8
0
  6
CONTINUOUS
 62
               3
  5
1E6
 10
44.500000000000369
 20
-392.43063398893446
 30
0.0
 11
45.500000000000313
 21
-391.43063398893446
 31
0.0
  0
LINE
  8
0
  6
CONTINUOUS
 62
               3
  5
1E7
 10
-44.500000000000696
 20
-392.43063398893446
 30
0.0
 11
44.500000000000369
 21
-392.43063398893446
 31
0.0
  0
LINE
  8
0
  6
CONTINUOUS
 62
               3
  5
1E8
 10
45.500000000000313
 20
-391.43063398893446
 30
0.0
 11
-45.500000000000639
 21
-391.43063398893446
 31
0.0
  0
LINE
  8
0
  6
CONTINUOUS
 62
               3
  5
1E9
 10
545.49999999999977
 20
-326.52067289309832
 30
0.0
 11
564.99999999999977
 21
-155.37136943413307
 31
0.0
  0
LINE
  8
0
  6
CONTINUOUS
 62
               3
  5
1EA
 10
545.49999999999977
 20
-391.43063398893457
 30
0.0
 11
545.49999999999977
 21
-326.52067289309832
 31
0.0
  0
LINE
  8
0
  6
CONTINUOUS
 62
               3
  5
1EB
 10
454.49999999999966
 20
-391.43063398893457
 30
0.0
 11
454.49999999999989
 21
-326.52067289309832
 31
0.0
  0
LINE
  8
0
  6
CONTINUOUS
 62
               3
  5
1EC
 10
545.49999999999977
 20
-326.52067289309832
 30
0.0
 11
454.49999999999989
 21
-326.52067289309832
 31
0.0
  0
LINE
  8
0
  6
CONTINUOUS
 62
               3
  5
1ED
 10
454.5
 20
-326.52067289309832
 30
0.0
 11
434.99999999999994
 21
-155.37136943413307
 31
0.0
  0
LINE
  8
0
  6
CONTINUOUS
 62
               3
  5
1EE
 10
564.99999999999977
 20
-155.37136943413307
 30
0.0
 11
508.21699999999942
 21
-155.37136943413307
 31
0.0
  0
LINE
  8
0
  6
CONTINUOUS
 62
               3
  5
1EF
 10
491.78299999999956
 20
-155.37136943413307
 30
0.0
 11
435.50323486635006
 21
-155.37136943413307
 31
0.0
  0
LINE
  8
0
  6
CONTINUOUS
 62
               3
  5
1F0
 10
455.49999999999932
 20
-392.43063398893457
 30
0.0
 11
455.49999999999932
 21
-490.11554167225461
 31
0.0
  0
LINE
  8
0
  6
CONTINUOUS
 62
               3
  5
1F1
 10
455.49999999999932
 20
-490.11554167225461
 30
0.0
 11
457.90885135899521
 21
-492.5243930312505
 31
0.0
  0
LINE
  8
0
  6
CONTINUOUS
 62
               3
  5
1F2
 10
455.49999999999932
 20
-392.43063398893457
 30
0.0
 11
454.49999999999932
 21
-391.43063398893457
 31
0.0
  0
LINE
  8
0
  6
CONTINUOUS
 62
               3
  5
1F3
 10
457.90885135899521
 20
-492.5243930312505
 30
0.0
 11
542.09114864100445
 21
-492.5243930312505
 31
0.0
  0
LINE
  8
0
  6
CONTINUOUS
 62
               3
  5
1F4
 10
544.50000000000034
 20
-392.43063398893457
 30
0.0
 11
544.50000000000034
 21
-490.11554167225461
 31
0.0
  0
LINE
  8
0
  6
CONTINUOUS
 62
               3
  5
1F5
 10
544.50000000000034
 20
-490.11554167225461
 30
0.0
 11
542.09114864100445
 21
-492.5243930312505
 31
0.0
  0
LINE
  8
0
  6
CONTINUOUS
 62
               3
  5
1F6
 10
544.50000000000034
 20
-392.43063398893457
 30
0.0
 11
545.50000000000034
 21
-391.43063398893457
 31
0.0
  0
LINE
  8
0
  6
CONTINUOUS
 62
               3
  5
1F7
 10
455.49999999999932
 20
-392.43063398893457
 30
0.0
 11
544.50000000000034
 21
-392.43063398893457
 31
0.0
  0
LINE
  8
0
  6
CONTINUOUS
 62
               3
  5
1F8
 10
545.50000000000034
 20
-391.43063398893457
 30
0.0
 11
454.49999999999932
 21
-391.43063398893457
 31
0.0
  0
LINE
  8
0
  6
CONTINUOUS
 62
               3
  5
1F9
 10
44.500000000000369
 20
-392.43063398893446
 30
0.0
 11
44.500000000000327
 21
-490.11554167225438
 31
0.0
  0
LINE
  8
0
  6
CONTINUOUS
 62
               3
  5
1FA
 10
-44.500000000000696
 20
-392.43063398893446
 30
0.0
 11
-44.500000000000696
 21
-490.11554167225438
 31
0.0
  0
LINE
  8
0
  6
CONTINUOUS
 62
               3
  5
1FB
 10
-44.500000000000696
 20
-490.11554167225438
 30
0.0
 11
-42.091148641004807
 21
-492.52439303125027
 31
0.0
  0
LINE
  8
0
  6
CONTINUOUS
 62
               3
  5
1FC
 10
-42.091148641004807
 20
-492.52439303125027
 30
0.0
 11
42.091148641004438
 21
-492.52439303125027
 31
0.0
  0
LINE
  8
0
  6
CONTINUOUS
 62
               3
  5
1FD
 10
44.500000000000327
 20
-490.11554167225438
 30
0.0
 11
42.091148641004438
 21
-492.52439303125027
 31
0.0
  0
LINE
  8
0
  6
CONTINUOUS
 62
               3
  5
1FE
 10
-441.50000000000011
 20
38.402673314251913
 30
0.0
 11
-558.99999999999989
 21
38.402673314251899
 31
0.0
  0
LINE
  8
0
  6
CONTINUOUS
 62
               3
  5
1FF
 10
58.499999999999858
 20
38.402673314251913
 30
0.0
 11
-58.999999999999915
 21
38.402673314251899
 31
0.0
  0
LINE
  8
0
  6
CONTINUOUS
 62
               3
  5
200
 10
488.2729999999998
 20
38.402673314251757
 30
0.0
 11
441.00000000000011
 21
38.402673314251757
 31
0.0
  0
LINE
  8
0
  6
CONTINUOUS
 62
               3
  5
201
 10
558.49999999999989
 20
38.402673314251771
 30
0.0
 11
511.72700000000009
 21
38.402673314251757
 31
0.0
  0
LINE
  8
0
  6
CONTINUOUS
 62
               3
  5
202
 10
24.438462962570238
 20
436.21931779521185
 30
0.0
 11
-14.564429723117032
 21
453.4694941724141
 31
0.0
  0
ARC
  8
0
  6
CONTINUOUS
 62
               3
  5
203
 10
30.271587850719907
 20
449.40809564071753
 30
0.0
 40
14.421137507799237
 50
246.14118011761244
 51
283.68441335088426
  0
CIRCLE
  8
0
  6
CONTINUOUS
 62
               3
  5
204
 10
-0.0000000000000604
 20
418.91334585058303
 30
0.0
 40
37.5
  0
LINE
  8
0
  6
DASHED2
 62
               3
  5
205
 10
-539.50000000000011
 20
-492.52439303125027
 30
0.0
 11
-539.50000000000011
 21
-442.52439303125027
 31
0.0
  0
LINE
  8
0
  6
DASHED2
 62
               3
  5
206
 10
-460.50000000000023
 20
-492.52439303125027
 30
0.0
 11
-460.50000000000023
 21
-442.52439303125027
 31
0.0
  0
LINE
  8
0
  6
DASHED2
 62
               3
  5
207
 10
460.49999999999989
 20
-492.5243930312505
 30
0.0
 11
460.49999999999989
 21
-442.5243930312505
 31
0.0
  0
LINE
  8
0
  6
DASHED2
 62
               3
  5
208
 10
539.49999999999977
 20
-492.5243930312505
 30
0.0
 11
539.49999999999977
 21
-442.5243930312505
 31
0.0
  0
LINE
  8
0
  6
DASHED2
 62
               3
  5
209
 10
-39.500000000000099
 20
-492.52439303125027
 30
0.0
 11
-39.500000000000099
 21
-442.52439303125027
 31
0.0
  0
LINE
  8
0
  6
DASHED2
 62
               3
  5
20A
 10
39.499999999999787
 20
-492.52439303125027
 30
0.0
 11
39.499999999999801
 21
-442.52439303125027
 31
0.0
  0
LINE
  8
0
  6
CONTINUOUS
 62
               4
  5
20B
 10
66.999999999999773
 20
-91.524393031249843
 30
0.0
 11
66.999999999999773
 21
-155.48493766438801
 31
0.0
  0
LINE
  8
0
  6
CONTINUOUS
 62
               4
  5
20C
 10
64.499999999999773
 20
-92.524393031250071
 30
0.0
 11
64.499999999999773
 21
-155.34297737656848
 31
0.0
  0
LINE
  8
0
  6
CONTINUOUS
 62
               4
  5
20D
 10
66.75
 20
-91.809750138385965
 30
0.0
 11
66.75
 21
-155.470741635606
 31
0.0
  0
LINE
  8
0
  6
CONTINUOUS
 62
               4
  5
20E
 10
505.99999999999943
 20
-88.610313182783557
 30
0.0
 11
493.99999999999955
 21
-88.610313182783557
 31
0.0
  0
ARC
  8
0
  6
CONTINUOUS
 62
               4
  5
20F
 10
491.93835546658454
 20
-90.024393031250213
 30
0.0
 40
2.4999999999999996
 50
34.446185822144464
 51
89.999999999999801
  0
ARC
  8
0
  6
CONTINUOUS
 62
               4
  5
210
 10
508.06164453341501
 20
-90.024393031250213
 30
0.0
 40
2.4999999999999996
 50
89.999999999999801
 51
145.55381417785514
  0
LINE
  8
0
  6
CONTINUOUS
 62
               4
  5
211
 10
505.99999999999943
 20
-91.438472879716585
 30
0.0
 11
493.99999999999955
 21
-91.438472879716585
 31
0.0
  0
ARC
  8
0
  6
CONTINUOUS
 62
               4
  5
212
 10
491.93835546658454
 20
-90.024393031250213
 30
0.0
 40
2.4999999999999996
 50
269.99999999999937
 51
325.55381417785475
  0
ARC
  8
0
  6
CONTINUOUS
 62
               4
  5
213
 10
508.06164453341501
 20
-90.024393031250213
 30
0.0
 40
2.4999999999999996
 50
214.44618582214406
 51
269.99999999999937
  0
LINE
  8
0
  6
CONTINUOUS
 62
               4
  5
214
 10
491.78299999999956
 20
-92.524393031250213
 30
0.0
 11
491.78299999999956
 21
-326.52067289309821
 31
0.0
  0
LINE
  8
0
  6
CONTINUOUS
 62
               4
  5
215
 10
508.21699999999942
 20
-92.524393031250213
 30
0.0
 11
508.21699999999942
 21
-326.52067289309821
 31
0.0
  0
LINE
  8
0
  6
CONTINUOUS
 62
               4
  5
216
 10
493.99999999999955
 20
-91.438472879716585
 30
0.0
 11
493.99999999999955
 21
-324.24889729274912
 31
0.0
  0
LINE
  8
0
  6
CONTINUOUS
 62
               4
  5
217
 10
505.99999999999943
 20
-324.24889729274912
 30
0.0
 11
505.99999999999943
 21
-91.438472879716585
 31
0.0
  0
LINE
  8
0
  6
CONTINUOUS
 62
               4
  5
218
 10
508.21699999999942
 20
-92.524393031250213
 30
0.0
 11
508.06164453341501
 21
-92.524393031250213
 31
0.0
  0
LINE
  8
0
  6
CONTINUOUS
 62
               4
  5
219
 10
508.21699999999998
 20
-87.524393031250213
 30
0.0
 11
508.06164453341501
 21
-87.524393031250213
 31
0.0
  0
LINE
  8
0
  6
CONTINUOUS
 62
               4
  5
21A
 10
491.78299999999956
 20
-87.524393031250213
 30
0.0
 11
491.93835546658454
 21
-87.524393031250213
 31
0.0
  0
LINE
  8
0
  6
CONTINUOUS
 62
               4
  5
21B
 10
491.78299999999956
 20
-92.524393031250213
 30
0.0
 11
491.93835546658454
 21
-92.524393031250213
 31
0.0
  0
LINE
  8
0
  6
CONTINUOUS
 62
               4
  5
21C
 10
64.49676513364966
 20
-155.37136943413284
 30
0.0
 11
66.999999999999773
 21
-155.48493766438813
 31
0.0
  0
LINE
  8
0
  6
CONTINUOUS
 62
               4
  5
21D
 10
45.499999999999815
 20
-326.52067289309809
 30
0.0
 11
47.771775600348562
 21
-324.24889729274969
 31
0.0
  0
LINE
  8
0
  6
CONTINUOUS
 62
               4
  5
21E
 10
44.996765133650158
 20
-326.52067289309866
 30
0.0
 11
47.771775600348562
 21
-324.24889729274969
 31
0.0
  0
LINE
  8
0
  6
CONTINUOUS
 62
               4
  5
21F
 10
66.999999999999773
 20
-155.48493766438813
 30
0.0
 11
47.771775600348562
 21
-324.24889729274969
 31
0.0
  0
LINE
  8
0
  6
CONTINUOUS
 62
               4
  5
220
 10
64.499999999999773
 20
-155.3429773765686
 30
0.0
 11
44.996765133650214
 21
-326.52067289309809
 31
0.0
  0
LINE
  8
0
  6
CONTINUOUS
 62
               4
  5
221
 10
66.75
 20
-155.47074163560606
 30
0.0
 11
47.494274553678437
 21
-324.47607485278479
 31
0.0
  0
LINE
  8
0
  6
CONTINUOUS
 62
               4
  5
222
 10
508.21699999999942
 20
-155.37136943413307
 30
0.0
 11
491.78299999999956
 21
-155.37136943413307
 31
0.0
  0
LINE
  8
0
  6
CONTINUOUS
 62
               4
  5
223
 10
493.99999999999955
 20
-324.24889729274923
 30
0.0
 11
505.99999999999943
 21
-324.24889729274923
 31
0.0
  0
LINE
  8
0
  6
CONTINUOUS
 62
               4
  5
224
 10
491.78299999999956
 20
-326.52067289309832
 30
0.0
 11
493.99999999999955
 21
-324.24889729274923
 31
0.0
  0
LINE
  8
0
  6
CONTINUOUS
 62
               4
  5
225
 10
505.99999999999943
 20
-324.24889729274923
 30
0.0
 11
508.21699999999942
 21
-326.52067289309832
 31
0.0
  0
LINE
  8
0
  6
CONTINUOUS
 62
               4
  5
226
 10
66.999999999999773
 20
35.030692564045737
 30
0.0
 11
58.999999999999403
 21
43.03069256404612
 31
0.0
  0
LINE
  8
0
  6
CONTINUOUS
 62
               4
  5
227
 10
58.999999999999403
 20
43.03069256404612
 30
0.0
 11
58.499999999999858
 21
43.03069256404612
 31
0.0
  0
LINE
  8
0
  6
CONTINUOUS
 62
               4
  5
228
 10
66.75
 20
34.780692564045609
 30
0.0
 11
58.499999999999858
 21
43.03069256404612
 31
0.0
  0
LINE
  8
0
  6
CONTINUOUS
 62
               4
  5
229
 10
58.499999999999858
 20
38.402673314251913
 30
0.0
 11
58.499999999999858
 21
43.030692564046689
 31
0.0
  0
LINE
  8
0
  6
CONTINUOUS
 62
               4
  5
22A
 10
66.999999999999773
 20
35.030692564045737
 30
0.0
 11
66.75
 21
34.780692564045609
 31
0.0
  0
ARC
  8
0
  6
CONTINUOUS
 62
               4
  5
22B
 10
48.999999999999766
 20
26.155224600336084
 30
0.0
 40
15.5
 50
0.0
 51
52.200277564572296
  0
LINE
  8
0
  6
CONTINUOUS
 62
               4
  5
22C
 10
66.999999999999773
 20
35.030692564045737
 30
0.0
 11
66.999999999999773
 21
-88.524393031250014
 31
0.0
  0
LINE
  8
0
  6
CONTINUOUS
 62
               4
  5
22D
 10
64.499999999999773
 20
26.155224600336084
 30
0.0
 11
64.499999999999773
 21
-87.524393031250071
 31
0.0
  0
LINE
  8
0
  6
CONTINUOUS
 62
               4
  5
22E
 10
66.75
 20
34.780692564045609
 30
0.0
 11
66.75
 21
-88.239035924114461
 31
0.0
  0
LINE
  8
0
  6
CONTINUOUS
 62
               4
  5
22F
 10
491.78299999999967
 20
27.867019561399076
 30
0.0
 11
491.78299999999956
 21
-87.524393031250213
 31
0.0
  0
LINE
  8
0
  6
CONTINUOUS
 62
               4
  5
230
 10
493.99999999999955
 20
38.398796014134163
 30
0.0
 11
493.99999999999955
 21
-88.438472879716755
 31
0.0
  0
LINE
  8
0
  6
CONTINUOUS
 62
               4
  5
231
 10
505.99999999999943
 20
-88.438472879716755
 30
0.0
 11
505.99999999999943
 21
38.398796014134163
 31
0.0
  0
LINE
  8
0
  6
CONTINUOUS
 62
               4
  5
232
 10
508.21699999999953
 20
27.867019561399076
 30
0.0
 11
508.21699999999998
 21
-87.524393031250213
 31
0.0
  0
LINE
  8
0
  6
CONTINUOUS
 62
               4
  5
233
 10
493.99999999999955
 20
38.398796014134163
 30
0.0
 11
505.99999999999943
 21
38.398796014134163
 31
0.0
  0
ARC
  8
0
  6
CONTINUOUS
 62
               4
  5
234
 10
474.21603418803375
 20
27.867019561399076
 30
0.0
 40
17.566965811965957
 50
0.0
 51
36.851448659230869
  0
LINE
  8
0
  6
CONTINUOUS
 62
               4
  5
235
 10
511.72700000000009
 20
43.402673314251757
 30
0.0
 11
488.27299999999968
 21
43.402673314251757
 31
0.0
  0
ARC
  8
0
  6
CONTINUOUS
 62
               4
  5
236
 10
525.78396581196546
 20
27.867019561399076
 30
0.0
 40
17.566965811965957
 50
143.14855134076873
 51
179.9999999999996
  0
LINE
  8
0
  6
CONTINUOUS
 62
               4
  5
237
 10
488.27299999999968
 20
38.402673314251757
 30
0.0
 11
488.27299999999968
 21
43.402673314251757
 31
0.0
  0
LINE
  8
0
  6
CONTINUOUS
 62
               4
  5
238
 10
511.72700000000009
 20
38.402673314251757
 30
0.0
 11
511.72700000000009
 21
43.402673314251757
 31
0.0
  0
LINE
  8
0
  6
CONTINUOUS
 62
               4
  5
239
 10
488.27299999999968
 20
43.402673314251757
 30
0.0
 11
493.99999999999966
 21
38.402673314251757
 31
0.0
  0
LINE
  8
0
  6
CONTINUOUS
 62
               4
  5
23A
 10
505.99999999999955
 20
38.402673314251757
 30
0.0
 11
511.72700000000009
 21
43.402673314251757
 31
0.0
  0
LINE
  8
0
  6
DASHDOT
 62
               4
  5
23B
 10
499.99999999999989
 20
158.62863056586698
 30
0.0
 11
499.99999999999994
 21
-527.41334585058269
 31
0.0
  0
LINE
  8
0
  6
DASHDOT
 62
               4
  5
23C
 10
-52.964249144725962
 20
-43.524393031250014
 30
0.0
 11
-151.99999999999997
 21
-43.524393031250014
 31
0.0
  0
LINE
  8
0
  6
DASHDOT
 62
               4
  5
23D
 10
-0.0000000000002824
 20
527.4133458505828
 30
0.0
 11
-0.000000000000167
 21
310.41334585058303
 31
0.0
  0
LINE
  8
0
  6
DASHDOT
 62
               4
  5
23E
 10
-151.99999999999997
 20
418.91334585058303
 30
0.0
 11
108.50000000000013
 21
418.91334585058303
 31
0.0
  0
LINE
  8
0
  6
DASHDOT
 62
               4
  5
23F
 10
-500.00000000000011
 20
158.62863056586698
 30
0.0
 11
-500.00000000000006
 21
-527.41334585058269
 31
0.0
  0
LINE
  8
0
  6
DASHDOT
 62
               4
  5
240
 10
-446.92150000000066
 20
-43.524393031250298
 30
0.0
 11
-553.07850000000064
 21
-43.524393031250298
 31
0.0
  0
LINE
  8
0
  6
DASHDOT
 62
               4
  5
241
 10
-0.0000000000001137
 20
158.62863056586698
 30
0.0
 11
-0.0000000000001632
 21
-527.41334585058269
 31
0.0
  0
LINE
  8
0
  6
DASHED2
 62
               4
  5
242
 10
-44.500000000000114
 20
57.475606968749929
 30
0.0
 11
44.499999999999901
 21
57.475606968749929
 31
0.0
  0
LINE
  8
0
  6
DASHED2
 62
               4
  5
243
 10
-544.50000000000011
 20
57.475606968749929
 30
0.0
 11
-455.50000000000011
 21
57.475606968749929
 31
0.0
  0
LINE
  8
0
  6
DASHED2
 62
               4
  5
244
 10
455.49999999999989
 20
57.475606968749787
 30
0.0
 11
544.49999999999989
 21
57.475606968749787
 31
0.0
  0
ENDSEC
  0
EOF
