  0
SECTION
  2
HEADER
  9
$ACADVER
  1
AC1009
  9
$INSBASE
 10
0.0
 20
0.0
 30
0.0
  9
$EXTMIN
 10
-782.01799736827707
 20
-1007.348241053459
 30
0.0
  9
$EXTMAX
 10
457.95998677668302
 20
1007.3482410534588
 30
0.0
  9
$LIMMIN
 10
-820.76730937280706
 20
-1070.3075061193001
  9
$LIMMAX
 10
496.70929878121302
 20
1070.3075061192999
  9
$ORTHOMODE
 70
               0
  9
$REGENMODE
 70
               1
  9
$FILLMODE
 70
               1
  9
$QTEXTMODE
 70
               0
  9
$MIRRTEXT
 70
               1
  9
$DRAGMODE
 70
               2
  9
$LTSCALE
 40
1.0
  9
$OSMODE
 70
               0
  9
$ATTMODE
 70
               1
  9
$TEXTSIZE
 40
0.2
  9
$TRACEWID
 40
0.05
  9
$TEXTSTYLE
  7
STANDARD
  9
$CLAYER
  8
0
  9
$CELTYPE
  6
CONTINUOUS
  9
$CECOLOR
 62
             256
  9
$DIMSCALE
 40
1.0
  9
$DIMASZ
 40
0.18
  9
$DIMEXO
 40
0.0625
  9
$DIMDLI
 40
0.38
  9
$DIMRND
 40
0.0
  9
$DIMDLE
 40
0.0
  9
$DIMEXE
 40
0.18
  9
$DIMTP
 40
0.0
  9
$DIMTM
 40
0.0
  9
$DIMTXT
 40
0.18
  9
$DIMCEN
 40
0.09
  9
$DIMTSZ
 40
0.0
  9
$DIMTOL
 70
               0
  9
$DIMLIM
 70
               0
  9
$DIMTIH
 70
               1
  9
$DIMTOH
 70
               1
  9
$DIMSE1
 70
               0
  9
$DIMSE2
 70
               0
  9
$DIMTAD
 70
               0
  9
$DIMZIN
 70
               0
  9
$DIMBLK
  1

  9
$DIMASO
 70
               1
  9
$DIMSHO
 70
               1
  9
$DIMPOST
  1

  9
$DIMAPOST
  1

  9
$DIMALT
 70
               0
  9
$DIMALTD
 70
               2
  9
$DIMALTF
 40
25.399999999999999
  9
$DIMLFAC
 40
1.0
  9
$DIMTOFL
 70
               0
  9
$DIMTVP
 40
0.0
  9
$DIMTIX
 70
               0
  9
$DIMSOXD
 70
               0
  9
$DIMSAH
 70
               0
  9
$DIMBLK1
  1

  9
$DIMBLK2
  1

  9
$DIMSTYLE
  2
STANDARD
  9
$DIMCLRD
 70
               0
  9
$DIMCLRE
 70
               0
  9
$DIMCLRT
 70
               0
  9
$DIMTFAC
 40
1.0
  9
$DIMGAP
 40
0.09
  9
$LUNITS
 70
               2
  9
$LUPREC
 70
               4
  9
$AXISMODE
 70
               0
  9
$AXISUNIT
 10
0.0
 20
0.0
  9
$SKETCHINC
 40
0.1
  9
$FILLETRAD
 40
0.0
  9
$AUNITS
 70
               0
  9
$AUPREC
 70
               0
  9
$MENU
  1
acad
  9
$ELEVATION
 40
0.0
  9
$PELEVATION
 40
0.0
  9
$THICKNESS
 40
0.0
  9
$LIMCHECK
 70
               0
  9
$BLIPMODE
 70
               1
  9
$CHAMFERA
 40
0.0
  9
$CHAMFERB
 40
0.0
  9
$SKPOLY
 70
               0
  9
$TDCREATE
 40
0.000000000
  9
$TDUPDATE
 40
0.000000000
  9
$TDINDWG
 40
0.0000000000
  9
$TDUSRTIMER
 40
0.0000000000
  9
$USRTIMER
 70
               1
  9
$ANGBASE
 50
0.0
  9
$ANGDIR
 70
               0
  9
$PDMODE
 70
               0
  9
$PDSIZE
 40
1.0
  9
$PLINEWID
 40
0.0
  9
$COORDS
 70
               1
  9
$SPLFRAME
 70
               0
  9
$SPLINETYPE
 70
               6
  9
$SPLINESEGS
 70
               8
  9
$ATTDIA
 70
               0
  9
$ATTREQ
 70
               1
  9
$HANDLING
 70
               1
  9
$HANDSEED
  5
377
  9
$SURFTAB1
 70
               6
  9
$SURFTAB2
 70
               6
  9
$SURFTYPE
 70
               6
  9
$SURFU
 70
               6
  9
$SURFV
 70
               6
  9
$UCSNAME
  2

  9
$UCSORG
 10
0.0
 20
0.0
 30
0.0
  9
$UCSXDIR
 10
1.0
 20
0.0
 30
0.0
  9
$UCSYDIR
 10
0.0
 20
1.0
 30
0.0
  9
$PUCSNAME
  2

  9
$PUCSORG
 10
0.0
 20
0.0
 30
0.0
  9
$PUCSXDIR
 10
1.0
 20
0.0
 30
0.0
  9
$PUCSYDIR
 10
0.0
 20
1.0
 30
0.0
  9
$USERI1
 70
               0
  9
$USERI2
 70
               0
  9
$USERI3
 70
               0
  9
$USERI4
 70
               0
  9
$USERI5
 70
               0
  9
$USERR1
 40
0.0
  9
$USERR2
 40
0.0
  9
$USERR3
 40
0.0
  9
$USERR4
 40
0.0
  9
$USERR5
 40
0.0
  9
$WORLDVIEW
 70
               1
  9
$SHADEDGE
 70
               3
  9
$SHADEDIF
 70
              70
  9
$TILEMODE
 70
               1
  9
$MAXACTVP
 70
              16
  9
$PINSBASE
 10
0.0
 20
0.0
 30
0.0
  9
$PLIMCHECK
 70
               0
  9
$PEXTMIN
 10
1.0000000000000000E+20
 20
1.0000000000000000E+20
 30
1.0000000000000000E+20
  9
$PEXTMAX
 10
-1.0000000000000000E+20
 20
-1.0000000000000000E+20
 30
-1.0000000000000000E+20
  9
$PLIMMIN
 10
0.0
 20
0.0
  9
$PLIMMAX
 10
12.0
 20
9.0
  9
$UNITMODE
 70
               0
  9
$VISRETAIN
 70
               0
  9
$PLINEGEN
 70
               1
  9
$PSLTSCALE
 70
               0
  9
$TREEDEPTH
 70
            3020
  9
$DWGCODEPAGE
  3
dos932
  0
ENDSEC
  0
SECTION
  2
TABLES
  0
TABLE
  2
VPORT
 70
               1
  0
VPORT
  2
*ACTIVE
 70
               0
 10
0.0
 20
0.0
 11
1.0
 21
1.0
 12
-162.02900529579702
 22
-0.0000000000001137
 13
0.0
 23
0.0
 14
1.0
 24
1.0
 15
0.0
 25
0.0
 16
0.0
 26
0.0
 36
1.0
 17
0.0
 27
0.0
 37
0.0
 40
2140.6150122385998
 41
0.6154663966297411
 42
50.0
 43
0.0
 44
0.0
 50
0.0
 51
0.0
 71
               0
 72
             100
 73
               1
 74
               1
 75
               0
 76
               0
 77
               0
 78
               0
  0
ENDTAB
  0
TABLE
  2
LTYPE
 70
              26
  0
LTYPE
  2
CONTINUOUS
 70
               0
  3
Solid line
 72
              65
 73
               0
 40
0.0
  0
LTYPE
  2
HIDDENX2
 70
               0
  3
CADPAC FUSION LINETYPE
 72
              65
 73
               2
 40
47.560000000000002
 49
35.670000000000002
 49
-11.890000000000001
  0
LTYPE
  2
HIDDEN
 70
               0
  3
CADPAC FUSION LINETYPE
 72
              65
 73
               2
 40
35.670000000000002
 49
23.780000000000001
 49
-11.890000000000001
  0
LTYPE
  2
HIDDEN2
 70
               0
  3
CADPAC FUSION LINETYPE
 72
              65
 73
               2
 40
29.725000000000001
 49
17.835000000000001
 49
-11.890000000000001
  0
LTYPE
  2
DASHED
 70
               0
  3
CADPAC FUSION LINETYPE
 72
              65
 73
               2
 40
35.670000000000002
 49
23.780000000000001
 49
-11.890000000000001
  0
LTYPE
  2
DASHED2
 70
               0
  3
CADPAC FUSION LINETYPE
 72
              65
 73
               2
 40
26.752500000000001
 49
17.835000000000001
 49
-8.9175000000000004
  0
LTYPE
  2
DASHEDX2
 70
               0
  3
CADPAC FUSION LINETYPE
 72
              65
 73
               2
 40
53.505000000000003
 49
35.670000000000002
 49
-17.835000000000001
  0
LTYPE
  2
DOTX2
 70
               0
  3
CADPAC FUSION LINETYPE
 72
              65
 73
               2
 40
14.862500000000001
 49
0.0
 49
-14.862500000000001
  0
LTYPE
  2
DOT
 70
               0
  3
CADPAC FUSION LINETYPE
 72
              65
 73
               2
 40
11.890000000000001
 49
0.0
 49
-11.890000000000001
  0
LTYPE
  2
DOTS
 70
               0
  3
CADPAC FUSION LINETYPE
 72
              65
 73
               2
 40
11.890000000000001
 49
0.0
 49
-11.890000000000001
  0
LTYPE
  2
DOT2
 70
               0
  3
CADPAC FUSION LINETYPE
 72
              65
 73
               2
 40
8.9175000000000004
 49
0.0
 49
-8.9175000000000004
  0
LTYPE
  2
CENTERX2
 70
               0
  3
CADPAC FUSION LINETYPE
 72
              65
 73
               4
 40
71.340000000000003
 49
29.725000000000001
 49
-14.862500000000001
 49
11.890000000000001
 49
-14.862500000000001
  0
LTYPE
  2
CENTER
 70
               0
  3
CADPAC FUSION LINETYPE
 72
              65
 73
               4
 40
54.694000000000003
 49
23.780000000000001
 49
-11.890000000000001
 49
7.1340000000000003
 49
-11.890000000000001
  0
LTYPE
  2
CENTER2
 70
               0
  3
CADPAC FUSION LINETYPE
 72
              65
 73
               4
 40
38.048000000000002
 49
17.835000000000001
 49
-8.9175000000000004
 49
2.3780000000000001
 49
-8.9175000000000004
  0
LTYPE
  2
DASHDOTX2
 70
               0
  3
CADPAC FUSION LINETYPE
 72
              65
 73
               4
 40
59.450000000000003
 49
29.725000000000001
 49
-14.862500000000001
 49
0.0
 49
-14.862500000000001
  0
LTYPE
  2
DASHDOT
 70
               0
  3
CADPAC FUSION LINETYPE
 72
              65
 73
               4
 40
47.560000000000002
 49
23.780000000000001
 49
-11.890000000000001
 49
0.0
 49
-11.890000000000001
  0
LTYPE
  2
DASHDOT2
 70
               0
  3
CADPAC FUSION LINETYPE
 72
              65
 73
               4
 40
35.670000000000002
 49
17.835000000000001
 49
-8.9175000000000004
 49
0.0
 49
-8.9175000000000004
  0
LTYPE
  2
DIVIDEX2
 70
               0
  3
CADPAC FUSION LINETYPE
 72
              65
 73
               6
 40
74.3125
 49
29.725000000000001
 49
-14.862500000000001
 49
0.0
 49
-14.862500000000001
 49
0.0
 49
-14.862500000000001
  0
LTYPE
  2
DIVIDE
 70
               0
  3
CADPAC FUSION LINETYPE
 72
              65
 73
               6
 40
59.450000000000003
 49
23.780000000000001
 49
-11.890000000000001
 49
0.0
 49
-11.890000000000001
 49
0.0
 49
-11.890000000000001
  0
LTYPE
  2
DIVIDE2
 70
               0
  3
CADPAC FUSION LINETYPE
 72
              65
 73
               6
 40
44.587500000000006
 49
17.835000000000001
 49
-8.9175000000000004
 49
0.0
 49
-8.9175000000000004
 49
0.0
 49
-8.9175000000000004
  0
LTYPE
  2
BORDERX2
 70
               0
  3
CADPAC FUSION LINETYPE
 72
              65
 73
               6
 40
104.03750000000001
 49
29.725000000000001
 49
-14.862500000000001
 49
29.725000000000001
 49
-14.862500000000001
 49
0.0
 49
-14.862500000000001
  0
LTYPE
  2
BORDER
 70
               0
  3
CADPAC FUSION LINETYPE
 72
              65
 73
               6
 40
83.230000000000004
 49
23.780000000000001
 49
-11.890000000000001
 49
23.780000000000001
 49
-11.890000000000001
 49
0.0
 49
-11.890000000000001
  0
LTYPE
  2
BORDER2
 70
               0
  3
CADPAC FUSION LINETYPE
 72
              65
 73
               6
 40
62.422499999999999
 49
17.835000000000001
 49
-8.9175000000000004
 49
17.835000000000001
 49
-8.9175000000000004
 49
0.0
 49
-8.9175000000000004
  0
LTYPE
  2
PHANTOMX2
 70
               0
  3
CADPAC FUSION LINETYPE
 72
              65
 73
               6
 40
89.175000000000011
 49
29.725000000000001
 49
-11.890000000000001
 49
11.890000000000001
 49
-11.890000000000001
 49
11.890000000000001
 49
-11.890000000000001
  0
LTYPE
  2
PHANTOM
 70
               0
  3
CADPAC FUSION LINETYPE
 72
              65
 73
               6
 40
73.718000000000004
 49
23.780000000000001
 49
-11.890000000000001
 49
7.1340000000000003
 49
-11.890000000000001
 49
7.1340000000000003
 49
-11.890000000000001
  0
LTYPE
  2
PHANTOM2
 70
               0
  3
CADPAC FUSION LINETYPE
 72
              65
 73
               6
 40
63.017000000000003
 49
17.835000000000001
 49
-11.890000000000001
 49
4.7560000000000002
 49
-11.890000000000001
 49
4.7560000000000002
 49
-11.890000000000001
  0
ENDTAB
  0
TABLE
  2
LAYER
 70
             256
  0
LAYER
  2
0
 70
               0
 62
               7
  6
CONTINUOUS
  0
LAYER
  2
LAYER001
 70
               0
 62
               7
  6
CONTINUOUS
  0
LAYER
  2
LAYER002
 70
               0
 62
               7
  6
CONTINUOUS
  0
LAYER
  2
LAYER003
 70
               0
 62
               7
  6
CONTINUOUS
  0
LAYER
  2
LAYER004
 70
               0
 62
               7
  6
CONTINUOUS
  0
LAYER
  2
LAYER005
 70
               0
 62
               7
  6
CONTINUOUS
  0
LAYER
  2
LAYER006
 70
               0
 62
               7
  6
CONTINUOUS
  0
LAYER
  2
LAYER007
 70
               0
 62
               7
  6
CONTINUOUS
  0
LAYER
  2
LAYER008
 70
               0
 62
               7
  6
CONTINUOUS
  0
LAYER
  2
LAYER009
 70
               0
 62
               7
  6
CONTINUOUS
  0
LAYER
  2
LAYER010
 70
               0
 62
               7
  6
CONTINUOUS
  0
LAYER
  2
LAYER011
 70
               0
 62
               7
  6
CONTINUOUS
  0
LAYER
  2
LAYER012
 70
               0
 62
               7
  6
CONTINUOUS
  0
LAYER
  2
LAYER013
 70
               0
 62
               7
  6
CONTINUOUS
  0
LAYER
  2
LAYER014
 70
               0
 62
               7
  6
CONTINUOUS
  0
LAYER
  2
LAYER015
 70
               0
 62
               7
  6
CONTINUOUS
  0
LAYER
  2
LAYER016
 70
               0
 62
               7
  6
CONTINUOUS
  0
LAYER
  2
LAYER017
 70
               0
 62
               7
  6
CONTINUOUS
  0
LAYER
  2
LAYER018
 70
               0
 62
               7
  6
CONTINUOUS
  0
LAYER
  2
LAYER019
 70
               0
 62
               7
  6
CONTINUOUS
  0
LAYER
  2
LAYER020
 70
               0
 62
               7
  6
CONTINUOUS
  0
LAYER
  2
LAYER021
 70
               0
 62
               7
  6
CONTINUOUS
  0
LAYER
  2
LAYER022
 70
               0
 62
               7
  6
CONTINUOUS
  0
LAYER
  2
LAYER023
 70
               0
 62
               7
  6
CONTINUOUS
  0
LAYER
  2
LAYER024
 70
               0
 62
               7
  6
CONTINUOUS
  0
LAYER
  2
LAYER025
 70
               0
 62
               7
  6
CONTINUOUS
  0
LAYER
  2
LAYER026
 70
               0
 62
               7
  6
CONTINUOUS
  0
LAYER
  2
LAYER027
 70
               0
 62
               7
  6
CONTINUOUS
  0
LAYER
  2
LAYER028
 70
               0
 62
               7
  6
CONTINUOUS
  0
LAYER
  2
LAYER029
 70
               0
 62
               7
  6
CONTINUOUS
  0
LAYER
  2
LAYER030
 70
               0
 62
               7
  6
CONTINUOUS
  0
LAYER
  2
LAYER031
 70
               0
 62
               7
  6
CONTINUOUS
  0
LAYER
  2
LAYER032
 70
               0
 62
               7
  6
CONTINUOUS
  0
LAYER
  2
LAYER033
 70
               0
 62
               7
  6
CONTINUOUS
  0
LAYER
  2
LAYER034
 70
               0
 62
               7
  6
CONTINUOUS
  0
LAYER
  2
LAYER035
 70
               0
 62
               7
  6
CONTINUOUS
  0
LAYER
  2
LAYER036
 70
               0
 62
               7
  6
CONTINUOUS
  0
LAYER
  2
LAYER037
 70
               0
 62
               7
  6
CONTINUOUS
  0
LAYER
  2
LAYER038
 70
               0
 62
               7
  6
CONTINUOUS
  0
LAYER
  2
LAYER039
 70
               0
 62
               7
  6
CONTINUOUS
  0
LAYER
  2
LAYER040
 70
               0
 62
               7
  6
CONTINUOUS
  0
LAYER
  2
LAYER041
 70
               0
 62
               7
  6
CONTINUOUS
  0
LAYER
  2
LAYER042
 70
               0
 62
               7
  6
CONTINUOUS
  0
LAYER
  2
LAYER043
 70
               0
 62
               7
  6
CONTINUOUS
  0
LAYER
  2
LAYER044
 70
               0
 62
               7
  6
CONTINUOUS
  0
LAYER
  2
LAYER045
 70
               0
 62
               7
  6
CONTINUOUS
  0
LAYER
  2
LAYER046
 70
               0
 62
               7
  6
CONTINUOUS
  0
LAYER
  2
LAYER047
 70
               0
 62
               7
  6
CONTINUOUS
  0
LAYER
  2
LAYER048
 70
               0
 62
               7
  6
CONTINUOUS
  0
LAYER
  2
LAYER049
 70
               0
 62
               7
  6
CONTINUOUS
  0
LAYER
  2
LAYER050
 70
               0
 62
               7
  6
CONTINUOUS
  0
LAYER
  2
LAYER051
 70
               0
 62
               7
  6
CONTINUOUS
  0
LAYER
  2
LAYER052
 70
               0
 62
               7
  6
CONTINUOUS
  0
LAYER
  2
LAYER053
 70
               0
 62
               7
  6
CONTINUOUS
  0
LAYER
  2
LAYER054
 70
               0
 62
               7
  6
CONTINUOUS
  0
LAYER
  2
LAYER055
 70
               0
 62
               7
  6
CONTINUOUS
  0
LAYER
  2
LAYER056
 70
               0
 62
               7
  6
CONTINUOUS
  0
LAYER
  2
LAYER057
 70
               0
 62
               7
  6
CONTINUOUS
  0
LAYER
  2
LAYER058
 70
               0
 62
               7
  6
CONTINUOUS
  0
LAYER
  2
LAYER059
 70
               0
 62
               7
  6
CONTINUOUS
  0
LAYER
  2
LAYER060
 70
               0
 62
               7
  6
CONTINUOUS
  0
LAYER
  2
LAYER061
 70
               0
 62
               7
  6
CONTINUOUS
  0
LAYER
  2
LAYER062
 70
               0
 62
               7
  6
CONTINUOUS
  0
LAYER
  2
LAYER063
 70
               0
 62
               7
  6
CONTINUOUS
  0
LAYER
  2
LAYER064
 70
               0
 62
               7
  6
CONTINUOUS
  0
LAYER
  2
LAYER065
 70
               0
 62
               7
  6
CONTINUOUS
  0
LAYER
  2
LAYER066
 70
               0
 62
               7
  6
CONTINUOUS
  0
LAYER
  2
LAYER067
 70
               0
 62
               7
  6
CONTINUOUS
  0
LAYER
  2
LAYER068
 70
               0
 62
               7
  6
CONTINUOUS
  0
LAYER
  2
LAYER069
 70
               0
 62
               7
  6
CONTINUOUS
  0
LAYER
  2
LAYER070
 70
               0
 62
               7
  6
CONTINUOUS
  0
LAYER
  2
LAYER071
 70
               0
 62
               7
  6
CONTINUOUS
  0
LAYER
  2
LAYER072
 70
               0
 62
               7
  6
CONTINUOUS
  0
LAYER
  2
LAYER073
 70
               0
 62
               7
  6
CONTINUOUS
  0
LAYER
  2
LAYER074
 70
               0
 62
               7
  6
CONTINUOUS
  0
LAYER
  2
LAYER075
 70
               0
 62
               7
  6
CONTINUOUS
  0
LAYER
  2
LAYER076
 70
               0
 62
               7
  6
CONTINUOUS
  0
LAYER
  2
LAYER077
 70
               0
 62
               7
  6
CONTINUOUS
  0
LAYER
  2
LAYER078
 70
               0
 62
               7
  6
CONTINUOUS
  0
LAYER
  2
LAYER079
 70
               0
 62
               7
  6
CONTINUOUS
  0
LAYER
  2
LAYER080
 70
               0
 62
               7
  6
CONTINUOUS
  0
LAYER
  2
LAYER081
 70
               0
 62
               7
  6
CONTINUOUS
  0
LAYER
  2
LAYER082
 70
               0
 62
               7
  6
CONTINUOUS
  0
LAYER
  2
LAYER083
 70
               0
 62
               7
  6
CONTINUOUS
  0
LAYER
  2
LAYER084
 70
               0
 62
               7
  6
CONTINUOUS
  0
LAYER
  2
LAYER085
 70
               0
 62
               7
  6
CONTINUOUS
  0
LAYER
  2
LAYER086
 70
               0
 62
               7
  6
CONTINUOUS
  0
LAYER
  2
LAYER087
 70
               0
 62
               7
  6
CONTINUOUS
  0
LAYER
  2
LAYER088
 70
               0
 62
               7
  6
CONTINUOUS
  0
LAYER
  2
LAYER089
 70
               0
 62
               7
  6
CONTINUOUS
  0
LAYER
  2
LAYER090
 70
               0
 62
               7
  6
CONTINUOUS
  0
LAYER
  2
LAYER091
 70
               0
 62
               7
  6
CONTINUOUS
  0
LAYER
  2
LAYER092
 70
               0
 62
               7
  6
CONTINUOUS
  0
LAYER
  2
LAYER093
 70
               0
 62
               7
  6
CONTINUOUS
  0
LAYER
  2
LAYER094
 70
               0
 62
               7
  6
CONTINUOUS
  0
LAYER
  2
LAYER095
 70
               0
 62
               7
  6
CONTINUOUS
  0
LAYER
  2
LAYER096
 70
               0
 62
               7
  6
CONTINUOUS
  0
LAYER
  2
LAYER097
 70
               0
 62
               7
  6
CONTINUOUS
  0
LAYER
  2
LAYER098
 70
               0
 62
               7
  6
CONTINUOUS
  0
LAYER
  2
LAYER099
 70
               0
 62
               7
  6
CONTINUOUS
  0
LAYER
  2
LAYER100
 70
               0
 62
               7
  6
CONTINUOUS
  0
LAYER
  2
LAYER101
 70
               0
 62
               7
  6
CONTINUOUS
  0
LAYER
  2
LAYER102
 70
               0
 62
               7
  6
CONTINUOUS
  0
LAYER
  2
LAYER103
 70
               0
 62
               7
  6
CONTINUOUS
  0
LAYER
  2
LAYER104
 70
               0
 62
               7
  6
CONTINUOUS
  0
LAYER
  2
LAYER105
 70
               0
 62
               7
  6
CONTINUOUS
  0
LAYER
  2
LAYER106
 70
               0
 62
               7
  6
CONTINUOUS
  0
LAYER
  2
LAYER107
 70
               0
 62
               7
  6
CONTINUOUS
  0
LAYER
  2
LAYER108
 70
               0
 62
               7
  6
CONTINUOUS
  0
LAYER
  2
LAYER109
 70
               0
 62
               7
  6
CONTINUOUS
  0
LAYER
  2
LAYER110
 70
               0
 62
               7
  6
CONTINUOUS
  0
LAYER
  2
LAYER111
 70
               0
 62
               7
  6
CONTINUOUS
  0
LAYER
  2
LAYER112
 70
               0
 62
               7
  6
CONTINUOUS
  0
LAYER
  2
LAYER113
 70
               0
 62
               7
  6
CONTINUOUS
  0
LAYER
  2
LAYER114
 70
               0
 62
               7
  6
CONTINUOUS
  0
LAYER
  2
LAYER115
 70
               0
 62
               7
  6
CONTINUOUS
  0
LAYER
  2
LAYER116
 70
               0
 62
               7
  6
CONTINUOUS
  0
LAYER
  2
LAYER117
 70
               0
 62
               7
  6
CONTINUOUS
  0
LAYER
  2
LAYER118
 70
               0
 62
               7
  6
CONTINUOUS
  0
LAYER
  2
LAYER119
 70
               0
 62
               7
  6
CONTINUOUS
  0
LAYER
  2
LAYER120
 70
               0
 62
               7
  6
CONTINUOUS
  0
LAYER
  2
LAYER121
 70
               0
 62
               7
  6
CONTINUOUS
  0
LAYER
  2
LAYER122
 70
               0
 62
               7
  6
CONTINUOUS
  0
LAYER
  2
LAYER123
 70
               0
 62
               7
  6
CONTINUOUS
  0
LAYER
  2
LAYER124
 70
               0
 62
               7
  6
CONTINUOUS
  0
LAYER
  2
LAYER125
 70
               0
 62
               7
  6
CONTINUOUS
  0
LAYER
  2
LAYER126
 70
               0
 62
               7
  6
CONTINUOUS
  0
LAYER
  2
LAYER127
 70
               0
 62
               7
  6
CONTINUOUS
  0
LAYER
  2
LAYER128
 70
               0
 62
               7
  6
CONTINUOUS
  0
LAYER
  2
LAYER129
 70
               0
 62
               7
  6
CONTINUOUS
  0
LAYER
  2
LAYER130
 70
               0
 62
               7
  6
CONTINUOUS
  0
LAYER
  2
LAYER131
 70
               0
 62
               7
  6
CONTINUOUS
  0
LAYER
  2
LAYER132
 70
               0
 62
               7
  6
CONTINUOUS
  0
LAYER
  2
LAYER133
 70
               0
 62
               7
  6
CONTINUOUS
  0
LAYER
  2
LAYER134
 70
               0
 62
               7
  6
CONTINUOUS
  0
LAYER
  2
LAYER135
 70
               0
 62
               7
  6
CONTINUOUS
  0
LAYER
  2
LAYER136
 70
               0
 62
               7
  6
CONTINUOUS
  0
LAYER
  2
LAYER137
 70
               0
 62
               7
  6
CONTINUOUS
  0
LAYER
  2
LAYER138
 70
               0
 62
               7
  6
CONTINUOUS
  0
LAYER
  2
LAYER139
 70
               0
 62
               7
  6
CONTINUOUS
  0
LAYER
  2
LAYER140
 70
               0
 62
               7
  6
CONTINUOUS
  0
LAYER
  2
LAYER141
 70
               0
 62
               7
  6
CONTINUOUS
  0
LAYER
  2
LAYER142
 70
               0
 62
               7
  6
CONTINUOUS
  0
LAYER
  2
LAYER143
 70
               0
 62
               7
  6
CONTINUOUS
  0
LAYER
  2
LAYER144
 70
               0
 62
               7
  6
CONTINUOUS
  0
LAYER
  2
LAYER145
 70
               0
 62
               7
  6
CONTINUOUS
  0
LAYER
  2
LAYER146
 70
               0
 62
               7
  6
CONTINUOUS
  0
LAYER
  2
LAYER147
 70
               0
 62
               7
  6
CONTINUOUS
  0
LAYER
  2
LAYER148
 70
               0
 62
               7
  6
CONTINUOUS
  0
LAYER
  2
LAYER149
 70
               0
 62
               7
  6
CONTINUOUS
  0
LAYER
  2
LAYER150
 70
               0
 62
               7
  6
CONTINUOUS
  0
LAYER
  2
LAYER151
 70
               0
 62
               7
  6
CONTINUOUS
  0
LAYER
  2
LAYER152
 70
               0
 62
               7
  6
CONTINUOUS
  0
LAYER
  2
LAYER153
 70
               0
 62
               7
  6
CONTINUOUS
  0
LAYER
  2
LAYER154
 70
               0
 62
               7
  6
CONTINUOUS
  0
LAYER
  2
LAYER155
 70
               0
 62
               7
  6
CONTINUOUS
  0
LAYER
  2
LAYER156
 70
               0
 62
               7
  6
CONTINUOUS
  0
LAYER
  2
LAYER157
 70
               0
 62
               7
  6
CONTINUOUS
  0
LAYER
  2
LAYER158
 70
               0
 62
               7
  6
CONTINUOUS
  0
LAYER
  2
LAYER159
 70
               0
 62
               7
  6
CONTINUOUS
  0
LAYER
  2
LAYER160
 70
               0
 62
               7
  6
CONTINUOUS
  0
LAYER
  2
LAYER161
 70
               0
 62
               7
  6
CONTINUOUS
  0
LAYER
  2
LAYER162
 70
               0
 62
               7
  6
CONTINUOUS
  0
LAYER
  2
LAYER163
 70
               0
 62
               7
  6
CONTINUOUS
  0
LAYER
  2
LAYER164
 70
               0
 62
               7
  6
CONTINUOUS
  0
LAYER
  2
LAYER165
 70
               0
 62
               7
  6
CONTINUOUS
  0
LAYER
  2
LAYER166
 70
               0
 62
               7
  6
CONTINUOUS
  0
LAYER
  2
LAYER167
 70
               0
 62
               7
  6
CONTINUOUS
  0
LAYER
  2
LAYER168
 70
               0
 62
               7
  6
CONTINUOUS
  0
LAYER
  2
LAYER169
 70
               0
 62
               7
  6
CONTINUOUS
  0
LAYER
  2
LAYER170
 70
               0
 62
               7
  6
CONTINUOUS
  0
LAYER
  2
LAYER171
 70
               0
 62
               7
  6
CONTINUOUS
  0
LAYER
  2
LAYER172
 70
               0
 62
               7
  6
CONTINUOUS
  0
LAYER
  2
LAYER173
 70
               0
 62
               7
  6
CONTINUOUS
  0
LAYER
  2
LAYER174
 70
               0
 62
               7
  6
CONTINUOUS
  0
LAYER
  2
LAYER175
 70
               0
 62
               7
  6
CONTINUOUS
  0
LAYER
  2
LAYER176
 70
               0
 62
               7
  6
CONTINUOUS
  0
LAYER
  2
LAYER177
 70
               0
 62
               7
  6
CONTINUOUS
  0
LAYER
  2
LAYER178
 70
               0
 62
               7
  6
CONTINUOUS
  0
LAYER
  2
LAYER179
 70
               0
 62
               7
  6
CONTINUOUS
  0
LAYER
  2
LAYER180
 70
               0
 62
               7
  6
CONTINUOUS
  0
LAYER
  2
LAYER181
 70
               0
 62
               7
  6
CONTINUOUS
  0
LAYER
  2
LAYER182
 70
               0
 62
               7
  6
CONTINUOUS
  0
LAYER
  2
LAYER183
 70
               0
 62
               7
  6
CONTINUOUS
  0
LAYER
  2
LAYER184
 70
               0
 62
               7
  6
CONTINUOUS
  0
LAYER
  2
LAYER185
 70
               0
 62
               7
  6
CONTINUOUS
  0
LAYER
  2
LAYER186
 70
               0
 62
               7
  6
CONTINUOUS
  0
LAYER
  2
LAYER187
 70
               0
 62
               7
  6
CONTINUOUS
  0
LAYER
  2
LAYER188
 70
               0
 62
               7
  6
CONTINUOUS
  0
LAYER
  2
LAYER189
 70
               0
 62
               7
  6
CONTINUOUS
  0
LAYER
  2
LAYER190
 70
               0
 62
               7
  6
CONTINUOUS
  0
LAYER
  2
LAYER191
 70
               0
 62
               7
  6
CONTINUOUS
  0
LAYER
  2
LAYER192
 70
               0
 62
               7
  6
CONTINUOUS
  0
LAYER
  2
LAYER193
 70
               0
 62
               7
  6
CONTINUOUS
  0
LAYER
  2
LAYER194
 70
               0
 62
               7
  6
CONTINUOUS
  0
LAYER
  2
LAYER195
 70
               0
 62
               7
  6
CONTINUOUS
  0
LAYER
  2
LAYER196
 70
               0
 62
               7
  6
CONTINUOUS
  0
LAYER
  2
LAYER197
 70
               0
 62
               7
  6
CONTINUOUS
  0
LAYER
  2
LAYER198
 70
               0
 62
               7
  6
CONTINUOUS
  0
LAYER
  2
LAYER199
 70
               0
 62
               7
  6
CONTINUOUS
  0
LAYER
  2
LAYER200
 70
               0
 62
               7
  6
CONTINUOUS
  0
LAYER
  2
LAYER201
 70
               0
 62
               7
  6
CONTINUOUS
  0
LAYER
  2
LAYER202
 70
               0
 62
               7
  6
CONTINUOUS
  0
LAYER
  2
LAYER203
 70
               0
 62
               7
  6
CONTINUOUS
  0
LAYER
  2
LAYER204
 70
               0
 62
               7
  6
CONTINUOUS
  0
LAYER
  2
LAYER205
 70
               0
 62
               7
  6
CONTINUOUS
  0
LAYER
  2
LAYER206
 70
               0
 62
               7
  6
CONTINUOUS
  0
LAYER
  2
LAYER207
 70
               0
 62
               7
  6
CONTINUOUS
  0
LAYER
  2
LAYER208
 70
               0
 62
               7
  6
CONTINUOUS
  0
LAYER
  2
LAYER209
 70
               0
 62
               7
  6
CONTINUOUS
  0
LAYER
  2
LAYER210
 70
               0
 62
               7
  6
CONTINUOUS
  0
LAYER
  2
LAYER211
 70
               0
 62
               7
  6
CONTINUOUS
  0
LAYER
  2
LAYER212
 70
               0
 62
               7
  6
CONTINUOUS
  0
LAYER
  2
LAYER213
 70
               0
 62
               7
  6
CONTINUOUS
  0
LAYER
  2
LAYER214
 70
               0
 62
               7
  6
CONTINUOUS
  0
LAYER
  2
LAYER215
 70
               0
 62
               7
  6
CONTINUOUS
  0
LAYER
  2
LAYER216
 70
               0
 62
               7
  6
CONTINUOUS
  0
LAYER
  2
LAYER217
 70
               0
 62
               7
  6
CONTINUOUS
  0
LAYER
  2
LAYER218
 70
               0
 62
               7
  6
CONTINUOUS
  0
LAYER
  2
LAYER219
 70
               0
 62
               7
  6
CONTINUOUS
  0
LAYER
  2
LAYER220
 70
               0
 62
               7
  6
CONTINUOUS
  0
LAYER
  2
LAYER221
 70
               0
 62
               7
  6
CONTINUOUS
  0
LAYER
  2
LAYER222
 70
               0
 62
               7
  6
CONTINUOUS
  0
LAYER
  2
LAYER223
 70
               0
 62
               7
  6
CONTINUOUS
  0
LAYER
  2
LAYER224
 70
               0
 62
               7
  6
CONTINUOUS
  0
LAYER
  2
LAYER225
 70
               0
 62
               7
  6
CONTINUOUS
  0
LAYER
  2
LAYER226
 70
               0
 62
               7
  6
CONTINUOUS
  0
LAYER
  2
LAYER227
 70
               0
 62
               7
  6
CONTINUOUS
  0
LAYER
  2
LAYER228
 70
               0
 62
               7
  6
CONTINUOUS
  0
LAYER
  2
LAYER229
 70
               0
 62
               7
  6
CONTINUOUS
  0
LAYER
  2
LAYER230
 70
               0
 62
               7
  6
CONTINUOUS
  0
LAYER
  2
LAYER231
 70
               0
 62
               7
  6
CONTINUOUS
  0
LAYER
  2
LAYER232
 70
               0
 62
               7
  6
CONTINUOUS
  0
LAYER
  2
LAYER233
 70
               0
 62
               7
  6
CONTINUOUS
  0
LAYER
  2
LAYER234
 70
               0
 62
               7
  6
CONTINUOUS
  0
LAYER
  2
LAYER235
 70
               0
 62
               7
  6
CONTINUOUS
  0
LAYER
  2
LAYER236
 70
               0
 62
               7
  6
CONTINUOUS
  0
LAYER
  2
LAYER237
 70
               0
 62
               7
  6
CONTINUOUS
  0
LAYER
  2
LAYER238
 70
               0
 62
               7
  6
CONTINUOUS
  0
LAYER
  2
LAYER239
 70
               0
 62
               7
  6
CONTINUOUS
  0
LAYER
  2
LAYER240
 70
               0
 62
               7
  6
CONTINUOUS
  0
LAYER
  2
LAYER241
 70
               0
 62
               7
  6
CONTINUOUS
  0
LAYER
  2
LAYER242
 70
               0
 62
               7
  6
CONTINUOUS
  0
LAYER
  2
LAYER243
 70
               0
 62
               7
  6
CONTINUOUS
  0
LAYER
  2
LAYER244
 70
               0
 62
               7
  6
CONTINUOUS
  0
LAYER
  2
LAYER245
 70
               0
 62
               7
  6
CONTINUOUS
  0
LAYER
  2
LAYER246
 70
               0
 62
               7
  6
CONTINUOUS
  0
LAYER
  2
LAYER247
 70
               0
 62
               7
  6
CONTINUOUS
  0
LAYER
  2
LAYER248
 70
               0
 62
               7
  6
CONTINUOUS
  0
LAYER
  2
LAYER249
 70
               0
 62
               7
  6
CONTINUOUS
  0
LAYER
  2
LAYER250
 70
               0
 62
               7
  6
CONTINUOUS
  0
LAYER
  2
LAYER251
 70
               0
 62
               7
  6
CONTINUOUS
  0
LAYER
  2
LAYER252
 70
               0
 62
               7
  6
CONTINUOUS
  0
LAYER
  2
LAYER253
 70
               0
 62
               7
  6
CONTINUOUS
  0
LAYER
  2
LAYER254
 70
               0
 62
               7
  6
CONTINUOUS
  0
LAYER
  2
LAYER255
 70
               0
 62
               7
  6
CONTINUOUS
  0
ENDTAB
  0
TABLE
  2
STYLE
 70
               1
  0
STYLE
  2
STANDARD
 70
               0
 40
0.0
 41
0.8
 50
0.0
 71
               0
 42
40.0
  3
MS PGothic.ttf
  4

  0
ENDTAB
  0
TABLE
  2
VIEW
 70
               0
  0
VIEW
  2
QQQQ
 70
               0
 40
2140.6150122385998
 10
-162.02900529579702
 20
-0.0000000000001137
 41
1317.4766081540201
 11
0.0
 21
0.0
 31
1.0
 12
100.0
 22
100.0
 32
0.0
 42
50.0
 43
0.0
 44
0.0
 50
0.0
 71
               0
  0
ENDTAB
  0
TABLE
  2
UCS
 70
               0
  0
ENDTAB
  0
TABLE
  2
APPID
 70
               1
  0
APPID
  2
ACAD
 70
               0
  0
ENDTAB
  0
TABLE
  2
DIMSTYLE
 70
               1
  0
DIMSTYLE
  2
STANDARD
 70
               0
  3

  4

  5

  6

  7

 40
1.0
 41
0.18
 42
0.0625
 43
0.38
 44
0.18
 45
0.0
 46
0.0
 47
0.0
 48
0.0
140
0.18
141
0.09
142
0.0
143
25.399999999999999
144
1.0
145
0.0
146
1.0
147
0.09
 71
               0
 72
               0
 73
               1
 74
               1
 75
               0
 76
               0
 77
               0
 78
               0
170
               0
171
               2
172
               0
173
               0
174
               0
175
               0
176
               0
177
               0
178
               0
  0
ENDTAB
  0
ENDSEC
  0
SECTION
  2
BLOCKS
  0
ENDSEC
  0
SECTION
  2
ENTITIES
  0
LINE
  8
0
  6
CONTINUOUS
 62
               3
  5
136
 10
-229.17226690395117
 20
114.67005919233719
 30
0.0
 11
-248.6722669039512
 21
285.81936265130241
 31
0.0
  0
LINE
  8
0
  6
CONTINUOUS
 62
               3
  5
137
 10
-248.67226690395117
 20
333.03067184793019
 30
0.0
 11
-248.6722669039512
 21
285.81936265130241
 31
0.0
  0
ARC
  8
0
  6
CONTINUOUS
 62
               3
  5
138
 10
-238.6722669039512
 20
351.16633905418519
 30
0.0
 40
2.4999999999999996
 50
89.999999999948017
 51
269.99999999984453
  0
ARC
  8
0
  6
CONTINUOUS
 62
               3
  5
139
 10
-118.6722669039512
 20
351.16633905418519
 30
0.0
 40
2.4999999999999996
 50
269.99999999984499
 51
449.99999999974102
  0
LINE
  8
0
  6
CONTINUOUS
 62
               3
  5
13A
 10
-248.67226690395117
 20
285.81936265130241
 30
0.0
 11
-119.17550177030142
 21
285.81936265130241
 31
0.0
  0
LINE
  8
0
  6
CONTINUOUS
 62
               3
  5
13B
 10
-248.6722669039512
 20
467.34595668577117
 30
0.0
 11
-248.6722669039512
 21
463.15387976477916
 31
0.0
  0
LINE
  8
0
  6
CONTINUOUS
 62
               3
  5
13C
 10
-203.6722669039514
 20
788.26921423347335
 30
0.0
 11
-203.67226690395137
 21
802.71977618742756
 31
0.0
  0
LINE
  8
0
  6
CONTINUOUS
 62
               3
  5
13D
 10
-163.6722669039514
 20
802.38391985023691
 30
0.0
 11
-163.6722669039514
 21
788.26921423347335
 31
0.0
  0
LINE
  8
0
  6
CONTINUOUS
 62
               3
  5
13E
 10
-229.17226690395117
 20
114.67005919233719
 30
0.0
 11
-138.17226690395125
 21
114.67005919233719
 31
0.0
  0
ARC
  8
0
  6
CONTINUOUS
 62
               3
  5
13F
 10
-183.67226690395137
 20
861.97971243409836
 30
0.0
 40
76.375634498080188
 50
254.81932855941147
 51
285.18067144027776
  0
LINE
  8
0
  6
CONTINUOUS
 62
               3
  5
140
 10
-111.8374032014066
 20
840.10407793601826
 30
0.0
 11
-125.58589870994851
 21
840.10407793601826
 31
0.0
  0
LINE
  8
0
  6
CONTINUOUS
 62
               3
  5
141
 10
-125.53480396522846
 20
880.10407793601826
 30
0.0
 11
-111.8374032014066
 21
880.10407793601826
 31
0.0
  0
ARC
  8
0
  6
CONTINUOUS
 62
               3
  5
142
 10
-185.54790140203156
 20
860.10407793601826
 30
0.0
 40
76.375634498080188
 50
344.81932855935963
 51
375.18067144022598
  0
LINE
  8
0
  6
CONTINUOUS
 62
               3
  5
143
 10
-163.67226690395125
 20
931.93894163856305
 30
0.0
 11
-163.67226690395125
 21
917.97146058646683
 31
0.0
  0
LINE
  8
0
  6
CONTINUOUS
 62
               3
  5
144
 10
-203.67226690395128
 20
917.63560424927607
 30
0.0
 11
-203.67226690395128
 21
931.93894163856305
 31
0.0
  0
ARC
  8
0
  6
CONTINUOUS
 62
               3
  5
145
 10
-183.67226690395131
 20
858.22844343793815
 30
0.0
 40
76.375634498080188
 50
74.819328559515071
 51
105.18067144038135
  0
LINE
  8
0
  6
CONTINUOUS
 62
               3
  5
146
 10
-255.50713060649613
 20
880.10407793601826
 30
0.0
 11
-240.84202962824122
 21
880.10407793601826
 31
0.0
  0
LINE
  8
0
  6
CONTINUOUS
 62
               3
  5
147
 10
-240.79093488352115
 20
840.10407793601826
 30
0.0
 11
-255.50713060649613
 21
840.10407793601826
 31
0.0
  0
ARC
  8
0
  6
CONTINUOUS
 62
               3
  5
148
 10
-181.79663240587118
 20
860.10407793601826
 30
0.0
 40
76.375634498080188
 50
164.81932855946326
 51
195.18067144032949
  0
ARC
  8
0
  6
CONTINUOUS
 62
               3
  5
149
 10
-183.67226690395131
 20
860.10407793601826
 30
0.0
 40
67.499999999999957
 50
324.03580098327888
 51
342.76471474271494
  0
ARC
  8
0
  6
CONTINUOUS
 62
               3
  5
14A
 10
-183.67226690395137
 20
860.10407793601826
 30
0.0
 40
65.0
 50
287.92021313922652
 51
342.07978686041082
  0
ARC
  8
0
  6
CONTINUOUS
 62
               3
  5
14B
 10
-183.67226690395137
 20
860.10407793601826
 30
0.0
 40
65.0
 50
197.92021313927833
 51
252.07978686046269
  0
ARC
  8
0
  6
CONTINUOUS
 62
               3
  5
14C
 10
-183.67226690395131
 20
860.10407793601826
 30
0.0
 40
67.499999999999957
 50
17.235285257081287
 51
72.764714742870211
  0
ARC
  8
0
  6
CONTINUOUS
 62
               3
  5
14D
 10
-183.67226690395131
 20
860.10407793601826
 30
0.0
 40
67.499999999999957
 50
107.23528525702613
 51
126.84814564128359
  0
ARC
  8
0
  6
CONTINUOUS
 62
               3
  5
14E
 10
-183.67226690395137
 20
860.10407793601826
 30
0.0
 40
65.0
 50
17.920213139382032
 51
72.079786860566088
  0
ARC
  8
0
  6
CONTINUOUS
 62
               3
  5
14F
 10
-183.67226690395137
 20
860.10407793601826
 30
0.0
 40
65.0
 50
107.92021313933012
 51
162.07978686051447
  0
LINE
  8
0
  6
CONTINUOUS
 62
               3
  5
150
 10
-729.17226690395114
 20
114.67005919233719
 30
0.0
 11
-748.67226690395114
 21
285.81936265130241
 31
0.0
  0
LINE
  8
0
  6
CONTINUOUS
 62
               3
  5
151
 10
-748.67226690395114
 20
348.66633905418519
 30
0.0
 11
-748.67226690395114
 21
285.81936265130241
 31
0.0
  0
LINE
  8
0
  6
CONTINUOUS
 62
               3
  5
152
 10
-748.67226690395114
 20
285.81936265130241
 30
0.0
 11
-619.17550177030148
 21
285.81936265130241
 31
0.0
  0
LINE
  8
0
  6
CONTINUOUS
 62
               3
  5
153
 10
-748.67226690395114
 20
467.34595668577117
 30
0.0
 11
-748.67226690395114
 21
353.66633905418519
 31
0.0
  0
LINE
  8
0
  6
CONTINUOUS
 62
               3
  5
154
 10
-729.17226690395114
 20
114.67005919233719
 30
0.0
 11
-638.17226690395137
 21
114.67005919233719
 31
0.0
  0
ARC
  8
0
  6
CONTINUOUS
 62
               3
  5
155
 10
-748.67226690395114
 20
351.16633905418519
 30
0.0
 40
2.4999999999999996
 50
89.999999999945075
 51
269.99999999984306
  0
LINE
  8
0
  6
CONTINUOUS
 62
               3
  5
156
 10
-618.67226690395114
 20
333.03067184793019
 30
0.0
 11
-618.67226690395137
 21
285.81936265130241
 31
0.0
  0
LINE
  8
0
  6
CONTINUOUS
 62
               3
  5
157
 10
-638.17226690395137
 20
114.67005919233719
 30
0.0
 11
-618.67226690395137
 21
285.81936265130241
 31
0.0
  0
ARC
  8
0
  6
CONTINUOUS
 62
               3
  5
158
 10
-706.17226690395069
 20
351.16633905418519
 30
0.0
 40
2.4999999999999996
 50
269.99999999984306
 51
449.99999999974102
  0
ARC
  8
0
  6
CONTINUOUS
 62
               3
  5
159
 10
-661.17226690395069
 20
351.16633905418519
 30
0.0
 40
2.4999999999999996
 50
89.999999999948997
 51
269.99999999984306
  0
LINE
  8
0
  6
CONTINUOUS
 62
               3
  5
15A
 10
-748.67226690395114
 20
348.66633905418519
 30
0.0
 11
-706.17226690395069
 21
348.66633905418519
 31
0.0
  0
LINE
  8
0
  6
CONTINUOUS
 62
               3
  5
15B
 10
-661.17226690395069
 20
348.66633905418519
 30
0.0
 11
-628.67226690395114
 21
348.66633905418519
 31
0.0
  0
LINE
  8
0
  6
CONTINUOUS
 62
               3
  5
15C
 10
-748.67226690395114
 20
353.66633905418519
 30
0.0
 11
-706.17226690395069
 21
353.66633905418519
 31
0.0
  0
LINE
  8
0
  6
CONTINUOUS
 62
               3
  5
15D
 10
-661.17226690395069
 20
353.66633905418519
 30
0.0
 11
-628.67226690395114
 21
353.66633905418519
 31
0.0
  0
LINE
  8
0
  6
CONTINUOUS
 62
               3
  5
15E
 10
361.82773309604869
 20
114.67005919233702
 30
0.0
 11
381.32773309604869
 21
285.8193626513023
 31
0.0
  0
LINE
  8
0
  6
CONTINUOUS
 62
               3
  5
15F
 10
381.3277330960488
 20
348.66633905418502
 30
0.0
 11
381.32773309604869
 21
285.8193626513023
 31
0.0
  0
LINE
  8
0
  6
CONTINUOUS
 62
               3
  5
160
 10
381.32773309604869
 20
467.34595668577106
 30
0.0
 11
381.3277330960488
 21
353.66633905418502
 31
0.0
  0
LINE
  8
0
  6
CONTINUOUS
 62
               3
  5
161
 10
361.82773309604869
 20
114.67005919233702
 30
0.0
 11
270.8277330960488
 21
114.67005919233702
 31
0.0
  0
ARC
  8
0
  6
CONTINUOUS
 62
               3
  5
162
 10
381.32773309604892
 20
351.16633905418502
 30
0.0
 40
2.4999999999999996
 50
269.99999999984306
 51
449.99999999974102
  0
LINE
  8
0
  6
CONTINUOUS
 62
               3
  5
163
 10
251.3277330960488
 20
333.03067184793008
 30
0.0
 11
251.32773309604886
 21
285.8193626513023
 31
0.0
  0
LINE
  8
0
  6
CONTINUOUS
 62
               3
  5
164
 10
270.82773309604892
 20
114.67005919233702
 30
0.0
 11
251.32773309604886
 21
285.8193626513023
 31
0.0
  0
LINE
  8
0
  6
CONTINUOUS
 62
               3
  5
165
 10
381.3277330960488
 20
348.66633905418502
 30
0.0
 11
324.54473309604833
 21
348.66633905418502
 31
0.0
  0
LINE
  8
0
  6
CONTINUOUS
 62
               3
  5
166
 10
308.11073309604848
 20
348.66633905418502
 30
0.0
 11
261.3277330960488
 21
348.66633905418502
 31
0.0
  0
LINE
  8
0
  6
CONTINUOUS
 62
               3
  5
167
 10
381.3277330960488
 20
353.66633905418502
 30
0.0
 11
324.5447330960489
 21
353.66633905418502
 31
0.0
  0
LINE
  8
0
  6
CONTINUOUS
 62
               3
  5
168
 10
308.11073309604848
 20
353.66633905418502
 30
0.0
 11
261.3277330960488
 21
353.66633905418502
 31
0.0
  0
LINE
  8
0
  6
CONTINUOUS
 62
               3
  5
169
 10
381.32773309604869
 20
285.8193626513023
 30
0.0
 11
324.54473309604833
 21
285.8193626513023
 31
0.0
  0
LINE
  8
0
  6
CONTINUOUS
 62
               3
  5
16A
 10
308.11073309604848
 20
285.8193626513023
 30
0.0
 11
251.83096796239897
 21
285.8193626513023
 31
0.0
  0
LINE
  8
0
  6
CONTINUOUS
 62
               3
  5
16B
 10
-258.17226690395091
 20
553.75364097791453
 30
0.0
 11
-258.17226690395091
 21
548.75364097791453
 31
0.0
  0
LINE
  8
0
  6
CONTINUOUS
 62
               3
  5
16C
 10
-258.17226690395091
 20
553.75364097791453
 30
0.0
 11
-244.672266903951
 21
563.66633905418519
 31
0.0
  0
LINE
  8
0
  6
CONTINUOUS
 62
               3
  5
16D
 10
-258.17226690395091
 20
548.75364097791453
 30
0.0
 11
-247.49776942043846
 21
548.38087931185248
 31
0.0
  0
ARC
  8
0
  6
CONTINUOUS
 62
               3
  5
16E
 10
-247.672266903951
 20
543.38392517675709
 30
0.0
 40
5.0
 50
0.0
 51
87.999999999948983
  0
LINE
  8
0
  6
CONTINUOUS
 62
               3
  5
16F
 10
-109.17226690395114
 20
553.75364097791453
 30
0.0
 11
-109.17226690395114
 21
548.75364097791453
 31
0.0
  0
LINE
  8
0
  6
CONTINUOUS
 62
               3
  5
170
 10
-109.17226690395114
 20
553.75364097791453
 30
0.0
 11
-122.67226690395108
 21
563.66633905418519
 31
0.0
  0
LINE
  8
0
  6
CONTINUOUS
 62
               3
  5
171
 10
-109.17226690395114
 20
548.75364097791453
 30
0.0
 11
-119.84676438746365
 21
548.38087931185248
 31
0.0
  0
ARC
  8
0
  6
CONTINUOUS
 62
               3
  5
172
 10
-119.67226690395111
 20
543.38392517675709
 30
0.0
 40
5.0
 50
91.999999999947477
 51
179.99999999989669
  0
LINE
  8
0
  6
CONTINUOUS
 62
               3
  5
173
 10
-244.672266903951
 20
563.66633905418519
 30
0.0
 11
-122.67226690395108
 21
563.66633905418519
 31
0.0
  0
LINE
  8
0
  6
CONTINUOUS
 62
               3
  5
174
 10
-244.18424299193282
 20
546.96633905418503
 30
0.0
 11
-123.16029081596926
 21
546.96633905418503
 31
0.0
  0
LINE
  8
0
  6
CONTINUOUS
 62
               3
  5
175
 10
-203.67226690395103
 20
546.96633905418503
 30
0.0
 11
-203.67226690395103
 21
563.66633905418519
 31
0.0
  0
LINE
  8
0
  6
CONTINUOUS
 62
               3
  5
176
 10
-163.67226690395103
 20
563.66633905418519
 30
0.0
 11
-163.67226690395103
 21
546.96633905418503
 31
0.0
  0
LINE
  8
0
  6
CONTINUOUS
 62
               3
  5
177
 10
-203.67226690395103
 20
553.75364097791453
 30
0.0
 11
-163.67226690395103
 21
553.75364097791453
 31
0.0
  0
LINE
  8
0
  6
CONTINUOUS
 62
               3
  5
178
 10
-163.67226690395103
 20
548.75364097791453
 30
0.0
 11
-203.67226690395103
 21
548.75364097791453
 31
0.0
  0
LINE
  8
0
  6
CONTINUOUS
 62
               3
  5
179
 10
-244.672266903951
 20
563.66633905418519
 30
0.0
 11
-244.672266903951
 21
547.38392517675697
 31
0.0
  0
LINE
  8
0
  6
CONTINUOUS
 62
               3
  5
17A
 10
-122.67226690395108
 20
563.66633905418519
 30
0.0
 11
-122.67226690395108
 21
547.38392517675697
 31
0.0
  0
LINE
  8
0
  6
CONTINUOUS
 62
               3
  5
17B
 10
-242.672266903951
 20
543.38392517675709
 30
0.0
 11
-242.672266903951
 21
481.8373334319607
 31
0.0
  0
ARC
  8
0
  6
CONTINUOUS
 62
               3
  5
17C
 10
-247.672266903951
 20
481.8373334319607
 30
0.0
 40
5.0
 50
315.01704217200654
 51
359.99999999979292
  0
ARC
  8
0
  6
CONTINUOUS
 62
               3
  5
17D
 10
-233.17226690395105
 20
467.34595668577117
 30
0.0
 40
15.5
 50
135.01704217210909
 51
179.9999999998964
  0
LINE
  8
0
  6
CONTINUOUS
 62
               3
  5
17E
 10
-124.67226690395103
 20
543.38392517675709
 30
0.0
 11
-124.67226690395103
 21
484.22142464948138
 31
0.0
  0
LINE
  8
0
  6
CONTINUOUS
 62
               3
  5
17F
 10
-758.17226690395091
 20
553.75364097791453
 30
0.0
 11
-758.17226690395091
 21
548.75364097791453
 31
0.0
  0
LINE
  8
0
  6
CONTINUOUS
 62
               3
  5
180
 10
-758.17226690395091
 20
553.75364097791453
 30
0.0
 11
-744.67226690395091
 21
563.66633905418519
 31
0.0
  0
LINE
  8
0
  6
CONTINUOUS
 62
               3
  5
181
 10
-758.17226690395091
 20
548.75364097791453
 30
0.0
 11
-747.49776942043854
 21
548.38087931185248
 31
0.0
  0
ARC
  8
0
  6
CONTINUOUS
 62
               3
  5
182
 10
-747.67226690395114
 20
543.38392517675709
 30
0.0
 40
5.0
 50
0.0
 51
87.999999999949225
  0
LINE
  8
0
  6
CONTINUOUS
 62
               3
  5
183
 10
-609.17226690395114
 20
553.75364097791453
 30
0.0
 11
-609.17226690395114
 21
548.75364097791453
 31
0.0
  0
LINE
  8
0
  6
CONTINUOUS
 62
               3
  5
184
 10
-609.17226690395114
 20
553.75364097791453
 30
0.0
 11
-622.67226690395114
 21
563.66633905418519
 31
0.0
  0
LINE
  8
0
  6
CONTINUOUS
 62
               3
  5
185
 10
-609.17226690395114
 20
548.75364097791453
 30
0.0
 11
-619.84676438746374
 21
548.38087931185248
 31
0.0
  0
ARC
  8
0
  6
CONTINUOUS
 62
               3
  5
186
 10
-619.67226690395114
 20
543.38392517675709
 30
0.0
 40
5.0
 50
91.999999999947391
 51
179.99999999989669
  0
LINE
  8
0
  6
CONTINUOUS
 62
               3
  5
187
 10
-744.67226690395091
 20
563.66633905418519
 30
0.0
 11
-622.67226690395114
 21
563.66633905418519
 31
0.0
  0
LINE
  8
0
  6
CONTINUOUS
 62
               3
  5
188
 10
-744.18424299193271
 20
546.96633905418503
 30
0.0
 11
-623.16029081596935
 21
546.96633905418503
 31
0.0
  0
LINE
  8
0
  6
CONTINUOUS
 62
               3
  5
189
 10
-703.67226690395114
 20
546.96633905418503
 30
0.0
 11
-703.67226690395114
 21
563.66633905418519
 31
0.0
  0
LINE
  8
0
  6
CONTINUOUS
 62
               3
  5
18A
 10
-663.67226690395114
 20
563.66633905418519
 30
0.0
 11
-663.67226690395114
 21
546.96633905418503
 31
0.0
  0
LINE
  8
0
  6
CONTINUOUS
 62
               3
  5
18B
 10
-703.67226690395114
 20
553.75364097791453
 30
0.0
 11
-663.67226690395114
 21
553.75364097791453
 31
0.0
  0
LINE
  8
0
  6
CONTINUOUS
 62
               3
  5
18C
 10
-663.67226690395114
 20
548.75364097791453
 30
0.0
 11
-703.67226690395114
 21
548.75364097791453
 31
0.0
  0
LINE
  8
0
  6
CONTINUOUS
 62
               3
  5
18D
 10
-744.67226690395091
 20
563.66633905418519
 30
0.0
 11
-744.67226690395091
 21
547.38392517675697
 31
0.0
  0
LINE
  8
0
  6
CONTINUOUS
 62
               3
  5
18E
 10
-622.67226690395114
 20
563.66633905418519
 30
0.0
 11
-622.67226690395114
 21
547.38392517675697
 31
0.0
  0
LINE
  8
0
  6
CONTINUOUS
 62
               3
  5
18F
 10
-742.67226690395114
 20
543.38392517675709
 30
0.0
 11
-742.67226690395114
 21
481.8373334319607
 31
0.0
  0
ARC
  8
0
  6
CONTINUOUS
 62
               3
  5
190
 10
-747.67226690395114
 20
481.8373334319607
 30
0.0
 40
5.0
 50
315.01704217200648
 51
359.99999999979292
  0
ARC
  8
0
  6
CONTINUOUS
 62
               3
  5
191
 10
-733.17226690395114
 20
467.34595668577117
 30
0.0
 40
15.5
 50
135.01704217210906
 51
179.9999999998964
  0
LINE
  8
0
  6
CONTINUOUS
 62
               3
  5
192
 10
-624.67226690395114
 20
543.38392517675709
 30
0.0
 11
-624.67226690395114
 21
481.8373334319607
 31
0.0
  0
ARC
  8
0
  6
CONTINUOUS
 62
               3
  5
193
 10
-619.67226690395137
 20
481.8373334319607
 30
0.0
 40
5.0
 50
179.99999999989626
 51
224.98295782768247
  0
ARC
  8
0
  6
CONTINUOUS
 62
               3
  5
194
 10
-634.17226690395137
 20
467.34595668577117
 30
0.0
 40
15.5
 50
0.0
 51
44.982957827787267
  0
LINE
  8
0
  6
CONTINUOUS
 62
               3
  5
195
 10
241.82773309604903
 20
553.75364097791442
 30
0.0
 11
241.82773309604903
 21
548.75364097791442
 31
0.0
  0
LINE
  8
0
  6
CONTINUOUS
 62
               3
  5
196
 10
241.82773309604903
 20
553.75364097791442
 30
0.0
 11
255.32773309604903
 21
563.66633905418507
 31
0.0
  0
LINE
  8
0
  6
CONTINUOUS
 62
               3
  5
197
 10
241.82773309604903
 20
548.75364097791442
 30
0.0
 11
252.50223057956151
 21
548.38087931185237
 31
0.0
  0
ARC
  8
0
  6
CONTINUOUS
 62
               3
  5
198
 10
252.32773309604897
 20
543.38392517675697
 30
0.0
 40
5.0
 50
0.0
 51
87.999999999948585
  0
LINE
  8
0
  6
CONTINUOUS
 62
               3
  5
199
 10
390.8277330960488
 20
553.75364097791442
 30
0.0
 11
390.8277330960488
 21
548.75364097791442
 31
0.0
  0
LINE
  8
0
  6
CONTINUOUS
 62
               3
  5
19A
 10
390.8277330960488
 20
553.75364097791442
 30
0.0
 11
377.32773309604892
 21
563.66633905418507
 31
0.0
  0
LINE
  8
0
  6
CONTINUOUS
 62
               3
  5
19B
 10
390.8277330960488
 20
548.75364097791442
 30
0.0
 11
380.15323561253632
 21
548.38087931185237
 31
0.0
  0
ARC
  8
0
  6
CONTINUOUS
 62
               3
  5
19C
 10
380.3277330960488
 20
543.38392517675697
 30
0.0
 40
5.0
 50
91.999999999948699
 51
179.99999999989669
  0
LINE
  8
0
  6
CONTINUOUS
 62
               3
  5
19D
 10
255.32773309604903
 20
563.66633905418507
 30
0.0
 11
377.32773309604892
 21
563.66633905418507
 31
0.0
  0
LINE
  8
0
  6
CONTINUOUS
 62
               3
  5
19E
 10
255.81575700806718
 20
546.9663390541848
 30
0.0
 11
376.83970918403071
 21
546.9663390541848
 31
0.0
  0
LINE
  8
0
  6
CONTINUOUS
 62
               3
  5
19F
 10
296.32773309604892
 20
546.9663390541848
 30
0.0
 11
296.32773309604892
 21
563.66633905418507
 31
0.0
  0
LINE
  8
0
  6
CONTINUOUS
 62
               3
  5
1A0
 10
336.32773309604892
 20
563.66633905418507
 30
0.0
 11
336.32773309604892
 21
546.9663390541848
 31
0.0
  0
LINE
  8
0
  6
CONTINUOUS
 62
               3
  5
1A1
 10
296.32773309604892
 20
553.75364097791442
 30
0.0
 11
336.32773309604892
 21
553.75364097791442
 31
0.0
  0
LINE
  8
0
  6
CONTINUOUS
 62
               3
  5
1A2
 10
336.32773309604892
 20
548.75364097791442
 30
0.0
 11
296.32773309604892
 21
548.75364097791442
 31
0.0
  0
LINE
  8
0
  6
CONTINUOUS
 62
               3
  5
1A3
 10
255.32773309604903
 20
563.66633905418507
 30
0.0
 11
255.32773309604903
 21
547.38392517675686
 31
0.0
  0
LINE
  8
0
  6
CONTINUOUS
 62
               3
  5
1A4
 10
377.32773309604892
 20
563.66633905418507
 30
0.0
 11
377.32773309604892
 21
547.38392517675686
 31
0.0
  0
LINE
  8
0
  6
CONTINUOUS
 62
               3
  5
1A5
 10
257.32773309604897
 20
543.38392517675697
 30
0.0
 11
257.32773309604897
 21
481.83733343196059
 31
0.0
  0
ARC
  8
0
  6
CONTINUOUS
 62
               3
  5
1A6
 10
252.32773309604897
 20
481.83733343196059
 30
0.0
 40
5.0
 50
315.01704217200677
 51
359.99999999979292
  0
ARC
  8
0
  6
CONTINUOUS
 62
               3
  5
1A7
 10
266.82773309604892
 20
467.34595668577106
 30
0.0
 40
15.5
 50
135.01704217210897
 51
179.9999999998964
  0
LINE
  8
0
  6
CONTINUOUS
 62
               3
  5
1A8
 10
375.32773309604892
 20
543.38392517675697
 30
0.0
 11
375.32773309604892
 21
481.83733343196059
 31
0.0
  0
ARC
  8
0
  6
CONTINUOUS
 62
               3
  5
1A9
 10
380.32773309604869
 20
481.83733343196059
 30
0.0
 40
5.0
 50
179.99999999989626
 51
224.9829578276827
  0
ARC
  8
0
  6
CONTINUOUS
 62
               3
  5
1AA
 10
365.82773309604869
 20
467.34595668577106
 30
0.0
 40
15.5
 50
0.0
 51
44.982957827787331
  0
CIRCLE
  8
0
  6
CONTINUOUS
 62
               3
  5
1AB
 10
-183.18841679673483
 20
860.17769021835181
 30
0.0
 40
61.000000000000007
  0
CIRCLE
  8
0
  6
CONTINUOUS
 62
               3
  5
1AC
 10
-183.67226690395114
 20
860.10407793601826
 30
0.0
 40
47.0
  0
LINE
  8
0
  6
CONTINUOUS
 62
               3
  5
1AD
 10
-313.67226690395114
 20
908.60407793601814
 30
0.0
 11
-313.00071077798691
 21
908.60407793601814
 31
0.0
  0
LINE
  8
0
  6
CONTINUOUS
 62
               3
  5
1AE
 10
-310.50071077798611
 20
911.10407793601814
 30
0.0
 11
-313.00071077798691
 21
908.60407793601814
 31
0.0
  0
LINE
  8
0
  6
CONTINUOUS
 62
               3
  5
1AF
 10
-313.67226690395114
 20
811.60407793601803
 30
0.0
 11
-313.00071077798691
 21
811.60407793601803
 31
0.0
  0
LINE
  8
0
  6
CONTINUOUS
 62
               3
  5
1B0
 10
-310.50071077798691
 20
809.10407793601803
 30
0.0
 11
-313.00071077798691
 21
811.60407793601803
 31
0.0
  0
LINE
  8
0
  6
CONTINUOUS
 62
               3
  5
1B1
 10
-313.00071077798691
 20
811.6040779360178
 30
0.0
 11
-313.00071077798691
 21
908.60407793601814
 31
0.0
  0
LINE
  8
0
  6
CONTINUOUS
 62
               3
  5
1B2
 10
-318.67226690395114
 20
811.75407793601812
 30
0.0
 11
-318.67226690395114
 21
908.45407793601817
 31
0.0
  0
LINE
  8
0
  6
CONTINUOUS
 62
               3
  5
1B3
 10
-313.67226690395114
 20
910.95407793601817
 30
0.0
 11
-313.67226690395114
 21
809.25407793601812
 31
0.0
  0
LINE
  8
0
  6
CONTINUOUS
 62
               3
  5
1B4
 10
-313.67226690395114
 20
809.25407793601812
 30
0.0
 11
-316.17226690395114
 21
809.25407793601812
 31
0.0
  0
LINE
  8
0
  6
CONTINUOUS
 62
               3
  5
1B5
 10
-313.67226690395114
 20
910.95407793601817
 30
0.0
 11
-316.17226690395114
 21
910.95407793601817
 31
0.0
  0
ARC
  8
0
  6
CONTINUOUS
 62
               3
  5
1B6
 10
-316.17226690395114
 20
908.45407793601817
 30
0.0
 40
2.5
 50
89.999999999879947
 51
179.99999999979377
  0
ARC
  8
0
  6
CONTINUOUS
 62
               3
  5
1B7
 10
-316.17226690395114
 20
811.75407793601812
 30
0.0
 40
2.5
 50
179.99999999979377
 51
269.99999999970692
  0
LINE
  8
0
  6
CONTINUOUS
 62
               3
  5
1B8
 10
-310.50071077798691
 20
809.10407793601803
 30
0.0
 11
-310.50071077798611
 21
911.10407793601814
 31
0.0
  0
LINE
  8
0
  6
CONTINUOUS
 62
               3
  5
1B9
 10
-219.59031395924239
 20
914.27873894773018
 30
0.0
 11
-310.50071077798611
 21
911.10407793601814
 31
0.0
  0
LINE
  8
0
  6
CONTINUOUS
 62
               3
  5
1BA
 10
-241.89064002124374
 20
806.70816147030905
 30
0.0
 11
-310.50071077798691
 21
809.10407793601803
 31
0.0
  0
LINE
  8
0
  6
CONTINUOUS
 62
               3
  5
1BB
 10
-310.50071077798691
 20
354.16633905418587
 30
0.0
 11
-268.15783674797905
 21
352.68769331056558
 31
0.0
  0
LINE
  8
0
  6
CONTINUOUS
 62
               3
  5
1BC
 10
-250.13673299801849
 20
336.56620575386302
 30
0.0
 11
-264.79680032555893
 21
351.22627308140295
 31
0.0
  0
LINE
  8
0
  6
CONTINUOUS
 62
               3
  5
1BD
 10
-310.50071077798691
 20
456.16633905418524
 30
0.0
 11
-253.49776942043871
 21
458.15692562968366
 31
0.0
  0
LINE
  8
0
  6
CONTINUOUS
 62
               3
  5
1BE
 10
-313.67226690395114
 20
356.66633905418519
 30
0.0
 11
-313.00071077798691
 21
356.66633905418519
 31
0.0
  0
LINE
  8
0
  6
CONTINUOUS
 62
               3
  5
1BF
 10
-310.50071077798623
 20
354.16633905418519
 30
0.0
 11
-313.00071077798691
 21
356.66633905418519
 31
0.0
  0
LINE
  8
0
  6
CONTINUOUS
 62
               3
  5
1C0
 10
-313.67226690395114
 20
453.66633905418519
 30
0.0
 11
-313.00071077798691
 21
453.66633905418519
 31
0.0
  0
LINE
  8
0
  6
CONTINUOUS
 62
               3
  5
1C1
 10
-310.50071077798691
 20
456.16633905418519
 30
0.0
 11
-313.00071077798691
 21
453.66633905418519
 31
0.0
  0
LINE
  8
0
  6
CONTINUOUS
 62
               3
  5
1C2
 10
-313.00071077798691
 20
453.66633905418541
 30
0.0
 11
-313.00071077798691
 21
356.66633905418519
 31
0.0
  0
LINE
  8
0
  6
CONTINUOUS
 62
               3
  5
1C3
 10
-318.67226690395114
 20
453.51633905418515
 30
0.0
 11
-318.67226690395114
 21
356.81633905418516
 31
0.0
  0
LINE
  8
0
  6
CONTINUOUS
 62
               3
  5
1C4
 10
-313.67226690395114
 20
354.31633905418516
 30
0.0
 11
-313.67226690395114
 21
456.01633905418515
 31
0.0
  0
LINE
  8
0
  6
CONTINUOUS
 62
               3
  5
1C5
 10
-313.67226690395114
 20
456.01633905418515
 30
0.0
 11
-316.17226690395114
 21
456.01633905418515
 31
0.0
  0
LINE
  8
0
  6
CONTINUOUS
 62
               3
  5
1C6
 10
-313.67226690395114
 20
354.31633905418516
 30
0.0
 11
-316.17226690395114
 21
354.31633905418516
 31
0.0
  0
ARC
  8
0
  6
CONTINUOUS
 62
               3
  5
1C7
 10
-316.17226690395114
 20
356.81633905418516
 30
0.0
 40
2.5
 50
179.99999999982765
 51
269.9999999997421
  0
ARC
  8
0
  6
CONTINUOUS
 62
               3
  5
1C8
 10
-316.17226690395114
 20
453.51633905418515
 30
0.0
 40
2.5
 50
89.999999999914465
 51
179.99999999982725
  0
LINE
  8
0
  6
CONTINUOUS
 62
               3
  5
1C9
 10
-310.50071077798691
 20
456.16633905418519
 30
0.0
 11
-310.50071077798617
 21
354.16633905418513
 31
0.0
  0
ARC
  8
0
  6
CONTINUOUS
 62
               3
  5
1CA
 10
-268.33233423149159
 20
347.69073917547013
 30
0.0
 40
5.0
 50
44.999999999957986
 51
87.999999999915332
  0
ARC
  8
0
  6
CONTINUOUS
 62
               3
  5
1CB
 10
-253.6722669039512
 20
463.15387976477916
 30
0.0
 40
5.0
 50
271.99999999984317
 51
359.99999999979292
  0
ARC
  8
0
  6
CONTINUOUS
 62
               3
  5
1CC
 10
-253.67226690395117
 20
333.03067184793019
 30
0.0
 40
5.0
 50
0.0
 51
44.999999999975259
  0
CIRCLE
  8
0
  6
CONTINUOUS
 62
               3
  5
1CD
 10
-683.67226690395114
 20
405.16633905418519
 30
0.0
 40
50.850000000000001
  0
LINE
  8
0
  6
CONTINUOUS
 62
               3
  5
1CE
 10
-664.59184500085939
 20
431.16633905418507
 30
0.0
 11
-702.75268880704402
 21
431.16633905418507
 31
0.0
  0
CIRCLE
  8
0
  6
CONTINUOUS
 62
               3
  5
1CF
 10
-683.67226690395114
 20
405.16633905418519
 30
0.0
 40
41.849999999999994
  0
CIRCLE
  8
0
  6
CONTINUOUS
 62
               3
  5
1D0
 10
-683.67226690395114
 20
405.16633905418519
 30
0.0
 40
40.75
  0
CIRCLE
  8
0
  6
CONTINUOUS
 62
               3
  5
1D1
 10
-683.67226690395182
 20
405.16633905418519
 30
0.0
 40
36.399999999999999
  0
CIRCLE
  8
0
  6
CONTINUOUS
 62
               3
  5
1D2
 10
-683.67226690395182
 20
405.16633905418519
 30
0.0
 40
32.25
  0
LINE
  8
0
  6
CONTINUOUS
 62
               3
  5
1D3
 10
-656.62543252356625
 20
378.11950467379972
 30
0.0
 11
-654.85766557059947
 21
376.35173772083328
 31
0.0
  0
LINE
  8
0
  6
CONTINUOUS
 62
               3
  5
1D4
 10
-710.71910128433024
 20
378.1195046737929
 30
0.0
 11
-712.48686823730259
 21
376.35173772083272
 31
0.0
  0
ARC
  8
0
  6
CONTINUOUS
 62
               3
  5
1D5
 10
-683.67226690395182
 20
405.16633905418519
 30
0.0
 40
38.25
 50
224.99999999979903
 51
314.99999999970731
  0
LINE
  8
0
  6
CONTINUOUS
 62
               3
  5
1D6
 10
-728.17226690395182
 20
48.760098096500769
 30
0.0
 11
-728.17226690395182
 21
-48.924809586819151
 31
0.0
  0
LINE
  8
0
  6
CONTINUOUS
 62
               3
  5
1D7
 10
-728.17226690395182
 20
-48.924809586819151
 30
0.0
 11
-725.76341554495593
 21
-51.333660945815041
 31
0.0
  0
LINE
  8
0
  6
CONTINUOUS
 62
               3
  5
1D8
 10
-728.17226690395182
 20
48.760098096500769
 30
0.0
 11
-729.17226690395182
 21
49.760098096500769
 31
0.0
  0
LINE
  8
0
  6
CONTINUOUS
 62
               3
  5
1D9
 10
-725.76341554495593
 20
-51.333660945815041
 30
0.0
 11
-641.58111826294657
 21
-51.333660945815041
 31
0.0
  0
LINE
  8
0
  6
CONTINUOUS
 62
               3
  5
1DA
 10
-639.17226690395069
 20
48.760098096500769
 30
0.0
 11
-639.17226690395069
 21
-48.924809586819151
 31
0.0
  0
LINE
  8
0
  6
CONTINUOUS
 62
               3
  5
1DB
 10
-639.17226690395069
 20
-48.924809586819151
 30
0.0
 11
-641.58111826294657
 21
-51.333660945815041
 31
0.0
  0
LINE
  8
0
  6
CONTINUOUS
 62
               3
  5
1DC
 10
-639.17226690395069
 20
48.760098096500769
 30
0.0
 11
-638.1722669039508
 21
49.760098096500769
 31
0.0
  0
LINE
  8
0
  6
CONTINUOUS
 62
               3
  5
1DD
 10
-728.17226690395182
 20
48.760098096500769
 30
0.0
 11
-639.17226690395069
 21
48.760098096500769
 31
0.0
  0
LINE
  8
0
  6
CONTINUOUS
 62
               3
  5
1DE
 10
-638.1722669039508
 20
49.760098096500769
 30
0.0
 11
-729.17226690395182
 21
49.760098096500769
 31
0.0
  0
LINE
  8
0
  6
CONTINUOUS
 62
               3
  5
1DF
 10
-228.17226690395177
 20
48.760098096500769
 30
0.0
 11
-229.17226690395171
 21
49.760098096500769
 31
0.0
  0
LINE
  8
0
  6
CONTINUOUS
 62
               3
  5
1E0
 10
-139.17226690395071
 20
48.760098096500769
 30
0.0
 11
-138.17226690395077
 21
49.760098096500769
 31
0.0
  0
LINE
  8
0
  6
CONTINUOUS
 62
               3
  5
1E1
 10
-228.17226690395177
 20
48.760098096500769
 30
0.0
 11
-139.17226690395071
 21
48.760098096500769
 31
0.0
  0
LINE
  8
0
  6
CONTINUOUS
 62
               3
  5
1E2
 10
-138.17226690395077
 20
49.760098096500769
 30
0.0
 11
-229.17226690395171
 21
49.760098096500769
 31
0.0
  0
LINE
  8
0
  6
CONTINUOUS
 62
               3
  5
1E3
 10
271.82773309604823
 20
48.760098096500656
 30
0.0
 11
271.82773309604823
 21
-48.924809586819379
 31
0.0
  0
LINE
  8
0
  6
CONTINUOUS
 62
               3
  5
1E4
 10
271.82773309604823
 20
-48.924809586819379
 30
0.0
 11
274.23658445504412
 21
-51.333660945815268
 31
0.0
  0
LINE
  8
0
  6
CONTINUOUS
 62
               3
  5
1E5
 10
271.82773309604823
 20
48.760098096500656
 30
0.0
 11
270.82773309604823
 21
49.760098096500656
 31
0.0
  0
LINE
  8
0
  6
CONTINUOUS
 62
               3
  5
1E6
 10
274.23658445504412
 20
-51.333660945815268
 30
0.0
 11
358.41888173705337
 21
-51.333660945815268
 31
0.0
  0
LINE
  8
0
  6
CONTINUOUS
 62
               3
  5
1E7
 10
360.82773309604926
 20
48.760098096500656
 30
0.0
 11
360.82773309604926
 21
-48.924809586819379
 31
0.0
  0
LINE
  8
0
  6
CONTINUOUS
 62
               3
  5
1E8
 10
360.82773309604926
 20
-48.924809586819379
 30
0.0
 11
358.41888173705337
 21
-51.333660945815268
 31
0.0
  0
LINE
  8
0
  6
CONTINUOUS
 62
               3
  5
1E9
 10
360.82773309604926
 20
48.760098096500656
 30
0.0
 11
361.82773309604926
 21
49.760098096500656
 31
0.0
  0
LINE
  8
0
  6
CONTINUOUS
 62
               3
  5
1EA
 10
271.82773309604823
 20
48.760098096500656
 30
0.0
 11
360.82773309604926
 21
48.760098096500656
 31
0.0
  0
LINE
  8
0
  6
CONTINUOUS
 62
               3
  5
1EB
 10
361.82773309604926
 20
49.760098096500656
 30
0.0
 11
270.82773309604823
 21
49.760098096500656
 31
0.0
  0
LINE
  8
0
  6
CONTINUOUS
 62
               3
  5
1EC
 10
-139.17226690395071
 20
48.760098096500769
 30
0.0
 11
-139.17226690395074
 21
-48.924809586819151
 31
0.0
  0
LINE
  8
0
  6
CONTINUOUS
 62
               3
  5
1ED
 10
-228.17226690395177
 20
48.760098096500769
 30
0.0
 11
-228.17226690395177
 21
-48.924809586819151
 31
0.0
  0
LINE
  8
0
  6
CONTINUOUS
 62
               3
  5
1EE
 10
-228.17226690395177
 20
-48.924809586819151
 30
0.0
 11
-225.76341554495588
 21
-51.333660945815041
 31
0.0
  0
LINE
  8
0
  6
CONTINUOUS
 62
               3
  5
1EF
 10
-225.76341554495588
 20
-51.333660945815041
 30
0.0
 11
-141.58111826294663
 21
-51.333660945815041
 31
0.0
  0
LINE
  8
0
  6
CONTINUOUS
 62
               3
  5
1F0
 10
-139.17226690395074
 20
-48.924809586819151
 30
0.0
 11
-141.58111826294663
 21
-51.333660945815041
 31
0.0
  0
LINE
  8
0
  6
CONTINUOUS
 62
               3
  5
1F1
 10
-729.17226690395091
 20
49.760098096500769
 30
0.0
 11
-729.17226690395114
 21
114.67005919233713
 31
0.0
  0
LINE
  8
0
  6
CONTINUOUS
 62
               3
  5
1F2
 10
-638.17226690395137
 20
49.760098096500769
 30
0.0
 11
-638.17226690395137
 21
114.67005919233713
 31
0.0
  0
LINE
  8
0
  6
CONTINUOUS
 62
               3
  5
1F3
 10
-229.17226690395171
 20
49.760098096500769
 30
0.0
 11
-229.1722669039512
 21
114.67005919233713
 31
0.0
  0
LINE
  8
0
  6
CONTINUOUS
 62
               3
  5
1F4
 10
-138.17226690395077
 20
49.760098096500769
 30
0.0
 11
-138.17226690395125
 21
114.67005919233713
 31
0.0
  0
LINE
  8
0
  6
CONTINUOUS
 62
               3
  5
1F5
 10
361.82773309604869
 20
49.760098096500656
 30
0.0
 11
361.82773309604869
 21
114.67005919233691
 31
0.0
  0
LINE
  8
0
  6
CONTINUOUS
 62
               3
  5
1F6
 10
270.82773309604858
 20
49.760098096500656
 30
0.0
 11
270.8277330960488
 21
114.67005919233691
 31
0.0
  0
LINE
  8
0
  6
CONTINUOUS
 62
               3
  5
1F7
 10
-238.6722669039512
 20
353.66633905418519
 30
0.0
 11
-206.17226690395063
 21
353.66633905418519
 31
0.0
  0
LINE
  8
0
  6
CONTINUOUS
 62
               3
  5
1F8
 10
-161.17226690395063
 20
353.66633905418519
 30
0.0
 11
-118.6722669039512
 21
353.66633905418519
 31
0.0
  0
CIRCLE
  8
0
  6
CONTINUOUS
 62
               3
  5
1F9
 10
-183.6722669039512
 20
405.16633905418519
 30
0.0
 40
50.850000000000001
  0
LINE
  8
0
  6
CONTINUOUS
 62
               3
  5
1FA
 10
-164.59184500085945
 20
431.16633905418507
 30
0.0
 11
-202.75268880704408
 21
431.16633905418507
 31
0.0
  0
CIRCLE
  8
0
  6
CONTINUOUS
 62
               3
  5
1FB
 10
-183.6722669039512
 20
405.16633905418519
 30
0.0
 40
41.849999999999994
  0
CIRCLE
  8
0
  6
CONTINUOUS
 62
               3
  5
1FC
 10
-183.6722669039512
 20
405.16633905418519
 30
0.0
 40
40.75
  0
CIRCLE
  8
0
  6
CONTINUOUS
 62
               3
  5
1FD
 10
-183.67226690395177
 20
405.16633905418519
 30
0.0
 40
36.399999999999999
  0
CIRCLE
  8
0
  6
CONTINUOUS
 62
               3
  5
1FE
 10
-183.67226690395177
 20
405.16633905418519
 30
0.0
 40
32.25
  0
LINE
  8
0
  6
CONTINUOUS
 62
               3
  5
1FF
 10
-156.62543252356625
 20
378.11950467379972
 30
0.0
 11
-154.85766557059941
 21
376.35173772083328
 31
0.0
  0
LINE
  8
0
  6
CONTINUOUS
 62
               3
  5
200
 10
-210.71910128433029
 20
378.1195046737929
 30
0.0
 11
-212.48686823730253
 21
376.35173772083272
 31
0.0
  0
ARC
  8
0
  6
CONTINUOUS
 62
               3
  5
201
 10
-183.67226690395177
 20
405.16633905418519
 30
0.0
 40
38.25
 50
224.99999999979894
 51
314.99999999970737
  0
ARC
  8
0
  6
CONTINUOUS
 62
               3
  5
202
 10
-206.17226690395063
 20
351.16633905418519
 30
0.0
 40
2.4999999999999996
 50
269.9999999998447
 51
449.99999999974091
  0
ARC
  8
0
  6
CONTINUOUS
 62
               3
  5
203
 10
-161.17226690395063
 20
351.16633905418519
 30
0.0
 40
2.4999999999999996
 50
89.999999999948258
 51
269.9999999998447
  0
LINE
  8
0
  6
CONTINUOUS
 62
               3
  5
204
 10
-238.6722669039512
 20
348.66633905418519
 30
0.0
 11
-206.17226690395063
 21
348.66633905418519
 31
0.0
  0
LINE
  8
0
  6
CONTINUOUS
 62
               3
  5
205
 10
-161.17226690395063
 20
348.66633905418519
 30
0.0
 11
-118.6722669039512
 21
348.66633905418519
 31
0.0
  0
LINE
  8
0
  6
CONTINUOUS
 62
               3
  5
206
 10
251.3277330960488
 20
467.34595668577106
 30
0.0
 11
251.3277330960488
 21
463.15387976477899
 31
0.0
  0
LINE
  8
0
  6
CONTINUOUS
 62
               3
  5
207
 10
189.49928922201309
 20
354.16633905418576
 30
0.0
 11
231.84216325202095
 21
352.68769331056546
 31
0.0
  0
LINE
  8
0
  6
CONTINUOUS
 62
               3
  5
208
 10
249.86326700198151
 20
336.5662057538629
 30
0.0
 11
235.20319967444107
 21
351.22627308140278
 31
0.0
  0
LINE
  8
0
  6
CONTINUOUS
 62
               3
  5
209
 10
189.49928922201309
 20
456.16633905418507
 30
0.0
 11
246.50223057956129
 21
458.15692562968354
 31
0.0
  0
LINE
  8
0
  6
CONTINUOUS
 62
               3
  5
20A
 10
186.3277330960488
 20
356.66633905418502
 30
0.0
 11
186.99928922201303
 21
356.66633905418502
 31
0.0
  0
LINE
  8
0
  6
CONTINUOUS
 62
               3
  5
20B
 10
189.49928922201383
 20
354.16633905418502
 30
0.0
 11
186.99928922201303
 21
356.66633905418502
 31
0.0
  0
LINE
  8
0
  6
CONTINUOUS
 62
               3
  5
20C
 10
186.3277330960488
 20
453.66633905418502
 30
0.0
 11
186.99928922201303
 21
453.66633905418502
 31
0.0
  0
LINE
  8
0
  6
CONTINUOUS
 62
               3
  5
20D
 10
189.49928922201303
 20
456.16633905418507
 30
0.0
 11
186.99928922201303
 21
453.66633905418502
 31
0.0
  0
LINE
  8
0
  6
CONTINUOUS
 62
               3
  5
20E
 10
186.99928922201303
 20
453.66633905418524
 30
0.0
 11
186.99928922201303
 21
356.66633905418502
 31
0.0
  0
LINE
  8
0
  6
CONTINUOUS
 62
               3
  5
20F
 10
181.3277330960488
 20
453.51633905418498
 30
0.0
 11
181.3277330960488
 21
356.81633905418505
 31
0.0
  0
LINE
  8
0
  6
CONTINUOUS
 62
               3
  5
210
 10
186.3277330960488
 20
354.31633905418505
 30
0.0
 11
186.3277330960488
 21
456.01633905418498
 31
0.0
  0
LINE
  8
0
  6
CONTINUOUS
 62
               3
  5
211
 10
186.3277330960488
 20
456.01633905418498
 30
0.0
 11
183.8277330960488
 21
456.01633905418498
 31
0.0
  0
LINE
  8
0
  6
CONTINUOUS
 62
               3
  5
212
 10
186.3277330960488
 20
354.31633905418505
 30
0.0
 11
183.8277330960488
 21
354.31633905418505
 31
0.0
  0
ARC
  8
0
  6
CONTINUOUS
 62
               3
  5
213
 10
183.8277330960488
 20
356.81633905418505
 30
0.0
 40
2.5
 50
179.99999999982765
 51
269.99999999974017
  0
ARC
  8
0
  6
CONTINUOUS
 62
               3
  5
214
 10
183.8277330960488
 20
453.51633905418498
 30
0.0
 40
2.5
 50
89.999999999915119
 51
179.99999999982725
  0
LINE
  8
0
  6
CONTINUOUS
 62
               3
  5
215
 10
189.49928922201309
 20
456.16633905418507
 30
0.0
 11
189.49928922201383
 21
354.16633905418496
 31
0.0
  0
ARC
  8
0
  6
CONTINUOUS
 62
               3
  5
216
 10
231.66766576850841
 20
347.69073917546996
 30
0.0
 40
5.0
 50
44.999999999957986
 51
87.999999999915332
  0
ARC
  8
0
  6
CONTINUOUS
 62
               3
  5
217
 10
246.3277330960488
 20
463.15387976477899
 30
0.0
 40
5.0
 50
271.99999999984271
 51
359.99999999979292
  0
ARC
  8
0
  6
CONTINUOUS
 62
               3
  5
218
 10
246.3277330960488
 20
333.03067184793008
 30
0.0
 40
5.0
 50
0.0
 51
44.999999999975259
  0
ARC
  8
0
  6
CONTINUOUS
 62
               3
  5
219
 10
261.3277330960488
 20
351.16633905418502
 30
0.0
 40
2.4999999999999996
 50
89.999999999948997
 51
269.99999999984306
  0
ARC
  8
0
  6
CONTINUOUS
 62
               3
  5
21A
 10
-628.67226690395114
 20
351.16633905418519
 30
0.0
 40
2.4999999999999996
 50
269.99999999984306
 51
449.99999999974102
  0
LINE
  8
0
  6
CONTINUOUS
 62
               3
  5
21B
 10
-618.67226690395114
 20
467.34595668577117
 30
0.0
 11
-618.67226690395114
 21
463.15387976477916
 31
0.0
  0
LINE
  8
0
  6
CONTINUOUS
 62
               3
  5
21C
 10
-556.84382302991548
 20
354.16633905418587
 30
0.0
 11
-599.18669705992329
 21
352.68769331056558
 31
0.0
  0
LINE
  8
0
  6
CONTINUOUS
 62
               3
  5
21D
 10
-617.20780080988391
 20
336.56620575386302
 30
0.0
 11
-602.54773348234346
 21
351.22627308140295
 31
0.0
  0
LINE
  8
0
  6
CONTINUOUS
 62
               3
  5
21E
 10
-556.84382302991548
 20
456.16633905418524
 30
0.0
 11
-613.84676438746374
 21
458.15692562968366
 31
0.0
  0
LINE
  8
0
  6
CONTINUOUS
 62
               3
  5
21F
 10
-553.67226690395114
 20
356.66633905418519
 30
0.0
 11
-554.34382302991548
 21
356.66633905418519
 31
0.0
  0
LINE
  8
0
  6
CONTINUOUS
 62
               3
  5
220
 10
-556.84382302991617
 20
354.16633905418519
 30
0.0
 11
-554.34382302991548
 21
356.66633905418519
 31
0.0
  0
LINE
  8
0
  6
CONTINUOUS
 62
               3
  5
221
 10
-553.67226690395114
 20
453.66633905418519
 30
0.0
 11
-554.34382302991548
 21
453.66633905418519
 31
0.0
  0
LINE
  8
0
  6
CONTINUOUS
 62
               3
  5
222
 10
-556.84382302991548
 20
456.16633905418519
 30
0.0
 11
-554.34382302991548
 21
453.66633905418519
 31
0.0
  0
LINE
  8
0
  6
CONTINUOUS
 62
               3
  5
223
 10
-554.34382302991548
 20
453.66633905418541
 30
0.0
 11
-554.34382302991548
 21
356.66633905418519
 31
0.0
  0
LINE
  8
0
  6
CONTINUOUS
 62
               3
  5
224
 10
-548.67226690395114
 20
453.51633905418515
 30
0.0
 11
-548.67226690395114
 21
356.81633905418516
 31
0.0
  0
LINE
  8
0
  6
CONTINUOUS
 62
               3
  5
225
 10
-553.67226690395114
 20
354.31633905418516
 30
0.0
 11
-553.67226690395114
 21
456.01633905418515
 31
0.0
  0
LINE
  8
0
  6
CONTINUOUS
 62
               3
  5
226
 10
-553.67226690395114
 20
456.01633905418515
 30
0.0
 11
-551.17226690395114
 21
456.01633905418515
 31
0.0
  0
LINE
  8
0
  6
CONTINUOUS
 62
               3
  5
227
 10
-553.67226690395114
 20
354.31633905418516
 30
0.0
 11
-551.17226690395114
 21
354.31633905418516
 31
0.0
  0
ARC
  8
0
  6
CONTINUOUS
 62
               3
  5
228
 10
-551.17226690395114
 20
356.81633905418516
 30
0.0
 40
2.5
 50
269.99999999994594
 51
359.99999999986176
  0
ARC
  8
0
  6
CONTINUOUS
 62
               3
  5
229
 10
-551.17226690395114
 20
453.51633905418515
 30
0.0
 40
2.5
 50
0.000000000069046
 51
89.999999999982862
  0
LINE
  8
0
  6
CONTINUOUS
 62
               3
  5
22A
 10
-556.84382302991548
 20
456.16633905418519
 30
0.0
 11
-556.84382302991617
 21
354.16633905418513
 31
0.0
  0
ARC
  8
0
  6
CONTINUOUS
 62
               3
  5
22B
 10
-599.01219957641081
 20
347.69073917547013
 30
0.0
 40
5.0
 50
91.999999999981284
 51
134.99999999993847
  0
ARC
  8
0
  6
CONTINUOUS
 62
               3
  5
22C
 10
-613.67226690395114
 20
463.15387976477916
 30
0.0
 40
5.0
 50
179.99999999989646
 51
267.99999999984516
  0
ARC
  8
0
  6
CONTINUOUS
 62
               3
  5
22D
 10
-613.67226690395114
 20
333.03067184793019
 30
0.0
 40
5.0
 50
134.99999999992096
 51
179.99999999989637
  0
LINE
  8
0
  6
CONTINUOUS
 62
               3
  5
22E
 10
-232.17226690395103
 20
730.10407793601826
 30
0.0
 11
-232.17226690395103
 21
730.77563406198249
 31
0.0
  0
LINE
  8
0
  6
CONTINUOUS
 62
               3
  5
22F
 10
-234.67226690395103
 20
733.27563406198328
 30
0.0
 11
-232.17226690395103
 21
730.77563406198249
 31
0.0
  0
LINE
  8
0
  6
CONTINUOUS
 62
               3
  5
230
 10
-135.17226690395091
 20
730.10407793601826
 30
0.0
 11
-135.17226690395091
 21
730.77563406198249
 31
0.0
  0
LINE
  8
0
  6
CONTINUOUS
 62
               3
  5
231
 10
-132.67226690395091
 20
733.27563406198249
 30
0.0
 11
-135.17226690395091
 21
730.77563406198249
 31
0.0
  0
LINE
  8
0
  6
CONTINUOUS
 62
               3
  5
232
 10
-135.17226690395069
 20
730.77563406198249
 30
0.0
 11
-232.17226690395103
 21
730.77563406198249
 31
0.0
  0
LINE
  8
0
  6
CONTINUOUS
 62
               3
  5
233
 10
-135.322266903951
 20
725.10407793601826
 30
0.0
 11
-232.02226690395105
 21
725.10407793601826
 31
0.0
  0
LINE
  8
0
  6
CONTINUOUS
 62
               3
  5
234
 10
-234.52226690395105
 20
730.10407793601826
 30
0.0
 11
-132.822266903951
 21
730.10407793601826
 31
0.0
  0
LINE
  8
0
  6
CONTINUOUS
 62
               3
  5
235
 10
-132.822266903951
 20
730.10407793601826
 30
0.0
 11
-132.822266903951
 21
727.60407793601826
 31
0.0
  0
LINE
  8
0
  6
CONTINUOUS
 62
               3
  5
236
 10
-234.52226690395105
 20
730.10407793601826
 30
0.0
 11
-234.52226690395105
 21
727.60407793601826
 31
0.0
  0
ARC
  8
0
  6
CONTINUOUS
 62
               3
  5
237
 10
-232.02226690395105
 20
727.60407793601826
 30
0.0
 40
2.5
 50
179.9999999998459
 51
269.99999999975807
  0
ARC
  8
0
  6
CONTINUOUS
 62
               3
  5
238
 10
-135.322266903951
 20
727.60407793601826
 30
0.0
 40
2.5
 50
269.99999999975807
 51
359.99999999967218
  0
LINE
  8
0
  6
CONTINUOUS
 62
               3
  5
239
 10
-132.67226690395091
 20
733.27563406198249
 30
0.0
 11
-234.67226690395103
 21
733.27563406198328
 31
0.0
  0
LINE
  8
0
  6
CONTINUOUS
 62
               3
  5
23A
 10
-129.49760589224002
 20
824.18603088072564
 30
0.0
 11
-132.67226690395091
 21
733.27563406198249
 31
0.0
  0
LINE
  8
0
  6
CONTINUOUS
 62
               3
  5
23B
 10
-237.06818336966077
 20
801.88570481872625
 30
0.0
 11
-234.67226690395103
 21
733.27563406198328
 31
0.0
  0
ARC
  8
0
  6
CONTINUOUS
 62
               3
  5
23C
 10
-242.06513750475625
 20
801.71120733521366
 30
0.0
 40
5.0
 50
1.999999999999736
 51
87.999999999966022
  0
LINE
  8
0
  6
CONTINUOUS
 62
               3
  5
23D
 10
374.8277330960488
 20
479.59340539968701
 30
0.0
 11
328.05473309604901
 21
479.59340539968696
 31
0.0
  0
LINE
  8
0
  6
CONTINUOUS
 62
               3
  5
23E
 10
304.60073309604871
 20
479.59340539968696
 30
0.0
 11
257.32773309604903
 21
479.59340539968696
 31
0.0
  0
LINE
  8
0
  6
CONTINUOUS
 62
               3
  5
23F
 10
-125.17226690395123
 20
479.59340539968713
 30
0.0
 11
-242.672266903951
 21
479.59340539968713
 31
0.0
  0
LINE
  8
0
  6
CONTINUOUS
 62
               3
  5
240
 10
-625.17226690395114
 20
479.59340539968713
 30
0.0
 11
-742.67226690395091
 21
479.59340539968713
 31
0.0
  0
LINE
  8
0
  6
CONTINUOUS
 62
               3
  5
241
 10
-159.23380394138084
 20
877.41004988064708
 30
0.0
 11
-198.23669662706811
 21
894.66022625784933
 31
0.0
  0
ARC
  8
0
  6
CONTINUOUS
 62
               3
  5
242
 10
-153.40067905323119
 20
890.59882772615276
 30
0.0
 40
14.421137507799237
 50
246.1411801175183
 51
283.6844133507758
  0
CIRCLE
  8
0
  6
CONTINUOUS
 62
               3
  5
243
 10
-183.67226690395114
 20
860.10407793601826
 30
0.0
 40
37.5
  0
CIRCLE
  8
0
  6
CONTINUOUS
 62
               3
  5
244
 10
325.61425631235664
 20
-415.29742085521474
 30
0.0
 40
75.0
  0
CIRCLE
  8
0
  6
CONTINUOUS
 62
               3
  5
245
 10
325.61425631235664
 20
-415.29742085521474
 30
0.0
 40
52.5
  0
LINE
  8
0
  6
CONTINUOUS
 62
               3
  5
246
 10
239.40375811173141
 20
-395.29742085521474
 30
0.0
 11
253.33009483835127
 21
-395.29742085521474
 31
0.0
  0
LINE
  8
0
  6
CONTINUOUS
 62
               3
  5
247
 10
253.33009483835127
 20
-435.29742085521474
 30
0.0
 11
239.40375811173141
 21
-435.29742085521474
 31
0.0
  0
ARC
  8
0
  6
CONTINUOUS
 62
               3
  5
248
 10
325.61425631235664
 20
-415.29742085521474
 30
0.0
 40
88.5
 50
166.93897588507147
 51
193.06102411465253
  0
LINE
  8
0
  6
CONTINUOUS
 62
               3
  5
249
 10
305.61425631235664
 20
-501.50791905583964
 30
0.0
 11
305.61425631235664
 21
-487.58158232921977
 31
0.0
  0
LINE
  8
0
  6
CONTINUOUS
 62
               3
  5
24A
 10
345.61425631235664
 20
-487.58158232921977
 30
0.0
 11
345.61425631235664
 21
-501.50791905583964
 31
0.0
  0
ARC
  8
0
  6
CONTINUOUS
 62
               3
  5
24B
 10
325.61425631235664
 20
-415.29742085521474
 30
0.0
 40
88.5
 50
256.93897588500255
 51
283.06102411458357
  0
LINE
  8
0
  6
CONTINUOUS
 62
               3
  5
24C
 10
411.82475451298131
 20
-435.29742085521474
 30
0.0
 11
397.89841778636088
 21
-435.29742085521474
 31
0.0
  0
LINE
  8
0
  6
CONTINUOUS
 62
               3
  5
24D
 10
397.89841778636088
 20
-395.29742085521474
 30
0.0
 11
411.82475451298131
 21
-395.29742085521474
 31
0.0
  0
ARC
  8
0
  6
CONTINUOUS
 62
               3
  5
24E
 10
325.61425631235664
 20
-415.29742085521474
 30
0.0
 40
88.5
 50
346.93897588493354
 51
373.06102411451457
  0
LINE
  8
0
  6
CONTINUOUS
 62
               3
  5
24F
 10
345.61425631235664
 20
-329.08692265458916
 30
0.0
 11
345.61425631235664
 21
-343.01325938120971
 31
0.0
  0
LINE
  8
0
  6
CONTINUOUS
 62
               3
  5
250
 10
305.61425631235664
 20
-343.01325938120971
 30
0.0
 11
305.61425631235664
 21
-329.08692265458916
 31
0.0
  0
ARC
  8
0
  6
CONTINUOUS
 62
               3
  5
251
 10
325.61425631235664
 20
-415.29742085521474
 30
0.0
 40
88.5
 50
76.938975885140493
 51
103.06102411472156
  0
LINE
  8
0
  6
CONTINUOUS
 62
               3
  5
252
 10
277.94613279149559
 20
-437.29742085521519
 30
0.0
 11
373.28237983321657
 21
-437.29742085521519
 31
0.0
  0
ARC
  8
0
  6
CONTINUOUS
 62
               3
  5
253
 10
338.11786796173777
 20
-406.59102322759571
 30
0.0
 40
54.763804151667173
 50
141.38591763672954
 51
145.15009542084252
  0
ARC
  8
0
  6
CONTINUOUS
 62
               3
  5
254
 10
325.61425631235664
 20
-415.29742085521474
 30
0.0
 40
51.5
 50
334.7109884732011
 51
410.95932736332554
  0
ARC
  8
0
  6
CONTINUOUS
 62
               3
  5
255
 10
325.61425631235664
 20
-415.29742085521474
 30
0.0
 40
51.5
 50
129.04067263626098
 51
205.289011526385
  0
ARC
  8
0
  6
CONTINUOUS
 62
               3
  5
256
 10
325.61425631235664
 20
-415.29742085521474
 30
0.0
 40
77.5
 50
104.95524831656294
 51
128.57288309093474
  0
ARC
  8
0
  6
CONTINUOUS
 62
               3
  5
257
 10
325.61425631235664
 20
-415.29742085521474
 30
0.0
 40
77.5
 50
14.95524831663182
 51
75.044751683299182
  0
ARC
  8
0
  6
CONTINUOUS
 62
               3
  5
258
 10
325.61425631235664
 20
-415.29742085521474
 30
0.0
 40
77.5
 50
321.42711690871977
 51
345.04475168309216
  0
LINE
  8
0
  6
CONTINUOUS
 62
               3
  5
259
 10
185.61425631235664
 20
-470.29742085521474
 30
0.0
 11
186.28581243832087
 21
-470.29742085521474
 31
0.0
  0
LINE
  8
0
  6
CONTINUOUS
 62
               3
  5
25A
 10
188.78581243832133
 20
-472.79742085521474
 30
0.0
 11
186.28581243832087
 21
-470.29742085521474
 31
0.0
  0
LINE
  8
0
  6
CONTINUOUS
 62
               3
  5
25B
 10
185.61425631235664
 20
-360.29742085521474
 30
0.0
 11
186.28581243832087
 21
-360.29742085521474
 31
0.0
  0
LINE
  8
0
  6
CONTINUOUS
 62
               3
  5
25C
 10
188.78581243832087
 20
-357.79742085521474
 30
0.0
 11
186.28581243832087
 21
-360.29742085521474
 31
0.0
  0
LINE
  8
0
  6
CONTINUOUS
 62
               3
  5
25D
 10
186.28581243832087
 20
-360.29742085521474
 30
0.0
 11
186.28581243832087
 21
-470.29742085521474
 31
0.0
  0
LINE
  8
0
  6
CONTINUOUS
 62
               3
  5
25E
 10
280.12392052597869
 20
-354.60782383687314
 30
0.0
 11
188.78581243832087
 21
-357.79742085521474
 31
0.0
  0
LINE
  8
0
  6
CONTINUOUS
 62
               3
  5
25F
 10
260.7777845958056
 20
-475.31143592018242
 30
0.0
 11
188.78581243832144
 21
-472.79742085521474
 31
0.0
  0
LINE
  8
0
  6
CONTINUOUS
 62
               3
  5
260
 10
180.61425631235664
 20
-360.46897698117886
 30
0.0
 11
180.61425631235664
 21
-470.39742085521465
 31
0.0
  0
LINE
  8
0
  6
CONTINUOUS
 62
               3
  5
261
 10
185.61425631235664
 20
-472.89742085521465
 30
0.0
 11
185.61425631235664
 21
-357.6974208552146
 31
0.0
  0
LINE
  8
0
  6
CONTINUOUS
 62
               3
  5
262
 10
185.61425631235664
 20
-357.6974208552146
 30
0.0
 11
183.11425631235664
 21
-357.6974208552146
 31
0.0
  0
LINE
  8
0
  6
CONTINUOUS
 62
               3
  5
263
 10
185.61425631235664
 20
-472.89742085521465
 30
0.0
 11
183.11425631235664
 21
-472.89742085521465
 31
0.0
  0
ARC
  8
0
  6
CONTINUOUS
 62
               3
  5
264
 10
183.11425631235664
 20
-470.39742085521465
 30
0.0
 40
2.5
 50
179.9999999998615
 51
269.99999999979229
  0
ARC
  8
0
  6
CONTINUOUS
 62
               3
  5
265
 10
183.11425631235664
 20
-360.1974208552146
 30
0.0
 40
2.5
 50
89.999999999932058
 51
179.9999999998615
  0
LINE
  8
0
  6
CONTINUOUS
 62
               3
  5
266
 10
293.17585314573904
 20
-375.29742085521497
 30
0.0
 11
325.61425631235664
 21
-375.29742085521497
 31
0.0
  0
LINE
  8
0
  6
CONTINUOUS
 62
               3
  5
267
 10
325.61425631235664
 20
-375.29742085521497
 30
0.0
 11
359.61793258419533
 21
-375.29742085521497
 31
0.0
  0
LINE
  8
0
  6
CONTINUOUS
 62
               3
  5
268
 10
188.78581243832133
 20
-472.79742085521474
 30
0.0
 11
188.78581243832087
 21
-357.79742085521474
 31
0.0
  0
ARC
  8
0
  6
CONTINUOUS
 62
               3
  5
269
 10
279.94942304246621
 20
-349.61086970177752
 30
0.0
 40
5.0
 50
271.9999999997919
 51
304.80675787019362
  0
LINE
  8
0
  6
CONTINUOUS
 62
               3
  5
26A
 10
380.61425631235653
 20
-555.2974208552148
 30
0.0
 11
380.61425631235653
 21
-554.62586472925045
 31
0.0
  0
LINE
  8
0
  6
CONTINUOUS
 62
               3
  5
26B
 10
383.11425631235653
 20
-552.12586472925
 30
0.0
 11
380.61425631235653
 21
-554.62586472925045
 31
0.0
  0
LINE
  8
0
  6
CONTINUOUS
 62
               3
  5
26C
 10
270.61425631235653
 20
-555.2974208552148
 30
0.0
 11
270.61425631235653
 21
-554.62586472925045
 31
0.0
  0
LINE
  8
0
  6
CONTINUOUS
 62
               3
  5
26D
 10
268.11425631235653
 20
-552.12586472925045
 30
0.0
 11
270.61425631235653
 21
-554.62586472925045
 31
0.0
  0
LINE
  8
0
  6
CONTINUOUS
 62
               3
  5
26E
 10
270.61425631235653
 20
-554.62586472925045
 30
0.0
 11
380.61425631235653
 21
-554.62586472925045
 31
0.0
  0
LINE
  8
0
  6
CONTINUOUS
 62
               3
  5
26F
 10
270.78581243832065
 20
-560.2974208552148
 30
0.0
 11
380.71425631235655
 21
-560.2974208552148
 31
0.0
  0
LINE
  8
0
  6
CONTINUOUS
 62
               3
  5
270
 10
383.21425631235655
 20
-555.2974208552148
 30
0.0
 11
268.01425631235651
 21
-555.2974208552148
 31
0.0
  0
LINE
  8
0
  6
CONTINUOUS
 62
               3
  5
271
 10
268.01425631235651
 20
-555.2974208552148
 30
0.0
 11
268.01425631235651
 21
-557.7974208552148
 31
0.0
  0
LINE
  8
0
  6
CONTINUOUS
 62
               3
  5
272
 10
383.21425631235655
 20
-555.2974208552148
 30
0.0
 11
383.21425631235655
 21
-557.7974208552148
 31
0.0
  0
ARC
  8
0
  6
CONTINUOUS
 62
               3
  5
273
 10
380.71425631235655
 20
-557.7974208552148
 30
0.0
 40
2.5
 50
269.99999999979354
 51
359.999999999723
  0
ARC
  8
0
  6
CONTINUOUS
 62
               3
  5
274
 10
270.51425631235651
 20
-557.7974208552148
 30
0.0
 40
2.5
 50
179.9999999998615
 51
269.99999999979354
  0
LINE
  8
0
  6
CONTINUOUS
 62
               3
  5
275
 10
383.11425631235653
 20
-552.12586472925
 30
0.0
 11
268.11425631235653
 21
-552.12586472925045
 31
0.0
  0
LINE
  8
0
  6
CONTINUOUS
 62
               3
  5
276
 10
386.30385333069768
 20
-460.78775664159315
 30
0.0
 11
383.11425631235653
 21
-552.12586472925
 31
0.0
  0
ARC
  8
0
  6
CONTINUOUS
 62
               3
  5
277
 10
391.30080746579318
 20
-460.96225412510574
 30
0.0
 40
5.0
 50
145.19324212946151
 51
177.99999999986429
  0
LINE
  8
0
  6
CONTINUOUS
 62
               3
  5
278
 10
265.60024124738851
 20
-480.13389257176567
 30
0.0
 11
268.11425631235653
 21
-552.12586472925045
 31
0.0
  0
ARC
  8
0
  6
CONTINUOUS
 62
               3
  5
279
 10
260.60328711229312
 20
-480.30839005527781
 30
0.0
 40
5.0
 50
1.9999999999958187
 51
87.999999999932285
  0
CIRCLE
  8
0
  6
CONTINUOUS
 62
               3
  5
27A
 10
325.61425631235664
 20
-415.29742085521474
 30
0.0
 40
59.0
  0
LINE
  8
0
  6
CONTINUOUS
 62
               3
  5
27B
 10
250.61425631235664
 20
-723.79685460379915
 30
0.0
 11
400.61425631235664
 21
-723.79685460379915
 31
0.0
  0
LINE
  8
0
  6
CONTINUOUS
 62
               3
  5
27C
 10
237.11425631235642
 20
-733.79685460379915
 30
0.0
 11
237.11425631235642
 21
-740.79685460379869
 31
0.0
  0
LINE
  8
0
  6
CONTINUOUS
 62
               3
  5
27D
 10
237.11425631235642
 20
-733.79685460379915
 30
0.0
 11
250.61425631235664
 21
-723.79685460379915
 31
0.0
  0
ARC
  8
0
  6
CONTINUOUS
 62
               3
  5
27E
 10
248.61425631235676
 20
-745.37943029875441
 30
0.0
 40
4.9999999999999991
 50
0.0
 51
66.421821521747802
  0
LINE
  8
0
  6
CONTINUOUS
 62
               3
  5
27F
 10
237.11425631235642
 20
-740.79685460379869
 30
0.0
 11
414.1142563123563
 21
-740.79685460379869
 31
0.0
  0
ARC
  8
0
  6
CONTINUOUS
 62
               3
  5
280
 10
270.61425631235664
 20
-830.79685460379915
 30
0.0
 40
19.999999999999996
 50
148.21166938283449
 51
167.2698198615592
  0
LINE
  8
0
  6
CONTINUOUS
 62
               3
  5
281
 10
253.61425631235676
 20
-745.37943029875441
 30
0.0
 11
253.61425631235676
 21
-820.26120085094635
 31
0.0
  0
LINE
  8
0
  6
CONTINUOUS
 62
               3
  5
282
 10
397.61425631235653
 20
-815.2612008509459
 30
0.0
 11
397.61425631235653
 21
-745.37943029875441
 31
0.0
  0
LINE
  8
0
  6
CONTINUOUS
 62
               3
  5
283
 10
253.61425631235676
 20
-820.26120085094635
 30
0.0
 11
397.11425631235699
 21
-820.26120085094635
 31
0.0
  0
LINE
  8
0
  6
CONTINUOUS
 62
               3
  5
284
 10
305.61425631235664
 20
-740.79685460379869
 30
0.0
 11
305.61425631235664
 21
-723.79685460379915
 31
0.0
  0
LINE
  8
0
  6
CONTINUOUS
 62
               3
  5
285
 10
345.61425631235664
 20
-723.79685460379915
 30
0.0
 11
345.61425631235664
 21
-740.79685460379869
 31
0.0
  0
LINE
  8
0
  6
CONTINUOUS
 62
               3
  5
286
 10
305.61425631235664
 20
-733.79685460379915
 30
0.0
 11
345.61425631235664
 21
-733.79685460379915
 31
0.0
  0
LINE
  8
0
  6
CONTINUOUS
 62
               3
  5
287
 10
253.33009483835127
 20
-723.79685460379915
 30
0.0
 11
253.33009483835127
 21
-740.79685460379869
 31
0.0
  0
LINE
  8
0
  6
CONTINUOUS
 62
               3
  5
288
 10
239.40375811173141
 20
-733.79685460379915
 30
0.0
 11
239.40375811173141
 21
-740.79685460379869
 31
0.0
  0
LINE
  8
0
  6
CONTINUOUS
 62
               3
  5
289
 10
237.11425631235642
 20
-733.79685460379915
 30
0.0
 11
239.40375811173141
 21
-733.79685460379915
 31
0.0
  0
LINE
  8
0
  6
CONTINUOUS
 62
               3
  5
28A
 10
239.40375811173141
 20
-733.79685460379915
 30
0.0
 11
253.33009483835127
 21
-723.79685460379915
 31
0.0
  0
LINE
  8
0
  6
CONTINUOUS
 62
               3
  5
28B
 10
414.1142563123563
 20
-733.79685460379915
 30
0.0
 11
414.1142563123563
 21
-740.79685460379869
 31
0.0
  0
LINE
  8
0
  6
CONTINUOUS
 62
               3
  5
28C
 10
414.1142563123563
 20
-733.79685460379915
 30
0.0
 11
400.61425631235664
 21
-723.79685460379915
 31
0.0
  0
ARC
  8
0
  6
CONTINUOUS
 62
               3
  5
28D
 10
402.61425631235653
 20
-745.37943029875441
 30
0.0
 40
4.9999999999999991
 50
113.5781784781135
 51
179.9999999998615
  0
LINE
  8
0
  6
CONTINUOUS
 62
               3
  5
28E
 10
397.89841778636088
 20
-723.79685460379915
 30
0.0
 11
397.89841778636088
 21
-740.79685460379869
 31
0.0
  0
LINE
  8
0
  6
CONTINUOUS
 62
               3
  5
28F
 10
411.82475451298188
 20
-733.79685460379915
 30
0.0
 11
411.82475451298188
 21
-740.79685460379869
 31
0.0
  0
LINE
  8
0
  6
CONTINUOUS
 62
               3
  5
290
 10
414.1142563123563
 20
-733.79685460379915
 30
0.0
 11
411.82475451298188
 21
-733.79685460379915
 31
0.0
  0
LINE
  8
0
  6
CONTINUOUS
 62
               3
  5
291
 10
411.82475451298188
 20
-733.79685460379915
 30
0.0
 11
397.89841778636088
 21
-723.79685460379915
 31
0.0
  0
ARC
  8
0
  6
CONTINUOUS
 62
               3
  5
292
 10
260.61425631235664
 20
-952.29685460379915
 30
0.0
 40
2.4999999999999996
 50
89.999999999930751
 51
269.99999999979354
  0
ARC
  8
0
  6
CONTINUOUS
 62
               3
  5
293
 10
400.61425631235664
 20
-952.29685460379915
 30
0.0
 40
2.4999999999999996
 50
269.99999999979354
 51
449.99999999965507
  0
LINE
  8
0
  6
CONTINUOUS
 62
               3
  5
294
 10
185.61425631235664
 20
-944.79685460379915
 30
0.0
 11
186.28581243832099
 21
-944.79685460379915
 31
0.0
  0
LINE
  8
0
  6
CONTINUOUS
 62
               3
  5
295
 10
188.7858124383211
 20
-947.29685460379847
 30
0.0
 11
186.28581243832099
 21
-944.79685460379915
 31
0.0
  0
LINE
  8
0
  6
CONTINUOUS
 62
               3
  5
296
 10
188.7858124383219
 20
-947.29685460379915
 30
0.0
 11
230.95092269459923
 21
-948.76929269965331
 31
0.0
  0
LINE
  8
0
  6
CONTINUOUS
 62
               3
  5
297
 10
249.14979021828918
 20
-965.06854403008515
 30
0.0
 11
234.3119591170194
 21
-950.23071292881582
 31
0.0
  0
ARC
  8
0
  6
CONTINUOUS
 62
               3
  5
298
 10
245.61425631235664
 20
-968.60407793601826
 30
0.0
 40
4.9999999999999991
 50
0.0
 51
44.999999999964892
  0
LINE
  8
0
  6
CONTINUOUS
 62
               3
  5
299
 10
185.61425631235664
 20
-834.79685460379915
 30
0.0
 11
186.28581243832099
 21
-834.79685460379915
 31
0.0
  0
LINE
  8
0
  6
CONTINUOUS
 62
               3
  5
29A
 10
188.7858124383211
 20
-832.29685460379915
 30
0.0
 11
186.28581243832099
 21
-834.79685460379915
 31
0.0
  0
LINE
  8
0
  6
CONTINUOUS
 62
               3
  5
29B
 10
188.78581243832099
 20
-832.29685460379915
 30
0.0
 11
246.4032886404953
 21
-830.28480799864678
 31
0.0
  0
LINE
  8
0
  6
CONTINUOUS
 62
               3
  5
29C
 10
186.28581243832099
 20
-834.79685460379915
 30
0.0
 11
186.28581243832099
 21
-944.79685460379915
 31
0.0
  0
LINE
  8
0
  6
CONTINUOUS
 62
               3
  5
29D
 10
185.61425631235664
 20
-947.39685460379906
 30
0.0
 11
185.61425631235664
 21
-832.19685460379924
 31
0.0
  0
LINE
  8
0
  6
CONTINUOUS
 62
               3
  5
29E
 10
185.61425631235664
 20
-832.19685460379924
 30
0.0
 11
183.11425631235664
 21
-832.19685460379924
 31
0.0
  0
ARC
  8
0
  6
CONTINUOUS
 62
               3
  5
29F
 10
183.11425631235664
 20
-834.69685460379924
 30
0.0
 40
2.5
 50
89.999999999932058
 51
179.99999999985891
  0
LINE
  8
0
  6
CONTINUOUS
 62
               3
  5
2A0
 10
180.61425631235664
 20
-834.69685460379924
 30
0.0
 11
180.61425631235664
 21
-944.89685460379906
 31
0.0
  0
LINE
  8
0
  6
CONTINUOUS
 62
               3
  5
2A1
 10
185.61425631235664
 20
-947.39685460379906
 30
0.0
 11
183.11425631235664
 21
-947.39685460379906
 31
0.0
  0
ARC
  8
0
  6
CONTINUOUS
 62
               3
  5
2A2
 10
183.11425631235664
 20
-944.89685460379906
 30
0.0
 40
2.5
 50
179.99999999985891
 51
269.99999999979229
  0
LINE
  8
0
  6
CONTINUOUS
 62
               3
  5
2A3
 10
188.7858124383211
 20
-832.29685460379915
 30
0.0
 11
188.7858124383219
 21
-947.29685460379915
 31
0.0
  0
ARC
  8
0
  6
CONTINUOUS
 62
               3
  5
2A4
 10
230.77642521108675
 20
-953.7662468347487
 30
0.0
 40
5.0
 50
44.999999999968125
 51
87.999999999932243
  0
ARC
  8
0
  6
CONTINUOUS
 62
               3
  5
2A5
 10
246.22879115698282
 20
-825.28785386355139
 30
0.0
 40
5.0
 50
271.9999999997919
 51
347.26981986141988
  0
CIRCLE
  8
0
  6
CONTINUOUS
 62
               3
  5
2A6
 10
325.61425631235664
 20
-889.79685460379915
 30
0.0
 40
48.5
  0
CIRCLE
  8
0
  6
CONTINUOUS
 62
               3
  5
2A7
 10
325.61425631235664
 20
-889.79685460379915
 30
0.0
 40
47.299999999999997
  0
LINE
  8
0
  6
CONTINUOUS
 62
               3
  5
2A8
 10
293.79445115896209
 20
-921.6166597571937
 30
0.0
 11
292.16810556223294
 21
-923.24300535392285
 31
0.0
  0
LINE
  8
0
  6
CONTINUOUS
 62
               3
  5
2A9
 10
357.43406146575131
 20
-921.6166597571937
 30
0.0
 11
359.06040706248035
 21
-923.24300535392285
 31
0.0
  0
ARC
  8
0
  6
CONTINUOUS
 62
               3
  5
2AA
 10
325.61425631235664
 20
-889.79685460379915
 30
0.0
 40
45.0
 50
224.99999999982739
 51
314.99999999975864
  0
CIRCLE
  8
0
  6
CONTINUOUS
 62
               3
  5
2AB
 10
325.61425631235664
 20
-889.79685460379915
 30
0.0
 40
57.600000000000001
  0
ARC
  8
0
  6
CONTINUOUS
 62
               3
  5
2AC
 10
303.11425631235721
 20
-952.29685460379915
 30
0.0
 40
2.4999999999999996
 50
269.99999999979354
 51
449.99999999965507
  0
ARC
  8
0
  6
CONTINUOUS
 62
               3
  5
2AD
 10
348.11425631235721
 20
-952.29685460379915
 30
0.0
 40
2.4999999999999996
 50
89.999999999929457
 51
269.99999999979354
  0
LINE
  8
0
  6
CONTINUOUS
 62
               3
  5
2AE
 10
260.61425631235664
 20
-954.79685460379915
 30
0.0
 11
303.11425631235721
 21
-954.79685460379915
 31
0.0
  0
LINE
  8
0
  6
CONTINUOUS
 62
               3
  5
2AF
 10
260.61425631235664
 20
-949.79685460379915
 30
0.0
 11
303.11425631235721
 21
-949.79685460379915
 31
0.0
  0
LINE
  8
0
  6
CONTINUOUS
 62
               3
  5
2B0
 10
348.11425631235721
 20
-949.79685460379915
 30
0.0
 11
400.61425631235664
 21
-949.79685460379915
 31
0.0
  0
LINE
  8
0
  6
CONTINUOUS
 62
               3
  5
2B1
 10
348.11425631235721
 20
-954.79685460379915
 30
0.0
 11
400.61425631235664
 21
-954.79685460379915
 31
0.0
  0
LINE
  8
0
  6
DASHED2
 62
               3
  5
2B2
 10
-723.17226690395114
 20
-51.333660945815041
 30
0.0
 11
-723.17226690395114
 21
-1.3336609458150406
 31
0.0
  0
LINE
  8
0
  6
DASHED2
 62
               3
  5
2B3
 10
-644.17226690395137
 20
-51.333660945815041
 30
0.0
 11
-644.17226690395137
 21
-1.3336609458150406
 31
0.0
  0
LINE
  8
0
  6
DASHED2
 62
               3
  5
2B4
 10
276.8277330960488
 20
-51.333660945815268
 30
0.0
 11
276.8277330960488
 21
-1.333660945815268
 31
0.0
  0
LINE
  8
0
  6
DASHED2
 62
               3
  5
2B5
 10
355.82773309604869
 20
-51.333660945815268
 30
0.0
 11
355.82773309604869
 21
-1.333660945815268
 31
0.0
  0
LINE
  8
0
  6
DASHED2
 62
               3
  5
2B6
 10
-223.1722669039512
 20
-51.333660945815041
 30
0.0
 11
-223.1722669039512
 21
-1.3336609458150406
 31
0.0
  0
LINE
  8
0
  6
DASHED2
 62
               3
  5
2B7
 10
-144.17226690395131
 20
-51.333660945815041
 30
0.0
 11
-144.17226690395128
 21
-1.3336609458150406
 31
0.0
  0
LINE
  8
0
  6
CONTINUOUS
 62
               4
  5
2B8
 10
-116.67226690395131
 20
349.66633905418541
 30
0.0
 11
-116.67226690395131
 21
285.70579442104724
 31
0.0
  0
LINE
  8
0
  6
CONTINUOUS
 62
               4
  5
2B9
 10
-116.67226690395131
 20
285.70579442104724
 30
0.0
 11
-135.90049130360251
 21
116.94183479268565
 31
0.0
  0
LINE
  8
0
  6
CONTINUOUS
 62
               4
  5
2BA
 10
-119.17226690395131
 20
348.66633905418519
 30
0.0
 11
-119.17226690395131
 21
285.84775470886677
 31
0.0
  0
LINE
  8
0
  6
CONTINUOUS
 62
               4
  5
2BB
 10
-116.92226690395108
 20
349.38098194704924
 30
0.0
 11
-116.92226690395108
 21
285.7199904498292
 31
0.0
  0
LINE
  8
0
  6
CONTINUOUS
 62
               4
  5
2BC
 10
-119.17226690395131
 20
285.84775470886677
 30
0.0
 11
-138.67550177030085
 21
114.67005919233719
 31
0.0
  0
LINE
  8
0
  6
CONTINUOUS
 62
               4
  5
2BD
 10
-119.17550177030142
 20
285.81936265130241
 30
0.0
 11
-116.67226690395131
 21
285.70579442104724
 31
0.0
  0
LINE
  8
0
  6
CONTINUOUS
 62
               4
  5
2BE
 10
-116.92226690395108
 20
285.7199904498292
 30
0.0
 11
-136.17799235027263
 21
116.71465723265055
 31
0.0
  0
LINE
  8
0
  6
CONTINUOUS
 62
               4
  5
2BF
 10
-116.67226690395131
 20
403.87119565839203
 30
0.0
 11
-116.67226690395131
 21
352.66633905418519
 31
0.0
  0
LINE
  8
0
  6
CONTINUOUS
 62
               4
  5
2C0
 10
-116.92226690395108
 20
403.71689191159254
 30
0.0
 11
-116.92226690395108
 21
352.9516961613208
 31
0.0
  0
LINE
  8
0
  6
CONTINUOUS
 62
               4
  5
2C1
 10
-119.17226690395131
 20
399.54106863946993
 30
0.0
 11
-119.17226690395131
 21
353.66633905418519
 31
0.0
  0
LINE
  8
0
  6
CONTINUOUS
 62
               4
  5
2C2
 10
-138.17226690395125
 20
114.67005919233719
 30
0.0
 11
-135.90049130360251
 21
116.94183479268565
 31
0.0
  0
LINE
  8
0
  6
CONTINUOUS
 62
               4
  5
2C3
 10
-138.67550177030091
 20
114.67005919233662
 30
0.0
 11
-135.90049130360251
 21
116.94183479268565
 31
0.0
  0
LINE
  8
0
  6
CONTINUOUS
 62
               4
  5
2C4
 10
322.32773309604835
 20
352.58041890265167
 30
0.0
 11
310.32773309604846
 21
352.58041890265167
 31
0.0
  0
ARC
  8
0
  6
CONTINUOUS
 62
               4
  5
2C5
 10
308.26608856263346
 20
351.16633905418502
 30
0.0
 40
2.4999999999999996
 50
34.446185822123951
 51
89.999999999948997
  0
ARC
  8
0
  6
CONTINUOUS
 62
               4
  5
2C6
 10
324.38937762946392
 20
351.16633905418502
 30
0.0
 40
2.4999999999999996
 50
89.999999999948997
 51
145.55381417777241
  0
LINE
  8
0
  6
CONTINUOUS
 62
               4
  5
2C7
 10
322.32773309604835
 20
349.75225920571864
 30
0.0
 11
310.32773309604846
 21
349.75225920571864
 31
0.0
  0
ARC
  8
0
  6
CONTINUOUS
 62
               4
  5
2C8
 10
308.26608856263346
 20
351.16633905418502
 30
0.0
 40
2.4999999999999996
 50
269.99999999984306
 51
325.55381417766841
  0
ARC
  8
0
  6
CONTINUOUS
 62
               4
  5
2C9
 10
324.38937762946392
 20
351.16633905418502
 30
0.0
 40
2.4999999999999996
 50
214.44618582202074
 51
269.99999999984306
  0
LINE
  8
0
  6
CONTINUOUS
 62
               4
  5
2CA
 10
308.11073309604848
 20
348.66633905418502
 30
0.0
 11
308.11073309604848
 21
114.67005919233702
 31
0.0
  0
LINE
  8
0
  6
CONTINUOUS
 62
               4
  5
2CB
 10
324.54473309604833
 20
348.66633905418502
 30
0.0
 11
324.54473309604833
 21
114.67005919233702
 31
0.0
  0
LINE
  8
0
  6
CONTINUOUS
 62
               4
  5
2CC
 10
310.32773309604846
 20
349.75225920571864
 30
0.0
 11
310.32773309604846
 21
116.94183479268611
 31
0.0
  0
LINE
  8
0
  6
CONTINUOUS
 62
               4
  5
2CD
 10
322.32773309604835
 20
116.94183479268611
 30
0.0
 11
322.32773309604835
 21
349.75225920571864
 31
0.0
  0
LINE
  8
0
  6
CONTINUOUS
 62
               4
  5
2CE
 10
324.54473309604833
 20
285.8193626513023
 30
0.0
 11
308.11073309604848
 21
285.8193626513023
 31
0.0
  0
LINE
  8
0
  6
CONTINUOUS
 62
               4
  5
2CF
 10
310.32773309604846
 20
116.94183479268611
 30
0.0
 11
322.32773309604835
 21
116.94183479268611
 31
0.0
  0
LINE
  8
0
  6
CONTINUOUS
 62
               4
  5
2D0
 10
308.11073309604848
 20
114.67005919233702
 30
0.0
 11
310.32773309604846
 21
116.94183479268611
 31
0.0
  0
LINE
  8
0
  6
CONTINUOUS
 62
               4
  5
2D1
 10
322.32773309604835
 20
116.94183479268611
 30
0.0
 11
324.54473309604833
 21
114.67005919233702
 31
0.0
  0
LINE
  8
0
  6
CONTINUOUS
 62
               4
  5
2D2
 10
324.54473309604833
 20
348.66633905418502
 30
0.0
 11
324.38937762946392
 21
348.66633905418502
 31
0.0
  0
LINE
  8
0
  6
CONTINUOUS
 62
               4
  5
2D3
 10
324.5447330960489
 20
353.66633905418502
 30
0.0
 11
324.38937762946392
 21
353.66633905418502
 31
0.0
  0
LINE
  8
0
  6
CONTINUOUS
 62
               4
  5
2D4
 10
308.11073309604848
 20
353.66633905418502
 30
0.0
 11
308.26608856263346
 21
353.66633905418502
 31
0.0
  0
LINE
  8
0
  6
CONTINUOUS
 62
               4
  5
2D5
 10
308.11073309604848
 20
348.66633905418502
 30
0.0
 11
308.26608856263346
 21
348.66633905418502
 31
0.0
  0
LINE
  8
0
  6
CONTINUOUS
 62
               4
  5
2D6
 10
-116.92226690395108
 20
475.97142464948081
 30
0.0
 11
-116.92226690395108
 21
352.9516961613208
 31
0.0
  0
LINE
  8
0
  6
CONTINUOUS
 62
               4
  5
2D7
 10
-116.67226690395131
 20
476.22142464948098
 30
0.0
 11
-116.67226690395131
 21
352.66633905418519
 31
0.0
  0
LINE
  8
0
  6
CONTINUOUS
 62
               4
  5
2D8
 10
-119.17226690395131
 20
467.34595668577128
 30
0.0
 11
-119.17226690395131
 21
353.66633905418519
 31
0.0
  0
LINE
  8
0
  6
CONTINUOUS
 62
               4
  5
2D9
 10
-116.67226690395131
 20
476.22142464948098
 30
0.0
 11
-124.67226690395168
 21
484.22142464948138
 31
0.0
  0
LINE
  8
0
  6
CONTINUOUS
 62
               4
  5
2DA
 10
-124.67226690395168
 20
484.22142464948138
 30
0.0
 11
-125.17226690395123
 21
484.22142464948138
 31
0.0
  0
LINE
  8
0
  6
CONTINUOUS
 62
               4
  5
2DB
 10
-116.92226690395108
 20
475.97142464948081
 30
0.0
 11
-125.17226690395123
 21
484.22142464948138
 31
0.0
  0
LINE
  8
0
  6
CONTINUOUS
 62
               4
  5
2DC
 10
-125.17226690395123
 20
479.59340539968713
 30
0.0
 11
-125.17226690395123
 21
484.22142464948195
 31
0.0
  0
LINE
  8
0
  6
CONTINUOUS
 62
               4
  5
2DD
 10
-116.67226690395131
 20
476.22142464948098
 30
0.0
 11
-116.92226690395108
 21
475.97142464948081
 31
0.0
  0
ARC
  8
0
  6
CONTINUOUS
 62
               4
  5
2DE
 10
-134.67226690395131
 20
467.34595668577128
 30
0.0
 40
15.5
 50
0.0
 51
52.200277564552351
  0
LINE
  8
0
  6
CONTINUOUS
 62
               4
  5
2DF
 10
324.54473309604845
 20
469.05775164683428
 30
0.0
 11
324.5447330960489
 21
353.66633905418502
 31
0.0
  0
LINE
  8
0
  6
CONTINUOUS
 62
               4
  5
2E0
 10
322.32773309604835
 20
352.75225920571847
 30
0.0
 11
322.32773309604835
 21
479.58952809956941
 31
0.0
  0
LINE
  8
0
  6
CONTINUOUS
 62
               4
  5
2E1
 10
308.11073309604859
 20
469.05775164683428
 30
0.0
 11
308.11073309604848
 21
353.66633905418502
 31
0.0
  0
LINE
  8
0
  6
CONTINUOUS
 62
               4
  5
2E2
 10
310.32773309604846
 20
479.58952809956941
 30
0.0
 11
310.32773309604846
 21
352.75225920571847
 31
0.0
  0
LINE
  8
0
  6
CONTINUOUS
 62
               4
  5
2E3
 10
310.32773309604846
 20
479.58952809956941
 30
0.0
 11
322.32773309604835
 21
479.58952809956941
 31
0.0
  0
ARC
  8
0
  6
CONTINUOUS
 62
               4
  5
2E4
 10
290.54376728408266
 20
469.05775164683428
 30
0.0
 40
17.566965811965957
 50
0.0
 51
36.851448659216778
  0
LINE
  8
0
  6
CONTINUOUS
 62
               4
  5
2E5
 10
328.05473309604901
 20
484.59340539968696
 30
0.0
 11
304.6007330960486
 21
484.59340539968696
 31
0.0
  0
ARC
  8
0
  6
CONTINUOUS
 62
               4
  5
2E6
 10
342.11169890801438
 20
469.05775164683428
 30
0.0
 40
17.566965811965957
 50
143.14855134071399
 51
179.99999999993082
  0
LINE
  8
0
  6
CONTINUOUS
 62
               4
  5
2E7
 10
304.6007330960486
 20
479.59340539968696
 30
0.0
 11
304.6007330960486
 21
484.59340539968696
 31
0.0
  0
LINE
  8
0
  6
CONTINUOUS
 62
               4
  5
2E8
 10
328.05473309604901
 20
479.59340539968696
 30
0.0
 11
328.05473309604901
 21
484.59340539968696
 31
0.0
  0
LINE
  8
0
  6
CONTINUOUS
 62
               4
  5
2E9
 10
304.6007330960486
 20
484.59340539968696
 30
0.0
 11
310.32773309604858
 21
479.59340539968696
 31
0.0
  0
LINE
  8
0
  6
CONTINUOUS
 62
               4
  5
2EA
 10
322.32773309604846
 20
479.59340539968696
 30
0.0
 11
328.05473309604901
 21
484.59340539968696
 31
0.0
  0
LINE
  8
0
  6
CONTINUOUS
 62
               4
  5
2EB
 10
310.32773309604858
 20
479.59340539968696
 30
0.0
 11
322.32773309604846
 21
479.59340539968696
 31
0.0
  0
POINT
  8
0
  6
CONTINUOUS
 62
               4
  5
2EC
 10
-428.17226690395103
 20
-402.83366094581487
 30
0.0
  0
POINT
  8
0
  6
CONTINUOUS
 62
               4
  5
2ED
 10
-139.1722669039512
 20
-402.8336609458151
 30
0.0
  0
POINT
  8
0
  6
CONTINUOUS
 62
               4
  5
2EE
 10
-232.67226690395103
 20
-309.33366094581521
 30
0.0
  0
POINT
  8
0
  6
CONTINUOUS
 62
               4
  5
2EF
 10
370.11425631235664
 20
-559.69742085521489
 30
0.0
  0
POINT
  8
0
  6
CONTINUOUS
 62
               4
  5
2F0
 10
181.21425631235678
 20
-459.79742085521451
 30
0.0
  0
LINE
  8
0
  6
CONTINUOUS
 62
               4
  5
2F1
 10
402.61425631235653
 20
-820.26120085094635
 30
0.0
 11
397.61425631235653
 21
-815.26120085094635
 31
0.0
  0
ARC
  8
0
  6
CONTINUOUS
 62
               4
  5
2F2
 10
380.11425631235653
 20
-830.79685460379915
 30
0.0
 40
19.999999999999996
 50
0.0
 51
31.788330617027277
  0
LINE
  8
0
  6
CONTINUOUS
 62
               4
  5
2F3
 10
397.11425631235699
 20
-820.26120085094635
 30
0.0
 11
397.11425631235699
 21
-815.2612008509459
 31
0.0
  0
LINE
  8
0
  6
CONTINUOUS
 62
               4
  5
2F4
 10
397.61425631235653
 20
-815.26120085094635
 30
0.0
 11
397.11425631235699
 21
-815.26120085094635
 31
0.0
  0
LINE
  8
0
  6
CONTINUOUS
 62
               4
  5
2F5
 10
402.36425631235676
 20
-820.51120085094635
 30
0.0
 11
397.11425631235699
 21
-815.26120085094635
 31
0.0
  0
LINE
  8
0
  6
CONTINUOUS
 62
               4
  5
2F6
 10
402.36425631235676
 20
-820.51120085094635
 30
0.0
 11
402.61425631235653
 21
-820.26120085094635
 31
0.0
  0
LINE
  8
0
  6
CONTINUOUS
 62
               4
  5
2F7
 10
402.61425631235653
 20
-820.26120085094635
 30
0.0
 11
402.61425631235653
 21
-950.94987820091615
 31
0.0
  0
LINE
  8
0
  6
CONTINUOUS
 62
               4
  5
2F8
 10
402.36425631235676
 20
-820.51120085094635
 30
0.0
 11
402.36425631235676
 21
-950.66452109378065
 31
0.0
  0
LINE
  8
0
  6
CONTINUOUS
 62
               4
  5
2F9
 10
400.11425631235653
 20
-830.64383100668192
 30
0.0
 11
400.11425631235653
 21
-949.79685460379915
 31
0.0
  0
POINT
  8
0
  6
CONTINUOUS
 62
               4
  5
2FA
 10
181.21425631235667
 20
-845.29685460379915
 30
0.0
  0
LINE
  8
0
  6
DASHDOT
 62
               4
  5
2FB
 10
316.3277330960488
 20
599.81936265130219
 30
0.0
 11
316.32773309604886
 21
-86.222613765147514
 31
0.0
  0
LINE
  8
0
  6
DASHDOT
 62
               4
  5
2FC
 10
-183.6722669039512
 20
599.81936265130219
 30
0.0
 11
-183.67226690395117
 21
341.36665685964476
 31
0.0
  0
LINE
  8
0
  6
DASHDOT
 62
               4
  5
2FD
 10
-183.67226690395117
 20
331.95107244406029
 30
0.0
 11
-183.67226690395125
 21
-86.222613765147514
 31
0.0
  0
LINE
  8
0
  6
DASHDOT
 62
               4
  5
2FE
 10
-236.63651604867704
 20
405.16633905418519
 30
0.0
 11
-335.67226690395103
 21
405.16633905418519
 31
0.0
  0
LINE
  8
0
  6
DASHDOT
 62
               4
  5
2FF
 10
-183.67226690395137
 20
968.60407793601803
 30
0.0
 11
-183.67226690395123
 21
699.70640957703665
 31
0.0
  0
LINE
  8
0
  6
DASHDOT
 62
               4
  5
300
 10
-335.67226690395103
 20
860.10407793601826
 30
0.0
 11
-75.172266903950955
 21
860.10407793601826
 31
0.0
  0
LINE
  8
0
  6
DASHDOT
 62
               4
  5
301
 10
-683.67226690395114
 20
599.81936265130219
 30
0.0
 11
-683.67226690395114
 21
-86.222613765147514
 31
0.0
  0
LINE
  8
0
  6
DASHDOT
 62
               4
  5
302
 10
-620.4021447926068
 20
405.16633905418519
 30
0.0
 11
-746.30276383161709
 21
405.16633905418519
 31
0.0
  0
LINE
  8
0
  6
DASHDOT
 62
               4
  5
303
 10
-120.40214479260675
 20
405.16633905418519
 30
0.0
 11
-246.30276383161714
 21
405.16633905418519
 31
0.0
  0
LINE
  8
0
  6
DASHDOT
 62
               4
  5
304
 10
-630.70801775922541
 20
405.16633905418519
 30
0.0
 11
-531.67226690395137
 21
405.16633905418519
 31
0.0
  0
LINE
  8
0
  6
DASHDOT
 62
               4
  5
305
 10
-283.6722669039512
 20
-511.8336609458151
 30
0.0
 11
-283.67226690395114
 21
-395.8336609458151
 31
0.0
  0
LINE
  8
0
  6
DASHDOT
 62
               4
  5
306
 10
-341.67226690395114
 20
-453.8336609458151
 30
0.0
 11
-225.67226690395114
 21
-453.8336609458151
 31
0.0
  0
LINE
  8
0
  6
DASHDOT
 62
               4
  5
307
 10
-333.67226690395114
 20
-461.8336609458151
 30
0.0
 11
-233.67226690395114
 21
-461.8336609458151
 31
0.0
  0
LINE
  8
0
  6
DASHDOT
 62
               4
  5
308
 10
-447.5984951605401
 20
-461.8336609458151
 30
0.0
 11
-382.12919934047068
 21
-461.8336609458151
 31
0.0
  0
LINE
  8
0
  6
DASHDOT
 62
               4
  5
309
 10
-506.17226690395114
 20
-453.8336609458151
 30
0.0
 11
-407.572266903951
 21
-453.8336609458151
 31
0.0
  0
LINE
  8
0
  6
DASHDOT
 62
               4
  5
30A
 10
-119.7460386473622
 20
-461.83366094581532
 30
0.0
 11
-185.21533446743152
 21
-461.8336609458151
 31
0.0
  0
LINE
  8
0
  6
DASHDOT
 62
               4
  5
30B
 10
-61.172266903951126
 20
-453.83366094581532
 30
0.0
 11
-159.77226690395119
 21
-453.8336609458151
 31
0.0
  0
LINE
  8
0
  6
DASHDOT
 62
               4
  5
30C
 10
-283.6722669039512
 20
-231.3336609458151
 30
0.0
 11
-283.6722669039512
 21
-355.37672850929545
 31
0.0
  0
LINE
  8
0
  6
DASHDOT
 62
               4
  5
30D
 10
325.61425631235664
 20
-306.79742085521474
 30
0.0
 11
325.61425631235664
 21
-577.34420765504115
 31
0.0
  0
LINE
  8
0
  6
DASHDOT
 62
               4
  5
30E
 10
163.61425631235676
 20
-415.29742085521474
 30
0.0
 11
434.11425631235687
 21
-415.29742085521474
 31
0.0
  0
LINE
  8
0
  6
DASHDOT
 62
               4
  5
30F
 10
325.61425631235664
 20
-605.89742085521493
 30
0.0
 11
325.61425631235664
 21
-482.29742085521451
 31
0.0
  0
LINE
  8
0
  6
DASHDOT
 62
               4
  5
310
 10
125.61425631235687
 20
-415.29742085521451
 30
0.0
 11
258.61425631235687
 21
-415.29742085521451
 31
0.0
  0
LINE
  8
0
  6
DASHDOT
 62
               4
  5
311
 10
394.13948108758137
 20
-889.79685460379915
 30
0.0
 11
163.88564301892842
 21
-889.79685460379915
 31
0.0
  0
LINE
  8
0
  6
DASHDOT
 62
               4
  5
312
 10
325.61425631235664
 20
-703.79685460379915
 30
0.0
 11
325.61425631235664
 21
-954.79685460379915
 31
0.0
  0
LINE
  8
0
  6
DASHDOT
 62
               4
  5
313
 10
275.61425631235664
 20
-904.29685460379915
 30
0.0
 11
375.61425631235687
 21
-904.29685460379915
 31
0.0
  0
LINE
  8
0
  6
DASHDOT
 62
               4
  5
314
 10
125.61425631235664
 20
-896.29685460379915
 30
0.0
 11
200.01425631235662
 21
-896.29685460379915
 31
0.0
  0
LINE
  8
0
  6
DASHED2
 62
               4
  5
315
 10
-228.1722669039512
 20
498.66633905418519
 30
0.0
 11
-139.1722669039512
 21
498.66633905418519
 31
0.0
  0
LINE
  8
0
  6
DASHED2
 62
               4
  5
316
 10
-728.17226690395114
 20
498.66633905418519
 30
0.0
 11
-639.17226690395114
 21
498.66633905418519
 31
0.0
  0
LINE
  8
0
  6
DASHED2
 62
               4
  5
317
 10
271.8277330960488
 20
498.66633905418502
 30
0.0
 11
360.8277330960488
 21
498.66633905418502
 31
0.0
  0
LINE
  8
0
  6
DASHED2
 62
               4
  5
318
 10
268.61425631235676
 20
-788.79685460379915
 30
0.0
 11
382.61425631235653
 21
-788.79685460379915
 31
0.0
  0
CIRCLE
  8
0
  6
DASHED
 62
               4
  5
319
 10
-283.6722669039512
 20
-453.8336609458151
 30
0.0
 40
33.5
  0
POINT
  8
0
  6
CONTINUOUS
 62
               5
  5
31A
 10
-283.67226690395114
 20
-447.3336609458151
 30
0.0
  0
POINT
  8
0
  6
CONTINUOUS
 62
               5
  5
31B
 10
-456.90233841391137
 20
-448.62445502070381
 30
0.0
  0
POINT
  8
0
  6
CONTINUOUS
 62
               5
  5
31C
 10
-110.44219539399084
 20
-448.62445502070403
 30
0.0
  0
POINT
  8
0
  6
CONTINUOUS
 62
               5
  5
31D
 10
-278.46306097884008
 20
-280.60358943585487
 30
0.0
  0
POINT
  8
0
  6
CONTINUOUS
 62
               5
  5
31E
 10
209.3443278223171
 20
-414.00662678032558
 30
0.0
  0
POINT
  8
0
  6
CONTINUOUS
 62
               5
  5
31F
 10
209.34432782231698
 20
-891.08764867868808
 30
0.0
  0
CIRCLE
  8
0
  6
CONTINUOUS
 62
               7
  5
320
 10
-283.67226690395114
 20
-453.8336609458151
 30
0.0
 40
38.0
  0
LINE
  8
0
  6
CONTINUOUS
 62
               7
  5
321
 10
-428.17226690395103
 20
-415.83366094581487
 30
0.0
 11
-428.17226690395114
 21
-491.82842482514042
 31
0.0
  0
LINE
  8
0
  6
CONTINUOUS
 62
               7
  5
322
 10
-428.17226690395103
 20
-402.83366094581487
 30
0.0
 11
-427.572266903951
 21
-402.83366094581487
 31
0.0
  0
LINE
  8
0
  6
CONTINUOUS
 62
               7
  5
323
 10
-486.17226690395114
 20
-490.83366094581487
 30
0.0
 11
-486.17226690395114
 21
-416.83366094581487
 31
0.0
  0
LINE
  8
0
  6
CONTINUOUS
 62
               7
  5
324
 10
-428.17226690395114
 20
-491.83366094581487
 30
0.0
 11
-403.572266903951
 21
-491.83366094581487
 31
0.0
  0
LINE
  8
0
  6
CONTINUOUS
 62
               7
  5
325
 10
-486.17226690395114
 20
-490.83366094581487
 30
0.0
 11
-485.17226690395114
 21
-491.83366094581487
 31
0.0
  0
LINE
  8
0
  6
CONTINUOUS
 62
               7
  5
326
 10
-485.17226690395114
 20
-415.83366094581487
 30
0.0
 11
-428.17226690395103
 21
-415.83366094581487
 31
0.0
  0
LINE
  8
0
  6
CONTINUOUS
 62
               7
  5
327
 10
-393.17226690395114
 20
-490.83366094581487
 30
0.0
 11
-394.17226690395114
 21
-491.83366094581487
 31
0.0
  0
CIRCLE
  8
0
  6
CONTINUOUS
 62
               7
  5
328
 10
-283.6722669039512
 20
-461.8336609458151
 30
0.0
 40
30.0
  0
CIRCLE
  8
0
  6
CONTINUOUS
 62
               7
  5
329
 10
-283.6722669039512
 20
-461.8336609458151
 30
0.0
 40
0.1981604108525852
  0
CIRCLE
  8
0
  6
CONTINUOUS
 62
               7
  5
32A
 10
-283.6722669039512
 20
-461.8336609458151
 30
0.0
 40
25.5
  0
LINE
  8
0
  6
CONTINUOUS
 62
               7
  5
32B
 10
-402.572266903951
 20
-490.83366094581487
 30
0.0
 11
-402.572266903951
 21
-432.8336609458151
 31
0.0
  0
LINE
  8
0
  6
CONTINUOUS
 62
               7
  5
32C
 10
-428.17226690395103
 20
-431.8336609458151
 30
0.0
 11
-403.572266903951
 21
-431.8336609458151
 31
0.0
  0
LINE
  8
0
  6
CONTINUOUS
 62
               7
  5
32D
 10
-428.17226690395114
 20
-491.82842482514042
 30
0.0
 11
-485.17226690395114
 21
-491.83366094581487
 31
0.0
  0
LINE
  8
0
  6
CONTINUOUS
 62
               7
  5
32E
 10
-485.17226690395114
 20
-415.83366094581487
 30
0.0
 11
-486.17226690395114
 21
-416.83366094581487
 31
0.0
  0
LINE
  8
0
  6
CONTINUOUS
 62
               7
  5
32F
 10
-403.572266903951
 20
-431.8336609458151
 30
0.0
 11
-402.572266903951
 21
-432.8336609458151
 31
0.0
  0
LINE
  8
0
  6
CONTINUOUS
 62
               7
  5
330
 10
-402.572266903951
 20
-490.83366094581487
 30
0.0
 11
-403.572266903951
 21
-491.83366094581487
 31
0.0
  0
LINE
  8
0
  6
CONTINUOUS
 62
               7
  5
331
 10
-139.1722669039512
 20
-415.8336609458151
 30
0.0
 11
-139.1722669039512
 21
-491.82842482514064
 31
0.0
  0
LINE
  8
0
  6
CONTINUOUS
 62
               7
  5
332
 10
-139.1722669039512
 20
-402.8336609458151
 30
0.0
 11
-139.77226690395116
 21
-402.8336609458151
 31
0.0
  0
LINE
  8
0
  6
CONTINUOUS
 62
               7
  5
333
 10
-81.172266903951183
 20
-490.8336609458151
 30
0.0
 11
-81.172266903951098
 21
-416.8336609458151
 31
0.0
  0
LINE
  8
0
  6
CONTINUOUS
 62
               7
  5
334
 10
-139.1722669039512
 20
-491.8336609458151
 30
0.0
 11
-163.77226690395125
 21
-491.8336609458151
 31
0.0
  0
LINE
  8
0
  6
CONTINUOUS
 62
               7
  5
335
 10
-81.172266903951183
 20
-490.8336609458151
 30
0.0
 11
-82.172266903951183
 21
-491.8336609458151
 31
0.0
  0
LINE
  8
0
  6
CONTINUOUS
 62
               7
  5
336
 10
-82.172266903951098
 20
-415.8336609458151
 30
0.0
 11
-139.1722669039512
 21
-415.8336609458151
 31
0.0
  0
LINE
  8
0
  6
CONTINUOUS
 62
               7
  5
337
 10
-174.17226690395117
 20
-490.8336609458151
 30
0.0
 11
-173.17226690395117
 21
-491.8336609458151
 31
0.0
  0
LINE
  8
0
  6
CONTINUOUS
 62
               7
  5
338
 10
-164.77226690395125
 20
-490.8336609458151
 30
0.0
 11
-164.77226690395119
 21
-432.83366094581521
 31
0.0
  0
LINE
  8
0
  6
CONTINUOUS
 62
               7
  5
339
 10
-139.1722669039512
 20
-431.83366094581521
 30
0.0
 11
-163.77226690395119
 21
-431.83366094581521
 31
0.0
  0
LINE
  8
0
  6
CONTINUOUS
 62
               7
  5
33A
 10
-139.1722669039512
 20
-491.82842482514064
 30
0.0
 11
-82.172266903951183
 21
-491.8336609458151
 31
0.0
  0
LINE
  8
0
  6
CONTINUOUS
 62
               7
  5
33B
 10
-82.172266903951098
 20
-415.8336609458151
 30
0.0
 11
-81.172266903951098
 21
-416.8336609458151
 31
0.0
  0
LINE
  8
0
  6
CONTINUOUS
 62
               7
  5
33C
 10
-163.77226690395119
 20
-431.83366094581521
 30
0.0
 11
-164.77226690395119
 21
-432.83366094581521
 31
0.0
  0
LINE
  8
0
  6
CONTINUOUS
 62
               7
  5
33D
 10
-164.77226690395125
 20
-490.8336609458151
 30
0.0
 11
-163.77226690395125
 21
-491.8336609458151
 31
0.0
  0
LINE
  8
0
  6
CONTINUOUS
 62
               7
  5
33E
 10
-245.67226690395103
 20
-309.33366094581521
 30
0.0
 11
-321.66703078327657
 21
-309.3336609458151
 31
0.0
  0
LINE
  8
0
  6
CONTINUOUS
 62
               7
  5
33F
 10
-232.67226690395103
 20
-308.73366094581519
 30
0.0
 11
-232.67226690395103
 21
-309.33366094581521
 31
0.0
  0
LINE
  8
0
  6
CONTINUOUS
 62
               7
  5
340
 10
-320.67226690395091
 20
-251.3336609458151
 30
0.0
 11
-246.67226690395097
 21
-251.3336609458151
 31
0.0
  0
LINE
  8
0
  6
CONTINUOUS
 62
               7
  5
341
 10
-313.67226690395103
 20
-309.3336609458151
 30
0.0
 11
-313.67226690395103
 21
-333.93366094581523
 31
0.0
  0
LINE
  8
0
  6
CONTINUOUS
 62
               7
  5
342
 10
-320.67226690395091
 20
-251.3336609458151
 30
0.0
 11
-321.67226690395091
 21
-252.3336609458151
 31
0.0
  0
LINE
  8
0
  6
CONTINUOUS
 62
               7
  5
343
 10
-245.67226690395097
 20
-252.3336609458151
 30
0.0
 11
-245.67226690395103
 21
-309.33366094581521
 31
0.0
  0
LINE
  8
0
  6
CONTINUOUS
 62
               7
  5
344
 10
-312.67226690395103
 20
-344.3336609458151
 30
0.0
 11
-313.67226690395103
 21
-343.3336609458151
 31
0.0
  0
LINE
  8
0
  6
CONTINUOUS
 62
               7
  5
345
 10
-312.67226690395103
 20
-334.93366094581523
 30
0.0
 11
-254.6722669039512
 21
-334.93366094581523
 31
0.0
  0
LINE
  8
0
  6
CONTINUOUS
 62
               7
  5
346
 10
-253.6722669039512
 20
-309.33366094581521
 30
0.0
 11
-253.6722669039512
 21
-333.93366094581523
 31
0.0
  0
LINE
  8
0
  6
CONTINUOUS
 62
               7
  5
347
 10
-321.66703078327657
 20
-309.3336609458151
 30
0.0
 11
-321.67226690395091
 21
-252.3336609458151
 31
0.0
  0
LINE
  8
0
  6
CONTINUOUS
 62
               7
  5
348
 10
-245.67226690395097
 20
-252.3336609458151
 30
0.0
 11
-246.67226690395097
 21
-251.3336609458151
 31
0.0
  0
LINE
  8
0
  6
CONTINUOUS
 62
               7
  5
349
 10
-253.6722669039512
 20
-333.93366094581523
 30
0.0
 11
-254.6722669039512
 21
-334.93366094581523
 31
0.0
  0
LINE
  8
0
  6
CONTINUOUS
 62
               7
  5
34A
 10
-312.67226690395103
 20
-334.93366094581523
 30
0.0
 11
-313.67226690395103
 21
-333.93366094581523
 31
0.0
  0
LINE
  8
0
  6
CONTINUOUS
 62
               7
  5
34B
 10
296.61425631235664
 20
-585.8974208552147
 30
0.0
 11
354.61425631235664
 21
-585.8974208552147
 31
0.0
  0
LINE
  8
0
  6
CONTINUOUS
 62
               7
  5
34C
 10
370.11425631235664
 20
-560.2974208552148
 30
0.0
 11
281.11425631235664
 21
-560.2974208552148
 31
0.0
  0
LINE
  8
0
  6
CONTINUOUS
 62
               7
  5
34D
 10
370.11425631235664
 20
-559.69742085521489
 30
0.0
 11
370.11425631235664
 21
-560.2974208552148
 31
0.0
  0
LINE
  8
0
  6
CONTINUOUS
 62
               7
  5
34E
 10
282.11425631235664
 20
-502.29742085521451
 30
0.0
 11
369.11425631235664
 21
-502.29742085521451
 31
0.0
  0
LINE
  8
0
  6
CONTINUOUS
 62
               7
  5
34F
 10
370.11425631235664
 20
-560.16296910973438
 30
0.0
 11
370.11425631235664
 21
-503.29742085521451
 31
0.0
  0
LINE
  8
0
  6
CONTINUOUS
 62
               7
  5
350
 10
295.61425631235664
 20
-584.8974208552147
 30
0.0
 11
295.61425631235664
 21
-560.2974208552148
 31
0.0
  0
LINE
  8
0
  6
CONTINUOUS
 62
               7
  5
351
 10
355.61425631235664
 20
-584.8974208552147
 30
0.0
 11
355.61425631235664
 21
-560.2974208552148
 31
0.0
  0
LINE
  8
0
  6
CONTINUOUS
 62
               7
  5
352
 10
355.61425631235664
 20
-584.8974208552147
 30
0.0
 11
354.61425631235664
 21
-585.8974208552147
 31
0.0
  0
LINE
  8
0
  6
CONTINUOUS
 62
               7
  5
353
 10
370.11425631235664
 20
-503.29742085521451
 30
0.0
 11
369.11425631235664
 21
-502.29742085521451
 31
0.0
  0
LINE
  8
0
  6
CONTINUOUS
 62
               7
  5
354
 10
296.61425631235664
 20
-585.8974208552147
 30
0.0
 11
295.61425631235664
 21
-584.8974208552147
 31
0.0
  0
LINE
  8
0
  6
CONTINUOUS
 62
               7
  5
355
 10
282.11425631235664
 20
-502.29742085521451
 30
0.0
 11
281.11425631235664
 21
-503.29742085521451
 31
0.0
  0
LINE
  8
0
  6
CONTINUOUS
 62
               7
  5
356
 10
281.11425631235664
 20
-560.16296910973438
 30
0.0
 11
281.11425631235664
 21
-503.29742085521451
 31
0.0
  0
LINE
  8
0
  6
CONTINUOUS
 62
               7
  5
357
 10
180.61425631235664
 20
-459.79742085521451
 30
0.0
 11
180.61425631235687
 21
-370.80265697588897
 31
0.0
  0
LINE
  8
0
  6
CONTINUOUS
 62
               7
  5
358
 10
181.21425631235678
 20
-459.79742085521451
 30
0.0
 11
180.61425631235664
 21
-459.79742085521451
 31
0.0
  0
LINE
  8
0
  6
CONTINUOUS
 62
               7
  5
359
 10
145.61425631235687
 20
-378.29742085521451
 30
0.0
 11
145.61425631235664
 21
-452.29742085521451
 31
0.0
  0
LINE
  8
0
  6
CONTINUOUS
 62
               7
  5
35A
 10
238.61425631235687
 20
-371.79742085521474
 30
0.0
 11
238.61425631235664
 21
-458.79742085521451
 31
0.0
  0
LINE
  8
0
  6
CONTINUOUS
 62
               7
  5
35B
 10
180.61425631235664
 20
-459.79742085521451
 30
0.0
 11
237.61425631235664
 21
-459.79742085521451
 31
0.0
  0
LINE
  8
0
  6
CONTINUOUS
 62
               7
  5
35C
 10
146.61425631235687
 20
-377.29742085521451
 30
0.0
 11
180.61425631235687
 21
-377.29742085521451
 31
0.0
  0
LINE
  8
0
  6
CONTINUOUS
 62
               7
  5
35D
 10
237.61425631235664
 20
-459.79742085521451
 30
0.0
 11
238.61425631235664
 21
-458.79742085521451
 31
0.0
  0
LINE
  8
0
  6
CONTINUOUS
 62
               7
  5
35E
 10
238.61425631235687
 20
-371.79742085521474
 30
0.0
 11
237.61425631235687
 21
-370.79742085521474
 31
0.0
  0
LINE
  8
0
  6
CONTINUOUS
 62
               7
  5
35F
 10
146.61425631235664
 20
-453.29742085521451
 30
0.0
 11
180.61425631235687
 21
-453.29742085521451
 31
0.0
  0
LINE
  8
0
  6
CONTINUOUS
 62
               7
  5
360
 10
146.61425631235664
 20
-453.29742085521451
 30
0.0
 11
145.61425631235664
 21
-452.29742085521451
 31
0.0
  0
LINE
  8
0
  6
CONTINUOUS
 62
               7
  5
361
 10
145.61425631235687
 20
-378.29742085521451
 30
0.0
 11
146.61425631235687
 21
-377.29742085521451
 31
0.0
  0
LINE
  8
0
  6
CONTINUOUS
 62
               7
  5
362
 10
180.61425631235687
 20
-370.79742085521451
 30
0.0
 11
237.61425631235687
 21
-370.79742085521451
 31
0.0
  0
CIRCLE
  8
0
  6
CONTINUOUS
 62
               7
  5
363
 10
325.61425631235664
 20
-904.29685460379915
 30
0.0
 40
25.5
  0
CIRCLE
  8
0
  6
CONTINUOUS
 62
               7
  5
364
 10
325.61425631235664
 20
-889.79685460379915
 30
0.0
 40
44.5
  0
CIRCLE
  8
0
  6
CONTINUOUS
 62
               7
  5
365
 10
325.61425631235664
 20
-904.29685460379915
 30
0.0
 40
30.0
  0
LINE
  8
0
  6
CONTINUOUS
 62
               7
  5
366
 10
180.61425631235664
 20
-845.29685460379915
 30
0.0
 11
180.61425631235664
 21
-934.29161848312469
 31
0.0
  0
LINE
  8
0
  6
CONTINUOUS
 62
               7
  5
367
 10
181.21425631235667
 20
-845.29685460379915
 30
0.0
 11
180.61425631235664
 21
-845.29685460379915
 31
0.0
  0
LINE
  8
0
  6
CONTINUOUS
 62
               7
  5
368
 10
145.61425631235664
 20
-933.29685460379915
 30
0.0
 11
145.61425631235664
 21
-859.29685460379915
 31
0.0
  0
LINE
  8
0
  6
CONTINUOUS
 62
               7
  5
369
 10
238.61425631235664
 20
-933.29685460379915
 30
0.0
 11
238.61425631235664
 21
-846.29685460379915
 31
0.0
  0
LINE
  8
0
  6
CONTINUOUS
 62
               7
  5
36A
 10
180.61425631235664
 20
-845.29685460379915
 30
0.0
 11
237.61425631235664
 21
-845.29685460379915
 31
0.0
  0
LINE
  8
0
  6
CONTINUOUS
 62
               7
  5
36B
 10
146.61425631235664
 20
-934.29685460379915
 30
0.0
 11
237.61425631235664
 21
-934.29685460379915
 31
0.0
  0
LINE
  8
0
  6
CONTINUOUS
 62
               7
  5
36C
 10
237.61425631235664
 20
-845.29685460379915
 30
0.0
 11
238.61425631235664
 21
-846.29685460379915
 31
0.0
  0
LINE
  8
0
  6
CONTINUOUS
 62
               7
  5
36D
 10
238.61425631235664
 20
-933.29685460379915
 30
0.0
 11
237.61425631235664
 21
-934.29685460379915
 31
0.0
  0
LINE
  8
0
  6
CONTINUOUS
 62
               7
  5
36E
 10
146.61425631235664
 20
-858.29685460379915
 30
0.0
 11
180.61425631235664
 21
-858.29685460379915
 31
0.0
  0
LINE
  8
0
  6
CONTINUOUS
 62
               7
  5
36F
 10
146.61425631235664
 20
-858.29685460379915
 30
0.0
 11
145.61425631235664
 21
-859.29685460379915
 31
0.0
  0
LINE
  8
0
  6
CONTINUOUS
 62
               7
  5
370
 10
145.61425631235664
 20
-933.29685460379915
 30
0.0
 11
146.61425631235664
 21
-934.29685460379915
 31
0.0
  0
CIRCLE
  8
0
  6
DASHED
 62
               7
  5
371
 10
325.61425631235664
 20
-889.79685460379915
 30
0.0
 40
40.0
  0
TEXT
  8
0
 62
               3
  5
372
 10
-283.6722669039512
 20
-538.33366094581515
 30
0.0
 40
40.0
  1
EMB_65×50
 41
0.8
 72
               1
 11
-283.6722669039512
 21
-538.33366094581515
 31
0.0
 73
               3
  0
TEXT
  8
0
 62
               3
  5
373
 10
-281.82773309604903
 20
-160.41886737009787
 30
0.0
 40
40.0
  1
横枝管に呼び５０の管を接続するときは、EMBをご使用ください。
 41
0.8
 72
               1
 11
-281.82773309604903
 21
-160.41886737009787
 31
0.0
 73
               3
  0
TEXT
  8
0
 62
               3
  5
374
 10
321.91685233471634
 20
-235.85105234999531
 30
0.0
 40
40.0
  1
EMB使用例
 41
0.8
 72
               1
 11
321.91685233471634
 21
-235.85105234999531
 31
0.0
 73
               3
  0
ENDSEC
  0
EOF
