  0
SECTION
  2
HEADER
  9
$ACADVER
  1
AC1009
  9
$INSBASE
 10
0.0
 20
0.0
 30
0.0
  9
$EXTMIN
 10
-795.72659624791413
 20
-1007.348241053459
 30
0.0
  9
$EXTMAX
 10
471.66858565632009
 20
1007.3482410534588
 30
0.0
  9
$LIMMIN
 10
-835.33269568242144
 20
-1070.3075061193001
  9
$LIMMAX
 10
511.2746850908274
 20
1070.3075061192999
  9
$ORTHOMODE
 70
               0
  9
$REGENMODE
 70
               1
  9
$FILLMODE
 70
               1
  9
$QTEXTMODE
 70
               0
  9
$MIRRTEXT
 70
               1
  9
$DRAGMODE
 70
               2
  9
$LTSCALE
 40
1.0
  9
$OSMODE
 70
               0
  9
$ATTMODE
 70
               1
  9
$TEXTSIZE
 40
0.2
  9
$TRACEWID
 40
0.05
  9
$TEXTSTYLE
  7
STANDARD
  9
$CLAYER
  8
0
  9
$CELTYPE
  6
CONTINUOUS
  9
$CECOLOR
 62
             256
  9
$DIMSCALE
 40
1.0
  9
$DIMASZ
 40
0.18
  9
$DIMEXO
 40
0.0625
  9
$DIMDLI
 40
0.38
  9
$DIMRND
 40
0.0
  9
$DIMDLE
 40
0.0
  9
$DIMEXE
 40
0.18
  9
$DIMTP
 40
0.0
  9
$DIMTM
 40
0.0
  9
$DIMTXT
 40
0.18
  9
$DIMCEN
 40
0.09
  9
$DIMTSZ
 40
0.0
  9
$DIMTOL
 70
               0
  9
$DIMLIM
 70
               0
  9
$DIMTIH
 70
               1
  9
$DIMTOH
 70
               1
  9
$DIMSE1
 70
               0
  9
$DIMSE2
 70
               0
  9
$DIMTAD
 70
               0
  9
$DIMZIN
 70
               0
  9
$DIMBLK
  1

  9
$DIMASO
 70
               1
  9
$DIMSHO
 70
               1
  9
$DIMPOST
  1

  9
$DIMAPOST
  1

  9
$DIMALT
 70
               0
  9
$DIMALTD
 70
               2
  9
$DIMALTF
 40
25.399999999999999
  9
$DIMLFAC
 40
1.0
  9
$DIMTOFL
 70
               0
  9
$DIMTVP
 40
0.0
  9
$DIMTIX
 70
               0
  9
$DIMSOXD
 70
               0
  9
$DIMSAH
 70
               0
  9
$DIMBLK1
  1

  9
$DIMBLK2
  1

  9
$DIMSTYLE
  2
STANDARD
  9
$DIMCLRD
 70
               0
  9
$DIMCLRE
 70
               0
  9
$DIMCLRT
 70
               0
  9
$DIMTFAC
 40
1.0
  9
$DIMGAP
 40
0.09
  9
$LUNITS
 70
               2
  9
$LUPREC
 70
               4
  9
$AXISMODE
 70
               0
  9
$AXISUNIT
 10
0.0
 20
0.0
  9
$SKETCHINC
 40
0.1
  9
$FILLETRAD
 40
0.0
  9
$AUNITS
 70
               0
  9
$AUPREC
 70
               0
  9
$MENU
  1
acad
  9
$ELEVATION
 40
0.0
  9
$PELEVATION
 40
0.0
  9
$THICKNESS
 40
0.0
  9
$LIMCHECK
 70
               0
  9
$BLIPMODE
 70
               1
  9
$CHAMFERA
 40
0.0
  9
$CHAMFERB
 40
0.0
  9
$SKPOLY
 70
               0
  9
$TDCREATE
 40
0.000000000
  9
$TDUPDATE
 40
0.000000000
  9
$TDINDWG
 40
0.0000000000
  9
$TDUSRTIMER
 40
0.0000000000
  9
$USRTIMER
 70
               1
  9
$ANGBASE
 50
0.0
  9
$ANGDIR
 70
               0
  9
$PDMODE
 70
               0
  9
$PDSIZE
 40
1.0
  9
$PLINEWID
 40
0.0
  9
$COORDS
 70
               1
  9
$SPLFRAME
 70
               0
  9
$SPLINETYPE
 70
               6
  9
$SPLINESEGS
 70
               8
  9
$ATTDIA
 70
               0
  9
$ATTREQ
 70
               1
  9
$HANDLING
 70
               1
  9
$HANDSEED
  5
347
  9
$SURFTAB1
 70
               6
  9
$SURFTAB2
 70
               6
  9
$SURFTYPE
 70
               6
  9
$SURFU
 70
               6
  9
$SURFV
 70
               6
  9
$UCSNAME
  2

  9
$UCSORG
 10
0.0
 20
0.0
 30
0.0
  9
$UCSXDIR
 10
1.0
 20
0.0
 30
0.0
  9
$UCSYDIR
 10
0.0
 20
1.0
 30
0.0
  9
$PUCSNAME
  2

  9
$PUCSORG
 10
0.0
 20
0.0
 30
0.0
  9
$PUCSXDIR
 10
1.0
 20
0.0
 30
0.0
  9
$PUCSYDIR
 10
0.0
 20
1.0
 30
0.0
  9
$USERI1
 70
               0
  9
$USERI2
 70
               0
  9
$USERI3
 70
               0
  9
$USERI4
 70
               0
  9
$USERI5
 70
               0
  9
$USERR1
 40
0.0
  9
$USERR2
 40
0.0
  9
$USERR3
 40
0.0
  9
$USERR4
 40
0.0
  9
$USERR5
 40
0.0
  9
$WORLDVIEW
 70
               1
  9
$SHADEDGE
 70
               3
  9
$SHADEDIF
 70
              70
  9
$TILEMODE
 70
               1
  9
$MAXACTVP
 70
              16
  9
$PINSBASE
 10
0.0
 20
0.0
 30
0.0
  9
$PLIMCHECK
 70
               0
  9
$PEXTMIN
 10
1.0000000000000000E+20
 20
1.0000000000000000E+20
 30
1.0000000000000000E+20
  9
$PEXTMAX
 10
-1.0000000000000000E+20
 20
-1.0000000000000000E+20
 30
-1.0000000000000000E+20
  9
$PLIMMIN
 10
0.0
 20
0.0
  9
$PLIMMAX
 10
12.0
 20
9.0
  9
$UNITMODE
 70
               0
  9
$VISRETAIN
 70
               0
  9
$PLINEGEN
 70
               1
  9
$PSLTSCALE
 70
               0
  9
$TREEDEPTH
 70
            3020
  9
$DWGCODEPAGE
  3
dos932
  0
ENDSEC
  0
SECTION
  2
TABLES
  0
TABLE
  2
VPORT
 70
               1
  0
VPORT
  2
*ACTIVE
 70
               0
 10
0.0
 20
0.0
 11
1.0
 21
1.0
 12
-162.02900529579702
 22
-0.0000000000001137
 13
0.0
 23
0.0
 14
1.0
 24
1.0
 15
0.0
 25
0.0
 16
0.0
 26
0.0
 36
1.0
 17
0.0
 27
0.0
 37
0.0
 40
2140.6150122385998
 41
0.6290749962390489
 42
50.0
 43
0.0
 44
0.0
 50
0.0
 51
0.0
 71
               0
 72
             100
 73
               1
 74
               1
 75
               0
 76
               0
 77
               0
 78
               0
  0
ENDTAB
  0
TABLE
  2
LTYPE
 70
              26
  0
LTYPE
  2
CONTINUOUS
 70
               0
  3
Solid line
 72
              65
 73
               0
 40
0.0
  0
LTYPE
  2
HIDDENX2
 70
               0
  3
CADPAC FUSION LINETYPE
 72
              65
 73
               2
 40
47.560000000000002
 49
35.670000000000002
 49
-11.890000000000001
  0
LTYPE
  2
HIDDEN
 70
               0
  3
CADPAC FUSION LINETYPE
 72
              65
 73
               2
 40
35.670000000000002
 49
23.780000000000001
 49
-11.890000000000001
  0
LTYPE
  2
HIDDEN2
 70
               0
  3
CADPAC FUSION LINETYPE
 72
              65
 73
               2
 40
29.725000000000001
 49
17.835000000000001
 49
-11.890000000000001
  0
LTYPE
  2
DASHED
 70
               0
  3
CADPAC FUSION LINETYPE
 72
              65
 73
               2
 40
35.670000000000002
 49
23.780000000000001
 49
-11.890000000000001
  0
LTYPE
  2
DASHED2
 70
               0
  3
CADPAC FUSION LINETYPE
 72
              65
 73
               2
 40
26.752500000000001
 49
17.835000000000001
 49
-8.9175000000000004
  0
LTYPE
  2
DASHEDX2
 70
               0
  3
CADPAC FUSION LINETYPE
 72
              65
 73
               2
 40
53.505000000000003
 49
35.670000000000002
 49
-17.835000000000001
  0
LTYPE
  2
DOTX2
 70
               0
  3
CADPAC FUSION LINETYPE
 72
              65
 73
               2
 40
14.862500000000001
 49
0.0
 49
-14.862500000000001
  0
LTYPE
  2
DOT
 70
               0
  3
CADPAC FUSION LINETYPE
 72
              65
 73
               2
 40
11.890000000000001
 49
0.0
 49
-11.890000000000001
  0
LTYPE
  2
DOTS
 70
               0
  3
CADPAC FUSION LINETYPE
 72
              65
 73
               2
 40
11.890000000000001
 49
0.0
 49
-11.890000000000001
  0
LTYPE
  2
DOT2
 70
               0
  3
CADPAC FUSION LINETYPE
 72
              65
 73
               2
 40
8.9175000000000004
 49
0.0
 49
-8.9175000000000004
  0
LTYPE
  2
CENTERX2
 70
               0
  3
CADPAC FUSION LINETYPE
 72
              65
 73
               4
 40
71.340000000000003
 49
29.725000000000001
 49
-14.862500000000001
 49
11.890000000000001
 49
-14.862500000000001
  0
LTYPE
  2
CENTER
 70
               0
  3
CADPAC FUSION LINETYPE
 72
              65
 73
               4
 40
54.694000000000003
 49
23.780000000000001
 49
-11.890000000000001
 49
7.1340000000000003
 49
-11.890000000000001
  0
LTYPE
  2
CENTER2
 70
               0
  3
CADPAC FUSION LINETYPE
 72
              65
 73
               4
 40
38.048000000000002
 49
17.835000000000001
 49
-8.9175000000000004
 49
2.3780000000000001
 49
-8.9175000000000004
  0
LTYPE
  2
DASHDOTX2
 70
               0
  3
CADPAC FUSION LINETYPE
 72
              65
 73
               4
 40
59.450000000000003
 49
29.725000000000001
 49
-14.862500000000001
 49
0.0
 49
-14.862500000000001
  0
LTYPE
  2
DASHDOT
 70
               0
  3
CADPAC FUSION LINETYPE
 72
              65
 73
               4
 40
47.560000000000002
 49
23.780000000000001
 49
-11.890000000000001
 49
0.0
 49
-11.890000000000001
  0
LTYPE
  2
DASHDOT2
 70
               0
  3
CADPAC FUSION LINETYPE
 72
              65
 73
               4
 40
35.670000000000002
 49
17.835000000000001
 49
-8.9175000000000004
 49
0.0
 49
-8.9175000000000004
  0
LTYPE
  2
DIVIDEX2
 70
               0
  3
CADPAC FUSION LINETYPE
 72
              65
 73
               6
 40
74.3125
 49
29.725000000000001
 49
-14.862500000000001
 49
0.0
 49
-14.862500000000001
 49
0.0
 49
-14.862500000000001
  0
LTYPE
  2
DIVIDE
 70
               0
  3
CADPAC FUSION LINETYPE
 72
              65
 73
               6
 40
59.450000000000003
 49
23.780000000000001
 49
-11.890000000000001
 49
0.0
 49
-11.890000000000001
 49
0.0
 49
-11.890000000000001
  0
LTYPE
  2
DIVIDE2
 70
               0
  3
CADPAC FUSION LINETYPE
 72
              65
 73
               6
 40
44.587500000000006
 49
17.835000000000001
 49
-8.9175000000000004
 49
0.0
 49
-8.9175000000000004
 49
0.0
 49
-8.9175000000000004
  0
LTYPE
  2
BORDERX2
 70
               0
  3
CADPAC FUSION LINETYPE
 72
              65
 73
               6
 40
104.03750000000001
 49
29.725000000000001
 49
-14.862500000000001
 49
29.725000000000001
 49
-14.862500000000001
 49
0.0
 49
-14.862500000000001
  0
LTYPE
  2
BORDER
 70
               0
  3
CADPAC FUSION LINETYPE
 72
              65
 73
               6
 40
83.230000000000004
 49
23.780000000000001
 49
-11.890000000000001
 49
23.780000000000001
 49
-11.890000000000001
 49
0.0
 49
-11.890000000000001
  0
LTYPE
  2
BORDER2
 70
               0
  3
CADPAC FUSION LINETYPE
 72
              65
 73
               6
 40
62.422499999999999
 49
17.835000000000001
 49
-8.9175000000000004
 49
17.835000000000001
 49
-8.9175000000000004
 49
0.0
 49
-8.9175000000000004
  0
LTYPE
  2
PHANTOMX2
 70
               0
  3
CADPAC FUSION LINETYPE
 72
              65
 73
               6
 40
89.175000000000011
 49
29.725000000000001
 49
-11.890000000000001
 49
11.890000000000001
 49
-11.890000000000001
 49
11.890000000000001
 49
-11.890000000000001
  0
LTYPE
  2
PHANTOM
 70
               0
  3
CADPAC FUSION LINETYPE
 72
              65
 73
               6
 40
73.718000000000004
 49
23.780000000000001
 49
-11.890000000000001
 49
7.1340000000000003
 49
-11.890000000000001
 49
7.1340000000000003
 49
-11.890000000000001
  0
LTYPE
  2
PHANTOM2
 70
               0
  3
CADPAC FUSION LINETYPE
 72
              65
 73
               6
 40
63.017000000000003
 49
17.835000000000001
 49
-11.890000000000001
 49
4.7560000000000002
 49
-11.890000000000001
 49
4.7560000000000002
 49
-11.890000000000001
  0
ENDTAB
  0
TABLE
  2
LAYER
 70
             256
  0
LAYER
  2
0
 70
               0
 62
               7
  6
CONTINUOUS
  0
LAYER
  2
LAYER001
 70
               0
 62
               7
  6
CONTINUOUS
  0
LAYER
  2
LAYER002
 70
               0
 62
               7
  6
CONTINUOUS
  0
LAYER
  2
LAYER003
 70
               0
 62
               7
  6
CONTINUOUS
  0
LAYER
  2
LAYER004
 70
               0
 62
               7
  6
CONTINUOUS
  0
LAYER
  2
LAYER005
 70
               0
 62
               7
  6
CONTINUOUS
  0
LAYER
  2
LAYER006
 70
               0
 62
               7
  6
CONTINUOUS
  0
LAYER
  2
LAYER007
 70
               0
 62
               7
  6
CONTINUOUS
  0
LAYER
  2
LAYER008
 70
               0
 62
               7
  6
CONTINUOUS
  0
LAYER
  2
LAYER009
 70
               0
 62
               7
  6
CONTINUOUS
  0
LAYER
  2
LAYER010
 70
               0
 62
               7
  6
CONTINUOUS
  0
LAYER
  2
LAYER011
 70
               0
 62
               7
  6
CONTINUOUS
  0
LAYER
  2
LAYER012
 70
               0
 62
               7
  6
CONTINUOUS
  0
LAYER
  2
LAYER013
 70
               0
 62
               7
  6
CONTINUOUS
  0
LAYER
  2
LAYER014
 70
               0
 62
               7
  6
CONTINUOUS
  0
LAYER
  2
LAYER015
 70
               0
 62
               7
  6
CONTINUOUS
  0
LAYER
  2
LAYER016
 70
               0
 62
               7
  6
CONTINUOUS
  0
LAYER
  2
LAYER017
 70
               0
 62
               7
  6
CONTINUOUS
  0
LAYER
  2
LAYER018
 70
               0
 62
               7
  6
CONTINUOUS
  0
LAYER
  2
LAYER019
 70
               0
 62
               7
  6
CONTINUOUS
  0
LAYER
  2
LAYER020
 70
               0
 62
               7
  6
CONTINUOUS
  0
LAYER
  2
LAYER021
 70
               0
 62
               7
  6
CONTINUOUS
  0
LAYER
  2
LAYER022
 70
               0
 62
               7
  6
CONTINUOUS
  0
LAYER
  2
LAYER023
 70
               0
 62
               7
  6
CONTINUOUS
  0
LAYER
  2
LAYER024
 70
               0
 62
               7
  6
CONTINUOUS
  0
LAYER
  2
LAYER025
 70
               0
 62
               7
  6
CONTINUOUS
  0
LAYER
  2
LAYER026
 70
               0
 62
               7
  6
CONTINUOUS
  0
LAYER
  2
LAYER027
 70
               0
 62
               7
  6
CONTINUOUS
  0
LAYER
  2
LAYER028
 70
               0
 62
               7
  6
CONTINUOUS
  0
LAYER
  2
LAYER029
 70
               0
 62
               7
  6
CONTINUOUS
  0
LAYER
  2
LAYER030
 70
               0
 62
               7
  6
CONTINUOUS
  0
LAYER
  2
LAYER031
 70
               0
 62
               7
  6
CONTINUOUS
  0
LAYER
  2
LAYER032
 70
               0
 62
               7
  6
CONTINUOUS
  0
LAYER
  2
LAYER033
 70
               0
 62
               7
  6
CONTINUOUS
  0
LAYER
  2
LAYER034
 70
               0
 62
               7
  6
CONTINUOUS
  0
LAYER
  2
LAYER035
 70
               0
 62
               7
  6
CONTINUOUS
  0
LAYER
  2
LAYER036
 70
               0
 62
               7
  6
CONTINUOUS
  0
LAYER
  2
LAYER037
 70
               0
 62
               7
  6
CONTINUOUS
  0
LAYER
  2
LAYER038
 70
               0
 62
               7
  6
CONTINUOUS
  0
LAYER
  2
LAYER039
 70
               0
 62
               7
  6
CONTINUOUS
  0
LAYER
  2
LAYER040
 70
               0
 62
               7
  6
CONTINUOUS
  0
LAYER
  2
LAYER041
 70
               0
 62
               7
  6
CONTINUOUS
  0
LAYER
  2
LAYER042
 70
               0
 62
               7
  6
CONTINUOUS
  0
LAYER
  2
LAYER043
 70
               0
 62
               7
  6
CONTINUOUS
  0
LAYER
  2
LAYER044
 70
               0
 62
               7
  6
CONTINUOUS
  0
LAYER
  2
LAYER045
 70
               0
 62
               7
  6
CONTINUOUS
  0
LAYER
  2
LAYER046
 70
               0
 62
               7
  6
CONTINUOUS
  0
LAYER
  2
LAYER047
 70
               0
 62
               7
  6
CONTINUOUS
  0
LAYER
  2
LAYER048
 70
               0
 62
               7
  6
CONTINUOUS
  0
LAYER
  2
LAYER049
 70
               0
 62
               7
  6
CONTINUOUS
  0
LAYER
  2
LAYER050
 70
               0
 62
               7
  6
CONTINUOUS
  0
LAYER
  2
LAYER051
 70
               0
 62
               7
  6
CONTINUOUS
  0
LAYER
  2
LAYER052
 70
               0
 62
               7
  6
CONTINUOUS
  0
LAYER
  2
LAYER053
 70
               0
 62
               7
  6
CONTINUOUS
  0
LAYER
  2
LAYER054
 70
               0
 62
               7
  6
CONTINUOUS
  0
LAYER
  2
LAYER055
 70
               0
 62
               7
  6
CONTINUOUS
  0
LAYER
  2
LAYER056
 70
               0
 62
               7
  6
CONTINUOUS
  0
LAYER
  2
LAYER057
 70
               0
 62
               7
  6
CONTINUOUS
  0
LAYER
  2
LAYER058
 70
               0
 62
               7
  6
CONTINUOUS
  0
LAYER
  2
LAYER059
 70
               0
 62
               7
  6
CONTINUOUS
  0
LAYER
  2
LAYER060
 70
               0
 62
               7
  6
CONTINUOUS
  0
LAYER
  2
LAYER061
 70
               0
 62
               7
  6
CONTINUOUS
  0
LAYER
  2
LAYER062
 70
               0
 62
               7
  6
CONTINUOUS
  0
LAYER
  2
LAYER063
 70
               0
 62
               7
  6
CONTINUOUS
  0
LAYER
  2
LAYER064
 70
               0
 62
               7
  6
CONTINUOUS
  0
LAYER
  2
LAYER065
 70
               0
 62
               7
  6
CONTINUOUS
  0
LAYER
  2
LAYER066
 70
               0
 62
               7
  6
CONTINUOUS
  0
LAYER
  2
LAYER067
 70
               0
 62
               7
  6
CONTINUOUS
  0
LAYER
  2
LAYER068
 70
               0
 62
               7
  6
CONTINUOUS
  0
LAYER
  2
LAYER069
 70
               0
 62
               7
  6
CONTINUOUS
  0
LAYER
  2
LAYER070
 70
               0
 62
               7
  6
CONTINUOUS
  0
LAYER
  2
LAYER071
 70
               0
 62
               7
  6
CONTINUOUS
  0
LAYER
  2
LAYER072
 70
               0
 62
               7
  6
CONTINUOUS
  0
LAYER
  2
LAYER073
 70
               0
 62
               7
  6
CONTINUOUS
  0
LAYER
  2
LAYER074
 70
               0
 62
               7
  6
CONTINUOUS
  0
LAYER
  2
LAYER075
 70
               0
 62
               7
  6
CONTINUOUS
  0
LAYER
  2
LAYER076
 70
               0
 62
               7
  6
CONTINUOUS
  0
LAYER
  2
LAYER077
 70
               0
 62
               7
  6
CONTINUOUS
  0
LAYER
  2
LAYER078
 70
               0
 62
               7
  6
CONTINUOUS
  0
LAYER
  2
LAYER079
 70
               0
 62
               7
  6
CONTINUOUS
  0
LAYER
  2
LAYER080
 70
               0
 62
               7
  6
CONTINUOUS
  0
LAYER
  2
LAYER081
 70
               0
 62
               7
  6
CONTINUOUS
  0
LAYER
  2
LAYER082
 70
               0
 62
               7
  6
CONTINUOUS
  0
LAYER
  2
LAYER083
 70
               0
 62
               7
  6
CONTINUOUS
  0
LAYER
  2
LAYER084
 70
               0
 62
               7
  6
CONTINUOUS
  0
LAYER
  2
LAYER085
 70
               0
 62
               7
  6
CONTINUOUS
  0
LAYER
  2
LAYER086
 70
               0
 62
               7
  6
CONTINUOUS
  0
LAYER
  2
LAYER087
 70
               0
 62
               7
  6
CONTINUOUS
  0
LAYER
  2
LAYER088
 70
               0
 62
               7
  6
CONTINUOUS
  0
LAYER
  2
LAYER089
 70
               0
 62
               7
  6
CONTINUOUS
  0
LAYER
  2
LAYER090
 70
               0
 62
               7
  6
CONTINUOUS
  0
LAYER
  2
LAYER091
 70
               0
 62
               7
  6
CONTINUOUS
  0
LAYER
  2
LAYER092
 70
               0
 62
               7
  6
CONTINUOUS
  0
LAYER
  2
LAYER093
 70
               0
 62
               7
  6
CONTINUOUS
  0
LAYER
  2
LAYER094
 70
               0
 62
               7
  6
CONTINUOUS
  0
LAYER
  2
LAYER095
 70
               0
 62
               7
  6
CONTINUOUS
  0
LAYER
  2
LAYER096
 70
               0
 62
               7
  6
CONTINUOUS
  0
LAYER
  2
LAYER097
 70
               0
 62
               7
  6
CONTINUOUS
  0
LAYER
  2
LAYER098
 70
               0
 62
               7
  6
CONTINUOUS
  0
LAYER
  2
LAYER099
 70
               0
 62
               7
  6
CONTINUOUS
  0
LAYER
  2
LAYER100
 70
               0
 62
               7
  6
CONTINUOUS
  0
LAYER
  2
LAYER101
 70
               0
 62
               7
  6
CONTINUOUS
  0
LAYER
  2
LAYER102
 70
               0
 62
               7
  6
CONTINUOUS
  0
LAYER
  2
LAYER103
 70
               0
 62
               7
  6
CONTINUOUS
  0
LAYER
  2
LAYER104
 70
               0
 62
               7
  6
CONTINUOUS
  0
LAYER
  2
LAYER105
 70
               0
 62
               7
  6
CONTINUOUS
  0
LAYER
  2
LAYER106
 70
               0
 62
               7
  6
CONTINUOUS
  0
LAYER
  2
LAYER107
 70
               0
 62
               7
  6
CONTINUOUS
  0
LAYER
  2
LAYER108
 70
               0
 62
               7
  6
CONTINUOUS
  0
LAYER
  2
LAYER109
 70
               0
 62
               7
  6
CONTINUOUS
  0
LAYER
  2
LAYER110
 70
               0
 62
               7
  6
CONTINUOUS
  0
LAYER
  2
LAYER111
 70
               0
 62
               7
  6
CONTINUOUS
  0
LAYER
  2
LAYER112
 70
               0
 62
               7
  6
CONTINUOUS
  0
LAYER
  2
LAYER113
 70
               0
 62
               7
  6
CONTINUOUS
  0
LAYER
  2
LAYER114
 70
               0
 62
               7
  6
CONTINUOUS
  0
LAYER
  2
LAYER115
 70
               0
 62
               7
  6
CONTINUOUS
  0
LAYER
  2
LAYER116
 70
               0
 62
               7
  6
CONTINUOUS
  0
LAYER
  2
LAYER117
 70
               0
 62
               7
  6
CONTINUOUS
  0
LAYER
  2
LAYER118
 70
               0
 62
               7
  6
CONTINUOUS
  0
LAYER
  2
LAYER119
 70
               0
 62
               7
  6
CONTINUOUS
  0
LAYER
  2
LAYER120
 70
               0
 62
               7
  6
CONTINUOUS
  0
LAYER
  2
LAYER121
 70
               0
 62
               7
  6
CONTINUOUS
  0
LAYER
  2
LAYER122
 70
               0
 62
               7
  6
CONTINUOUS
  0
LAYER
  2
LAYER123
 70
               0
 62
               7
  6
CONTINUOUS
  0
LAYER
  2
LAYER124
 70
               0
 62
               7
  6
CONTINUOUS
  0
LAYER
  2
LAYER125
 70
               0
 62
               7
  6
CONTINUOUS
  0
LAYER
  2
LAYER126
 70
               0
 62
               7
  6
CONTINUOUS
  0
LAYER
  2
LAYER127
 70
               0
 62
               7
  6
CONTINUOUS
  0
LAYER
  2
LAYER128
 70
               0
 62
               7
  6
CONTINUOUS
  0
LAYER
  2
LAYER129
 70
               0
 62
               7
  6
CONTINUOUS
  0
LAYER
  2
LAYER130
 70
               0
 62
               7
  6
CONTINUOUS
  0
LAYER
  2
LAYER131
 70
               0
 62
               7
  6
CONTINUOUS
  0
LAYER
  2
LAYER132
 70
               0
 62
               7
  6
CONTINUOUS
  0
LAYER
  2
LAYER133
 70
               0
 62
               7
  6
CONTINUOUS
  0
LAYER
  2
LAYER134
 70
               0
 62
               7
  6
CONTINUOUS
  0
LAYER
  2
LAYER135
 70
               0
 62
               7
  6
CONTINUOUS
  0
LAYER
  2
LAYER136
 70
               0
 62
               7
  6
CONTINUOUS
  0
LAYER
  2
LAYER137
 70
               0
 62
               7
  6
CONTINUOUS
  0
LAYER
  2
LAYER138
 70
               0
 62
               7
  6
CONTINUOUS
  0
LAYER
  2
LAYER139
 70
               0
 62
               7
  6
CONTINUOUS
  0
LAYER
  2
LAYER140
 70
               0
 62
               7
  6
CONTINUOUS
  0
LAYER
  2
LAYER141
 70
               0
 62
               7
  6
CONTINUOUS
  0
LAYER
  2
LAYER142
 70
               0
 62
               7
  6
CONTINUOUS
  0
LAYER
  2
LAYER143
 70
               0
 62
               7
  6
CONTINUOUS
  0
LAYER
  2
LAYER144
 70
               0
 62
               7
  6
CONTINUOUS
  0
LAYER
  2
LAYER145
 70
               0
 62
               7
  6
CONTINUOUS
  0
LAYER
  2
LAYER146
 70
               0
 62
               7
  6
CONTINUOUS
  0
LAYER
  2
LAYER147
 70
               0
 62
               7
  6
CONTINUOUS
  0
LAYER
  2
LAYER148
 70
               0
 62
               7
  6
CONTINUOUS
  0
LAYER
  2
LAYER149
 70
               0
 62
               7
  6
CONTINUOUS
  0
LAYER
  2
LAYER150
 70
               0
 62
               7
  6
CONTINUOUS
  0
LAYER
  2
LAYER151
 70
               0
 62
               7
  6
CONTINUOUS
  0
LAYER
  2
LAYER152
 70
               0
 62
               7
  6
CONTINUOUS
  0
LAYER
  2
LAYER153
 70
               0
 62
               7
  6
CONTINUOUS
  0
LAYER
  2
LAYER154
 70
               0
 62
               7
  6
CONTINUOUS
  0
LAYER
  2
LAYER155
 70
               0
 62
               7
  6
CONTINUOUS
  0
LAYER
  2
LAYER156
 70
               0
 62
               7
  6
CONTINUOUS
  0
LAYER
  2
LAYER157
 70
               0
 62
               7
  6
CONTINUOUS
  0
LAYER
  2
LAYER158
 70
               0
 62
               7
  6
CONTINUOUS
  0
LAYER
  2
LAYER159
 70
               0
 62
               7
  6
CONTINUOUS
  0
LAYER
  2
LAYER160
 70
               0
 62
               7
  6
CONTINUOUS
  0
LAYER
  2
LAYER161
 70
               0
 62
               7
  6
CONTINUOUS
  0
LAYER
  2
LAYER162
 70
               0
 62
               7
  6
CONTINUOUS
  0
LAYER
  2
LAYER163
 70
               0
 62
               7
  6
CONTINUOUS
  0
LAYER
  2
LAYER164
 70
               0
 62
               7
  6
CONTINUOUS
  0
LAYER
  2
LAYER165
 70
               0
 62
               7
  6
CONTINUOUS
  0
LAYER
  2
LAYER166
 70
               0
 62
               7
  6
CONTINUOUS
  0
LAYER
  2
LAYER167
 70
               0
 62
               7
  6
CONTINUOUS
  0
LAYER
  2
LAYER168
 70
               0
 62
               7
  6
CONTINUOUS
  0
LAYER
  2
LAYER169
 70
               0
 62
               7
  6
CONTINUOUS
  0
LAYER
  2
LAYER170
 70
               0
 62
               7
  6
CONTINUOUS
  0
LAYER
  2
LAYER171
 70
               0
 62
               7
  6
CONTINUOUS
  0
LAYER
  2
LAYER172
 70
               0
 62
               7
  6
CONTINUOUS
  0
LAYER
  2
LAYER173
 70
               0
 62
               7
  6
CONTINUOUS
  0
LAYER
  2
LAYER174
 70
               0
 62
               7
  6
CONTINUOUS
  0
LAYER
  2
LAYER175
 70
               0
 62
               7
  6
CONTINUOUS
  0
LAYER
  2
LAYER176
 70
               0
 62
               7
  6
CONTINUOUS
  0
LAYER
  2
LAYER177
 70
               0
 62
               7
  6
CONTINUOUS
  0
LAYER
  2
LAYER178
 70
               0
 62
               7
  6
CONTINUOUS
  0
LAYER
  2
LAYER179
 70
               0
 62
               7
  6
CONTINUOUS
  0
LAYER
  2
LAYER180
 70
               0
 62
               7
  6
CONTINUOUS
  0
LAYER
  2
LAYER181
 70
               0
 62
               7
  6
CONTINUOUS
  0
LAYER
  2
LAYER182
 70
               0
 62
               7
  6
CONTINUOUS
  0
LAYER
  2
LAYER183
 70
               0
 62
               7
  6
CONTINUOUS
  0
LAYER
  2
LAYER184
 70
               0
 62
               7
  6
CONTINUOUS
  0
LAYER
  2
LAYER185
 70
               0
 62
               7
  6
CONTINUOUS
  0
LAYER
  2
LAYER186
 70
               0
 62
               7
  6
CONTINUOUS
  0
LAYER
  2
LAYER187
 70
               0
 62
               7
  6
CONTINUOUS
  0
LAYER
  2
LAYER188
 70
               0
 62
               7
  6
CONTINUOUS
  0
LAYER
  2
LAYER189
 70
               0
 62
               7
  6
CONTINUOUS
  0
LAYER
  2
LAYER190
 70
               0
 62
               7
  6
CONTINUOUS
  0
LAYER
  2
LAYER191
 70
               0
 62
               7
  6
CONTINUOUS
  0
LAYER
  2
LAYER192
 70
               0
 62
               7
  6
CONTINUOUS
  0
LAYER
  2
LAYER193
 70
               0
 62
               7
  6
CONTINUOUS
  0
LAYER
  2
LAYER194
 70
               0
 62
               7
  6
CONTINUOUS
  0
LAYER
  2
LAYER195
 70
               0
 62
               7
  6
CONTINUOUS
  0
LAYER
  2
LAYER196
 70
               0
 62
               7
  6
CONTINUOUS
  0
LAYER
  2
LAYER197
 70
               0
 62
               7
  6
CONTINUOUS
  0
LAYER
  2
LAYER198
 70
               0
 62
               7
  6
CONTINUOUS
  0
LAYER
  2
LAYER199
 70
               0
 62
               7
  6
CONTINUOUS
  0
LAYER
  2
LAYER200
 70
               0
 62
               7
  6
CONTINUOUS
  0
LAYER
  2
LAYER201
 70
               0
 62
               7
  6
CONTINUOUS
  0
LAYER
  2
LAYER202
 70
               0
 62
               7
  6
CONTINUOUS
  0
LAYER
  2
LAYER203
 70
               0
 62
               7
  6
CONTINUOUS
  0
LAYER
  2
LAYER204
 70
               0
 62
               7
  6
CONTINUOUS
  0
LAYER
  2
LAYER205
 70
               0
 62
               7
  6
CONTINUOUS
  0
LAYER
  2
LAYER206
 70
               0
 62
               7
  6
CONTINUOUS
  0
LAYER
  2
LAYER207
 70
               0
 62
               7
  6
CONTINUOUS
  0
LAYER
  2
LAYER208
 70
               0
 62
               7
  6
CONTINUOUS
  0
LAYER
  2
LAYER209
 70
               0
 62
               7
  6
CONTINUOUS
  0
LAYER
  2
LAYER210
 70
               0
 62
               7
  6
CONTINUOUS
  0
LAYER
  2
LAYER211
 70
               0
 62
               7
  6
CONTINUOUS
  0
LAYER
  2
LAYER212
 70
               0
 62
               7
  6
CONTINUOUS
  0
LAYER
  2
LAYER213
 70
               0
 62
               7
  6
CONTINUOUS
  0
LAYER
  2
LAYER214
 70
               0
 62
               7
  6
CONTINUOUS
  0
LAYER
  2
LAYER215
 70
               0
 62
               7
  6
CONTINUOUS
  0
LAYER
  2
LAYER216
 70
               0
 62
               7
  6
CONTINUOUS
  0
LAYER
  2
LAYER217
 70
               0
 62
               7
  6
CONTINUOUS
  0
LAYER
  2
LAYER218
 70
               0
 62
               7
  6
CONTINUOUS
  0
LAYER
  2
LAYER219
 70
               0
 62
               7
  6
CONTINUOUS
  0
LAYER
  2
LAYER220
 70
               0
 62
               7
  6
CONTINUOUS
  0
LAYER
  2
LAYER221
 70
               0
 62
               7
  6
CONTINUOUS
  0
LAYER
  2
LAYER222
 70
               0
 62
               7
  6
CONTINUOUS
  0
LAYER
  2
LAYER223
 70
               0
 62
               7
  6
CONTINUOUS
  0
LAYER
  2
LAYER224
 70
               0
 62
               7
  6
CONTINUOUS
  0
LAYER
  2
LAYER225
 70
               0
 62
               7
  6
CONTINUOUS
  0
LAYER
  2
LAYER226
 70
               0
 62
               7
  6
CONTINUOUS
  0
LAYER
  2
LAYER227
 70
               0
 62
               7
  6
CONTINUOUS
  0
LAYER
  2
LAYER228
 70
               0
 62
               7
  6
CONTINUOUS
  0
LAYER
  2
LAYER229
 70
               0
 62
               7
  6
CONTINUOUS
  0
LAYER
  2
LAYER230
 70
               0
 62
               7
  6
CONTINUOUS
  0
LAYER
  2
LAYER231
 70
               0
 62
               7
  6
CONTINUOUS
  0
LAYER
  2
LAYER232
 70
               0
 62
               7
  6
CONTINUOUS
  0
LAYER
  2
LAYER233
 70
               0
 62
               7
  6
CONTINUOUS
  0
LAYER
  2
LAYER234
 70
               0
 62
               7
  6
CONTINUOUS
  0
LAYER
  2
LAYER235
 70
               0
 62
               7
  6
CONTINUOUS
  0
LAYER
  2
LAYER236
 70
               0
 62
               7
  6
CONTINUOUS
  0
LAYER
  2
LAYER237
 70
               0
 62
               7
  6
CONTINUOUS
  0
LAYER
  2
LAYER238
 70
               0
 62
               7
  6
CONTINUOUS
  0
LAYER
  2
LAYER239
 70
               0
 62
               7
  6
CONTINUOUS
  0
LAYER
  2
LAYER240
 70
               0
 62
               7
  6
CONTINUOUS
  0
LAYER
  2
LAYER241
 70
               0
 62
               7
  6
CONTINUOUS
  0
LAYER
  2
LAYER242
 70
               0
 62
               7
  6
CONTINUOUS
  0
LAYER
  2
LAYER243
 70
               0
 62
               7
  6
CONTINUOUS
  0
LAYER
  2
LAYER244
 70
               0
 62
               7
  6
CONTINUOUS
  0
LAYER
  2
LAYER245
 70
               0
 62
               7
  6
CONTINUOUS
  0
LAYER
  2
LAYER246
 70
               0
 62
               7
  6
CONTINUOUS
  0
LAYER
  2
LAYER247
 70
               0
 62
               7
  6
CONTINUOUS
  0
LAYER
  2
LAYER248
 70
               0
 62
               7
  6
CONTINUOUS
  0
LAYER
  2
LAYER249
 70
               0
 62
               7
  6
CONTINUOUS
  0
LAYER
  2
LAYER250
 70
               0
 62
               7
  6
CONTINUOUS
  0
LAYER
  2
LAYER251
 70
               0
 62
               7
  6
CONTINUOUS
  0
LAYER
  2
LAYER252
 70
               0
 62
               7
  6
CONTINUOUS
  0
LAYER
  2
LAYER253
 70
               0
 62
               7
  6
CONTINUOUS
  0
LAYER
  2
LAYER254
 70
               0
 62
               7
  6
CONTINUOUS
  0
LAYER
  2
LAYER255
 70
               0
 62
               7
  6
CONTINUOUS
  0
ENDTAB
  0
TABLE
  2
STYLE
 70
               1
  0
STYLE
  2
STANDARD
 70
               0
 40
0.0
 41
0.8
 50
0.0
 71
               0
 42
40.0
  3
MS PGothic.ttf
  4

  0
ENDTAB
  0
TABLE
  2
VIEW
 70
               0
  0
VIEW
  2
QQQQ
 70
               0
 40
2140.6150122385998
 10
-162.02900529579702
 20
-0.0000000000001137
 41
1346.6073807732489
 11
0.0
 21
0.0
 31
1.0
 12
100.0
 22
100.0
 32
0.0
 42
50.0
 43
0.0
 44
0.0
 50
0.0
 71
               0
  0
ENDTAB
  0
TABLE
  2
UCS
 70
               0
  0
ENDTAB
  0
TABLE
  2
APPID
 70
               1
  0
APPID
  2
ACAD
 70
               0
  0
ENDTAB
  0
TABLE
  2
DIMSTYLE
 70
               1
  0
DIMSTYLE
  2
STANDARD
 70
               0
  3

  4

  5

  6

  7

 40
1.0
 41
0.18
 42
0.0625
 43
0.38
 44
0.18
 45
0.0
 46
0.0
 47
0.0
 48
0.0
140
0.18
141
0.09
142
0.0
143
25.399999999999999
144
1.0
145
0.0
146
1.0
147
0.09
 71
               0
 72
               0
 73
               1
 74
               1
 75
               0
 76
               0
 77
               0
 78
               0
170
               0
171
               2
172
               0
173
               0
174
               0
175
               0
176
               0
177
               0
178
               0
  0
ENDTAB
  0
ENDSEC
  0
SECTION
  2
BLOCKS
  0
ENDSEC
  0
SECTION
  2
ENTITIES
  0
LINE
  8
0
  6
CONTINUOUS
 62
               3
  5
136
 10
-235.49092182737709
 20
333.03067184793019
 30
0.0
 11
-235.49092182737712
 21
285.81936265130241
 31
0.0
  0
ARC
  8
0
  6
CONTINUOUS
 62
               3
  5
137
 10
-225.49092182737712
 20
351.16633905418519
 30
0.0
 40
2.4999999999999996
 50
89.999999999948017
 51
269.99999999984453
  0
LINE
  8
0
  6
CONTINUOUS
 62
               3
  5
138
 10
-235.49092182737712
 20
467.34595668577117
 30
0.0
 11
-235.49092182737712
 21
463.15387976477916
 31
0.0
  0
LINE
  8
0
  6
CONTINUOUS
 62
               3
  5
139
 10
-735.49092182737718
 20
348.66633905418519
 30
0.0
 11
-735.49092182737718
 21
285.81936265130241
 31
0.0
  0
LINE
  8
0
  6
CONTINUOUS
 62
               3
  5
13A
 10
-735.49092182737695
 20
467.34595668577117
 30
0.0
 11
-735.49092182737718
 21
353.66633905418519
 31
0.0
  0
ARC
  8
0
  6
CONTINUOUS
 62
               3
  5
13B
 10
-735.49092182737718
 20
351.16633905418519
 30
0.0
 40
2.4999999999999996
 50
89.999999999945075
 51
269.99999999984306
  0
ARC
  8
0
  6
CONTINUOUS
 62
               3
  5
13C
 10
-692.9909218273765
 20
351.16633905418519
 30
0.0
 40
2.4999999999999996
 50
269.99999999984306
 51
449.99999999974102
  0
LINE
  8
0
  6
CONTINUOUS
 62
               3
  5
13D
 10
-735.49092182737718
 20
348.66633905418519
 30
0.0
 11
-692.9909218273765
 21
348.66633905418519
 31
0.0
  0
LINE
  8
0
  6
CONTINUOUS
 62
               3
  5
13E
 10
-735.49092182737718
 20
353.66633905418519
 30
0.0
 11
-692.9909218273765
 21
353.66633905418519
 31
0.0
  0
LINE
  8
0
  6
CONTINUOUS
 62
               3
  5
13F
 10
394.50907817262288
 20
348.66633905418502
 30
0.0
 11
394.50907817262276
 21
285.8193626513023
 31
0.0
  0
LINE
  8
0
  6
CONTINUOUS
 62
               3
  5
140
 10
394.50907817262276
 20
467.34595668577106
 30
0.0
 11
394.50907817262288
 21
353.66633905418502
 31
0.0
  0
LINE
  8
0
  6
CONTINUOUS
 62
               3
  5
141
 10
-244.99092182737684
 20
553.75364097791453
 30
0.0
 11
-244.99092182737684
 21
548.75364097791453
 31
0.0
  0
LINE
  8
0
  6
CONTINUOUS
 62
               3
  5
142
 10
-244.99092182737684
 20
553.75364097791453
 30
0.0
 11
-231.49092182737692
 21
563.66633905418519
 31
0.0
  0
LINE
  8
0
  6
CONTINUOUS
 62
               3
  5
143
 10
-244.99092182737684
 20
548.75364097791453
 30
0.0
 11
-234.31642434386438
 21
548.38087931185248
 31
0.0
  0
ARC
  8
0
  6
CONTINUOUS
 62
               3
  5
144
 10
-234.49092182737692
 20
543.38392517675709
 30
0.0
 40
5.0
 50
0.0
 51
87.999999999948983
  0
LINE
  8
0
  6
CONTINUOUS
 62
               3
  5
145
 10
-95.990921827377065
 20
553.75364097791453
 30
0.0
 11
-95.990921827377065
 21
548.75364097791453
 31
0.0
  0
LINE
  8
0
  6
CONTINUOUS
 62
               3
  5
146
 10
-95.990921827377065
 20
553.75364097791453
 30
0.0
 11
-109.49092182737701
 21
563.66633905418519
 31
0.0
  0
LINE
  8
0
  6
CONTINUOUS
 62
               3
  5
147
 10
-95.990921827377065
 20
548.75364097791453
 30
0.0
 11
-106.66541931088958
 21
548.38087931185248
 31
0.0
  0
ARC
  8
0
  6
CONTINUOUS
 62
               3
  5
148
 10
-106.49092182737704
 20
543.38392517675709
 30
0.0
 40
5.0
 50
91.999999999947562
 51
179.99999999989669
  0
LINE
  8
0
  6
CONTINUOUS
 62
               3
  5
149
 10
-231.49092182737692
 20
563.66633905418519
 30
0.0
 11
-109.49092182737701
 21
563.66633905418519
 31
0.0
  0
LINE
  8
0
  6
CONTINUOUS
 62
               3
  5
14A
 10
-231.00289791535874
 20
546.96633905418503
 30
0.0
 11
-109.97894573939519
 21
546.96633905418503
 31
0.0
  0
LINE
  8
0
  6
CONTINUOUS
 62
               3
  5
14B
 10
-190.49092182737695
 20
546.96633905418503
 30
0.0
 11
-190.49092182737695
 21
563.66633905418519
 31
0.0
  0
LINE
  8
0
  6
CONTINUOUS
 62
               3
  5
14C
 10
-150.49092182737695
 20
563.66633905418519
 30
0.0
 11
-150.49092182737695
 21
546.96633905418503
 31
0.0
  0
LINE
  8
0
  6
CONTINUOUS
 62
               3
  5
14D
 10
-190.49092182737695
 20
553.75364097791453
 30
0.0
 11
-150.49092182737695
 21
553.75364097791453
 31
0.0
  0
LINE
  8
0
  6
CONTINUOUS
 62
               3
  5
14E
 10
-150.49092182737695
 20
548.75364097791453
 30
0.0
 11
-190.49092182737695
 21
548.75364097791453
 31
0.0
  0
LINE
  8
0
  6
CONTINUOUS
 62
               3
  5
14F
 10
-231.49092182737692
 20
563.66633905418519
 30
0.0
 11
-231.49092182737692
 21
547.38392517675697
 31
0.0
  0
LINE
  8
0
  6
CONTINUOUS
 62
               3
  5
150
 10
-109.49092182737701
 20
563.66633905418519
 30
0.0
 11
-109.49092182737701
 21
547.38392517675697
 31
0.0
  0
LINE
  8
0
  6
CONTINUOUS
 62
               3
  5
151
 10
-229.49092182737692
 20
543.38392517675709
 30
0.0
 11
-229.49092182737692
 21
481.8373334319607
 31
0.0
  0
ARC
  8
0
  6
CONTINUOUS
 62
               3
  5
152
 10
-234.49092182737692
 20
481.8373334319607
 30
0.0
 40
5.0
 50
315.01704217200654
 51
359.99999999979292
  0
ARC
  8
0
  6
CONTINUOUS
 62
               3
  5
153
 10
-219.99092182737698
 20
467.34595668577117
 30
0.0
 40
15.5
 50
135.01704217210909
 51
179.9999999998964
  0
LINE
  8
0
  6
CONTINUOUS
 62
               3
  5
154
 10
-111.49092182737695
 20
543.38392517675709
 30
0.0
 11
-111.49092182737732
 21
481.83733343195473
 31
0.0
  0
LINE
  8
0
  6
CONTINUOUS
 62
               3
  5
155
 10
-744.99092182737695
 20
553.75364097791453
 30
0.0
 11
-744.99092182737695
 21
548.75364097791453
 31
0.0
  0
LINE
  8
0
  6
CONTINUOUS
 62
               3
  5
156
 10
-744.99092182737695
 20
553.75364097791453
 30
0.0
 11
-731.49092182737695
 21
563.66633905418519
 31
0.0
  0
LINE
  8
0
  6
CONTINUOUS
 62
               3
  5
157
 10
-744.99092182737695
 20
548.75364097791453
 30
0.0
 11
-734.31642434386436
 21
548.38087931185248
 31
0.0
  0
ARC
  8
0
  6
CONTINUOUS
 62
               3
  5
158
 10
-734.49092182737695
 20
543.38392517675709
 30
0.0
 40
5.0
 50
0.0
 51
87.999999999949225
  0
LINE
  8
0
  6
CONTINUOUS
 62
               3
  5
159
 10
-595.99092182737718
 20
553.75364097791453
 30
0.0
 11
-595.99092182737718
 21
548.75364097791453
 31
0.0
  0
LINE
  8
0
  6
CONTINUOUS
 62
               3
  5
15A
 10
-595.99092182737718
 20
553.75364097791453
 30
0.0
 11
-609.49092182737695
 21
563.66633905418519
 31
0.0
  0
LINE
  8
0
  6
CONTINUOUS
 62
               3
  5
15B
 10
-595.99092182737718
 20
548.75364097791453
 30
0.0
 11
-606.66541931088955
 21
548.38087931185248
 31
0.0
  0
ARC
  8
0
  6
CONTINUOUS
 62
               3
  5
15C
 10
-606.49092182737706
 20
543.38392517675709
 30
0.0
 40
5.0
 50
91.999999999947391
 51
179.99999999989669
  0
LINE
  8
0
  6
CONTINUOUS
 62
               3
  5
15D
 10
-731.49092182737695
 20
563.66633905418519
 30
0.0
 11
-609.49092182737695
 21
563.66633905418519
 31
0.0
  0
LINE
  8
0
  6
CONTINUOUS
 62
               3
  5
15E
 10
-731.00289791535874
 20
546.96633905418503
 30
0.0
 11
-609.97894573939516
 21
546.96633905418503
 31
0.0
  0
LINE
  8
0
  6
CONTINUOUS
 62
               3
  5
15F
 10
-690.49092182737695
 20
546.96633905418503
 30
0.0
 11
-690.49092182737695
 21
563.66633905418519
 31
0.0
  0
LINE
  8
0
  6
CONTINUOUS
 62
               3
  5
160
 10
-650.49092182737695
 20
563.66633905418519
 30
0.0
 11
-650.49092182737695
 21
546.96633905418503
 31
0.0
  0
LINE
  8
0
  6
CONTINUOUS
 62
               3
  5
161
 10
-690.49092182737695
 20
553.75364097791453
 30
0.0
 11
-650.49092182737695
 21
553.75364097791453
 31
0.0
  0
LINE
  8
0
  6
CONTINUOUS
 62
               3
  5
162
 10
-650.49092182737695
 20
548.75364097791453
 30
0.0
 11
-690.49092182737695
 21
548.75364097791453
 31
0.0
  0
LINE
  8
0
  6
CONTINUOUS
 62
               3
  5
163
 10
-731.49092182737695
 20
563.66633905418519
 30
0.0
 11
-731.49092182737695
 21
547.38392517675697
 31
0.0
  0
LINE
  8
0
  6
CONTINUOUS
 62
               3
  5
164
 10
-609.49092182737695
 20
563.66633905418519
 30
0.0
 11
-609.49092182737695
 21
547.38392517675697
 31
0.0
  0
LINE
  8
0
  6
CONTINUOUS
 62
               3
  5
165
 10
-729.49092182737695
 20
543.38392517675709
 30
0.0
 11
-729.49092182737695
 21
481.8373334319607
 31
0.0
  0
ARC
  8
0
  6
CONTINUOUS
 62
               3
  5
166
 10
-734.49092182737695
 20
481.8373334319607
 30
0.0
 40
5.0
 50
315.01704217200648
 51
359.99999999979292
  0
ARC
  8
0
  6
CONTINUOUS
 62
               3
  5
167
 10
-719.99092182737695
 20
467.34595668577117
 30
0.0
 40
15.5
 50
135.01704217210906
 51
179.9999999998964
  0
LINE
  8
0
  6
CONTINUOUS
 62
               3
  5
168
 10
-611.49092182737695
 20
543.38392517675709
 30
0.0
 11
-611.49092182737695
 21
481.8373334319607
 31
0.0
  0
ARC
  8
0
  6
CONTINUOUS
 62
               3
  5
169
 10
-606.49092182737729
 20
481.8373334319607
 30
0.0
 40
5.0
 50
179.99999999989626
 51
224.98295782768247
  0
ARC
  8
0
  6
CONTINUOUS
 62
               3
  5
16A
 10
-620.99092182737718
 20
467.34595668577117
 30
0.0
 40
15.5
 50
0.0
 51
44.982957827787267
  0
LINE
  8
0
  6
CONTINUOUS
 62
               3
  5
16B
 10
255.00907817262311
 20
553.75364097791442
 30
0.0
 11
255.00907817262311
 21
548.75364097791442
 31
0.0
  0
LINE
  8
0
  6
CONTINUOUS
 62
               3
  5
16C
 10
255.00907817262311
 20
553.75364097791442
 30
0.0
 11
268.50907817262311
 21
563.66633905418507
 31
0.0
  0
LINE
  8
0
  6
CONTINUOUS
 62
               3
  5
16D
 10
255.00907817262311
 20
548.75364097791442
 30
0.0
 11
265.68357565613559
 21
548.38087931185237
 31
0.0
  0
ARC
  8
0
  6
CONTINUOUS
 62
               3
  5
16E
 10
265.50907817262305
 20
543.38392517675697
 30
0.0
 40
5.0
 50
0.0
 51
87.999999999948585
  0
LINE
  8
0
  6
CONTINUOUS
 62
               3
  5
16F
 10
404.00907817262288
 20
553.75364097791442
 30
0.0
 11
404.00907817262288
 21
548.75364097791442
 31
0.0
  0
LINE
  8
0
  6
CONTINUOUS
 62
               3
  5
170
 10
404.00907817262288
 20
553.75364097791442
 30
0.0
 11
390.50907817262299
 21
563.66633905418507
 31
0.0
  0
LINE
  8
0
  6
CONTINUOUS
 62
               3
  5
171
 10
404.00907817262288
 20
548.75364097791442
 30
0.0
 11
393.3345806891104
 21
548.38087931185237
 31
0.0
  0
ARC
  8
0
  6
CONTINUOUS
 62
               3
  5
172
 10
393.50907817262288
 20
543.38392517675697
 30
0.0
 40
5.0
 50
91.999999999948699
 51
179.99999999989669
  0
LINE
  8
0
  6
CONTINUOUS
 62
               3
  5
173
 10
268.50907817262311
 20
563.66633905418507
 30
0.0
 11
390.50907817262299
 21
563.66633905418507
 31
0.0
  0
LINE
  8
0
  6
CONTINUOUS
 62
               3
  5
174
 10
268.99710208464126
 20
546.9663390541848
 30
0.0
 11
390.02105426060479
 21
546.9663390541848
 31
0.0
  0
LINE
  8
0
  6
CONTINUOUS
 62
               3
  5
175
 10
309.50907817262299
 20
546.9663390541848
 30
0.0
 11
309.50907817262299
 21
563.66633905418507
 31
0.0
  0
LINE
  8
0
  6
CONTINUOUS
 62
               3
  5
176
 10
349.50907817262299
 20
563.66633905418507
 30
0.0
 11
349.50907817262299
 21
546.9663390541848
 31
0.0
  0
LINE
  8
0
  6
CONTINUOUS
 62
               3
  5
177
 10
309.50907817262299
 20
553.75364097791442
 30
0.0
 11
349.50907817262299
 21
553.75364097791442
 31
0.0
  0
LINE
  8
0
  6
CONTINUOUS
 62
               3
  5
178
 10
349.50907817262299
 20
548.75364097791442
 30
0.0
 11
309.50907817262299
 21
548.75364097791442
 31
0.0
  0
LINE
  8
0
  6
CONTINUOUS
 62
               3
  5
179
 10
268.50907817262311
 20
563.66633905418507
 30
0.0
 11
268.50907817262311
 21
547.38392517675686
 31
0.0
  0
LINE
  8
0
  6
CONTINUOUS
 62
               3
  5
17A
 10
390.50907817262299
 20
563.66633905418507
 30
0.0
 11
390.50907817262299
 21
547.38392517675686
 31
0.0
  0
LINE
  8
0
  6
CONTINUOUS
 62
               3
  5
17B
 10
270.50907817262305
 20
543.38392517675697
 30
0.0
 11
270.50907817262305
 21
481.83733343196059
 31
0.0
  0
ARC
  8
0
  6
CONTINUOUS
 62
               3
  5
17C
 10
265.50907817262305
 20
481.83733343196059
 30
0.0
 40
5.0
 50
315.01704217200677
 51
359.99999999979292
  0
ARC
  8
0
  6
CONTINUOUS
 62
               3
  5
17D
 10
280.00907817262299
 20
467.34595668577106
 30
0.0
 40
15.5
 50
135.01704217210897
 51
179.9999999998964
  0
LINE
  8
0
  6
CONTINUOUS
 62
               3
  5
17E
 10
388.50907817262299
 20
543.38392517675697
 30
0.0
 11
388.50907817262299
 21
481.83733343196059
 31
0.0
  0
ARC
  8
0
  6
CONTINUOUS
 62
               3
  5
17F
 10
393.50907817262276
 20
481.83733343196059
 30
0.0
 40
5.0
 50
179.99999999989626
 51
224.9829578276827
  0
ARC
  8
0
  6
CONTINUOUS
 62
               3
  5
180
 10
379.00907817262276
 20
467.34595668577106
 30
0.0
 40
15.5
 50
0.0
 51
44.982957827787331
  0
LINE
  8
0
  6
CONTINUOUS
 62
               3
  5
181
 10
-297.31936570141283
 20
354.16633905418587
 30
0.0
 11
-254.97649167140497
 21
352.68769331056558
 31
0.0
  0
LINE
  8
0
  6
CONTINUOUS
 62
               3
  5
182
 10
-236.95538792144441
 20
336.56620575386302
 30
0.0
 11
-251.61545524898486
 21
351.22627308140295
 31
0.0
  0
LINE
  8
0
  6
CONTINUOUS
 62
               3
  5
183
 10
-297.31936570141283
 20
456.16633905418524
 30
0.0
 11
-240.31642434386464
 21
458.15692562968366
 31
0.0
  0
LINE
  8
0
  6
CONTINUOUS
 62
               3
  5
184
 10
-300.49092182737706
 20
356.66633905418519
 30
0.0
 11
-299.81936570141283
 21
356.66633905418519
 31
0.0
  0
LINE
  8
0
  6
CONTINUOUS
 62
               3
  5
185
 10
-297.31936570141215
 20
354.16633905418519
 30
0.0
 11
-299.81936570141283
 21
356.66633905418519
 31
0.0
  0
LINE
  8
0
  6
CONTINUOUS
 62
               3
  5
186
 10
-300.49092182737706
 20
453.66633905418519
 30
0.0
 11
-299.81936570141283
 21
453.66633905418519
 31
0.0
  0
LINE
  8
0
  6
CONTINUOUS
 62
               3
  5
187
 10
-297.31936570141283
 20
456.16633905418519
 30
0.0
 11
-299.81936570141283
 21
453.66633905418519
 31
0.0
  0
LINE
  8
0
  6
CONTINUOUS
 62
               3
  5
188
 10
-299.81936570141283
 20
453.66633905418541
 30
0.0
 11
-299.81936570141283
 21
356.66633905418519
 31
0.0
  0
LINE
  8
0
  6
CONTINUOUS
 62
               3
  5
189
 10
-305.49092182737706
 20
453.51633905418515
 30
0.0
 11
-305.49092182737706
 21
356.81633905418516
 31
0.0
  0
LINE
  8
0
  6
CONTINUOUS
 62
               3
  5
18A
 10
-300.49092182737706
 20
354.31633905418516
 30
0.0
 11
-300.49092182737706
 21
456.01633905418515
 31
0.0
  0
LINE
  8
0
  6
CONTINUOUS
 62
               3
  5
18B
 10
-300.49092182737706
 20
456.01633905418515
 30
0.0
 11
-302.99092182737706
 21
456.01633905418515
 31
0.0
  0
LINE
  8
0
  6
CONTINUOUS
 62
               3
  5
18C
 10
-300.49092182737706
 20
354.31633905418516
 30
0.0
 11
-302.99092182737706
 21
354.31633905418516
 31
0.0
  0
ARC
  8
0
  6
CONTINUOUS
 62
               3
  5
18D
 10
-302.99092182737706
 20
356.81633905418516
 30
0.0
 40
2.5
 50
179.99999999982765
 51
269.99999999974182
  0
ARC
  8
0
  6
CONTINUOUS
 62
               3
  5
18E
 10
-302.99092182737706
 20
453.51633905418515
 30
0.0
 40
2.5
 50
89.999999999914138
 51
179.99999999982725
  0
LINE
  8
0
  6
CONTINUOUS
 62
               3
  5
18F
 10
-297.31936570141283
 20
456.16633905418519
 30
0.0
 11
-297.3193657014121
 21
354.16633905418513
 31
0.0
  0
ARC
  8
0
  6
CONTINUOUS
 62
               3
  5
190
 10
-255.15098915491751
 20
347.69073917547013
 30
0.0
 40
5.0
 50
44.999999999957986
 51
87.999999999915332
  0
ARC
  8
0
  6
CONTINUOUS
 62
               3
  5
191
 10
-240.49092182737712
 20
463.15387976477916
 30
0.0
 40
5.0
 50
271.99999999984311
 51
359.99999999979292
  0
ARC
  8
0
  6
CONTINUOUS
 62
               3
  5
192
 10
-240.49092182737709
 20
333.03067184793019
 30
0.0
 40
5.0
 50
0.0
 51
44.999999999975202
  0
LINE
  8
0
  6
CONTINUOUS
 62
               3
  5
193
 10
-605.49092182737718
 20
467.34595668577117
 30
0.0
 11
-605.49092182737718
 21
463.15387976477916
 31
0.0
  0
POINT
  8
0
  6
CONTINUOUS
 62
               3
  5
194
 10
-170.49092182737536
 20
860.10407793601973
 30
0.0
  0
LINE
  8
0
  6
CONTINUOUS
 62
               3
  5
195
 10
-190.49092182737732
 20
788.26921423347335
 30
0.0
 11
-190.49092182737729
 21
802.71977618742756
 31
0.0
  0
LINE
  8
0
  6
CONTINUOUS
 62
               3
  5
196
 10
-150.49092182737732
 20
802.38391985023691
 30
0.0
 11
-150.49092182737732
 21
788.26921423347335
 31
0.0
  0
ARC
  8
0
  6
CONTINUOUS
 62
               3
  5
197
 10
-170.49092182737729
 20
861.97971243409836
 30
0.0
 40
76.375634498080188
 50
254.81932855941147
 51
285.18067144027776
  0
LINE
  8
0
  6
CONTINUOUS
 62
               3
  5
198
 10
-98.656058124832526
 20
840.10407793601826
 30
0.0
 11
-112.40455363337443
 21
840.10407793601826
 31
0.0
  0
LINE
  8
0
  6
CONTINUOUS
 62
               3
  5
199
 10
-112.35345888865439
 20
880.10407793601826
 30
0.0
 11
-98.656058124832526
 21
880.10407793601826
 31
0.0
  0
ARC
  8
0
  6
CONTINUOUS
 62
               3
  5
19A
 10
-172.36655632545748
 20
860.10407793601826
 30
0.0
 40
76.375634498080188
 50
344.81932855935963
 51
375.18067144022598
  0
LINE
  8
0
  6
CONTINUOUS
 62
               3
  5
19B
 10
-150.49092182737718
 20
931.93894163856305
 30
0.0
 11
-150.49092182737718
 21
917.97146058646683
 31
0.0
  0
LINE
  8
0
  6
CONTINUOUS
 62
               3
  5
19C
 10
-190.49092182737721
 20
917.63560424927607
 30
0.0
 11
-190.49092182737721
 21
931.93894163856305
 31
0.0
  0
ARC
  8
0
  6
CONTINUOUS
 62
               3
  5
19D
 10
-170.49092182737724
 20
858.22844343793815
 30
0.0
 40
76.375634498080188
 50
74.819328559515071
 51
105.18067144038135
  0
LINE
  8
0
  6
CONTINUOUS
 62
               3
  5
19E
 10
-242.32578552992206
 20
880.10407793601826
 30
0.0
 11
-227.66068455166715
 21
880.10407793601826
 31
0.0
  0
LINE
  8
0
  6
CONTINUOUS
 62
               3
  5
19F
 10
-227.60958980694707
 20
840.10407793601826
 30
0.0
 11
-242.32578552992206
 21
840.10407793601826
 31
0.0
  0
ARC
  8
0
  6
CONTINUOUS
 62
               3
  5
1A0
 10
-168.6152873292971
 20
860.10407793601826
 30
0.0
 40
76.375634498080188
 50
164.81932855946326
 51
195.18067144032949
  0
ARC
  8
0
  6
CONTINUOUS
 62
               3
  5
1A1
 10
-170.49092182737729
 20
860.10407793601826
 30
0.0
 40
65.0
 50
287.92021313922652
 51
342.07978686041082
  0
ARC
  8
0
  6
CONTINUOUS
 62
               3
  5
1A2
 10
-170.49092182737729
 20
860.10407793601826
 30
0.0
 40
65.0
 50
197.92021313927833
 51
252.07978686046269
  0
ARC
  8
0
  6
CONTINUOUS
 62
               3
  5
1A3
 10
-170.49092182737724
 20
860.10407793601826
 30
0.0
 40
67.499999999999957
 50
107.23528525702613
 51
126.84814564128359
  0
ARC
  8
0
  6
CONTINUOUS
 62
               3
  5
1A4
 10
-170.49092182737729
 20
860.10407793601826
 30
0.0
 40
65.0
 50
17.920213139382028
 51
72.079786860566088
  0
ARC
  8
0
  6
CONTINUOUS
 62
               3
  5
1A5
 10
-170.49092182737729
 20
860.10407793601826
 30
0.0
 40
65.0
 50
107.92021313933012
 51
162.07978686051447
  0
CIRCLE
  8
0
  6
CONTINUOUS
 62
               3
  5
1A6
 10
-170.00707172016075
 20
860.17769021835181
 30
0.0
 40
61.000000000000007
  0
LINE
  8
0
  6
CONTINUOUS
 62
               3
  5
1A7
 10
-300.49092182737706
 20
908.60407793601814
 30
0.0
 11
-299.81936570141283
 21
908.60407793601814
 31
0.0
  0
LINE
  8
0
  6
CONTINUOUS
 62
               3
  5
1A8
 10
-297.31936570141204
 20
911.10407793601814
 30
0.0
 11
-299.81936570141283
 21
908.60407793601814
 31
0.0
  0
LINE
  8
0
  6
CONTINUOUS
 62
               3
  5
1A9
 10
-300.49092182737706
 20
811.60407793601803
 30
0.0
 11
-299.81936570141283
 21
811.60407793601803
 31
0.0
  0
LINE
  8
0
  6
CONTINUOUS
 62
               3
  5
1AA
 10
-297.31936570141283
 20
809.10407793601803
 30
0.0
 11
-299.81936570141283
 21
811.60407793601803
 31
0.0
  0
LINE
  8
0
  6
CONTINUOUS
 62
               3
  5
1AB
 10
-299.81936570141283
 20
811.6040779360178
 30
0.0
 11
-299.81936570141283
 21
908.60407793601814
 31
0.0
  0
LINE
  8
0
  6
CONTINUOUS
 62
               3
  5
1AC
 10
-305.49092182737706
 20
811.75407793601812
 30
0.0
 11
-305.49092182737706
 21
908.45407793601817
 31
0.0
  0
LINE
  8
0
  6
CONTINUOUS
 62
               3
  5
1AD
 10
-300.49092182737706
 20
910.95407793601817
 30
0.0
 11
-300.49092182737706
 21
809.25407793601812
 31
0.0
  0
LINE
  8
0
  6
CONTINUOUS
 62
               3
  5
1AE
 10
-300.49092182737706
 20
809.25407793601812
 30
0.0
 11
-302.99092182737706
 21
809.25407793601812
 31
0.0
  0
LINE
  8
0
  6
CONTINUOUS
 62
               3
  5
1AF
 10
-300.49092182737706
 20
910.95407793601817
 30
0.0
 11
-302.99092182737706
 21
910.95407793601817
 31
0.0
  0
ARC
  8
0
  6
CONTINUOUS
 62
               3
  5
1B0
 10
-302.99092182737706
 20
908.45407793601817
 30
0.0
 40
2.5
 50
89.99999999987962
 51
179.99999999979377
  0
ARC
  8
0
  6
CONTINUOUS
 62
               3
  5
1B1
 10
-302.99092182737706
 20
811.75407793601812
 30
0.0
 40
2.5
 50
179.99999999979377
 51
269.99999999970692
  0
LINE
  8
0
  6
CONTINUOUS
 62
               3
  5
1B2
 10
-297.31936570141283
 20
809.10407793601803
 30
0.0
 11
-297.31936570141204
 21
911.10407793601814
 31
0.0
  0
LINE
  8
0
  6
CONTINUOUS
 62
               3
  5
1B3
 10
-206.40896888266832
 20
914.27873894773018
 30
0.0
 11
-297.31936570141204
 21
911.10407793601814
 31
0.0
  0
LINE
  8
0
  6
CONTINUOUS
 62
               3
  5
1B4
 10
-206.40896888266957
 20
805.92941692430713
 30
0.0
 11
-297.31936570141283
 21
809.10407793601803
 31
0.0
  0
LINE
  8
0
  6
CONTINUOUS
 62
               3
  5
1B5
 10
-40.490921827377406
 20
811.60407793601848
 30
0.0
 11
-41.162477953341636
 21
811.60407793601848
 31
0.0
  0
LINE
  8
0
  6
CONTINUOUS
 62
               3
  5
1B6
 10
-43.662477953342432
 20
809.10407793601848
 30
0.0
 11
-41.162477953341636
 21
811.60407793601848
 31
0.0
  0
LINE
  8
0
  6
CONTINUOUS
 62
               3
  5
1B7
 10
-40.490921827377406
 20
908.60407793601871
 30
0.0
 11
-41.162477953341636
 21
908.60407793601871
 31
0.0
  0
LINE
  8
0
  6
CONTINUOUS
 62
               3
  5
1B8
 10
-43.662477953341636
 20
911.10407793601871
 30
0.0
 11
-41.162477953341636
 21
908.60407793601871
 31
0.0
  0
LINE
  8
0
  6
CONTINUOUS
 62
               3
  5
1B9
 10
-41.162477953341636
 20
908.60407793601894
 30
0.0
 11
-41.162477953341636
 21
811.60407793601848
 31
0.0
  0
LINE
  8
0
  6
CONTINUOUS
 62
               3
  5
1BA
 10
-35.490921827377406
 20
908.45407793601862
 30
0.0
 11
-35.490921827377406
 21
811.75407793601858
 31
0.0
  0
LINE
  8
0
  6
CONTINUOUS
 62
               3
  5
1BB
 10
-40.490921827377406
 20
809.25407793601858
 30
0.0
 11
-40.490921827377406
 21
910.95407793601862
 31
0.0
  0
LINE
  8
0
  6
CONTINUOUS
 62
               3
  5
1BC
 10
-40.490921827377406
 20
910.95407793601862
 30
0.0
 11
-37.990921827377406
 21
910.95407793601862
 31
0.0
  0
LINE
  8
0
  6
CONTINUOUS
 62
               3
  5
1BD
 10
-40.490921827377406
 20
809.25407793601858
 30
0.0
 11
-37.990921827377406
 21
809.25407793601858
 31
0.0
  0
ARC
  8
0
  6
CONTINUOUS
 62
               3
  5
1BE
 10
-37.990921827377406
 20
811.75407793601858
 30
0.0
 40
2.5
 50
269.99999999981048
 51
359.999999999723
  0
ARC
  8
0
  6
CONTINUOUS
 62
               3
  5
1BF
 10
-37.990921827377406
 20
908.45407793601862
 30
0.0
 40
2.5
 50
359.999999999723
 51
449.99999999963745
  0
LINE
  8
0
  6
CONTINUOUS
 62
               3
  5
1C0
 10
-43.662477953341636
 20
911.10407793601871
 30
0.0
 11
-43.662477953342432
 21
809.10407793601848
 31
0.0
  0
LINE
  8
0
  6
CONTINUOUS
 62
               3
  5
1C1
 10
-134.57287477208533
 20
914.27873894772961
 30
0.0
 11
-43.662477953341636
 21
911.10407793601871
 31
0.0
  0
LINE
  8
0
  6
CONTINUOUS
 62
               3
  5
1C2
 10
-134.5728747720859
 20
805.92941692430657
 30
0.0
 11
-43.662477953342432
 21
809.10407793601848
 31
0.0
  0
LINE
  8
0
  6
CONTINUOUS
 62
               3
  5
1C3
 10
388.00907817262288
 20
479.59340539968701
 30
0.0
 11
269.97727545855133
 21
479.59340539968696
 31
0.0
  0
LINE
  8
0
  6
CONTINUOUS
 62
               3
  5
1C4
 10
-110.9591191133056
 20
479.59340539968713
 30
0.0
 11
-229.49092182737692
 21
479.59340539968713
 31
0.0
  0
LINE
  8
0
  6
CONTINUOUS
 62
               3
  5
1C5
 10
-611.99092182737718
 20
479.59340539968713
 30
0.0
 11
-729.49092182737695
 21
479.59340539968713
 31
0.0
  0
LINE
  8
0
  6
CONTINUOUS
 62
               3
  5
1C6
 10
-105.49092182737716
 20
467.34595668577117
 30
0.0
 11
-105.49092182737716
 21
463.15387976477916
 31
0.0
  0
ARC
  8
0
  6
CONTINUOUS
 62
               3
  5
1C7
 10
-120.99092182737729
 20
467.34595668577117
 30
0.0
 40
15.5
 50
0.0000000000343943
 51
44.982957827799368
  0
LINE
  8
0
  6
CONTINUOUS
 62
               3
  5
1C8
 10
-43.662477953341465
 20
354.16633905418587
 30
0.0
 11
-86.0053519833493
 21
352.68769331056558
 31
0.0
  0
LINE
  8
0
  6
CONTINUOUS
 62
               3
  5
1C9
 10
-104.52645573331044
 20
336.0662057538625
 30
0.0
 11
-89.366388405769442
 21
351.22627308140289
 31
0.0
  0
LINE
  8
0
  6
CONTINUOUS
 62
               3
  5
1CA
 10
-43.662477953341437
 20
456.16633905418524
 30
0.0
 11
-100.66541931088965
 21
458.15692562968366
 31
0.0
  0
LINE
  8
0
  6
CONTINUOUS
 62
               3
  5
1CB
 10
-40.490921827377178
 20
356.66633905418513
 30
0.0
 11
-41.162477953341408
 21
356.66633905418513
 31
0.0
  0
LINE
  8
0
  6
CONTINUOUS
 62
               3
  5
1CC
 10
-43.662477953342147
 20
354.16633905418513
 30
0.0
 11
-41.162477953341408
 21
356.66633905418513
 31
0.0
  0
LINE
  8
0
  6
CONTINUOUS
 62
               3
  5
1CD
 10
-40.490921827377178
 20
453.66633905418513
 30
0.0
 11
-41.162477953341408
 21
453.66633905418513
 31
0.0
  0
LINE
  8
0
  6
CONTINUOUS
 62
               3
  5
1CE
 10
-43.662477953341408
 20
456.16633905418519
 30
0.0
 11
-41.162477953341408
 21
453.66633905418513
 31
0.0
  0
LINE
  8
0
  6
CONTINUOUS
 62
               3
  5
1CF
 10
-41.162477953341408
 20
453.66633905418536
 30
0.0
 11
-41.162477953341408
 21
356.66633905418513
 31
0.0
  0
LINE
  8
0
  6
CONTINUOUS
 62
               3
  5
1D0
 10
-35.490921827377178
 20
453.51633905418515
 30
0.0
 11
-35.490921827377178
 21
356.81633905418516
 31
0.0
  0
LINE
  8
0
  6
CONTINUOUS
 62
               3
  5
1D1
 10
-40.490921827377178
 20
354.31633905418516
 30
0.0
 11
-40.490921827377178
 21
456.01633905418515
 31
0.0
  0
LINE
  8
0
  6
CONTINUOUS
 62
               3
  5
1D2
 10
-40.490921827377178
 20
456.01633905418515
 30
0.0
 11
-37.990921827377178
 21
456.01633905418515
 31
0.0
  0
LINE
  8
0
  6
CONTINUOUS
 62
               3
  5
1D3
 10
-40.490921827377178
 20
354.31633905418516
 30
0.0
 11
-37.990921827377178
 21
354.31633905418516
 31
0.0
  0
ARC
  8
0
  6
CONTINUOUS
 62
               3
  5
1D4
 10
-37.990921827377178
 20
356.81633905418516
 30
0.0
 40
2.5
 50
270.00000000005082
 51
359.9999999999647
  0
ARC
  8
0
  6
CONTINUOUS
 62
               3
  5
1D5
 10
-37.990921827377178
 20
453.51633905418515
 30
0.0
 40
2.5
 50
0.000000000103569
 51
90.000000000017394
  0
LINE
  8
0
  6
CONTINUOUS
 62
               3
  5
1D6
 10
-43.662477953341437
 20
456.16633905418519
 30
0.0
 11
-43.662477953342204
 21
354.16633905418513
 31
0.0
  0
ARC
  8
0
  6
CONTINUOUS
 62
               3
  5
1D7
 10
-85.830854499836761
 20
347.69073917547013
 30
0.0
 40
5.0
 50
92.000000000015504
 51
134.99999999997297
  0
ARC
  8
0
  6
CONTINUOUS
 62
               3
  5
1D8
 10
-100.49092182737716
 20
463.15387976477916
 30
0.0
 40
5.0
 50
179.99999999999946
 51
267.99999999994913
  0
ARC
  8
0
  6
CONTINUOUS
 62
               3
  5
1D9
 10
-106.49092182737732
 20
481.8373334319607
 30
0.0
 40
5.0
 50
179.99999999999952
 51
224.98295782778592
  0
ARC
  8
0
  6
CONTINUOUS
 62
               3
  5
1DA
 10
-100.99092182737724
 20
332.53067184793019
 30
0.0
 40
5.0
 50
134.99999999995569
 51
179.99999999993088
  0
LINE
  8
0
  6
CONTINUOUS
 62
               3
  5
1DB
 10
-105.99092182737724
 20
332.53067184793019
 30
0.0
 11
-105.99092182737724
 21
285.84775470886677
 31
0.0
  0
LINE
  8
0
  6
CONTINUOUS
 62
               3
  5
1DC
 10
-103.74092182737701
 20
336.8517396597959
 30
0.0
 11
-103.74092182737701
 21
285.7199904498292
 31
0.0
  0
LINE
  8
0
  6
CONTINUOUS
 62
               3
  5
1DD
 10
-103.49092182737724
 20
337.10173965979567
 30
0.0
 11
-103.49092182737724
 21
285.70579442104724
 31
0.0
  0
ARC
  8
0
  6
CONTINUOUS
 62
               3
  5
1DE
 10
-605.49092182737718
 20
351.16633905418519
 30
0.0
 40
2.4999999999999996
 50
269.99999999994731
 51
449.99999999984527
  0
ARC
  8
0
  6
CONTINUOUS
 62
               3
  5
1DF
 10
-647.99092182737763
 20
351.16633905418519
 30
0.0
 40
2.4999999999999996
 50
90.000000000051912
 51
269.99999999994731
  0
LINE
  8
0
  6
CONTINUOUS
 62
               3
  5
1E0
 10
-605.49092182737718
 20
348.66633905418519
 30
0.0
 11
-647.99092182737763
 21
348.66633905418519
 31
0.0
  0
LINE
  8
0
  6
CONTINUOUS
 62
               3
  5
1E1
 10
-605.49092182737718
 20
353.66633905418519
 30
0.0
 11
-647.99092182737763
 21
353.66633905418519
 31
0.0
  0
LINE
  8
0
  6
CONTINUOUS
 62
               3
  5
1E2
 10
-605.49092182737718
 20
463.15387976477916
 30
0.0
 11
-605.49092182737718
 21
353.66633905418519
 31
0.0
  0
LINE
  8
0
  6
CONTINUOUS
 62
               3
  5
1E3
 10
-605.49092182737718
 20
348.66633905418519
 30
0.0
 11
-605.49092182737718
 21
285.81936265130241
 31
0.0
  0
ARC
  8
0
  6
CONTINUOUS
 62
               3
  5
1E4
 10
394.50907817262299
 20
351.1663390541845
 30
0.0
 40
2.4999999999999996
 50
269.99999999989518
 51
449.99999999982703
  0
ARC
  8
0
  6
CONTINUOUS
 62
               3
  5
1E5
 10
307.00907817262345
 20
351.1663390541845
 30
0.0
 40
2.4999999999999996
 50
269.99999999989518
 51
449.99999999982703
  0
ARC
  8
0
  6
CONTINUOUS
 62
               3
  5
1E6
 10
352.00907817262345
 20
351.1663390541845
 30
0.0
 40
2.4999999999999996
 50
89.999999999963322
 51
269.99999999989518
  0
LINE
  8
0
  6
CONTINUOUS
 62
               3
  5
1E7
 10
394.50907817262288
 20
353.6663390541845
 30
0.0
 11
352.00907817262345
 21
353.6663390541845
 31
0.0
  0
LINE
  8
0
  6
CONTINUOUS
 62
               3
  5
1E8
 10
394.50907817262288
 20
348.6663390541845
 30
0.0
 11
352.00907817262345
 21
348.6663390541845
 31
0.0
  0
LINE
  8
0
  6
CONTINUOUS
 62
               3
  5
1E9
 10
307.00907817262345
 20
348.6663390541845
 30
0.0
 11
264.50907817262288
 21
348.6663390541845
 31
0.0
  0
LINE
  8
0
  6
CONTINUOUS
 62
               3
  5
1EA
 10
307.00907817262345
 20
353.6663390541845
 30
0.0
 11
264.50907817262288
 21
353.6663390541845
 31
0.0
  0
ARC
  8
0
  6
CONTINUOUS
 62
               3
  5
1EB
 10
316.2920781726238
 20
337.64900021806534
 30
0.0
 40
5.0
 50
0.0
 51
89.999999999965937
  0
ARC
  8
0
  6
CONTINUOUS
 62
               3
  5
1EC
 10
342.72607817262366
 20
337.64900021806534
 30
0.0
 40
5.0
 50
89.999999999965937
 51
179.99999999993088
  0
ARC
  8
0
  6
CONTINUOUS
 62
               3
  5
1ED
 10
264.50907817262276
 20
351.1663390541845
 30
0.0
 40
2.4999999999999996
 50
89.999999999964615
 51
269.99999999989649
  0
LINE
  8
0
  6
CONTINUOUS
 62
               3
  5
1EE
 10
264.50907817262299
 20
467.34595668578038
 30
0.0
 11
264.50907817262276
 21
353.6663390541845
 31
0.0
  0
LINE
  8
0
  6
CONTINUOUS
 62
               3
  5
1EF
 10
264.50907817262276
 20
348.6663390541845
 30
0.0
 11
264.50907817262294
 21
285.8193626513023
 31
0.0
  0
LINE
  8
0
  6
CONTINUOUS
 62
               3
  5
1F0
 10
337.72607817262241
 20
337.64900021806534
 30
0.0
 11
337.72607817262241
 21
114.67005919233702
 31
0.0
  0
LINE
  8
0
  6
CONTINUOUS
 62
               3
  5
1F1
 10
321.29207817262255
 20
337.64900021806534
 30
0.0
 11
321.29207817262255
 21
114.67005919233702
 31
0.0
  0
LINE
  8
0
  6
CONTINUOUS
 62
               3
  5
1F2
 10
335.50907817262242
 20
116.94183479268565
 30
0.0
 11
335.50907817262242
 21
342.64900021806545
 31
0.0
  0
LINE
  8
0
  6
CONTINUOUS
 62
               3
  5
1F3
 10
323.50907817262254
 20
342.64900021806545
 30
0.0
 11
323.50907817262254
 21
116.94183479268565
 31
0.0
  0
CIRCLE
  8
0
  6
CONTINUOUS
 62
               3
  5
1F4
 10
329.50907817262288
 20
405.16633905418502
 30
0.0
 40
50.850000000000001
  0
ARC
  8
0
  6
CONTINUOUS
 62
               3
  5
1F5
 10
-170.49092182737724
 20
860.10407793601826
 30
0.0
 40
67.499999999999957
 50
287.23528525697736
 51
306.84814564123906
  0
ARC
  8
0
  6
CONTINUOUS
 62
               3
  5
1F6
 10
-170.49092182737724
 20
860.10407793601826
 30
0.0
 40
67.499999999999957
 50
53.15185435862211
 51
72.764714742870211
  0
ARC
  8
0
  6
CONTINUOUS
 62
               3
  5
1F7
 10
-170.49092182737724
 20
860.10407793601826
 30
0.0
 40
67.499999999999957
 50
233.15185435855338
 51
252.7647147428151
  0
LINE
  8
0
  6
CONTINUOUS
 62
               3
  5
1F8
 10
-215.99092182737712
 20
114.67005919233725
 30
0.0
 11
-235.49092182737712
 21
285.81936265130253
 31
0.0
  0
LINE
  8
0
  6
CONTINUOUS
 62
               3
  5
1F9
 10
-103.49092182737725
 20
285.70579442104724
 30
0.0
 11
-122.71914622702846
 21
116.94183479268565
 31
0.0
  0
LINE
  8
0
  6
CONTINUOUS
 62
               3
  5
1FA
 10
-105.99092182737725
 20
285.84775470886677
 30
0.0
 11
-125.49415669372681
 21
114.67005919233725
 31
0.0
  0
LINE
  8
0
  6
CONTINUOUS
 62
               3
  5
1FB
 10
-105.99415669372736
 20
285.81936265130253
 30
0.0
 11
-103.49092182737725
 21
285.70579442104724
 31
0.0
  0
LINE
  8
0
  6
CONTINUOUS
 62
               3
  5
1FC
 10
-103.74092182737702
 20
285.71999044982931
 30
0.0
 11
-122.99664727369858
 21
116.71465723265055
 31
0.0
  0
LINE
  8
0
  6
CONTINUOUS
 62
               3
  5
1FD
 10
-235.49092182737712
 20
285.81936265130253
 30
0.0
 11
-105.99415669372736
 21
285.81936265130253
 31
0.0
  0
CIRCLE
  8
0
  6
CONTINUOUS
 62
               3
  5
1FE
 10
-271.11400048464156
 20
178.56669012580335
 30
0.0
 40
0.2396114958834032
  0
LINE
  8
0
  6
CONTINUOUS
 62
               3
  5
1FF
 10
-715.99092182737718
 20
114.67005919233725
 30
0.0
 11
-735.49092182737718
 21
285.81936265130253
 31
0.0
  0
LINE
  8
0
  6
CONTINUOUS
 62
               3
  5
200
 10
-735.49092182737718
 20
285.81936265130253
 30
0.0
 11
-605.49092182737718
 21
285.81936265130253
 31
0.0
  0
LINE
  8
0
  6
CONTINUOUS
 62
               3
  5
201
 10
-624.99092182737718
 20
114.67005919233725
 30
0.0
 11
-605.49092182737718
 21
285.81936265130253
 31
0.0
  0
LINE
  8
0
  6
CONTINUOUS
 62
               3
  5
202
 10
284.07550094968843
 20
114.67005919233725
 30
0.0
 11
264.57550094968843
 21
285.81936265130253
 31
0.0
  0
LINE
  8
0
  6
CONTINUOUS
 62
               3
  5
203
 10
264.57550094968843
 20
285.81936265130253
 30
0.0
 11
394.57550094968843
 21
285.81936265130253
 31
0.0
  0
CIRCLE
  8
0
  6
CONTINUOUS
 62
               3
  5
204
 10
228.95242229242393
 20
178.56669012580335
 30
0.0
 40
0.2396114958834032
  0
LINE
  8
0
  6
CONTINUOUS
 62
               3
  5
205
 10
375.07550094968843
 20
114.67005919233725
 30
0.0
 11
394.57550094968843
 21
285.81936265130253
 31
0.0
  0
LINE
  8
0
  6
CONTINUOUS
 62
               3
  5
206
 10
-215.99092182737709
 20
114.67005919233719
 30
0.0
 11
-124.99092182737718
 21
114.67005919233719
 31
0.0
  0
LINE
  8
0
  6
CONTINUOUS
 62
               3
  5
207
 10
-715.99092182737718
 20
114.67005919233719
 30
0.0
 11
-624.99092182737729
 21
114.67005919233719
 31
0.0
  0
LINE
  8
0
  6
CONTINUOUS
 62
               3
  5
208
 10
375.00907817262276
 20
114.67005919233702
 30
0.0
 11
284.00907817262288
 21
114.67005919233702
 31
0.0
  0
LINE
  8
0
  6
CONTINUOUS
 62
               3
  5
209
 10
-714.99092182737763
 20
48.760098096500769
 30
0.0
 11
-714.99092182737763
 21
-48.924809586819151
 31
0.0
  0
LINE
  8
0
  6
CONTINUOUS
 62
               3
  5
20A
 10
-714.99092182737763
 20
-48.924809586819151
 30
0.0
 11
-712.58207046838174
 21
-51.333660945815041
 31
0.0
  0
LINE
  8
0
  6
CONTINUOUS
 62
               3
  5
20B
 10
-714.99092182737763
 20
48.760098096500769
 30
0.0
 11
-715.99092182737763
 21
49.760098096500769
 31
0.0
  0
LINE
  8
0
  6
CONTINUOUS
 62
               3
  5
20C
 10
-712.58207046838174
 20
-51.333660945815041
 30
0.0
 11
-628.39977318637261
 21
-51.333660945815041
 31
0.0
  0
LINE
  8
0
  6
CONTINUOUS
 62
               3
  5
20D
 10
-625.99092182737672
 20
48.760098096500769
 30
0.0
 11
-625.99092182737672
 21
-48.924809586819151
 31
0.0
  0
LINE
  8
0
  6
CONTINUOUS
 62
               3
  5
20E
 10
-625.99092182737672
 20
-48.924809586819151
 30
0.0
 11
-628.39977318637261
 21
-51.333660945815041
 31
0.0
  0
LINE
  8
0
  6
CONTINUOUS
 62
               3
  5
20F
 10
-625.99092182737672
 20
48.760098096500769
 30
0.0
 11
-624.99092182737672
 21
49.760098096500769
 31
0.0
  0
LINE
  8
0
  6
CONTINUOUS
 62
               3
  5
210
 10
-714.99092182737763
 20
48.760098096500769
 30
0.0
 11
-625.99092182737672
 21
48.760098096500769
 31
0.0
  0
LINE
  8
0
  6
CONTINUOUS
 62
               3
  5
211
 10
-624.99092182737672
 20
49.760098096500769
 30
0.0
 11
-715.99092182737763
 21
49.760098096500769
 31
0.0
  0
LINE
  8
0
  6
CONTINUOUS
 62
               3
  5
212
 10
-214.99092182737769
 20
48.760098096500769
 30
0.0
 11
-215.99092182737763
 21
49.760098096500769
 31
0.0
  0
LINE
  8
0
  6
CONTINUOUS
 62
               3
  5
213
 10
-125.99092182737664
 20
48.760098096500769
 30
0.0
 11
-124.9909218273767
 21
49.760098096500769
 31
0.0
  0
LINE
  8
0
  6
CONTINUOUS
 62
               3
  5
214
 10
-214.99092182737769
 20
48.760098096500769
 30
0.0
 11
-125.99092182737664
 21
48.760098096500769
 31
0.0
  0
LINE
  8
0
  6
CONTINUOUS
 62
               3
  5
215
 10
-124.9909218273767
 20
49.760098096500769
 30
0.0
 11
-215.99092182737763
 21
49.760098096500769
 31
0.0
  0
LINE
  8
0
  6
CONTINUOUS
 62
               3
  5
216
 10
285.00907817262231
 20
48.760098096500656
 30
0.0
 11
285.00907817262231
 21
-48.924809586819379
 31
0.0
  0
LINE
  8
0
  6
CONTINUOUS
 62
               3
  5
217
 10
285.00907817262231
 20
-48.924809586819379
 30
0.0
 11
287.4179295316182
 21
-51.333660945815268
 31
0.0
  0
LINE
  8
0
  6
CONTINUOUS
 62
               3
  5
218
 10
285.00907817262231
 20
48.760098096500656
 30
0.0
 11
284.00907817262231
 21
49.760098096500656
 31
0.0
  0
LINE
  8
0
  6
CONTINUOUS
 62
               3
  5
219
 10
287.4179295316182
 20
-51.333660945815268
 30
0.0
 11
371.60022681362744
 21
-51.333660945815268
 31
0.0
  0
LINE
  8
0
  6
CONTINUOUS
 62
               3
  5
21A
 10
374.00907817262333
 20
48.760098096500656
 30
0.0
 11
374.00907817262333
 21
-48.924809586819379
 31
0.0
  0
LINE
  8
0
  6
CONTINUOUS
 62
               3
  5
21B
 10
374.00907817262333
 20
-48.924809586819379
 30
0.0
 11
371.60022681362744
 21
-51.333660945815268
 31
0.0
  0
LINE
  8
0
  6
CONTINUOUS
 62
               3
  5
21C
 10
374.00907817262333
 20
48.760098096500656
 30
0.0
 11
375.00907817262333
 21
49.760098096500656
 31
0.0
  0
LINE
  8
0
  6
CONTINUOUS
 62
               3
  5
21D
 10
285.00907817262231
 20
48.760098096500656
 30
0.0
 11
374.00907817262333
 21
48.760098096500656
 31
0.0
  0
LINE
  8
0
  6
CONTINUOUS
 62
               3
  5
21E
 10
375.00907817262333
 20
49.760098096500656
 30
0.0
 11
284.00907817262231
 21
49.760098096500656
 31
0.0
  0
LINE
  8
0
  6
CONTINUOUS
 62
               3
  5
21F
 10
-125.99092182737664
 20
48.760098096500769
 30
0.0
 11
-125.99092182737668
 21
-48.924809586819151
 31
0.0
  0
LINE
  8
0
  6
CONTINUOUS
 62
               3
  5
220
 10
-214.99092182737769
 20
48.760098096500769
 30
0.0
 11
-214.99092182737769
 21
-48.924809586819151
 31
0.0
  0
LINE
  8
0
  6
CONTINUOUS
 62
               3
  5
221
 10
-214.99092182737769
 20
-48.924809586819151
 30
0.0
 11
-212.5820704683818
 21
-51.333660945815041
 31
0.0
  0
LINE
  8
0
  6
CONTINUOUS
 62
               3
  5
222
 10
-212.5820704683818
 20
-51.333660945815041
 30
0.0
 11
-128.39977318637256
 21
-51.333660945815041
 31
0.0
  0
LINE
  8
0
  6
CONTINUOUS
 62
               3
  5
223
 10
-125.99092182737668
 20
-48.924809586819151
 30
0.0
 11
-128.39977318637256
 21
-51.333660945815041
 31
0.0
  0
LINE
  8
0
  6
CONTINUOUS
 62
               3
  5
224
 10
-715.99092182737695
 20
49.760098096500769
 30
0.0
 11
-715.99092182737718
 21
114.67005919233713
 31
0.0
  0
LINE
  8
0
  6
CONTINUOUS
 62
               3
  5
225
 10
-624.99092182737729
 20
49.760098096500769
 30
0.0
 11
-624.99092182737729
 21
114.67005919233713
 31
0.0
  0
LINE
  8
0
  6
CONTINUOUS
 62
               3
  5
226
 10
-215.99092182737763
 20
49.760098096500769
 30
0.0
 11
-215.99092182737712
 21
114.67005919233713
 31
0.0
  0
LINE
  8
0
  6
CONTINUOUS
 62
               3
  5
227
 10
-124.9909218273767
 20
49.760098096500769
 30
0.0
 11
-124.99092182737719
 21
114.67005919233713
 31
0.0
  0
LINE
  8
0
  6
CONTINUOUS
 62
               3
  5
228
 10
375.00907817262276
 20
49.760098096500656
 30
0.0
 11
375.00907817262276
 21
114.67005919233691
 31
0.0
  0
LINE
  8
0
  6
CONTINUOUS
 62
               3
  5
229
 10
284.00907817262265
 20
49.760098096500656
 30
0.0
 11
284.00907817262288
 21
114.67005919233691
 31
0.0
  0
LINE
  8
0
  6
CONTINUOUS
 62
               3
  5
22A
 10
-124.99092182737718
 20
114.67005919233719
 30
0.0
 11
-122.71914622702843
 21
116.94183479268565
 31
0.0
  0
LINE
  8
0
  6
CONTINUOUS
 62
               3
  5
22B
 10
-125.49415669372684
 20
114.67005919233662
 30
0.0
 11
-122.71914622702843
 21
116.94183479268565
 31
0.0
  0
LINE
  8
0
  6
CONTINUOUS
 62
               3
  5
22C
 10
323.50907817262254
 20
116.94183479268611
 30
0.0
 11
335.50907817262242
 21
116.94183479268611
 31
0.0
  0
LINE
  8
0
  6
CONTINUOUS
 62
               3
  5
22D
 10
321.29207817262255
 20
114.67005919233702
 30
0.0
 11
323.50907817262254
 21
116.94183479268611
 31
0.0
  0
LINE
  8
0
  6
CONTINUOUS
 62
               3
  5
22E
 10
335.50907817262242
 20
116.94183479268611
 30
0.0
 11
337.72607817262241
 21
114.67005919233702
 31
0.0
  0
CIRCLE
  8
0
  6
CONTINUOUS
 62
               3
  5
22F
 10
-670.49092182737718
 20
405.16633905418513
 30
0.0
 40
50.850000000000001
  0
LINE
  8
0
  6
CONTINUOUS
 62
               3
  5
230
 10
-689.57134373046893
 20
431.16633905418502
 30
0.0
 11
-651.4104999242843
 21
431.16633905418502
 31
0.0
  0
CIRCLE
  8
0
  6
CONTINUOUS
 62
               3
  5
231
 10
-670.49092182737718
 20
405.16633905418513
 30
0.0
 40
41.849999999999994
  0
CIRCLE
  8
0
  6
CONTINUOUS
 62
               3
  5
232
 10
-670.49092182737718
 20
405.16633905418513
 30
0.0
 40
40.75
  0
CIRCLE
  8
0
  6
CONTINUOUS
 62
               3
  5
233
 10
-670.4909218273765
 20
405.16633905418513
 30
0.0
 40
36.399999999999999
  0
CIRCLE
  8
0
  6
CONTINUOUS
 62
               3
  5
234
 10
-670.4909218273765
 20
405.16633905418513
 30
0.0
 40
32.25
  0
LINE
  8
0
  6
CONTINUOUS
 62
               3
  5
235
 10
-697.53775620776196
 20
378.11950467379967
 30
0.0
 11
-699.30552316072885
 21
376.35173772083323
 31
0.0
  0
LINE
  8
0
  6
CONTINUOUS
 62
               3
  5
236
 10
-643.44408744699808
 20
378.11950467379285
 30
0.0
 11
-641.67632049402573
 21
376.35173772083266
 31
0.0
  0
ARC
  8
0
  6
CONTINUOUS
 62
               3
  5
237
 10
-670.4909218273765
 20
405.16633905418513
 30
0.0
 40
38.25
 50
225.00000000008515
 51
314.99999999999335
  0
LINE
  8
0
  6
CONTINUOUS
 62
               3
  5
238
 10
348.58950007571462
 20
431.16633905418507
 30
0.0
 11
310.42865626952999
 21
431.16633905418507
 31
0.0
  0
CIRCLE
  8
0
  6
CONTINUOUS
 62
               3
  5
239
 10
329.50907817262288
 20
405.16633905418519
 30
0.0
 40
41.849999999999994
  0
CIRCLE
  8
0
  6
CONTINUOUS
 62
               3
  5
23A
 10
329.50907817262288
 20
405.16633905418519
 30
0.0
 40
40.75
  0
CIRCLE
  8
0
  6
CONTINUOUS
 62
               3
  5
23B
 10
329.50907817262231
 20
405.16633905418519
 30
0.0
 40
36.399999999999999
  0
CIRCLE
  8
0
  6
CONTINUOUS
 62
               3
  5
23C
 10
329.50907817262231
 20
405.16633905418519
 30
0.0
 40
32.25
  0
LINE
  8
0
  6
CONTINUOUS
 62
               3
  5
23D
 10
356.55591255300777
 20
378.11950467379972
 30
0.0
 11
358.32367950597467
 21
376.35173772083328
 31
0.0
  0
LINE
  8
0
  6
CONTINUOUS
 62
               3
  5
23E
 10
302.46224379224378
 20
378.1195046737929
 30
0.0
 11
300.69447683927154
 21
376.35173772083272
 31
0.0
  0
ARC
  8
0
  6
CONTINUOUS
 62
               3
  5
23F
 10
329.50907817262231
 20
405.16633905418519
 30
0.0
 40
38.25
 50
224.99999999979906
 51
314.99999999970726
  0
ARC
  8
0
  6
CONTINUOUS
 62
               3
  5
240
 10
-115.49092182737709
 20
351.16633905418519
 30
0.0
 40
2.4999999999999996
 50
269.99999999994793
 51
449.99999999984431
  0
LINE
  8
0
  6
CONTINUOUS
 62
               3
  5
241
 10
-225.49092182737712
 20
353.66633905418519
 30
0.0
 11
-115.49092182737711
 21
353.66633905418519
 31
0.0
  0
LINE
  8
0
  6
CONTINUOUS
 62
               3
  5
242
 10
-225.49092182737937
 20
348.66633905418519
 30
0.0
 11
-115.49092182737709
 21
348.66633905418519
 31
0.0
  0
CIRCLE
  8
0
  6
CONTINUOUS
 62
               3
  5
243
 10
-170.49092182737706
 20
860.10407793601826
 30
0.0
 40
47.0
  0
LINE
  8
0
  6
CONTINUOUS
 62
               3
  5
244
 10
-146.05245886480699
 20
877.41004988064708
 30
0.0
 11
-185.05535155049427
 21
894.66022625784933
 31
0.0
  0
ARC
  8
0
  6
CONTINUOUS
 62
               3
  5
245
 10
-140.21933397665731
 20
890.59882772615276
 30
0.0
 40
14.421137507799237
 50
246.14118011751833
 51
283.68441335077574
  0
CIRCLE
  8
0
  6
CONTINUOUS
 62
               3
  5
246
 10
-170.49092182737729
 20
860.10407793601826
 30
0.0
 40
37.5
  0
CIRCLE
  8
0
  6
CONTINUOUS
 62
               3
  5
247
 10
338.79560138893072
 20
-415.29742085521474
 30
0.0
 40
75.0
  0
CIRCLE
  8
0
  6
CONTINUOUS
 62
               3
  5
248
 10
338.79560138893072
 20
-415.29742085521474
 30
0.0
 40
52.5
  0
LINE
  8
0
  6
CONTINUOUS
 62
               3
  5
249
 10
252.58510318830548
 20
-395.29742085521474
 30
0.0
 11
266.51143991492535
 21
-395.29742085521474
 31
0.0
  0
LINE
  8
0
  6
CONTINUOUS
 62
               3
  5
24A
 10
266.51143991492535
 20
-435.29742085521474
 30
0.0
 11
252.58510318830548
 21
-435.29742085521474
 31
0.0
  0
ARC
  8
0
  6
CONTINUOUS
 62
               3
  5
24B
 10
338.79560138893072
 20
-415.29742085521474
 30
0.0
 40
88.5
 50
166.93897588507147
 51
193.06102411465253
  0
LINE
  8
0
  6
CONTINUOUS
 62
               3
  5
24C
 10
318.79560138893072
 20
-501.50791905583964
 30
0.0
 11
318.79560138893072
 21
-487.58158232921977
 31
0.0
  0
LINE
  8
0
  6
CONTINUOUS
 62
               3
  5
24D
 10
358.79560138893072
 20
-487.58158232921977
 30
0.0
 11
358.79560138893072
 21
-501.50791905583964
 31
0.0
  0
ARC
  8
0
  6
CONTINUOUS
 62
               3
  5
24E
 10
338.79560138893072
 20
-415.29742085521474
 30
0.0
 40
88.5
 50
256.93897588500255
 51
283.06102411458357
  0
LINE
  8
0
  6
CONTINUOUS
 62
               3
  5
24F
 10
425.00609958955539
 20
-435.29742085521474
 30
0.0
 11
411.07976286293496
 21
-435.29742085521474
 31
0.0
  0
LINE
  8
0
  6
CONTINUOUS
 62
               3
  5
250
 10
411.07976286293496
 20
-395.29742085521474
 30
0.0
 11
425.00609958955539
 21
-395.29742085521474
 31
0.0
  0
ARC
  8
0
  6
CONTINUOUS
 62
               3
  5
251
 10
338.79560138893072
 20
-415.29742085521474
 30
0.0
 40
88.5
 50
346.93897588493354
 51
373.06102411451457
  0
LINE
  8
0
  6
CONTINUOUS
 62
               3
  5
252
 10
358.79560138893072
 20
-329.08692265458916
 30
0.0
 11
358.79560138893072
 21
-343.01325938120971
 31
0.0
  0
LINE
  8
0
  6
CONTINUOUS
 62
               3
  5
253
 10
318.79560138893072
 20
-343.01325938120971
 30
0.0
 11
318.79560138893072
 21
-329.08692265458916
 31
0.0
  0
ARC
  8
0
  6
CONTINUOUS
 62
               3
  5
254
 10
338.79560138893072
 20
-415.29742085521474
 30
0.0
 40
88.5
 50
76.938975885140493
 51
103.06102411472156
  0
LINE
  8
0
  6
CONTINUOUS
 62
               3
  5
255
 10
291.12747786806966
 20
-437.29742085521519
 30
0.0
 11
386.46372490979064
 21
-437.29742085521519
 31
0.0
  0
ARC
  8
0
  6
CONTINUOUS
 62
               3
  5
256
 10
351.29921303831185
 20
-406.59102322759571
 30
0.0
 40
54.763804151667173
 50
141.38591763672954
 51
145.15009542084252
  0
ARC
  8
0
  6
CONTINUOUS
 62
               3
  5
257
 10
338.79560138893072
 20
-415.29742085521474
 30
0.0
 40
51.5
 50
334.7109884732011
 51
410.95932736332554
  0
ARC
  8
0
  6
CONTINUOUS
 62
               3
  5
258
 10
338.79560138893072
 20
-415.29742085521474
 30
0.0
 40
51.5
 50
129.04067263626098
 51
205.289011526385
  0
ARC
  8
0
  6
CONTINUOUS
 62
               3
  5
259
 10
338.79560138893072
 20
-415.29742085521474
 30
0.0
 40
77.5
 50
104.95524831656294
 51
128.57288309093474
  0
ARC
  8
0
  6
CONTINUOUS
 62
               3
  5
25A
 10
338.79560138893072
 20
-415.29742085521474
 30
0.0
 40
77.5
 50
14.95524831663182
 51
75.044751683299182
  0
ARC
  8
0
  6
CONTINUOUS
 62
               3
  5
25B
 10
338.79560138893072
 20
-415.29742085521474
 30
0.0
 40
77.5
 50
321.42711690871977
 51
345.04475168309216
  0
LINE
  8
0
  6
CONTINUOUS
 62
               3
  5
25C
 10
198.79560138893072
 20
-470.29742085521474
 30
0.0
 11
199.46715751489495
 21
-470.29742085521474
 31
0.0
  0
LINE
  8
0
  6
CONTINUOUS
 62
               3
  5
25D
 10
201.9671575148954
 20
-472.79742085521474
 30
0.0
 11
199.46715751489495
 21
-470.29742085521474
 31
0.0
  0
LINE
  8
0
  6
CONTINUOUS
 62
               3
  5
25E
 10
198.79560138893072
 20
-360.29742085521474
 30
0.0
 11
199.46715751489495
 21
-360.29742085521474
 31
0.0
  0
LINE
  8
0
  6
CONTINUOUS
 62
               3
  5
25F
 10
201.96715751489495
 20
-357.79742085521474
 30
0.0
 11
199.46715751489495
 21
-360.29742085521474
 31
0.0
  0
LINE
  8
0
  6
CONTINUOUS
 62
               3
  5
260
 10
199.46715751489495
 20
-360.29742085521474
 30
0.0
 11
199.46715751489495
 21
-470.29742085521474
 31
0.0
  0
LINE
  8
0
  6
CONTINUOUS
 62
               3
  5
261
 10
293.30526560255277
 20
-354.60782383687314
 30
0.0
 11
201.96715751489495
 21
-357.79742085521474
 31
0.0
  0
LINE
  8
0
  6
CONTINUOUS
 62
               3
  5
262
 10
273.95912967237967
 20
-475.31143592018242
 30
0.0
 11
201.96715751489552
 21
-472.79742085521474
 31
0.0
  0
LINE
  8
0
  6
CONTINUOUS
 62
               3
  5
263
 10
193.79560138893072
 20
-360.46897698117886
 30
0.0
 11
193.79560138893072
 21
-470.39742085521465
 31
0.0
  0
LINE
  8
0
  6
CONTINUOUS
 62
               3
  5
264
 10
198.79560138893072
 20
-472.89742085521465
 30
0.0
 11
198.79560138893072
 21
-357.6974208552146
 31
0.0
  0
LINE
  8
0
  6
CONTINUOUS
 62
               3
  5
265
 10
198.79560138893072
 20
-357.6974208552146
 30
0.0
 11
196.29560138893072
 21
-357.6974208552146
 31
0.0
  0
LINE
  8
0
  6
CONTINUOUS
 62
               3
  5
266
 10
198.79560138893072
 20
-472.89742085521465
 30
0.0
 11
196.29560138893072
 21
-472.89742085521465
 31
0.0
  0
ARC
  8
0
  6
CONTINUOUS
 62
               3
  5
267
 10
196.29560138893072
 20
-470.39742085521465
 30
0.0
 40
2.5
 50
179.9999999998615
 51
269.99999999979229
  0
ARC
  8
0
  6
CONTINUOUS
 62
               3
  5
268
 10
196.29560138893072
 20
-360.1974208552146
 30
0.0
 40
2.5
 50
89.999999999932058
 51
179.9999999998615
  0
LINE
  8
0
  6
CONTINUOUS
 62
               3
  5
269
 10
306.35719822231312
 20
-375.29742085521497
 30
0.0
 11
338.79560138893072
 21
-375.29742085521497
 31
0.0
  0
LINE
  8
0
  6
CONTINUOUS
 62
               3
  5
26A
 10
338.79560138893072
 20
-375.29742085521497
 30
0.0
 11
372.79927766076941
 21
-375.29742085521497
 31
0.0
  0
LINE
  8
0
  6
CONTINUOUS
 62
               3
  5
26B
 10
201.9671575148954
 20
-472.79742085521474
 30
0.0
 11
201.96715751489495
 21
-357.79742085521474
 31
0.0
  0
ARC
  8
0
  6
CONTINUOUS
 62
               3
  5
26C
 10
293.13076811904028
 20
-349.61086970177752
 30
0.0
 40
5.0
 50
271.9999999997919
 51
304.80675787019362
  0
LINE
  8
0
  6
CONTINUOUS
 62
               3
  5
26D
 10
393.79560138893061
 20
-555.2974208552148
 30
0.0
 11
393.79560138893061
 21
-554.62586472925045
 31
0.0
  0
LINE
  8
0
  6
CONTINUOUS
 62
               3
  5
26E
 10
396.29560138893061
 20
-552.12586472925
 30
0.0
 11
393.79560138893061
 21
-554.62586472925045
 31
0.0
  0
LINE
  8
0
  6
CONTINUOUS
 62
               3
  5
26F
 10
283.79560138893061
 20
-555.2974208552148
 30
0.0
 11
283.79560138893061
 21
-554.62586472925045
 31
0.0
  0
LINE
  8
0
  6
CONTINUOUS
 62
               3
  5
270
 10
281.29560138893061
 20
-552.12586472925045
 30
0.0
 11
283.79560138893061
 21
-554.62586472925045
 31
0.0
  0
LINE
  8
0
  6
CONTINUOUS
 62
               3
  5
271
 10
283.79560138893061
 20
-554.62586472925045
 30
0.0
 11
393.79560138893061
 21
-554.62586472925045
 31
0.0
  0
LINE
  8
0
  6
CONTINUOUS
 62
               3
  5
272
 10
283.96715751489472
 20
-560.2974208552148
 30
0.0
 11
393.89560138893063
 21
-560.2974208552148
 31
0.0
  0
LINE
  8
0
  6
CONTINUOUS
 62
               3
  5
273
 10
396.39560138893063
 20
-555.2974208552148
 30
0.0
 11
281.19560138893058
 21
-555.2974208552148
 31
0.0
  0
LINE
  8
0
  6
CONTINUOUS
 62
               3
  5
274
 10
281.19560138893058
 20
-555.2974208552148
 30
0.0
 11
281.19560138893058
 21
-557.7974208552148
 31
0.0
  0
LINE
  8
0
  6
CONTINUOUS
 62
               3
  5
275
 10
396.39560138893063
 20
-555.2974208552148
 30
0.0
 11
396.39560138893063
 21
-557.7974208552148
 31
0.0
  0
ARC
  8
0
  6
CONTINUOUS
 62
               3
  5
276
 10
393.89560138893063
 20
-557.7974208552148
 30
0.0
 40
2.5
 50
269.99999999979354
 51
359.999999999723
  0
ARC
  8
0
  6
CONTINUOUS
 62
               3
  5
277
 10
283.69560138893058
 20
-557.7974208552148
 30
0.0
 40
2.5
 50
179.9999999998615
 51
269.99999999979354
  0
LINE
  8
0
  6
CONTINUOUS
 62
               3
  5
278
 10
396.29560138893061
 20
-552.12586472925
 30
0.0
 11
281.29560138893061
 21
-552.12586472925045
 31
0.0
  0
LINE
  8
0
  6
CONTINUOUS
 62
               3
  5
279
 10
399.48519840727175
 20
-460.78775664159315
 30
0.0
 11
396.29560138893061
 21
-552.12586472925
 31
0.0
  0
ARC
  8
0
  6
CONTINUOUS
 62
               3
  5
27A
 10
404.48215254236726
 20
-460.96225412510574
 30
0.0
 40
5.0
 50
145.19324212946151
 51
177.99999999986429
  0
LINE
  8
0
  6
CONTINUOUS
 62
               3
  5
27B
 10
278.78158632396259
 20
-480.13389257176567
 30
0.0
 11
281.29560138893061
 21
-552.12586472925045
 31
0.0
  0
ARC
  8
0
  6
CONTINUOUS
 62
               3
  5
27C
 10
273.78463218886719
 20
-480.30839005527781
 30
0.0
 40
5.0
 50
1.9999999999958187
 51
87.999999999932285
  0
CIRCLE
  8
0
  6
CONTINUOUS
 62
               3
  5
27D
 10
338.79560138893072
 20
-415.29742085521474
 30
0.0
 40
59.0
  0
LINE
  8
0
  6
CONTINUOUS
 62
               3
  5
27E
 10
263.79560138893072
 20
-723.79685460379915
 30
0.0
 11
413.79560138893072
 21
-723.79685460379915
 31
0.0
  0
LINE
  8
0
  6
CONTINUOUS
 62
               3
  5
27F
 10
250.29560138893049
 20
-733.79685460379915
 30
0.0
 11
250.29560138893049
 21
-740.79685460379869
 31
0.0
  0
LINE
  8
0
  6
CONTINUOUS
 62
               3
  5
280
 10
250.29560138893049
 20
-733.79685460379915
 30
0.0
 11
263.79560138893072
 21
-723.79685460379915
 31
0.0
  0
ARC
  8
0
  6
CONTINUOUS
 62
               3
  5
281
 10
261.79560138893083
 20
-745.37943029875441
 30
0.0
 40
4.9999999999999991
 50
0.0
 51
66.421821521747802
  0
LINE
  8
0
  6
CONTINUOUS
 62
               3
  5
282
 10
250.29560138893049
 20
-740.79685460379869
 30
0.0
 11
427.29560138893038
 21
-740.79685460379869
 31
0.0
  0
ARC
  8
0
  6
CONTINUOUS
 62
               3
  5
283
 10
283.79560138893072
 20
-830.79685460379915
 30
0.0
 40
19.999999999999996
 50
148.21166938283449
 51
167.2698198615592
  0
LINE
  8
0
  6
CONTINUOUS
 62
               3
  5
284
 10
266.79560138893083
 20
-745.37943029875441
 30
0.0
 11
266.79560138893083
 21
-820.26120085094635
 31
0.0
  0
LINE
  8
0
  6
CONTINUOUS
 62
               3
  5
285
 10
410.79560138893061
 20
-815.2612008509459
 30
0.0
 11
410.79560138893061
 21
-745.37943029875441
 31
0.0
  0
LINE
  8
0
  6
CONTINUOUS
 62
               3
  5
286
 10
266.79560138893083
 20
-820.26120085094635
 30
0.0
 11
410.29560138893106
 21
-820.26120085094635
 31
0.0
  0
LINE
  8
0
  6
CONTINUOUS
 62
               3
  5
287
 10
318.79560138893072
 20
-740.79685460379869
 30
0.0
 11
318.79560138893072
 21
-723.79685460379915
 31
0.0
  0
LINE
  8
0
  6
CONTINUOUS
 62
               3
  5
288
 10
358.79560138893072
 20
-723.79685460379915
 30
0.0
 11
358.79560138893072
 21
-740.79685460379869
 31
0.0
  0
LINE
  8
0
  6
CONTINUOUS
 62
               3
  5
289
 10
318.79560138893072
 20
-733.79685460379915
 30
0.0
 11
358.79560138893072
 21
-733.79685460379915
 31
0.0
  0
LINE
  8
0
  6
CONTINUOUS
 62
               3
  5
28A
 10
266.51143991492535
 20
-723.79685460379915
 30
0.0
 11
266.51143991492535
 21
-740.79685460379869
 31
0.0
  0
LINE
  8
0
  6
CONTINUOUS
 62
               3
  5
28B
 10
252.58510318830548
 20
-733.79685460379915
 30
0.0
 11
252.58510318830548
 21
-740.79685460379869
 31
0.0
  0
LINE
  8
0
  6
CONTINUOUS
 62
               3
  5
28C
 10
250.29560138893049
 20
-733.79685460379915
 30
0.0
 11
252.58510318830548
 21
-733.79685460379915
 31
0.0
  0
LINE
  8
0
  6
CONTINUOUS
 62
               3
  5
28D
 10
252.58510318830548
 20
-733.79685460379915
 30
0.0
 11
266.51143991492535
 21
-723.79685460379915
 31
0.0
  0
LINE
  8
0
  6
CONTINUOUS
 62
               3
  5
28E
 10
427.29560138893038
 20
-733.79685460379915
 30
0.0
 11
427.29560138893038
 21
-740.79685460379869
 31
0.0
  0
LINE
  8
0
  6
CONTINUOUS
 62
               3
  5
28F
 10
427.29560138893038
 20
-733.79685460379915
 30
0.0
 11
413.79560138893072
 21
-723.79685460379915
 31
0.0
  0
ARC
  8
0
  6
CONTINUOUS
 62
               3
  5
290
 10
415.79560138893061
 20
-745.37943029875441
 30
0.0
 40
4.9999999999999991
 50
113.5781784781135
 51
179.9999999998615
  0
LINE
  8
0
  6
CONTINUOUS
 62
               3
  5
291
 10
411.07976286293496
 20
-723.79685460379915
 30
0.0
 11
411.07976286293496
 21
-740.79685460379869
 31
0.0
  0
LINE
  8
0
  6
CONTINUOUS
 62
               3
  5
292
 10
425.00609958955596
 20
-733.79685460379915
 30
0.0
 11
425.00609958955596
 21
-740.79685460379869
 31
0.0
  0
LINE
  8
0
  6
CONTINUOUS
 62
               3
  5
293
 10
427.29560138893038
 20
-733.79685460379915
 30
0.0
 11
425.00609958955596
 21
-733.79685460379915
 31
0.0
  0
LINE
  8
0
  6
CONTINUOUS
 62
               3
  5
294
 10
425.00609958955596
 20
-733.79685460379915
 30
0.0
 11
411.07976286293496
 21
-723.79685460379915
 31
0.0
  0
ARC
  8
0
  6
CONTINUOUS
 62
               3
  5
295
 10
273.79560138893072
 20
-952.29685460379915
 30
0.0
 40
2.4999999999999996
 50
89.999999999930751
 51
269.99999999979354
  0
ARC
  8
0
  6
CONTINUOUS
 62
               3
  5
296
 10
413.79560138893072
 20
-952.29685460379915
 30
0.0
 40
2.4999999999999996
 50
269.99999999979354
 51
449.99999999965507
  0
LINE
  8
0
  6
CONTINUOUS
 62
               3
  5
297
 10
198.79560138893072
 20
-944.79685460379915
 30
0.0
 11
199.46715751489506
 21
-944.79685460379915
 31
0.0
  0
LINE
  8
0
  6
CONTINUOUS
 62
               3
  5
298
 10
201.96715751489518
 20
-947.29685460379847
 30
0.0
 11
199.46715751489506
 21
-944.79685460379915
 31
0.0
  0
LINE
  8
0
  6
CONTINUOUS
 62
               3
  5
299
 10
201.96715751489597
 20
-947.29685460379915
 30
0.0
 11
244.1322677711733
 21
-948.76929269965331
 31
0.0
  0
LINE
  8
0
  6
CONTINUOUS
 62
               3
  5
29A
 10
262.33113529486326
 20
-965.06854403008515
 30
0.0
 11
247.49330419359347
 21
-950.23071292881582
 31
0.0
  0
ARC
  8
0
  6
CONTINUOUS
 62
               3
  5
29B
 10
258.79560138893072
 20
-968.60407793601826
 30
0.0
 40
4.9999999999999991
 50
0.0
 51
44.999999999964892
  0
LINE
  8
0
  6
CONTINUOUS
 62
               3
  5
29C
 10
198.79560138893072
 20
-834.79685460379915
 30
0.0
 11
199.46715751489506
 21
-834.79685460379915
 31
0.0
  0
LINE
  8
0
  6
CONTINUOUS
 62
               3
  5
29D
 10
201.96715751489518
 20
-832.29685460379915
 30
0.0
 11
199.46715751489506
 21
-834.79685460379915
 31
0.0
  0
LINE
  8
0
  6
CONTINUOUS
 62
               3
  5
29E
 10
201.96715751489506
 20
-832.29685460379915
 30
0.0
 11
259.58463371706938
 21
-830.28480799864678
 31
0.0
  0
LINE
  8
0
  6
CONTINUOUS
 62
               3
  5
29F
 10
199.46715751489506
 20
-834.79685460379915
 30
0.0
 11
199.46715751489506
 21
-944.79685460379915
 31
0.0
  0
LINE
  8
0
  6
CONTINUOUS
 62
               3
  5
2A0
 10
198.79560138893072
 20
-947.39685460379906
 30
0.0
 11
198.79560138893072
 21
-832.19685460379924
 31
0.0
  0
LINE
  8
0
  6
CONTINUOUS
 62
               3
  5
2A1
 10
198.79560138893072
 20
-832.19685460379924
 30
0.0
 11
196.29560138893072
 21
-832.19685460379924
 31
0.0
  0
ARC
  8
0
  6
CONTINUOUS
 62
               3
  5
2A2
 10
196.29560138893072
 20
-834.69685460379924
 30
0.0
 40
2.5
 50
89.999999999932058
 51
179.99999999985891
  0
LINE
  8
0
  6
CONTINUOUS
 62
               3
  5
2A3
 10
193.79560138893072
 20
-834.69685460379924
 30
0.0
 11
193.79560138893072
 21
-944.89685460379906
 31
0.0
  0
LINE
  8
0
  6
CONTINUOUS
 62
               3
  5
2A4
 10
198.79560138893072
 20
-947.39685460379906
 30
0.0
 11
196.29560138893072
 21
-947.39685460379906
 31
0.0
  0
ARC
  8
0
  6
CONTINUOUS
 62
               3
  5
2A5
 10
196.29560138893072
 20
-944.89685460379906
 30
0.0
 40
2.5
 50
179.99999999985891
 51
269.99999999979229
  0
LINE
  8
0
  6
CONTINUOUS
 62
               3
  5
2A6
 10
201.96715751489518
 20
-832.29685460379915
 30
0.0
 11
201.96715751489597
 21
-947.29685460379915
 31
0.0
  0
ARC
  8
0
  6
CONTINUOUS
 62
               3
  5
2A7
 10
243.95777028766082
 20
-953.7662468347487
 30
0.0
 40
5.0
 50
44.999999999968125
 51
87.999999999932243
  0
ARC
  8
0
  6
CONTINUOUS
 62
               3
  5
2A8
 10
259.4101362335569
 20
-825.28785386355139
 30
0.0
 40
5.0
 50
271.9999999997919
 51
347.26981986141988
  0
CIRCLE
  8
0
  6
CONTINUOUS
 62
               3
  5
2A9
 10
338.79560138893072
 20
-889.79685460379915
 30
0.0
 40
48.5
  0
CIRCLE
  8
0
  6
CONTINUOUS
 62
               3
  5
2AA
 10
338.79560138893072
 20
-889.79685460379915
 30
0.0
 40
47.299999999999997
  0
LINE
  8
0
  6
CONTINUOUS
 62
               3
  5
2AB
 10
306.97579623553617
 20
-921.6166597571937
 30
0.0
 11
305.34945063880701
 21
-923.24300535392285
 31
0.0
  0
LINE
  8
0
  6
CONTINUOUS
 62
               3
  5
2AC
 10
370.61540654232539
 20
-921.6166597571937
 30
0.0
 11
372.24175213905443
 21
-923.24300535392285
 31
0.0
  0
ARC
  8
0
  6
CONTINUOUS
 62
               3
  5
2AD
 10
338.79560138893072
 20
-889.79685460379915
 30
0.0
 40
45.0
 50
224.99999999982739
 51
314.99999999975864
  0
CIRCLE
  8
0
  6
CONTINUOUS
 62
               3
  5
2AE
 10
338.79560138893072
 20
-889.79685460379915
 30
0.0
 40
57.600000000000001
  0
ARC
  8
0
  6
CONTINUOUS
 62
               3
  5
2AF
 10
316.29560138893129
 20
-952.29685460379915
 30
0.0
 40
2.4999999999999996
 50
269.99999999979354
 51
449.99999999965507
  0
ARC
  8
0
  6
CONTINUOUS
 62
               3
  5
2B0
 10
361.29560138893129
 20
-952.29685460379915
 30
0.0
 40
2.4999999999999996
 50
89.999999999929457
 51
269.99999999979354
  0
LINE
  8
0
  6
CONTINUOUS
 62
               3
  5
2B1
 10
273.79560138893072
 20
-954.79685460379915
 30
0.0
 11
316.29560138893129
 21
-954.79685460379915
 31
0.0
  0
LINE
  8
0
  6
CONTINUOUS
 62
               3
  5
2B2
 10
273.79560138893072
 20
-949.79685460379915
 30
0.0
 11
316.29560138893129
 21
-949.79685460379915
 31
0.0
  0
LINE
  8
0
  6
CONTINUOUS
 62
               3
  5
2B3
 10
361.29560138893129
 20
-949.79685460379915
 30
0.0
 11
413.79560138893072
 21
-949.79685460379915
 31
0.0
  0
LINE
  8
0
  6
CONTINUOUS
 62
               3
  5
2B4
 10
361.29560138893129
 20
-954.79685460379915
 30
0.0
 11
413.79560138893072
 21
-954.79685460379915
 31
0.0
  0
LINE
  8
0
  6
DASHED2
 62
               3
  5
2B5
 10
-709.99092182737718
 20
-51.333660945815041
 30
0.0
 11
-709.99092182737718
 21
-1.3336609458150406
 31
0.0
  0
LINE
  8
0
  6
DASHED2
 62
               3
  5
2B6
 10
-630.99092182737718
 20
-51.333660945815041
 30
0.0
 11
-630.99092182737718
 21
-1.3336609458150406
 31
0.0
  0
LINE
  8
0
  6
DASHED2
 62
               3
  5
2B7
 10
290.00907817262288
 20
-51.333660945815268
 30
0.0
 11
290.00907817262288
 21
-1.333660945815268
 31
0.0
  0
LINE
  8
0
  6
DASHED2
 62
               3
  5
2B8
 10
369.00907817262276
 20
-51.333660945815268
 30
0.0
 11
369.00907817262276
 21
-1.333660945815268
 31
0.0
  0
LINE
  8
0
  6
DASHED2
 62
               3
  5
2B9
 10
-209.99092182737712
 20
-51.333660945815041
 30
0.0
 11
-209.99092182737712
 21
-1.3336609458150406
 31
0.0
  0
LINE
  8
0
  6
DASHED2
 62
               3
  5
2BA
 10
-130.99092182737724
 20
-51.333660945815041
 30
0.0
 11
-130.99092182737721
 21
-1.3336609458150406
 31
0.0
  0
LINE
  8
0
  6
DASHED2
 62
               4
  5
2BB
 10
-214.99092182737712
 20
498.66633905418519
 30
0.0
 11
-125.99092182737711
 21
498.66633905418519
 31
0.0
  0
LINE
  8
0
  6
DASHED2
 62
               4
  5
2BC
 10
-714.99092182737718
 20
498.66633905418519
 30
0.0
 11
-625.99092182737718
 21
498.66633905418519
 31
0.0
  0
LINE
  8
0
  6
DASHED2
 62
               4
  5
2BD
 10
285.00907817262288
 20
498.66633905418502
 30
0.0
 11
374.00907817262288
 21
498.66633905418502
 31
0.0
  0
LINE
  8
0
  6
DASHED2
 62
               4
  5
2BE
 10
281.79560138893083
 20
-788.79685460379915
 30
0.0
 11
395.79560138893061
 21
-788.79685460379915
 31
0.0
  0
LINE
  8
0
  6
DASHDOT
 62
               4
  5
2BF
 10
-170.49092182737729
 20
968.60407793601803
 30
0.0
 11
-170.49092182737729
 21
751.60407793601814
 31
0.0
  0
LINE
  8
0
  6
DASHDOT
 62
               4
  5
2C0
 10
-339.49092182737706
 20
860.10407793601826
 30
0.0
 11
-1.4909218273774343
 21
860.10407793601826
 31
0.0
  0
LINE
  8
0
  6
DASHDOT
 62
               4
  5
2C1
 10
329.50907817262288
 20
599.81936265130219
 30
0.0
 11
329.50907817262288
 21
-86.222613765147514
 31
0.0
  0
LINE
  8
0
  6
DASHDOT
 62
               4
  5
2C2
 10
-170.49092182737712
 20
599.81936265130219
 30
0.0
 11
-170.49092182737718
 21
-86.222613765147514
 31
0.0
  0
LINE
  8
0
  6
DASHDOT
 62
               4
  5
2C3
 10
-670.49092182737718
 20
599.81936265130219
 30
0.0
 11
-670.49092182737706
 21
-86.222613765147514
 31
0.0
  0
LINE
  8
0
  6
DASHDOT
 62
               4
  5
2C4
 10
-223.45517097210296
 20
405.16633905418541
 30
0.0
 11
-322.49092182737701
 21
405.16633905418536
 31
0.0
  0
LINE
  8
0
  6
DASHDOT
 62
               4
  5
2C5
 10
-607.22079971603262
 20
405.16633905418519
 30
0.0
 11
-733.12141875504312
 21
405.16633905418519
 31
0.0
  0
LINE
  8
0
  6
DASHDOT
 62
               4
  5
2C6
 10
266.23895606127843
 20
405.16633905418519
 30
0.0
 11
392.13957510028882
 21
405.16633905418524
 31
0.0
  0
LINE
  8
0
  6
DASHDOT
 62
               4
  5
2C7
 10
-117.52667268265125
 20
405.16633905418541
 30
0.0
 11
-18.490921827377207
 21
405.16633905418541
 31
0.0
  0
LINE
  8
0
  6
DASHDOT
 62
               4
  5
2C8
 10
-270.49092182737712
 20
-511.8336609458151
 30
0.0
 11
-270.49092182737706
 21
-395.8336609458151
 31
0.0
  0
LINE
  8
0
  6
DASHDOT
 62
               4
  5
2C9
 10
-328.49092182737706
 20
-453.8336609458151
 30
0.0
 11
-212.49092182737706
 21
-453.8336609458151
 31
0.0
  0
LINE
  8
0
  6
DASHDOT
 62
               4
  5
2CA
 10
-320.49092182737706
 20
-461.8336609458151
 30
0.0
 11
-220.49092182737706
 21
-461.8336609458151
 31
0.0
  0
LINE
  8
0
  6
DASHDOT
 62
               4
  5
2CB
 10
-434.41715008396602
 20
-461.8336609458151
 30
0.0
 11
-368.94785426389666
 21
-461.8336609458151
 31
0.0
  0
LINE
  8
0
  6
DASHDOT
 62
               4
  5
2CC
 10
-492.99092182737706
 20
-453.8336609458151
 30
0.0
 11
-394.39092182737699
 21
-453.8336609458151
 31
0.0
  0
LINE
  8
0
  6
DASHDOT
 62
               4
  5
2CD
 10
-106.56469357078814
 20
-461.83366094581532
 30
0.0
 11
-172.03398939085747
 21
-461.8336609458151
 31
0.0
  0
LINE
  8
0
  6
DASHDOT
 62
               4
  5
2CE
 10
-47.990921827377065
 20
-453.83366094581532
 30
0.0
 11
-146.59092182737714
 21
-453.8336609458151
 31
0.0
  0
LINE
  8
0
  6
DASHDOT
 62
               4
  5
2CF
 10
-270.49092182737712
 20
-231.3336609458151
 30
0.0
 11
-270.49092182737712
 21
-355.37672850929545
 31
0.0
  0
LINE
  8
0
  6
DASHDOT
 62
               4
  5
2D0
 10
338.79560138893072
 20
-306.79742085521474
 30
0.0
 11
338.79560138893072
 21
-577.34420765504115
 31
0.0
  0
LINE
  8
0
  6
DASHDOT
 62
               4
  5
2D1
 10
176.79560138893083
 20
-415.29742085521474
 30
0.0
 11
447.29560138893095
 21
-415.29742085521474
 31
0.0
  0
LINE
  8
0
  6
DASHDOT
 62
               4
  5
2D2
 10
338.79560138893072
 20
-605.89742085521493
 30
0.0
 11
338.79560138893072
 21
-482.29742085521451
 31
0.0
  0
LINE
  8
0
  6
DASHDOT
 62
               4
  5
2D3
 10
138.79560138893095
 20
-415.29742085521451
 30
0.0
 11
271.79560138893095
 21
-415.29742085521451
 31
0.0
  0
LINE
  8
0
  6
DASHDOT
 62
               4
  5
2D4
 10
407.32082616415545
 20
-889.79685460379915
 30
0.0
 11
177.0669880955025
 21
-889.79685460379915
 31
0.0
  0
LINE
  8
0
  6
DASHDOT
 62
               4
  5
2D5
 10
338.79560138893072
 20
-703.79685460379915
 30
0.0
 11
338.79560138893072
 21
-954.79685460379915
 31
0.0
  0
LINE
  8
0
  6
DASHDOT
 62
               4
  5
2D6
 10
288.79560138893072
 20
-904.29685460379915
 30
0.0
 11
388.79560138893095
 21
-904.29685460379915
 31
0.0
  0
LINE
  8
0
  6
DASHDOT
 62
               4
  5
2D7
 10
138.79560138893072
 20
-896.29685460379915
 30
0.0
 11
213.1956013889307
 21
-896.29685460379915
 31
0.0
  0
CIRCLE
  8
0
  6
CONTINUOUS
 62
               4
  5
2D8
 10
-771.11400048464156
 20
178.56669012580335
 30
0.0
 40
0.2396114958834032
  0
POINT
  8
0
  6
CONTINUOUS
 62
               4
  5
2D9
 10
-414.99092182737695
 20
-402.83366094581487
 30
0.0
  0
POINT
  8
0
  6
CONTINUOUS
 62
               4
  5
2DA
 10
-125.99092182737712
 20
-402.8336609458151
 30
0.0
  0
POINT
  8
0
  6
CONTINUOUS
 62
               4
  5
2DB
 10
-219.49092182737695
 20
-309.33366094581521
 30
0.0
  0
POINT
  8
0
  6
CONTINUOUS
 62
               4
  5
2DC
 10
383.29560138893072
 20
-559.69742085521489
 30
0.0
  0
POINT
  8
0
  6
CONTINUOUS
 62
               4
  5
2DD
 10
194.39560138893086
 20
-459.79742085521451
 30
0.0
  0
LINE
  8
0
  6
CONTINUOUS
 62
               4
  5
2DE
 10
415.79560138893061
 20
-820.26120085094635
 30
0.0
 11
410.79560138893061
 21
-815.26120085094635
 31
0.0
  0
ARC
  8
0
  6
CONTINUOUS
 62
               4
  5
2DF
 10
393.29560138893061
 20
-830.79685460379915
 30
0.0
 40
19.999999999999996
 50
0.0
 51
31.788330617027277
  0
LINE
  8
0
  6
CONTINUOUS
 62
               4
  5
2E0
 10
410.29560138893106
 20
-820.26120085094635
 30
0.0
 11
410.29560138893106
 21
-815.2612008509459
 31
0.0
  0
LINE
  8
0
  6
CONTINUOUS
 62
               4
  5
2E1
 10
410.79560138893061
 20
-815.26120085094635
 30
0.0
 11
410.29560138893106
 21
-815.26120085094635
 31
0.0
  0
LINE
  8
0
  6
CONTINUOUS
 62
               4
  5
2E2
 10
415.54560138893083
 20
-820.51120085094635
 30
0.0
 11
410.29560138893106
 21
-815.26120085094635
 31
0.0
  0
LINE
  8
0
  6
CONTINUOUS
 62
               4
  5
2E3
 10
415.54560138893083
 20
-820.51120085094635
 30
0.0
 11
415.79560138893061
 21
-820.26120085094635
 31
0.0
  0
LINE
  8
0
  6
CONTINUOUS
 62
               4
  5
2E4
 10
415.79560138893061
 20
-820.26120085094635
 30
0.0
 11
415.79560138893061
 21
-950.94987820091615
 31
0.0
  0
LINE
  8
0
  6
CONTINUOUS
 62
               4
  5
2E5
 10
415.54560138893083
 20
-820.51120085094635
 30
0.0
 11
415.54560138893083
 21
-950.66452109378065
 31
0.0
  0
LINE
  8
0
  6
CONTINUOUS
 62
               4
  5
2E6
 10
413.29560138893061
 20
-830.64383100668192
 30
0.0
 11
413.29560138893061
 21
-949.79685460379915
 31
0.0
  0
POINT
  8
0
  6
CONTINUOUS
 62
               4
  5
2E7
 10
194.39560138893074
 20
-845.29685460379915
 30
0.0
  0
CIRCLE
  8
0
  6
DASHED
 62
               4
  5
2E8
 10
-270.49092182737712
 20
-453.8336609458151
 30
0.0
 40
33.5
  0
POINT
  8
0
  6
CONTINUOUS
 62
               5
  5
2E9
 10
-764.99092182737695
 20
20.690732085435229
 30
0.0
  0
POINT
  8
0
  6
CONTINUOUS
 62
               5
  5
2EA
 10
-270.49092182737706
 20
-447.3336609458151
 30
0.0
  0
POINT
  8
0
  6
CONTINUOUS
 62
               5
  5
2EB
 10
-443.72099333733729
 20
-448.62445502070381
 30
0.0
  0
POINT
  8
0
  6
CONTINUOUS
 62
               5
  5
2EC
 10
-97.260850317416782
 20
-448.62445502070403
 30
0.0
  0
POINT
  8
0
  6
CONTINUOUS
 62
               5
  5
2ED
 10
-265.281715902266
 20
-280.60358943585487
 30
0.0
  0
POINT
  8
0
  6
CONTINUOUS
 62
               5
  5
2EE
 10
222.52567289889117
 20
-414.00662678032558
 30
0.0
  0
POINT
  8
0
  6
CONTINUOUS
 62
               5
  5
2EF
 10
222.52567289889106
 20
-891.08764867868808
 30
0.0
  0
CIRCLE
  8
0
  6
CONTINUOUS
 62
               7
  5
2F0
 10
-270.49092182737706
 20
-453.8336609458151
 30
0.0
 40
38.0
  0
LINE
  8
0
  6
CONTINUOUS
 62
               7
  5
2F1
 10
-414.99092182737695
 20
-415.83366094581487
 30
0.0
 11
-414.99092182737706
 21
-491.82842482514042
 31
0.0
  0
LINE
  8
0
  6
CONTINUOUS
 62
               7
  5
2F2
 10
-414.99092182737695
 20
-402.83366094581487
 30
0.0
 11
-414.39092182737699
 21
-402.83366094581487
 31
0.0
  0
LINE
  8
0
  6
CONTINUOUS
 62
               7
  5
2F3
 10
-472.99092182737706
 20
-490.83366094581487
 30
0.0
 11
-472.99092182737706
 21
-416.83366094581487
 31
0.0
  0
LINE
  8
0
  6
CONTINUOUS
 62
               7
  5
2F4
 10
-414.99092182737706
 20
-491.83366094581487
 30
0.0
 11
-390.39092182737699
 21
-491.83366094581487
 31
0.0
  0
LINE
  8
0
  6
CONTINUOUS
 62
               7
  5
2F5
 10
-472.99092182737706
 20
-490.83366094581487
 30
0.0
 11
-471.99092182737706
 21
-491.83366094581487
 31
0.0
  0
LINE
  8
0
  6
CONTINUOUS
 62
               7
  5
2F6
 10
-471.99092182737706
 20
-415.83366094581487
 30
0.0
 11
-414.99092182737695
 21
-415.83366094581487
 31
0.0
  0
LINE
  8
0
  6
CONTINUOUS
 62
               7
  5
2F7
 10
-379.99092182737706
 20
-490.83366094581487
 30
0.0
 11
-380.99092182737706
 21
-491.83366094581487
 31
0.0
  0
CIRCLE
  8
0
  6
CONTINUOUS
 62
               7
  5
2F8
 10
-270.49092182737712
 20
-461.8336609458151
 30
0.0
 40
30.0
  0
CIRCLE
  8
0
  6
CONTINUOUS
 62
               7
  5
2F9
 10
-270.49092182737712
 20
-461.8336609458151
 30
0.0
 40
0.1981604108525852
  0
CIRCLE
  8
0
  6
CONTINUOUS
 62
               7
  5
2FA
 10
-270.49092182737712
 20
-461.8336609458151
 30
0.0
 40
25.5
  0
LINE
  8
0
  6
CONTINUOUS
 62
               7
  5
2FB
 10
-389.39092182737699
 20
-490.83366094581487
 30
0.0
 11
-389.39092182737699
 21
-432.8336609458151
 31
0.0
  0
LINE
  8
0
  6
CONTINUOUS
 62
               7
  5
2FC
 10
-414.99092182737695
 20
-431.8336609458151
 30
0.0
 11
-390.39092182737699
 21
-431.8336609458151
 31
0.0
  0
LINE
  8
0
  6
CONTINUOUS
 62
               7
  5
2FD
 10
-414.99092182737706
 20
-491.82842482514042
 30
0.0
 11
-471.99092182737706
 21
-491.83366094581487
 31
0.0
  0
LINE
  8
0
  6
CONTINUOUS
 62
               7
  5
2FE
 10
-471.99092182737706
 20
-415.83366094581487
 30
0.0
 11
-472.99092182737706
 21
-416.83366094581487
 31
0.0
  0
LINE
  8
0
  6
CONTINUOUS
 62
               7
  5
2FF
 10
-390.39092182737699
 20
-431.8336609458151
 30
0.0
 11
-389.39092182737699
 21
-432.8336609458151
 31
0.0
  0
LINE
  8
0
  6
CONTINUOUS
 62
               7
  5
300
 10
-389.39092182737699
 20
-490.83366094581487
 30
0.0
 11
-390.39092182737699
 21
-491.83366094581487
 31
0.0
  0
LINE
  8
0
  6
CONTINUOUS
 62
               7
  5
301
 10
-125.99092182737712
 20
-415.8336609458151
 30
0.0
 11
-125.99092182737715
 21
-491.82842482514064
 31
0.0
  0
LINE
  8
0
  6
CONTINUOUS
 62
               7
  5
302
 10
-125.99092182737712
 20
-402.8336609458151
 30
0.0
 11
-126.59092182737709
 21
-402.8336609458151
 31
0.0
  0
LINE
  8
0
  6
CONTINUOUS
 62
               7
  5
303
 10
-67.990921827377122
 20
-490.8336609458151
 30
0.0
 11
-67.990921827377036
 21
-416.8336609458151
 31
0.0
  0
LINE
  8
0
  6
CONTINUOUS
 62
               7
  5
304
 10
-125.99092182737715
 20
-491.8336609458151
 30
0.0
 11
-150.5909218273772
 21
-491.8336609458151
 31
0.0
  0
LINE
  8
0
  6
CONTINUOUS
 62
               7
  5
305
 10
-67.990921827377122
 20
-490.8336609458151
 30
0.0
 11
-68.990921827377122
 21
-491.8336609458151
 31
0.0
  0
LINE
  8
0
  6
CONTINUOUS
 62
               7
  5
306
 10
-68.990921827377036
 20
-415.8336609458151
 30
0.0
 11
-125.99092182737712
 21
-415.8336609458151
 31
0.0
  0
LINE
  8
0
  6
CONTINUOUS
 62
               7
  5
307
 10
-160.99092182737712
 20
-490.8336609458151
 30
0.0
 11
-159.99092182737712
 21
-491.8336609458151
 31
0.0
  0
LINE
  8
0
  6
CONTINUOUS
 62
               7
  5
308
 10
-151.5909218273772
 20
-490.8336609458151
 30
0.0
 11
-151.59092182737714
 21
-432.83366094581521
 31
0.0
  0
LINE
  8
0
  6
CONTINUOUS
 62
               7
  5
309
 10
-125.99092182737715
 20
-431.83366094581521
 30
0.0
 11
-150.59092182737714
 21
-431.83366094581521
 31
0.0
  0
LINE
  8
0
  6
CONTINUOUS
 62
               7
  5
30A
 10
-125.99092182737715
 20
-491.82842482514064
 30
0.0
 11
-68.990921827377122
 21
-491.8336609458151
 31
0.0
  0
LINE
  8
0
  6
CONTINUOUS
 62
               7
  5
30B
 10
-68.990921827377036
 20
-415.8336609458151
 30
0.0
 11
-67.990921827377036
 21
-416.8336609458151
 31
0.0
  0
LINE
  8
0
  6
CONTINUOUS
 62
               7
  5
30C
 10
-150.59092182737714
 20
-431.83366094581521
 30
0.0
 11
-151.59092182737714
 21
-432.83366094581521
 31
0.0
  0
LINE
  8
0
  6
CONTINUOUS
 62
               7
  5
30D
 10
-151.5909218273772
 20
-490.8336609458151
 30
0.0
 11
-150.5909218273772
 21
-491.8336609458151
 31
0.0
  0
LINE
  8
0
  6
CONTINUOUS
 62
               7
  5
30E
 10
-232.49092182737695
 20
-309.33366094581521
 30
0.0
 11
-308.4856857067025
 21
-309.3336609458151
 31
0.0
  0
LINE
  8
0
  6
CONTINUOUS
 62
               7
  5
30F
 10
-219.49092182737695
 20
-308.73366094581519
 30
0.0
 11
-219.49092182737695
 21
-309.33366094581521
 31
0.0
  0
LINE
  8
0
  6
CONTINUOUS
 62
               7
  5
310
 10
-307.49092182737689
 20
-251.3336609458151
 30
0.0
 11
-233.49092182737689
 21
-251.3336609458151
 31
0.0
  0
LINE
  8
0
  6
CONTINUOUS
 62
               7
  5
311
 10
-300.49092182737695
 20
-309.3336609458151
 30
0.0
 11
-300.49092182737695
 21
-333.93366094581523
 31
0.0
  0
LINE
  8
0
  6
CONTINUOUS
 62
               7
  5
312
 10
-307.49092182737689
 20
-251.3336609458151
 30
0.0
 11
-308.49092182737689
 21
-252.3336609458151
 31
0.0
  0
LINE
  8
0
  6
CONTINUOUS
 62
               7
  5
313
 10
-232.49092182737689
 20
-252.3336609458151
 30
0.0
 11
-232.49092182737695
 21
-309.33366094581521
 31
0.0
  0
LINE
  8
0
  6
CONTINUOUS
 62
               7
  5
314
 10
-299.49092182737701
 20
-344.3336609458151
 30
0.0
 11
-300.49092182737701
 21
-343.3336609458151
 31
0.0
  0
LINE
  8
0
  6
CONTINUOUS
 62
               7
  5
315
 10
-299.49092182737695
 20
-334.93366094581523
 30
0.0
 11
-241.49092182737712
 21
-334.93366094581523
 31
0.0
  0
LINE
  8
0
  6
CONTINUOUS
 62
               7
  5
316
 10
-240.49092182737712
 20
-309.33366094581521
 30
0.0
 11
-240.49092182737712
 21
-333.93366094581523
 31
0.0
  0
LINE
  8
0
  6
CONTINUOUS
 62
               7
  5
317
 10
-308.4856857067025
 20
-309.3336609458151
 30
0.0
 11
-308.49092182737689
 21
-252.3336609458151
 31
0.0
  0
LINE
  8
0
  6
CONTINUOUS
 62
               7
  5
318
 10
-232.49092182737689
 20
-252.3336609458151
 30
0.0
 11
-233.49092182737689
 21
-251.3336609458151
 31
0.0
  0
LINE
  8
0
  6
CONTINUOUS
 62
               7
  5
319
 10
-240.49092182737712
 20
-333.93366094581523
 30
0.0
 11
-241.49092182737712
 21
-334.93366094581523
 31
0.0
  0
LINE
  8
0
  6
CONTINUOUS
 62
               7
  5
31A
 10
-299.49092182737695
 20
-334.93366094581523
 30
0.0
 11
-300.49092182737695
 21
-333.93366094581523
 31
0.0
  0
LINE
  8
0
  6
CONTINUOUS
 62
               7
  5
31B
 10
309.79560138893072
 20
-585.8974208552147
 30
0.0
 11
367.79560138893072
 21
-585.8974208552147
 31
0.0
  0
LINE
  8
0
  6
CONTINUOUS
 62
               7
  5
31C
 10
383.29560138893072
 20
-560.2974208552148
 30
0.0
 11
294.29560138893072
 21
-560.2974208552148
 31
0.0
  0
LINE
  8
0
  6
CONTINUOUS
 62
               7
  5
31D
 10
383.29560138893072
 20
-559.69742085521489
 30
0.0
 11
383.29560138893072
 21
-560.2974208552148
 31
0.0
  0
LINE
  8
0
  6
CONTINUOUS
 62
               7
  5
31E
 10
295.29560138893072
 20
-502.29742085521451
 30
0.0
 11
382.29560138893072
 21
-502.29742085521451
 31
0.0
  0
LINE
  8
0
  6
CONTINUOUS
 62
               7
  5
31F
 10
383.29560138893072
 20
-560.16296910973438
 30
0.0
 11
383.29560138893072
 21
-503.29742085521451
 31
0.0
  0
LINE
  8
0
  6
CONTINUOUS
 62
               7
  5
320
 10
308.79560138893072
 20
-584.8974208552147
 30
0.0
 11
308.79560138893072
 21
-560.2974208552148
 31
0.0
  0
LINE
  8
0
  6
CONTINUOUS
 62
               7
  5
321
 10
368.79560138893072
 20
-584.8974208552147
 30
0.0
 11
368.79560138893072
 21
-560.2974208552148
 31
0.0
  0
LINE
  8
0
  6
CONTINUOUS
 62
               7
  5
322
 10
368.79560138893072
 20
-584.8974208552147
 30
0.0
 11
367.79560138893072
 21
-585.8974208552147
 31
0.0
  0
LINE
  8
0
  6
CONTINUOUS
 62
               7
  5
323
 10
383.29560138893072
 20
-503.29742085521451
 30
0.0
 11
382.29560138893072
 21
-502.29742085521451
 31
0.0
  0
LINE
  8
0
  6
CONTINUOUS
 62
               7
  5
324
 10
309.79560138893072
 20
-585.8974208552147
 30
0.0
 11
308.79560138893072
 21
-584.8974208552147
 31
0.0
  0
LINE
  8
0
  6
CONTINUOUS
 62
               7
  5
325
 10
295.29560138893072
 20
-502.29742085521451
 30
0.0
 11
294.29560138893072
 21
-503.29742085521451
 31
0.0
  0
LINE
  8
0
  6
CONTINUOUS
 62
               7
  5
326
 10
294.29560138893072
 20
-560.16296910973438
 30
0.0
 11
294.29560138893072
 21
-503.29742085521451
 31
0.0
  0
LINE
  8
0
  6
CONTINUOUS
 62
               7
  5
327
 10
193.79560138893072
 20
-459.79742085521451
 30
0.0
 11
193.79560138893095
 21
-370.80265697588897
 31
0.0
  0
LINE
  8
0
  6
CONTINUOUS
 62
               7
  5
328
 10
194.39560138893086
 20
-459.79742085521451
 30
0.0
 11
193.79560138893072
 21
-459.79742085521451
 31
0.0
  0
LINE
  8
0
  6
CONTINUOUS
 62
               7
  5
329
 10
158.79560138893095
 20
-378.29742085521451
 30
0.0
 11
158.79560138893072
 21
-452.29742085521451
 31
0.0
  0
LINE
  8
0
  6
CONTINUOUS
 62
               7
  5
32A
 10
251.79560138893095
 20
-371.79742085521474
 30
0.0
 11
251.79560138893072
 21
-458.79742085521451
 31
0.0
  0
LINE
  8
0
  6
CONTINUOUS
 62
               7
  5
32B
 10
193.79560138893072
 20
-459.79742085521451
 30
0.0
 11
250.79560138893072
 21
-459.79742085521451
 31
0.0
  0
LINE
  8
0
  6
CONTINUOUS
 62
               7
  5
32C
 10
159.79560138893095
 20
-377.29742085521451
 30
0.0
 11
193.79560138893095
 21
-377.29742085521451
 31
0.0
  0
LINE
  8
0
  6
CONTINUOUS
 62
               7
  5
32D
 10
250.79560138893072
 20
-459.79742085521451
 30
0.0
 11
251.79560138893072
 21
-458.79742085521451
 31
0.0
  0
LINE
  8
0
  6
CONTINUOUS
 62
               7
  5
32E
 10
251.79560138893095
 20
-371.79742085521474
 30
0.0
 11
250.79560138893095
 21
-370.79742085521474
 31
0.0
  0
LINE
  8
0
  6
CONTINUOUS
 62
               7
  5
32F
 10
159.79560138893072
 20
-453.29742085521451
 30
0.0
 11
193.79560138893095
 21
-453.29742085521451
 31
0.0
  0
LINE
  8
0
  6
CONTINUOUS
 62
               7
  5
330
 10
159.79560138893072
 20
-453.29742085521451
 30
0.0
 11
158.79560138893072
 21
-452.29742085521451
 31
0.0
  0
LINE
  8
0
  6
CONTINUOUS
 62
               7
  5
331
 10
158.79560138893095
 20
-378.29742085521451
 30
0.0
 11
159.79560138893095
 21
-377.29742085521451
 31
0.0
  0
LINE
  8
0
  6
CONTINUOUS
 62
               7
  5
332
 10
193.79560138893095
 20
-370.79742085521451
 30
0.0
 11
250.79560138893095
 21
-370.79742085521451
 31
0.0
  0
CIRCLE
  8
0
  6
CONTINUOUS
 62
               7
  5
333
 10
338.79560138893072
 20
-904.29685460379915
 30
0.0
 40
25.5
  0
CIRCLE
  8
0
  6
CONTINUOUS
 62
               7
  5
334
 10
338.79560138893072
 20
-889.79685460379915
 30
0.0
 40
44.5
  0
CIRCLE
  8
0
  6
CONTINUOUS
 62
               7
  5
335
 10
338.79560138893072
 20
-904.29685460379915
 30
0.0
 40
30.0
  0
LINE
  8
0
  6
CONTINUOUS
 62
               7
  5
336
 10
193.79560138893072
 20
-845.29685460379915
 30
0.0
 11
193.79560138893072
 21
-934.29161848312469
 31
0.0
  0
LINE
  8
0
  6
CONTINUOUS
 62
               7
  5
337
 10
194.39560138893074
 20
-845.29685460379915
 30
0.0
 11
193.79560138893072
 21
-845.29685460379915
 31
0.0
  0
LINE
  8
0
  6
CONTINUOUS
 62
               7
  5
338
 10
158.79560138893072
 20
-933.29685460379915
 30
0.0
 11
158.79560138893072
 21
-859.29685460379915
 31
0.0
  0
LINE
  8
0
  6
CONTINUOUS
 62
               7
  5
339
 10
251.79560138893072
 20
-933.29685460379915
 30
0.0
 11
251.79560138893072
 21
-846.29685460379915
 31
0.0
  0
LINE
  8
0
  6
CONTINUOUS
 62
               7
  5
33A
 10
193.79560138893072
 20
-845.29685460379915
 30
0.0
 11
250.79560138893072
 21
-845.29685460379915
 31
0.0
  0
LINE
  8
0
  6
CONTINUOUS
 62
               7
  5
33B
 10
159.79560138893072
 20
-934.29685460379915
 30
0.0
 11
250.79560138893072
 21
-934.29685460379915
 31
0.0
  0
LINE
  8
0
  6
CONTINUOUS
 62
               7
  5
33C
 10
250.79560138893072
 20
-845.29685460379915
 30
0.0
 11
251.79560138893072
 21
-846.29685460379915
 31
0.0
  0
LINE
  8
0
  6
CONTINUOUS
 62
               7
  5
33D
 10
251.79560138893072
 20
-933.29685460379915
 30
0.0
 11
250.79560138893072
 21
-934.29685460379915
 31
0.0
  0
LINE
  8
0
  6
CONTINUOUS
 62
               7
  5
33E
 10
159.79560138893072
 20
-858.29685460379915
 30
0.0
 11
193.79560138893072
 21
-858.29685460379915
 31
0.0
  0
LINE
  8
0
  6
CONTINUOUS
 62
               7
  5
33F
 10
159.79560138893072
 20
-858.29685460379915
 30
0.0
 11
158.79560138893072
 21
-859.29685460379915
 31
0.0
  0
LINE
  8
0
  6
CONTINUOUS
 62
               7
  5
340
 10
158.79560138893072
 20
-933.29685460379915
 30
0.0
 11
159.79560138893072
 21
-934.29685460379915
 31
0.0
  0
CIRCLE
  8
0
  6
DASHED
 62
               7
  5
341
 10
338.79560138893072
 20
-889.79685460379915
 30
0.0
 40
40.0
  0
TEXT
  8
0
 62
               3
  5
342
 10
-270.49092182737712
 20
-538.33366094581515
 30
0.0
 40
40.0
  1
EMB_65×50
 41
0.8
 72
               1
 11
-270.49092182737712
 21
-538.33366094581515
 31
0.0
 73
               3
  0
TEXT
  8
0
 62
               3
  5
343
 10
-268.64638801947501
 20
-160.41886737009787
 30
0.0
 40
40.0
  1
横枝管に呼び５０の管を接続するときは、EMBをご使用ください。
 41
0.8
 72
               1
 11
-268.64638801947501
 21
-160.41886737009787
 31
0.0
 73
               3
  0
TEXT
  8
0
 62
               3
  5
344
 10
335.09819741129041
 20
-235.85105234999531
 30
0.0
 40
40.0
  1
EMB使用例
 41
0.8
 72
               1
 11
335.09819741129041
 21
-235.85105234999531
 31
0.0
 73
               3
  0
ENDSEC
  0
EOF
