  0
SECTION
  2
HEADER
  9
$ACADVER
  1
AC1009
  9
$INSBASE
 10
0.0
 20
0.0
 30
0.0
  9
$EXTMIN
 10
-641.28625489580429
 20
-1506.9828640713272
 30
0.0
  9
$EXTMAX
 10
744.43500906164365
 20
609.71244708112442
 30
0.0
  9
$LIMMIN
 10
-684.59004439447449
 20
-1573.1295925448412
  9
$LIMMAX
 10
787.73879856031385
 20
675.85917555463857
  9
$ORTHOMODE
 70
               0
  9
$REGENMODE
 70
               1
  9
$FILLMODE
 70
               1
  9
$QTEXTMODE
 70
               0
  9
$MIRRTEXT
 70
               1
  9
$DRAGMODE
 70
               2
  9
$LTSCALE
 40
1.0
  9
$OSMODE
 70
               0
  9
$ATTMODE
 70
               1
  9
$TEXTSIZE
 40
0.2
  9
$TRACEWID
 40
0.05
  9
$TEXTSTYLE
  7
STANDARD
  9
$CLAYER
  8
0
  9
$CELTYPE
  6
CONTINUOUS
  9
$CECOLOR
 62
             256
  9
$DIMSCALE
 40
1.0
  9
$DIMASZ
 40
0.18
  9
$DIMEXO
 40
0.0625
  9
$DIMDLI
 40
0.38
  9
$DIMRND
 40
0.0
  9
$DIMDLE
 40
0.0
  9
$DIMEXE
 40
0.18
  9
$DIMTP
 40
0.0
  9
$DIMTM
 40
0.0
  9
$DIMTXT
 40
0.18
  9
$DIMCEN
 40
0.09
  9
$DIMTSZ
 40
0.0
  9
$DIMTOL
 70
               0
  9
$DIMLIM
 70
               0
  9
$DIMTIH
 70
               1
  9
$DIMTOH
 70
               1
  9
$DIMSE1
 70
               0
  9
$DIMSE2
 70
               0
  9
$DIMTAD
 70
               0
  9
$DIMZIN
 70
               0
  9
$DIMBLK
  1

  9
$DIMASO
 70
               1
  9
$DIMSHO
 70
               1
  9
$DIMPOST
  1

  9
$DIMAPOST
  1

  9
$DIMALT
 70
               0
  9
$DIMALTD
 70
               2
  9
$DIMALTF
 40
25.399999999999999
  9
$DIMLFAC
 40
1.0
  9
$DIMTOFL
 70
               0
  9
$DIMTVP
 40
0.0
  9
$DIMTIX
 70
               0
  9
$DIMSOXD
 70
               0
  9
$DIMSAH
 70
               0
  9
$DIMBLK1
  1

  9
$DIMBLK2
  1

  9
$DIMSTYLE
  2
STANDARD
  9
$DIMCLRD
 70
               0
  9
$DIMCLRE
 70
               0
  9
$DIMCLRT
 70
               0
  9
$DIMTFAC
 40
1.0
  9
$DIMGAP
 40
0.09
  9
$LUNITS
 70
               2
  9
$LUPREC
 70
               4
  9
$AXISMODE
 70
               0
  9
$AXISUNIT
 10
0.0
 20
0.0
  9
$SKETCHINC
 40
0.1
  9
$FILLETRAD
 40
0.0
  9
$AUNITS
 70
               0
  9
$AUPREC
 70
               0
  9
$MENU
  1
acad
  9
$ELEVATION
 40
0.0
  9
$PELEVATION
 40
0.0
  9
$THICKNESS
 40
0.0
  9
$LIMCHECK
 70
               0
  9
$BLIPMODE
 70
               1
  9
$CHAMFERA
 40
0.0
  9
$CHAMFERB
 40
0.0
  9
$SKPOLY
 70
               0
  9
$TDCREATE
 40
0.000000000
  9
$TDUPDATE
 40
0.000000000
  9
$TDINDWG
 40
0.0000000000
  9
$TDUSRTIMER
 40
0.0000000000
  9
$USRTIMER
 70
               1
  9
$ANGBASE
 50
0.0
  9
$ANGDIR
 70
               0
  9
$PDMODE
 70
               0
  9
$PDSIZE
 40
1.0
  9
$PLINEWID
 40
0.0
  9
$COORDS
 70
               1
  9
$SPLFRAME
 70
               0
  9
$SPLINETYPE
 70
               6
  9
$SPLINESEGS
 70
               8
  9
$ATTDIA
 70
               0
  9
$ATTREQ
 70
               1
  9
$HANDLING
 70
               1
  9
$HANDSEED
  5
36F
  9
$SURFTAB1
 70
               6
  9
$SURFTAB2
 70
               6
  9
$SURFTYPE
 70
               6
  9
$SURFU
 70
               6
  9
$SURFV
 70
               6
  9
$UCSNAME
  2

  9
$UCSORG
 10
0.0
 20
0.0
 30
0.0
  9
$UCSXDIR
 10
1.0
 20
0.0
 30
0.0
  9
$UCSYDIR
 10
0.0
 20
1.0
 30
0.0
  9
$PUCSNAME
  2

  9
$PUCSORG
 10
0.0
 20
0.0
 30
0.0
  9
$PUCSXDIR
 10
1.0
 20
0.0
 30
0.0
  9
$PUCSYDIR
 10
0.0
 20
1.0
 30
0.0
  9
$USERI1
 70
               0
  9
$USERI2
 70
               0
  9
$USERI3
 70
               0
  9
$USERI4
 70
               0
  9
$USERI5
 70
               0
  9
$USERR1
 40
0.0
  9
$USERR2
 40
0.0
  9
$USERR3
 40
0.0
  9
$USERR4
 40
0.0
  9
$USERR5
 40
0.0
  9
$WORLDVIEW
 70
               1
  9
$SHADEDGE
 70
               3
  9
$SHADEDIF
 70
              70
  9
$TILEMODE
 70
               1
  9
$MAXACTVP
 70
              16
  9
$PINSBASE
 10
0.0
 20
0.0
 30
0.0
  9
$PLIMCHECK
 70
               0
  9
$PEXTMIN
 10
1.0000000000000000E+20
 20
1.0000000000000000E+20
 30
1.0000000000000000E+20
  9
$PEXTMAX
 10
-1.0000000000000000E+20
 20
-1.0000000000000000E+20
 30
-1.0000000000000000E+20
  9
$PLIMMIN
 10
0.0
 20
0.0
  9
$PLIMMAX
 10
12.0
 20
9.0
  9
$UNITMODE
 70
               0
  9
$VISRETAIN
 70
               0
  9
$PLINEGEN
 70
               1
  9
$PSLTSCALE
 70
               0
  9
$TREEDEPTH
 70
            3020
  9
$DWGCODEPAGE
  3
dos932
  0
ENDSEC
  0
SECTION
  2
TABLES
  0
TABLE
  2
VPORT
 70
               1
  0
VPORT
  2
*ACTIVE
 70
               0
 10
0.0
 20
0.0
 11
1.0
 21
1.0
 12
51.574377082919682
 22
-448.63520849510132
 13
0.0
 23
0.0
 14
1.0
 24
1.0
 15
0.0
 25
0.0
 16
0.0
 26
0.0
 36
1.0
 17
0.0
 27
0.0
 37
0.0
 40
2248.9887680994798
 41
0.6546626038506133
 42
50.0
 43
0.0
 44
0.0
 50
0.0
 51
0.0
 71
               0
 72
             100
 73
               1
 74
               1
 75
               0
 76
               0
 77
               0
 78
               0
  0
ENDTAB
  0
TABLE
  2
LTYPE
 70
              26
  0
LTYPE
  2
CONTINUOUS
 70
               0
  3
Solid line
 72
              65
 73
               0
 40
0.0
  0
LTYPE
  2
HIDDENX2
 70
               0
  3
CADPAC FUSION LINETYPE
 72
              65
 73
               2
 40
47.560000000000002
 49
35.670000000000002
 49
-11.890000000000001
  0
LTYPE
  2
HIDDEN
 70
               0
  3
CADPAC FUSION LINETYPE
 72
              65
 73
               2
 40
35.670000000000002
 49
23.780000000000001
 49
-11.890000000000001
  0
LTYPE
  2
HIDDEN2
 70
               0
  3
CADPAC FUSION LINETYPE
 72
              65
 73
               2
 40
29.725000000000001
 49
17.835000000000001
 49
-11.890000000000001
  0
LTYPE
  2
DASHED
 70
               0
  3
CADPAC FUSION LINETYPE
 72
              65
 73
               2
 40
35.670000000000002
 49
23.780000000000001
 49
-11.890000000000001
  0
LTYPE
  2
DASHED2
 70
               0
  3
CADPAC FUSION LINETYPE
 72
              65
 73
               2
 40
26.752500000000001
 49
17.835000000000001
 49
-8.9175000000000004
  0
LTYPE
  2
DASHEDX2
 70
               0
  3
CADPAC FUSION LINETYPE
 72
              65
 73
               2
 40
53.505000000000003
 49
35.670000000000002
 49
-17.835000000000001
  0
LTYPE
  2
DOTX2
 70
               0
  3
CADPAC FUSION LINETYPE
 72
              65
 73
               2
 40
14.862500000000001
 49
0.0
 49
-14.862500000000001
  0
LTYPE
  2
DOT
 70
               0
  3
CADPAC FUSION LINETYPE
 72
              65
 73
               2
 40
11.890000000000001
 49
0.0
 49
-11.890000000000001
  0
LTYPE
  2
DOTS
 70
               0
  3
CADPAC FUSION LINETYPE
 72
              65
 73
               2
 40
11.890000000000001
 49
0.0
 49
-11.890000000000001
  0
LTYPE
  2
DOT2
 70
               0
  3
CADPAC FUSION LINETYPE
 72
              65
 73
               2
 40
8.9175000000000004
 49
0.0
 49
-8.9175000000000004
  0
LTYPE
  2
CENTERX2
 70
               0
  3
CADPAC FUSION LINETYPE
 72
              65
 73
               4
 40
71.340000000000003
 49
29.725000000000001
 49
-14.862500000000001
 49
11.890000000000001
 49
-14.862500000000001
  0
LTYPE
  2
CENTER
 70
               0
  3
CADPAC FUSION LINETYPE
 72
              65
 73
               4
 40
54.694000000000003
 49
23.780000000000001
 49
-11.890000000000001
 49
7.1340000000000003
 49
-11.890000000000001
  0
LTYPE
  2
CENTER2
 70
               0
  3
CADPAC FUSION LINETYPE
 72
              65
 73
               4
 40
38.048000000000002
 49
17.835000000000001
 49
-8.9175000000000004
 49
2.3780000000000001
 49
-8.9175000000000004
  0
LTYPE
  2
DASHDOTX2
 70
               0
  3
CADPAC FUSION LINETYPE
 72
              65
 73
               4
 40
59.450000000000003
 49
29.725000000000001
 49
-14.862500000000001
 49
0.0
 49
-14.862500000000001
  0
LTYPE
  2
DASHDOT
 70
               0
  3
CADPAC FUSION LINETYPE
 72
              65
 73
               4
 40
47.560000000000002
 49
23.780000000000001
 49
-11.890000000000001
 49
0.0
 49
-11.890000000000001
  0
LTYPE
  2
DASHDOT2
 70
               0
  3
CADPAC FUSION LINETYPE
 72
              65
 73
               4
 40
35.670000000000002
 49
17.835000000000001
 49
-8.9175000000000004
 49
0.0
 49
-8.9175000000000004
  0
LTYPE
  2
DIVIDEX2
 70
               0
  3
CADPAC FUSION LINETYPE
 72
              65
 73
               6
 40
74.3125
 49
29.725000000000001
 49
-14.862500000000001
 49
0.0
 49
-14.862500000000001
 49
0.0
 49
-14.862500000000001
  0
LTYPE
  2
DIVIDE
 70
               0
  3
CADPAC FUSION LINETYPE
 72
              65
 73
               6
 40
59.450000000000003
 49
23.780000000000001
 49
-11.890000000000001
 49
0.0
 49
-11.890000000000001
 49
0.0
 49
-11.890000000000001
  0
LTYPE
  2
DIVIDE2
 70
               0
  3
CADPAC FUSION LINETYPE
 72
              65
 73
               6
 40
44.587500000000006
 49
17.835000000000001
 49
-8.9175000000000004
 49
0.0
 49
-8.9175000000000004
 49
0.0
 49
-8.9175000000000004
  0
LTYPE
  2
BORDERX2
 70
               0
  3
CADPAC FUSION LINETYPE
 72
              65
 73
               6
 40
104.03750000000001
 49
29.725000000000001
 49
-14.862500000000001
 49
29.725000000000001
 49
-14.862500000000001
 49
0.0
 49
-14.862500000000001
  0
LTYPE
  2
BORDER
 70
               0
  3
CADPAC FUSION LINETYPE
 72
              65
 73
               6
 40
83.230000000000004
 49
23.780000000000001
 49
-11.890000000000001
 49
23.780000000000001
 49
-11.890000000000001
 49
0.0
 49
-11.890000000000001
  0
LTYPE
  2
BORDER2
 70
               0
  3
CADPAC FUSION LINETYPE
 72
              65
 73
               6
 40
62.422499999999999
 49
17.835000000000001
 49
-8.9175000000000004
 49
17.835000000000001
 49
-8.9175000000000004
 49
0.0
 49
-8.9175000000000004
  0
LTYPE
  2
PHANTOMX2
 70
               0
  3
CADPAC FUSION LINETYPE
 72
              65
 73
               6
 40
89.175000000000011
 49
29.725000000000001
 49
-11.890000000000001
 49
11.890000000000001
 49
-11.890000000000001
 49
11.890000000000001
 49
-11.890000000000001
  0
LTYPE
  2
PHANTOM
 70
               0
  3
CADPAC FUSION LINETYPE
 72
              65
 73
               6
 40
73.718000000000004
 49
23.780000000000001
 49
-11.890000000000001
 49
7.1340000000000003
 49
-11.890000000000001
 49
7.1340000000000003
 49
-11.890000000000001
  0
LTYPE
  2
PHANTOM2
 70
               0
  3
CADPAC FUSION LINETYPE
 72
              65
 73
               6
 40
63.017000000000003
 49
17.835000000000001
 49
-11.890000000000001
 49
4.7560000000000002
 49
-11.890000000000001
 49
4.7560000000000002
 49
-11.890000000000001
  0
ENDTAB
  0
TABLE
  2
LAYER
 70
             256
  0
LAYER
  2
0
 70
               0
 62
               7
  6
CONTINUOUS
  0
LAYER
  2
LAYER001
 70
               0
 62
               7
  6
CONTINUOUS
  0
LAYER
  2
LAYER002
 70
               0
 62
               7
  6
CONTINUOUS
  0
LAYER
  2
LAYER003
 70
               0
 62
               7
  6
CONTINUOUS
  0
LAYER
  2
LAYER004
 70
               0
 62
               7
  6
CONTINUOUS
  0
LAYER
  2
LAYER005
 70
               0
 62
               7
  6
CONTINUOUS
  0
LAYER
  2
LAYER006
 70
               0
 62
               7
  6
CONTINUOUS
  0
LAYER
  2
LAYER007
 70
               0
 62
               7
  6
CONTINUOUS
  0
LAYER
  2
LAYER008
 70
               0
 62
               7
  6
CONTINUOUS
  0
LAYER
  2
LAYER009
 70
               0
 62
               7
  6
CONTINUOUS
  0
LAYER
  2
LAYER010
 70
               0
 62
               7
  6
CONTINUOUS
  0
LAYER
  2
LAYER011
 70
               0
 62
               7
  6
CONTINUOUS
  0
LAYER
  2
LAYER012
 70
               0
 62
               7
  6
CONTINUOUS
  0
LAYER
  2
LAYER013
 70
               0
 62
               7
  6
CONTINUOUS
  0
LAYER
  2
LAYER014
 70
               0
 62
               7
  6
CONTINUOUS
  0
LAYER
  2
LAYER015
 70
               0
 62
               7
  6
CONTINUOUS
  0
LAYER
  2
LAYER016
 70
               0
 62
               7
  6
CONTINUOUS
  0
LAYER
  2
LAYER017
 70
               0
 62
               7
  6
CONTINUOUS
  0
LAYER
  2
LAYER018
 70
               0
 62
               7
  6
CONTINUOUS
  0
LAYER
  2
LAYER019
 70
               0
 62
               7
  6
CONTINUOUS
  0
LAYER
  2
LAYER020
 70
               0
 62
               7
  6
CONTINUOUS
  0
LAYER
  2
LAYER021
 70
               0
 62
               7
  6
CONTINUOUS
  0
LAYER
  2
LAYER022
 70
               0
 62
               7
  6
CONTINUOUS
  0
LAYER
  2
LAYER023
 70
               0
 62
               7
  6
CONTINUOUS
  0
LAYER
  2
LAYER024
 70
               0
 62
               7
  6
CONTINUOUS
  0
LAYER
  2
LAYER025
 70
               0
 62
               7
  6
CONTINUOUS
  0
LAYER
  2
LAYER026
 70
               0
 62
               7
  6
CONTINUOUS
  0
LAYER
  2
LAYER027
 70
               0
 62
               7
  6
CONTINUOUS
  0
LAYER
  2
LAYER028
 70
               0
 62
               7
  6
CONTINUOUS
  0
LAYER
  2
LAYER029
 70
               0
 62
               7
  6
CONTINUOUS
  0
LAYER
  2
LAYER030
 70
               0
 62
               7
  6
CONTINUOUS
  0
LAYER
  2
LAYER031
 70
               0
 62
               7
  6
CONTINUOUS
  0
LAYER
  2
LAYER032
 70
               0
 62
               7
  6
CONTINUOUS
  0
LAYER
  2
LAYER033
 70
               0
 62
               7
  6
CONTINUOUS
  0
LAYER
  2
LAYER034
 70
               0
 62
               7
  6
CONTINUOUS
  0
LAYER
  2
LAYER035
 70
               0
 62
               7
  6
CONTINUOUS
  0
LAYER
  2
LAYER036
 70
               0
 62
               7
  6
CONTINUOUS
  0
LAYER
  2
LAYER037
 70
               0
 62
               7
  6
CONTINUOUS
  0
LAYER
  2
LAYER038
 70
               0
 62
               7
  6
CONTINUOUS
  0
LAYER
  2
LAYER039
 70
               0
 62
               7
  6
CONTINUOUS
  0
LAYER
  2
LAYER040
 70
               0
 62
               7
  6
CONTINUOUS
  0
LAYER
  2
LAYER041
 70
               0
 62
               7
  6
CONTINUOUS
  0
LAYER
  2
LAYER042
 70
               0
 62
               7
  6
CONTINUOUS
  0
LAYER
  2
LAYER043
 70
               0
 62
               7
  6
CONTINUOUS
  0
LAYER
  2
LAYER044
 70
               0
 62
               7
  6
CONTINUOUS
  0
LAYER
  2
LAYER045
 70
               0
 62
               7
  6
CONTINUOUS
  0
LAYER
  2
LAYER046
 70
               0
 62
               7
  6
CONTINUOUS
  0
LAYER
  2
LAYER047
 70
               0
 62
               7
  6
CONTINUOUS
  0
LAYER
  2
LAYER048
 70
               0
 62
               7
  6
CONTINUOUS
  0
LAYER
  2
LAYER049
 70
               0
 62
               7
  6
CONTINUOUS
  0
LAYER
  2
LAYER050
 70
               0
 62
               7
  6
CONTINUOUS
  0
LAYER
  2
LAYER051
 70
               0
 62
               7
  6
CONTINUOUS
  0
LAYER
  2
LAYER052
 70
               0
 62
               7
  6
CONTINUOUS
  0
LAYER
  2
LAYER053
 70
               0
 62
               7
  6
CONTINUOUS
  0
LAYER
  2
LAYER054
 70
               0
 62
               7
  6
CONTINUOUS
  0
LAYER
  2
LAYER055
 70
               0
 62
               7
  6
CONTINUOUS
  0
LAYER
  2
LAYER056
 70
               0
 62
               7
  6
CONTINUOUS
  0
LAYER
  2
LAYER057
 70
               0
 62
               7
  6
CONTINUOUS
  0
LAYER
  2
LAYER058
 70
               0
 62
               7
  6
CONTINUOUS
  0
LAYER
  2
LAYER059
 70
               0
 62
               7
  6
CONTINUOUS
  0
LAYER
  2
LAYER060
 70
               0
 62
               7
  6
CONTINUOUS
  0
LAYER
  2
LAYER061
 70
               0
 62
               7
  6
CONTINUOUS
  0
LAYER
  2
LAYER062
 70
               0
 62
               7
  6
CONTINUOUS
  0
LAYER
  2
LAYER063
 70
               0
 62
               7
  6
CONTINUOUS
  0
LAYER
  2
LAYER064
 70
               0
 62
               7
  6
CONTINUOUS
  0
LAYER
  2
LAYER065
 70
               0
 62
               7
  6
CONTINUOUS
  0
LAYER
  2
LAYER066
 70
               0
 62
               7
  6
CONTINUOUS
  0
LAYER
  2
LAYER067
 70
               0
 62
               7
  6
CONTINUOUS
  0
LAYER
  2
LAYER068
 70
               0
 62
               7
  6
CONTINUOUS
  0
LAYER
  2
LAYER069
 70
               0
 62
               7
  6
CONTINUOUS
  0
LAYER
  2
LAYER070
 70
               0
 62
               7
  6
CONTINUOUS
  0
LAYER
  2
LAYER071
 70
               0
 62
               7
  6
CONTINUOUS
  0
LAYER
  2
LAYER072
 70
               0
 62
               7
  6
CONTINUOUS
  0
LAYER
  2
LAYER073
 70
               0
 62
               7
  6
CONTINUOUS
  0
LAYER
  2
LAYER074
 70
               0
 62
               7
  6
CONTINUOUS
  0
LAYER
  2
LAYER075
 70
               0
 62
               7
  6
CONTINUOUS
  0
LAYER
  2
LAYER076
 70
               0
 62
               7
  6
CONTINUOUS
  0
LAYER
  2
LAYER077
 70
               0
 62
               7
  6
CONTINUOUS
  0
LAYER
  2
LAYER078
 70
               0
 62
               7
  6
CONTINUOUS
  0
LAYER
  2
LAYER079
 70
               0
 62
               7
  6
CONTINUOUS
  0
LAYER
  2
LAYER080
 70
               0
 62
               7
  6
CONTINUOUS
  0
LAYER
  2
LAYER081
 70
               0
 62
               7
  6
CONTINUOUS
  0
LAYER
  2
LAYER082
 70
               0
 62
               7
  6
CONTINUOUS
  0
LAYER
  2
LAYER083
 70
               0
 62
               7
  6
CONTINUOUS
  0
LAYER
  2
LAYER084
 70
               0
 62
               7
  6
CONTINUOUS
  0
LAYER
  2
LAYER085
 70
               0
 62
               7
  6
CONTINUOUS
  0
LAYER
  2
LAYER086
 70
               0
 62
               7
  6
CONTINUOUS
  0
LAYER
  2
LAYER087
 70
               0
 62
               7
  6
CONTINUOUS
  0
LAYER
  2
LAYER088
 70
               0
 62
               7
  6
CONTINUOUS
  0
LAYER
  2
LAYER089
 70
               0
 62
               7
  6
CONTINUOUS
  0
LAYER
  2
LAYER090
 70
               0
 62
               7
  6
CONTINUOUS
  0
LAYER
  2
LAYER091
 70
               0
 62
               7
  6
CONTINUOUS
  0
LAYER
  2
LAYER092
 70
               0
 62
               7
  6
CONTINUOUS
  0
LAYER
  2
LAYER093
 70
               0
 62
               7
  6
CONTINUOUS
  0
LAYER
  2
LAYER094
 70
               0
 62
               7
  6
CONTINUOUS
  0
LAYER
  2
LAYER095
 70
               0
 62
               7
  6
CONTINUOUS
  0
LAYER
  2
LAYER096
 70
               0
 62
               7
  6
CONTINUOUS
  0
LAYER
  2
LAYER097
 70
               0
 62
               7
  6
CONTINUOUS
  0
LAYER
  2
LAYER098
 70
               0
 62
               7
  6
CONTINUOUS
  0
LAYER
  2
LAYER099
 70
               0
 62
               7
  6
CONTINUOUS
  0
LAYER
  2
LAYER100
 70
               0
 62
               7
  6
CONTINUOUS
  0
LAYER
  2
LAYER101
 70
               0
 62
               7
  6
CONTINUOUS
  0
LAYER
  2
LAYER102
 70
               0
 62
               7
  6
CONTINUOUS
  0
LAYER
  2
LAYER103
 70
               0
 62
               7
  6
CONTINUOUS
  0
LAYER
  2
LAYER104
 70
               0
 62
               7
  6
CONTINUOUS
  0
LAYER
  2
LAYER105
 70
               0
 62
               7
  6
CONTINUOUS
  0
LAYER
  2
LAYER106
 70
               0
 62
               7
  6
CONTINUOUS
  0
LAYER
  2
LAYER107
 70
               0
 62
               7
  6
CONTINUOUS
  0
LAYER
  2
LAYER108
 70
               0
 62
               7
  6
CONTINUOUS
  0
LAYER
  2
LAYER109
 70
               0
 62
               7
  6
CONTINUOUS
  0
LAYER
  2
LAYER110
 70
               0
 62
               7
  6
CONTINUOUS
  0
LAYER
  2
LAYER111
 70
               0
 62
               7
  6
CONTINUOUS
  0
LAYER
  2
LAYER112
 70
               0
 62
               7
  6
CONTINUOUS
  0
LAYER
  2
LAYER113
 70
               0
 62
               7
  6
CONTINUOUS
  0
LAYER
  2
LAYER114
 70
               0
 62
               7
  6
CONTINUOUS
  0
LAYER
  2
LAYER115
 70
               0
 62
               7
  6
CONTINUOUS
  0
LAYER
  2
LAYER116
 70
               0
 62
               7
  6
CONTINUOUS
  0
LAYER
  2
LAYER117
 70
               0
 62
               7
  6
CONTINUOUS
  0
LAYER
  2
LAYER118
 70
               0
 62
               7
  6
CONTINUOUS
  0
LAYER
  2
LAYER119
 70
               0
 62
               7
  6
CONTINUOUS
  0
LAYER
  2
LAYER120
 70
               0
 62
               7
  6
CONTINUOUS
  0
LAYER
  2
LAYER121
 70
               0
 62
               7
  6
CONTINUOUS
  0
LAYER
  2
LAYER122
 70
               0
 62
               7
  6
CONTINUOUS
  0
LAYER
  2
LAYER123
 70
               0
 62
               7
  6
CONTINUOUS
  0
LAYER
  2
LAYER124
 70
               0
 62
               7
  6
CONTINUOUS
  0
LAYER
  2
LAYER125
 70
               0
 62
               7
  6
CONTINUOUS
  0
LAYER
  2
LAYER126
 70
               0
 62
               7
  6
CONTINUOUS
  0
LAYER
  2
LAYER127
 70
               0
 62
               7
  6
CONTINUOUS
  0
LAYER
  2
LAYER128
 70
               0
 62
               7
  6
CONTINUOUS
  0
LAYER
  2
LAYER129
 70
               0
 62
               7
  6
CONTINUOUS
  0
LAYER
  2
LAYER130
 70
               0
 62
               7
  6
CONTINUOUS
  0
LAYER
  2
LAYER131
 70
               0
 62
               7
  6
CONTINUOUS
  0
LAYER
  2
LAYER132
 70
               0
 62
               7
  6
CONTINUOUS
  0
LAYER
  2
LAYER133
 70
               0
 62
               7
  6
CONTINUOUS
  0
LAYER
  2
LAYER134
 70
               0
 62
               7
  6
CONTINUOUS
  0
LAYER
  2
LAYER135
 70
               0
 62
               7
  6
CONTINUOUS
  0
LAYER
  2
LAYER136
 70
               0
 62
               7
  6
CONTINUOUS
  0
LAYER
  2
LAYER137
 70
               0
 62
               7
  6
CONTINUOUS
  0
LAYER
  2
LAYER138
 70
               0
 62
               7
  6
CONTINUOUS
  0
LAYER
  2
LAYER139
 70
               0
 62
               7
  6
CONTINUOUS
  0
LAYER
  2
LAYER140
 70
               0
 62
               7
  6
CONTINUOUS
  0
LAYER
  2
LAYER141
 70
               0
 62
               7
  6
CONTINUOUS
  0
LAYER
  2
LAYER142
 70
               0
 62
               7
  6
CONTINUOUS
  0
LAYER
  2
LAYER143
 70
               0
 62
               7
  6
CONTINUOUS
  0
LAYER
  2
LAYER144
 70
               0
 62
               7
  6
CONTINUOUS
  0
LAYER
  2
LAYER145
 70
               0
 62
               7
  6
CONTINUOUS
  0
LAYER
  2
LAYER146
 70
               0
 62
               7
  6
CONTINUOUS
  0
LAYER
  2
LAYER147
 70
               0
 62
               7
  6
CONTINUOUS
  0
LAYER
  2
LAYER148
 70
               0
 62
               7
  6
CONTINUOUS
  0
LAYER
  2
LAYER149
 70
               0
 62
               7
  6
CONTINUOUS
  0
LAYER
  2
LAYER150
 70
               0
 62
               7
  6
CONTINUOUS
  0
LAYER
  2
LAYER151
 70
               0
 62
               7
  6
CONTINUOUS
  0
LAYER
  2
LAYER152
 70
               0
 62
               7
  6
CONTINUOUS
  0
LAYER
  2
LAYER153
 70
               0
 62
               7
  6
CONTINUOUS
  0
LAYER
  2
LAYER154
 70
               0
 62
               7
  6
CONTINUOUS
  0
LAYER
  2
LAYER155
 70
               0
 62
               7
  6
CONTINUOUS
  0
LAYER
  2
LAYER156
 70
               0
 62
               7
  6
CONTINUOUS
  0
LAYER
  2
LAYER157
 70
               0
 62
               7
  6
CONTINUOUS
  0
LAYER
  2
LAYER158
 70
               0
 62
               7
  6
CONTINUOUS
  0
LAYER
  2
LAYER159
 70
               0
 62
               7
  6
CONTINUOUS
  0
LAYER
  2
LAYER160
 70
               0
 62
               7
  6
CONTINUOUS
  0
LAYER
  2
LAYER161
 70
               0
 62
               7
  6
CONTINUOUS
  0
LAYER
  2
LAYER162
 70
               0
 62
               7
  6
CONTINUOUS
  0
LAYER
  2
LAYER163
 70
               0
 62
               7
  6
CONTINUOUS
  0
LAYER
  2
LAYER164
 70
               0
 62
               7
  6
CONTINUOUS
  0
LAYER
  2
LAYER165
 70
               0
 62
               7
  6
CONTINUOUS
  0
LAYER
  2
LAYER166
 70
               0
 62
               7
  6
CONTINUOUS
  0
LAYER
  2
LAYER167
 70
               0
 62
               7
  6
CONTINUOUS
  0
LAYER
  2
LAYER168
 70
               0
 62
               7
  6
CONTINUOUS
  0
LAYER
  2
LAYER169
 70
               0
 62
               7
  6
CONTINUOUS
  0
LAYER
  2
LAYER170
 70
               0
 62
               7
  6
CONTINUOUS
  0
LAYER
  2
LAYER171
 70
               0
 62
               7
  6
CONTINUOUS
  0
LAYER
  2
LAYER172
 70
               0
 62
               7
  6
CONTINUOUS
  0
LAYER
  2
LAYER173
 70
               0
 62
               7
  6
CONTINUOUS
  0
LAYER
  2
LAYER174
 70
               0
 62
               7
  6
CONTINUOUS
  0
LAYER
  2
LAYER175
 70
               0
 62
               7
  6
CONTINUOUS
  0
LAYER
  2
LAYER176
 70
               0
 62
               7
  6
CONTINUOUS
  0
LAYER
  2
LAYER177
 70
               0
 62
               7
  6
CONTINUOUS
  0
LAYER
  2
LAYER178
 70
               0
 62
               7
  6
CONTINUOUS
  0
LAYER
  2
LAYER179
 70
               0
 62
               7
  6
CONTINUOUS
  0
LAYER
  2
LAYER180
 70
               0
 62
               7
  6
CONTINUOUS
  0
LAYER
  2
LAYER181
 70
               0
 62
               7
  6
CONTINUOUS
  0
LAYER
  2
LAYER182
 70
               0
 62
               7
  6
CONTINUOUS
  0
LAYER
  2
LAYER183
 70
               0
 62
               7
  6
CONTINUOUS
  0
LAYER
  2
LAYER184
 70
               0
 62
               7
  6
CONTINUOUS
  0
LAYER
  2
LAYER185
 70
               0
 62
               7
  6
CONTINUOUS
  0
LAYER
  2
LAYER186
 70
               0
 62
               7
  6
CONTINUOUS
  0
LAYER
  2
LAYER187
 70
               0
 62
               7
  6
CONTINUOUS
  0
LAYER
  2
LAYER188
 70
               0
 62
               7
  6
CONTINUOUS
  0
LAYER
  2
LAYER189
 70
               0
 62
               7
  6
CONTINUOUS
  0
LAYER
  2
LAYER190
 70
               0
 62
               7
  6
CONTINUOUS
  0
LAYER
  2
LAYER191
 70
               0
 62
               7
  6
CONTINUOUS
  0
LAYER
  2
LAYER192
 70
               0
 62
               7
  6
CONTINUOUS
  0
LAYER
  2
LAYER193
 70
               0
 62
               7
  6
CONTINUOUS
  0
LAYER
  2
LAYER194
 70
               0
 62
               7
  6
CONTINUOUS
  0
LAYER
  2
LAYER195
 70
               0
 62
               7
  6
CONTINUOUS
  0
LAYER
  2
LAYER196
 70
               0
 62
               7
  6
CONTINUOUS
  0
LAYER
  2
LAYER197
 70
               0
 62
               7
  6
CONTINUOUS
  0
LAYER
  2
LAYER198
 70
               0
 62
               7
  6
CONTINUOUS
  0
LAYER
  2
LAYER199
 70
               0
 62
               7
  6
CONTINUOUS
  0
LAYER
  2
LAYER200
 70
               0
 62
               7
  6
CONTINUOUS
  0
LAYER
  2
LAYER201
 70
               0
 62
               7
  6
CONTINUOUS
  0
LAYER
  2
LAYER202
 70
               0
 62
               7
  6
CONTINUOUS
  0
LAYER
  2
LAYER203
 70
               0
 62
               7
  6
CONTINUOUS
  0
LAYER
  2
LAYER204
 70
               0
 62
               7
  6
CONTINUOUS
  0
LAYER
  2
LAYER205
 70
               0
 62
               7
  6
CONTINUOUS
  0
LAYER
  2
LAYER206
 70
               0
 62
               7
  6
CONTINUOUS
  0
LAYER
  2
LAYER207
 70
               0
 62
               7
  6
CONTINUOUS
  0
LAYER
  2
LAYER208
 70
               0
 62
               7
  6
CONTINUOUS
  0
LAYER
  2
LAYER209
 70
               0
 62
               7
  6
CONTINUOUS
  0
LAYER
  2
LAYER210
 70
               0
 62
               7
  6
CONTINUOUS
  0
LAYER
  2
LAYER211
 70
               0
 62
               7
  6
CONTINUOUS
  0
LAYER
  2
LAYER212
 70
               0
 62
               7
  6
CONTINUOUS
  0
LAYER
  2
LAYER213
 70
               0
 62
               7
  6
CONTINUOUS
  0
LAYER
  2
LAYER214
 70
               0
 62
               7
  6
CONTINUOUS
  0
LAYER
  2
LAYER215
 70
               0
 62
               7
  6
CONTINUOUS
  0
LAYER
  2
LAYER216
 70
               0
 62
               7
  6
CONTINUOUS
  0
LAYER
  2
LAYER217
 70
               0
 62
               7
  6
CONTINUOUS
  0
LAYER
  2
LAYER218
 70
               0
 62
               7
  6
CONTINUOUS
  0
LAYER
  2
LAYER219
 70
               0
 62
               7
  6
CONTINUOUS
  0
LAYER
  2
LAYER220
 70
               0
 62
               7
  6
CONTINUOUS
  0
LAYER
  2
LAYER221
 70
               0
 62
               7
  6
CONTINUOUS
  0
LAYER
  2
LAYER222
 70
               0
 62
               7
  6
CONTINUOUS
  0
LAYER
  2
LAYER223
 70
               0
 62
               7
  6
CONTINUOUS
  0
LAYER
  2
LAYER224
 70
               0
 62
               7
  6
CONTINUOUS
  0
LAYER
  2
LAYER225
 70
               0
 62
               7
  6
CONTINUOUS
  0
LAYER
  2
LAYER226
 70
               0
 62
               7
  6
CONTINUOUS
  0
LAYER
  2
LAYER227
 70
               0
 62
               7
  6
CONTINUOUS
  0
LAYER
  2
LAYER228
 70
               0
 62
               7
  6
CONTINUOUS
  0
LAYER
  2
LAYER229
 70
               0
 62
               7
  6
CONTINUOUS
  0
LAYER
  2
LAYER230
 70
               0
 62
               7
  6
CONTINUOUS
  0
LAYER
  2
LAYER231
 70
               0
 62
               7
  6
CONTINUOUS
  0
LAYER
  2
LAYER232
 70
               0
 62
               7
  6
CONTINUOUS
  0
LAYER
  2
LAYER233
 70
               0
 62
               7
  6
CONTINUOUS
  0
LAYER
  2
LAYER234
 70
               0
 62
               7
  6
CONTINUOUS
  0
LAYER
  2
LAYER235
 70
               0
 62
               7
  6
CONTINUOUS
  0
LAYER
  2
LAYER236
 70
               0
 62
               7
  6
CONTINUOUS
  0
LAYER
  2
LAYER237
 70
               0
 62
               7
  6
CONTINUOUS
  0
LAYER
  2
LAYER238
 70
               0
 62
               7
  6
CONTINUOUS
  0
LAYER
  2
LAYER239
 70
               0
 62
               7
  6
CONTINUOUS
  0
LAYER
  2
LAYER240
 70
               0
 62
               7
  6
CONTINUOUS
  0
LAYER
  2
LAYER241
 70
               0
 62
               7
  6
CONTINUOUS
  0
LAYER
  2
LAYER242
 70
               0
 62
               7
  6
CONTINUOUS
  0
LAYER
  2
LAYER243
 70
               0
 62
               7
  6
CONTINUOUS
  0
LAYER
  2
LAYER244
 70
               0
 62
               7
  6
CONTINUOUS
  0
LAYER
  2
LAYER245
 70
               0
 62
               7
  6
CONTINUOUS
  0
LAYER
  2
LAYER246
 70
               0
 62
               7
  6
CONTINUOUS
  0
LAYER
  2
LAYER247
 70
               0
 62
               7
  6
CONTINUOUS
  0
LAYER
  2
LAYER248
 70
               0
 62
               7
  6
CONTINUOUS
  0
LAYER
  2
LAYER249
 70
               0
 62
               7
  6
CONTINUOUS
  0
LAYER
  2
LAYER250
 70
               0
 62
               7
  6
CONTINUOUS
  0
LAYER
  2
LAYER251
 70
               0
 62
               7
  6
CONTINUOUS
  0
LAYER
  2
LAYER252
 70
               0
 62
               7
  6
CONTINUOUS
  0
LAYER
  2
LAYER253
 70
               0
 62
               7
  6
CONTINUOUS
  0
LAYER
  2
LAYER254
 70
               0
 62
               7
  6
CONTINUOUS
  0
LAYER
  2
LAYER255
 70
               0
 62
               7
  6
CONTINUOUS
  0
ENDTAB
  0
TABLE
  2
STYLE
 70
               1
  0
STYLE
  2
STANDARD
 70
               0
 40
0.0
 41
0.8
 50
0.0
 71
               0
 42
40.0
  3
MS PGothic.ttf
  4

  0
ENDTAB
  0
TABLE
  2
VIEW
 70
               0
  0
VIEW
  2
QQQQ
 70
               0
 40
2248.9887680994798
 10
51.574377082919682
 20
-448.63520849510132
 41
1472.3288429547883
 11
0.0
 21
0.0
 31
1.0
 12
100.0
 22
100.0
 32
0.0
 42
50.0
 43
0.0
 44
0.0
 50
0.0
 71
               0
  0
ENDTAB
  0
TABLE
  2
UCS
 70
               0
  0
ENDTAB
  0
TABLE
  2
APPID
 70
               1
  0
APPID
  2
ACAD
 70
               0
  0
ENDTAB
  0
TABLE
  2
DIMSTYLE
 70
               1
  0
DIMSTYLE
  2
STANDARD
 70
               0
  3

  4

  5

  6

  7

 40
1.0
 41
0.18
 42
0.0625
 43
0.38
 44
0.18
 45
0.0
 46
0.0
 47
0.0
 48
0.0
140
0.18
141
0.09
142
0.0
143
25.399999999999999
144
1.0
145
0.0
146
1.0
147
0.09
 71
               0
 72
               0
 73
               1
 74
               1
 75
               0
 76
               0
 77
               0
 78
               0
170
               0
171
               2
172
               0
173
               0
174
               0
175
               0
176
               0
177
               0
178
               0
  0
ENDTAB
  0
ENDSEC
  0
SECTION
  2
BLOCKS
  0
ENDSEC
  0
SECTION
  2
ENTITIES
  0
LINE
  8
0
  6
CONTINUOUS
 62
               3
  5
136
 10
-75.000000000000114
 20
135.99323197949968
 30
0.0
 11
74.999999999999886
 21
135.99323197949968
 31
0.0
  0
LINE
  8
0
  6
CONTINUOUS
 62
               3
  5
137
 10
-88.500000000000341
 20
125.99323197949968
 30
0.0
 11
-88.500000000000341
 21
118.99323197950002
 31
0.0
  0
LINE
  8
0
  6
CONTINUOUS
 62
               3
  5
138
 10
-88.500000000000341
 20
125.99323197949968
 30
0.0
 11
-75.000000000000114
 21
135.99323197949968
 31
0.0
  0
ARC
  8
0
  6
CONTINUOUS
 62
               3
  5
139
 10
-77.0
 20
114.4106562845443
 30
0.0
 40
4.9999999999999991
 50
0.0
 51
66.4218215217725
  0
LINE
  8
0
  6
CONTINUOUS
 62
               3
  5
13A
 10
-88.500000000000341
 20
118.99323197950002
 30
0.0
 11
88.499999999999545
 21
118.99323197950002
 31
0.0
  0
ARC
  8
0
  6
CONTINUOUS
 62
               3
  5
13B
 10
-55.000000000000114
 20
28.993231979499683
 30
0.0
 40
19.999999999999996
 50
148.21166938289122
 51
167.2698198616232
  0
LINE
  8
0
  6
CONTINUOUS
 62
               3
  5
13C
 10
-72.0
 20
114.4106562845443
 30
0.0
 11
-72.0
 21
39.528885732352478
 31
0.0
  0
LINE
  8
0
  6
CONTINUOUS
 62
               3
  5
13D
 10
71.999999999999773
 20
44.528885732353046
 30
0.0
 11
71.999999999999773
 21
114.4106562845443
 31
0.0
  0
LINE
  8
0
  6
CONTINUOUS
 62
               3
  5
13E
 10
-58.000000000000227
 20
-437.00676802050066
 30
0.0
 11
-75.000000000000114
 21
-288.0067680205002
 31
0.0
  0
LINE
  8
0
  6
CONTINUOUS
 62
               3
  5
13F
 10
-72.0
 20
39.528885732352478
 30
0.0
 11
71.500000000000227
 21
39.528885732352478
 31
0.0
  0
LINE
  8
0
  6
CONTINUOUS
 62
               3
  5
140
 10
-20.000000000000117
 20
118.99323197950002
 30
0.0
 11
-20.000000000000117
 21
135.99323197949968
 31
0.0
  0
LINE
  8
0
  6
CONTINUOUS
 62
               3
  5
141
 10
19.999999999999886
 20
135.99323197949968
 30
0.0
 11
19.999999999999886
 21
118.99323197950002
 31
0.0
  0
LINE
  8
0
  6
CONTINUOUS
 62
               3
  5
142
 10
-20.000000000000117
 20
125.99323197949968
 30
0.0
 11
19.999999999999886
 21
125.99323197949968
 31
0.0
  0
LINE
  8
0
  6
CONTINUOUS
 62
               3
  5
143
 10
-72.284161474005487
 20
135.99323197949968
 30
0.0
 11
-72.284161474005487
 21
118.99323197950002
 31
0.0
  0
LINE
  8
0
  6
CONTINUOUS
 62
               3
  5
144
 10
-86.210498200625352
 20
125.99323197949968
 30
0.0
 11
-86.210498200625352
 21
118.99323197950002
 31
0.0
  0
LINE
  8
0
  6
CONTINUOUS
 62
               3
  5
145
 10
-88.500000000000341
 20
125.99323197949968
 30
0.0
 11
-86.210498200625352
 21
125.99323197949968
 31
0.0
  0
LINE
  8
0
  6
CONTINUOUS
 62
               3
  5
146
 10
-86.210498200625352
 20
125.99323197949968
 30
0.0
 11
-72.284161474005487
 21
135.99323197949968
 31
0.0
  0
LINE
  8
0
  6
CONTINUOUS
 62
               3
  5
147
 10
88.499999999999545
 20
125.99323197949968
 30
0.0
 11
88.499999999999545
 21
118.99323197950002
 31
0.0
  0
LINE
  8
0
  6
CONTINUOUS
 62
               3
  5
148
 10
88.499999999999545
 20
125.99323197949968
 30
0.0
 11
74.999999999999886
 21
135.99323197949968
 31
0.0
  0
ARC
  8
0
  6
CONTINUOUS
 62
               3
  5
149
 10
76.999999999999773
 20
114.4106562845443
 30
0.0
 40
4.9999999999999991
 50
113.57817847815815
 51
179.99999999993057
  0
LINE
  8
0
  6
CONTINUOUS
 62
               3
  5
14A
 10
72.284161474004122
 20
135.99323197949968
 30
0.0
 11
72.284161474004122
 21
118.99323197950002
 31
0.0
  0
LINE
  8
0
  6
CONTINUOUS
 62
               3
  5
14B
 10
86.210498200625125
 20
125.99323197949968
 30
0.0
 11
86.210498200625125
 21
118.99323197950002
 31
0.0
  0
LINE
  8
0
  6
CONTINUOUS
 62
               3
  5
14C
 10
88.499999999999545
 20
125.99323197949968
 30
0.0
 11
86.210498200625125
 21
125.99323197949968
 31
0.0
  0
LINE
  8
0
  6
CONTINUOUS
 62
               3
  5
14D
 10
86.210498200625125
 20
125.99323197949968
 30
0.0
 11
72.284161474004122
 21
135.99323197949968
 31
0.0
  0
LINE
  8
0
  6
CONTINUOUS
 62
               3
  5
14E
 10
-58.000000000000227
 20
-437.00676802050009
 30
0.0
 11
57.999999999999993
 21
-437.00676802050066
 31
0.0
  0
ARC
  8
0
  6
CONTINUOUS
 62
               3
  5
14F
 10
74.999999999999886
 20
-92.506768020500317
 30
0.0
 40
2.4999999999999996
 50
269.99999999989649
 51
449.99999999982703
  0
LINE
  8
0
  6
CONTINUOUS
 62
               3
  5
150
 10
-75.000000000000114
 20
-288.0067680205002
 30
0.0
 11
-46.368107792057003
 21
-288.0067680205002
 31
0.0
  0
LINE
  8
0
  6
CONTINUOUS
 62
               3
  5
151
 10
-1.9728332801510078
 20
-288.0067680205002
 30
0.0
 11
74.49676513364966
 21
-288.0067680205002
 31
0.0
  0
LINE
  8
0
  6
CONTINUOUS
 62
               3
  5
152
 10
-140.00000000000011
 20
-85.006768020500317
 30
0.0
 11
-139.32844387403571
 21
-85.006768020500317
 31
0.0
  0
LINE
  8
0
  6
CONTINUOUS
 62
               3
  5
153
 10
-136.82844387403566
 20
-87.506768020499578
 30
0.0
 11
-139.32844387403571
 21
-85.006768020500317
 31
0.0
  0
LINE
  8
0
  6
CONTINUOUS
 62
               3
  5
154
 10
-136.82844387403492
 20
-87.506768020500317
 30
0.0
 11
-94.663333617757502
 21
-88.979206116354362
 31
0.0
  0
LINE
  8
0
  6
CONTINUOUS
 62
               3
  5
155
 10
-76.464466094067618
 20
-105.27845744678632
 30
0.0
 11
-91.30229719533736
 21
-90.440626345517046
 31
0.0
  0
ARC
  8
0
  6
CONTINUOUS
 62
               3
  5
156
 10
-80.000000000000099
 20
-108.81399135271943
 30
0.0
 40
4.9999999999999991
 50
0.0
 51
44.999999999981704
  0
LINE
  8
0
  6
CONTINUOUS
 62
               3
  5
157
 10
-140.00000000000011
 20
24.993231979499569
 30
0.0
 11
-139.32844387403571
 21
24.993231979499569
 31
0.0
  0
LINE
  8
0
  6
CONTINUOUS
 62
               3
  5
158
 10
-136.82844387403566
 20
27.493231979499797
 30
0.0
 11
-139.32844387403571
 21
24.993231979499569
 31
0.0
  0
LINE
  8
0
  6
CONTINUOUS
 62
               3
  5
159
 10
-136.82844387403571
 20
27.49323197949974
 30
0.0
 11
-79.210967671861425
 21
29.50527858465199
 31
0.0
  0
LINE
  8
0
  6
CONTINUOUS
 62
               3
  5
15A
 10
-139.32844387403571
 20
24.993231979499569
 30
0.0
 11
-139.32844387403571
 21
-85.006768020500317
 31
0.0
  0
LINE
  8
0
  6
CONTINUOUS
 62
               3
  5
15B
 10
-140.00000000000011
 20
-87.606768020500311
 30
0.0
 11
-140.00000000000011
 21
27.593231979499706
 31
0.0
  0
LINE
  8
0
  6
CONTINUOUS
 62
               3
  5
15C
 10
-140.00000000000011
 20
27.593231979499706
 30
0.0
 11
-142.50000000000011
 21
27.593231979499706
 31
0.0
  0
ARC
  8
0
  6
CONTINUOUS
 62
               3
  5
15D
 10
-142.50000000000011
 20
25.093231979499706
 30
0.0
 40
2.5
 50
89.999999999965937
 51
179.99999999993119
  0
LINE
  8
0
  6
CONTINUOUS
 62
               3
  5
15E
 10
-145.00000000000011
 20
25.093231979499706
 30
0.0
 11
-145.00000000000011
 21
-85.106768020500311
 31
0.0
  0
LINE
  8
0
  6
CONTINUOUS
 62
               3
  5
15F
 10
-140.00000000000011
 20
-87.606768020500311
 30
0.0
 11
-142.50000000000011
 21
-87.606768020500311
 31
0.0
  0
ARC
  8
0
  6
CONTINUOUS
 62
               3
  5
160
 10
-142.50000000000011
 20
-85.106768020500311
 30
0.0
 40
2.5
 50
179.99999999993071
 51
269.99999999989649
  0
LINE
  8
0
  6
CONTINUOUS
 62
               3
  5
161
 10
-136.82844387403566
 20
27.493231979499797
 30
0.0
 11
-136.82844387403492
 21
-87.506768020500317
 31
0.0
  0
ARC
  8
0
  6
CONTINUOUS
 62
               3
  5
162
 10
-94.837831101270041
 20
-93.976160251449812
 30
0.0
 40
5.0
 50
44.999999999983494
 51
87.999999999965851
  0
ARC
  8
0
  6
CONTINUOUS
 62
               3
  5
163
 10
-79.385465155373922
 20
34.50223271974744
 30
0.0
 40
5.0
 50
271.99999999989535
 51
347.26981986155278
  0
LINE
  8
0
  6
CONTINUOUS
 62
               3
  5
164
 10
-65.000000000002359
 20
-90.006768020500317
 30
0.0
 11
-0.0000000000001137
 21
-90.006768020500317
 31
0.0
  0
LINE
  8
0
  6
CONTINUOUS
 62
               3
  5
165
 10
-0.0000000000001137
 20
-90.006768020500317
 30
0.0
 11
74.999999999999886
 21
-90.006768020500317
 31
0.0
  0
LINE
  8
0
  6
CONTINUOUS
 62
               3
  5
166
 10
-65.000000000002359
 20
-95.006768020501823
 30
0.0
 11
-0.0000000000001137
 21
-95.006768020500317
 31
0.0
  0
LINE
  8
0
  6
CONTINUOUS
 62
               3
  5
167
 10
-0.0000000000001137
 20
-95.006768020500317
 30
0.0
 11
74.999999999999886
 21
-95.006768020500317
 31
0.0
  0
LINE
  8
0
  6
CONTINUOUS
 62
               3
  5
168
 10
-75.000000000000099
 20
-108.81399135271943
 30
0.0
 11
-75.000000000000114
 21
-288.0067680205002
 31
0.0
  0
LINE
  8
0
  6
CONTINUOUS
 62
               3
  5
169
 10
58.000000000000561
 20
-448.00676802050032
 30
0.0
 11
58.000000000000561
 21
-437.00676802050066
 31
0.0
  0
LINE
  8
0
  6
CONTINUOUS
 62
               3
  5
16A
 10
-57.999999999999659
 20
-437.00676802050066
 30
0.0
 11
-57.999999999999659
 21
-448.00676802050077
 31
0.0
  0
LINE
  8
0
  6
CONTINUOUS
 62
               3
  5
16B
 10
-55.000000000000114
 20
-549.00676802050032
 30
0.0
 11
54.999999999999886
 21
-549.00676802050032
 31
0.0
  0
LINE
  8
0
  6
CONTINUOUS
 62
               3
  5
16C
 10
-57.000000000000114
 20
-547.00676802050032
 30
0.0
 11
-57.000000000000114
 21
-449.00676802050032
 31
0.0
  0
LINE
  8
0
  6
CONTINUOUS
 62
               3
  5
16D
 10
56.999999999999886
 20
-547.00676802050032
 30
0.0
 11
56.999999999999886
 21
-449.00676802050032
 31
0.0
  0
LINE
  8
0
  6
CONTINUOUS
 62
               3
  5
16E
 10
-57.000000000000135
 20
-449.00676802050032
 30
0.0
 11
-57.999999999999659
 21
-448.00676802050077
 31
0.0
  0
LINE
  8
0
  6
CONTINUOUS
 62
               3
  5
16F
 10
56.999999999999886
 20
-449.00676802050032
 30
0.0
 11
57.999999999999886
 21
-448.00676802050032
 31
0.0
  0
ARC
  8
0
  6
CONTINUOUS
 62
               3
  5
170
 10
-65.000000000000114
 20
-92.506768020501823
 30
0.0
 40
2.4999999999999996
 50
89.999999999965283
 51
269.99999999989649
  0
LINE
  8
0
  6
CONTINUOUS
 62
               3
  5
171
 10
575.0
 20
135.99323197949968
 30
0.0
 11
424.99999999999989
 21
135.99323197949968
 31
0.0
  0
LINE
  8
0
  6
CONTINUOUS
 62
               3
  5
172
 10
588.50000000000023
 20
125.99323197949968
 30
0.0
 11
588.50000000000023
 21
118.99323197950002
 31
0.0
  0
LINE
  8
0
  6
CONTINUOUS
 62
               3
  5
173
 10
588.50000000000023
 20
125.99323197949968
 30
0.0
 11
575.0
 21
135.99323197949968
 31
0.0
  0
ARC
  8
0
  6
CONTINUOUS
 62
               3
  5
174
 10
576.99999999999977
 20
114.4106562845443
 30
0.0
 40
4.9999999999999991
 50
113.57817847815875
 51
179.99999999993057
  0
LINE
  8
0
  6
CONTINUOUS
 62
               3
  5
175
 10
588.50000000000023
 20
118.99323197950002
 30
0.0
 11
411.49999999999966
 21
118.99323197950002
 31
0.0
  0
ARC
  8
0
  6
CONTINUOUS
 62
               3
  5
176
 10
555.0
 20
28.993231979499711
 30
0.0
 40
19.999999999999996
 50
0.0
 51
31.788330617039637
  0
LINE
  8
0
  6
CONTINUOUS
 62
               3
  5
177
 10
571.99999999999977
 20
114.4106562845443
 30
0.0
 11
571.99999999999977
 21
39.528885732352506
 31
0.0
  0
ARC
  8
0
  6
CONTINUOUS
 62
               3
  5
178
 10
444.99999999999989
 20
28.993231979499711
 30
0.0
 40
19.999999999999996
 50
148.21166938289122
 51
179.99999999993088
  0
LINE
  8
0
  6
CONTINUOUS
 62
               3
  5
179
 10
428.0
 20
39.528885732352506
 30
0.0
 11
428.0
 21
114.4106562845443
 31
0.0
  0
LINE
  8
0
  6
CONTINUOUS
 62
               3
  5
17A
 10
558.0
 20
-437.00676802050054
 30
0.0
 11
575.0
 21
-288.0067680205002
 31
0.0
  0
LINE
  8
0
  6
CONTINUOUS
 62
               3
  5
17B
 10
441.99999999999977
 20
-437.00676802050054
 30
0.0
 11
424.99999999999989
 21
-288.0067680205002
 31
0.0
  0
LINE
  8
0
  6
CONTINUOUS
 62
               3
  5
17C
 10
574.99999999999943
 20
-95.006768020500289
 30
0.0
 11
575.0
 21
-288.0067680205002
 31
0.0
  0
LINE
  8
0
  6
CONTINUOUS
 62
               3
  5
17D
 10
519.99999999999989
 20
118.99323197950002
 30
0.0
 11
519.99999999999989
 21
135.99323197949968
 31
0.0
  0
LINE
  8
0
  6
CONTINUOUS
 62
               3
  5
17E
 10
479.99999999999989
 20
135.99323197949968
 30
0.0
 11
479.99999999999989
 21
118.99323197950002
 31
0.0
  0
LINE
  8
0
  6
CONTINUOUS
 62
               3
  5
17F
 10
519.99999999999989
 20
125.99323197949968
 30
0.0
 11
479.99999999999989
 21
125.99323197949968
 31
0.0
  0
LINE
  8
0
  6
CONTINUOUS
 62
               3
  5
180
 10
572.2841614740048
 20
135.99323197949968
 30
0.0
 11
572.2841614740048
 21
118.99323197950002
 31
0.0
  0
LINE
  8
0
  6
CONTINUOUS
 62
               3
  5
181
 10
586.21049820062512
 20
125.99323197949968
 30
0.0
 11
586.21049820062512
 21
118.99323197950002
 31
0.0
  0
LINE
  8
0
  6
CONTINUOUS
 62
               3
  5
182
 10
588.50000000000023
 20
125.99323197949968
 30
0.0
 11
586.21049820062512
 21
125.99323197949968
 31
0.0
  0
LINE
  8
0
  6
CONTINUOUS
 62
               3
  5
183
 10
586.21049820062512
 20
125.99323197949968
 30
0.0
 11
572.2841614740048
 21
135.99323197949968
 31
0.0
  0
LINE
  8
0
  6
CONTINUOUS
 62
               3
  5
184
 10
411.49999999999966
 20
125.99323197949968
 30
0.0
 11
411.49999999999966
 21
118.99323197950002
 31
0.0
  0
LINE
  8
0
  6
CONTINUOUS
 62
               3
  5
185
 10
411.49999999999966
 20
125.99323197949968
 30
0.0
 11
424.99999999999989
 21
135.99323197949968
 31
0.0
  0
ARC
  8
0
  6
CONTINUOUS
 62
               3
  5
186
 10
423.0
 20
114.4106562845443
 30
0.0
 40
4.9999999999999991
 50
0.0
 51
66.421821521772344
  0
LINE
  8
0
  6
CONTINUOUS
 62
               3
  5
187
 10
427.71583852599508
 20
135.99323197949968
 30
0.0
 11
427.71583852599508
 21
118.99323197950002
 31
0.0
  0
LINE
  8
0
  6
CONTINUOUS
 62
               3
  5
188
 10
413.78950179937465
 20
125.99323197949968
 30
0.0
 11
413.78950179937465
 21
118.99323197950002
 31
0.0
  0
LINE
  8
0
  6
CONTINUOUS
 62
               3
  5
189
 10
411.49999999999966
 20
125.99323197949968
 30
0.0
 11
413.78950179937465
 21
125.99323197949968
 31
0.0
  0
LINE
  8
0
  6
CONTINUOUS
 62
               3
  5
18A
 10
413.78950179937465
 20
125.99323197949968
 30
0.0
 11
427.71583852599508
 21
135.99323197949968
 31
0.0
  0
LINE
  8
0
  6
CONTINUOUS
 62
               3
  5
18B
 10
558.0
 20
-437.00676802049998
 30
0.0
 11
441.99999999999977
 21
-437.00676802050054
 31
0.0
  0
LINE
  8
0
  6
CONTINUOUS
 62
               3
  5
18C
 10
571.99999999999977
 20
39.528885732352506
 30
0.0
 11
511.72700000000009
 21
39.528885732352506
 31
0.0
  0
LINE
  8
0
  6
CONTINUOUS
 62
               3
  5
18D
 10
488.27299999999968
 20
39.528885732352506
 30
0.0
 11
428.0
 21
39.528885732352506
 31
0.0
  0
ARC
  8
0
  6
CONTINUOUS
 62
               3
  5
18E
 10
574.99999999999943
 20
-92.506768020500289
 30
0.0
 40
2.4999999999999996
 50
269.99999999989518
 51
449.99999999982703
  0
LINE
  8
0
  6
CONTINUOUS
 62
               3
  5
18F
 10
424.99999999999932
 20
-90.006768020500289
 30
0.0
 11
491.78299999999911
 21
-90.006768020500289
 31
0.0
  0
LINE
  8
0
  6
CONTINUOUS
 62
               3
  5
190
 10
508.21699999999896
 20
-90.006768020500289
 30
0.0
 11
574.99999999999943
 21
-90.006768020500289
 31
0.0
  0
LINE
  8
0
  6
CONTINUOUS
 62
               3
  5
191
 10
424.99999999999932
 20
-95.006768020500289
 30
0.0
 11
491.93835546658408
 21
-95.006768020500289
 31
0.0
  0
LINE
  8
0
  6
CONTINUOUS
 62
               3
  5
192
 10
508.21699999999896
 20
-95.006768020500289
 30
0.0
 11
574.99999999999943
 21
-95.006768020500289
 31
0.0
  0
LINE
  8
0
  6
CONTINUOUS
 62
               3
  5
193
 10
575.0
 20
-288.0067680205002
 30
0.0
 11
508.21699999999953
 21
-288.0067680205002
 31
0.0
  0
LINE
  8
0
  6
CONTINUOUS
 62
               3
  5
194
 10
491.78299999999967
 20
-288.0067680205002
 30
0.0
 11
424.99999999999989
 21
-288.0067680205002
 31
0.0
  0
LINE
  8
0
  6
CONTINUOUS
 62
               3
  5
195
 10
575.0
 20
28.993231979499711
 30
0.0
 11
574.99999999999943
 21
-90.006768020500289
 31
0.0
  0
LINE
  8
0
  6
CONTINUOUS
 62
               3
  5
196
 10
-575.0
 20
135.99323197949968
 30
0.0
 11
-425.00000000000063
 21
135.99323197949968
 31
0.0
  0
LINE
  8
0
  6
CONTINUOUS
 62
               3
  5
197
 10
-588.50000000000023
 20
125.99323197949968
 30
0.0
 11
-588.50000000000023
 21
118.99323197950002
 31
0.0
  0
LINE
  8
0
  6
CONTINUOUS
 62
               3
  5
198
 10
-588.50000000000023
 20
125.99323197949968
 30
0.0
 11
-575.0
 21
135.99323197949968
 31
0.0
  0
ARC
  8
0
  6
CONTINUOUS
 62
               3
  5
199
 10
-577.0
 20
114.4106562845443
 30
0.0
 40
4.9999999999999991
 50
0.0
 51
66.421821521772344
  0
LINE
  8
0
  6
CONTINUOUS
 62
               3
  5
19A
 10
-588.50000000000023
 20
118.99323197950002
 30
0.0
 11
-411.5000000000004
 21
118.99323197950002
 31
0.0
  0
ARC
  8
0
  6
CONTINUOUS
 62
               3
  5
19B
 10
-555.0
 20
28.99323197949974
 30
0.0
 40
19.999999999999996
 50
148.21166938289122
 51
179.99999999993088
  0
LINE
  8
0
  6
CONTINUOUS
 62
               3
  5
19C
 10
-572.0
 20
114.4106562845443
 30
0.0
 11
-572.0
 21
39.528885732352535
 31
0.0
  0
ARC
  8
0
  6
CONTINUOUS
 62
               3
  5
19D
 10
-445.00000000000063
 20
28.99323197949974
 30
0.0
 40
19.999999999999996
 50
0.0
 51
31.788330617039556
  0
LINE
  8
0
  6
CONTINUOUS
 62
               3
  5
19E
 10
-428.00000000000017
 20
39.528885732352535
 30
0.0
 11
-428.00000000000017
 21
114.4106562845443
 31
0.0
  0
LINE
  8
0
  6
CONTINUOUS
 62
               3
  5
19F
 10
-558.00000000000023
 20
-437.00676802050054
 30
0.0
 11
-575.0
 21
-288.00676802050009
 31
0.0
  0
LINE
  8
0
  6
CONTINUOUS
 62
               3
  5
1A0
 10
-575.00000000000057
 20
-95.00676802050026
 30
0.0
 11
-575.0
 21
-288.00676802050009
 31
0.0
  0
LINE
  8
0
  6
CONTINUOUS
 62
               3
  5
1A1
 10
-572.0
 20
39.528885732352535
 30
0.0
 11
-428.00000000000017
 21
39.528885732352535
 31
0.0
  0
LINE
  8
0
  6
CONTINUOUS
 62
               3
  5
1A2
 10
-520.0
 20
118.99323197950002
 30
0.0
 11
-520.0
 21
135.99323197949968
 31
0.0
  0
LINE
  8
0
  6
CONTINUOUS
 62
               3
  5
1A3
 10
-480.00000000000057
 20
135.99323197949968
 30
0.0
 11
-480.00000000000057
 21
118.99323197950002
 31
0.0
  0
LINE
  8
0
  6
CONTINUOUS
 62
               3
  5
1A4
 10
-520.0
 20
125.99323197949968
 30
0.0
 11
-480.00000000000057
 21
125.99323197949968
 31
0.0
  0
LINE
  8
0
  6
CONTINUOUS
 62
               3
  5
1A5
 10
-572.28416147400435
 20
135.99323197949968
 30
0.0
 11
-572.28416147400435
 21
118.99323197950002
 31
0.0
  0
LINE
  8
0
  6
CONTINUOUS
 62
               3
  5
1A6
 10
-586.21049820062535
 20
125.99323197949968
 30
0.0
 11
-586.21049820062535
 21
118.99323197950002
 31
0.0
  0
LINE
  8
0
  6
CONTINUOUS
 62
               3
  5
1A7
 10
-588.50000000000023
 20
125.99323197949968
 30
0.0
 11
-586.21049820062535
 21
125.99323197949968
 31
0.0
  0
LINE
  8
0
  6
CONTINUOUS
 62
               3
  5
1A8
 10
-586.21049820062535
 20
125.99323197949968
 30
0.0
 11
-572.28416147400435
 21
135.99323197949968
 31
0.0
  0
LINE
  8
0
  6
CONTINUOUS
 62
               3
  5
1A9
 10
-411.5000000000004
 20
125.99323197949968
 30
0.0
 11
-411.5000000000004
 21
118.99323197950002
 31
0.0
  0
LINE
  8
0
  6
CONTINUOUS
 62
               3
  5
1AA
 10
-411.5000000000004
 20
125.99323197949968
 30
0.0
 11
-425.00000000000063
 21
135.99323197949968
 31
0.0
  0
ARC
  8
0
  6
CONTINUOUS
 62
               3
  5
1AB
 10
-423.00000000000017
 20
114.4106562845443
 30
0.0
 40
4.9999999999999991
 50
113.57817847815815
 51
179.99999999993057
  0
LINE
  8
0
  6
CONTINUOUS
 62
               3
  5
1AC
 10
-427.71583852599525
 20
135.99323197949968
 30
0.0
 11
-427.71583852599525
 21
118.99323197950002
 31
0.0
  0
LINE
  8
0
  6
CONTINUOUS
 62
               3
  5
1AD
 10
-413.78950179937482
 20
125.99323197949968
 30
0.0
 11
-413.78950179937482
 21
118.99323197950002
 31
0.0
  0
LINE
  8
0
  6
CONTINUOUS
 62
               3
  5
1AE
 10
-411.5000000000004
 20
125.99323197949968
 30
0.0
 11
-413.78950179937482
 21
125.99323197949968
 31
0.0
  0
LINE
  8
0
  6
CONTINUOUS
 62
               3
  5
1AF
 10
-413.78950179937482
 20
125.99323197949968
 30
0.0
 11
-427.71583852599525
 21
135.99323197949968
 31
0.0
  0
LINE
  8
0
  6
CONTINUOUS
 62
               3
  5
1B0
 10
-558.00000000000023
 20
-437.00676802049998
 30
0.0
 11
-441.99999999999994
 21
-437.00676802050054
 31
0.0
  0
ARC
  8
0
  6
CONTINUOUS
 62
               3
  5
1B1
 10
-575.00000000000057
 20
-92.50676802050026
 30
0.0
 40
2.4999999999999996
 50
89.999999999965937
 51
269.99999999989518
  0
LINE
  8
0
  6
CONTINUOUS
 62
               3
  5
1B2
 10
-575.0
 20
28.99323197949974
 30
0.0
 11
-575.00000000000057
 21
-90.00676802050026
 31
0.0
  0
LINE
  8
0
  6
CONTINUOUS
 62
               3
  5
1B3
 10
-575.0
 20
-288.00676802050009
 30
0.0
 11
-441.05099999999999
 21
-288.00676802049986
 31
0.0
  0
LINE
  8
0
  6
CONTINUOUS
 62
               3
  5
1B4
 10
-428.24363345646083
 20
-288.00676802049986
 30
0.0
 11
-425.00000000000063
 21
-288.00676802049986
 31
0.0
  0
LINE
  8
0
  6
CONTINUOUS
 62
               3
  5
1B5
 10
-473.21264290752117
 20
-2.006768020500374
 30
0.0
 11
-526.78735709248008
 21
-2.006768020500374
 31
0.0
  0
CIRCLE
  8
0
  6
CONTINUOUS
 62
               3
  5
1B6
 10
-500.00000000000057
 20
-30.00676802050026
 30
0.0
 40
48.5
  0
CIRCLE
  8
0
  6
CONTINUOUS
 62
               3
  5
1B7
 10
-500.00000000000057
 20
-30.00676802050026
 30
0.0
 40
38.75
  0
CIRCLE
  8
0
  6
CONTINUOUS
 62
               3
  5
1B8
 10
-500.00000000000057
 20
-30.00676802050026
 30
0.0
 40
47.299999999999997
  0
LINE
  8
0
  6
CONTINUOUS
 62
               3
  5
1B9
 10
-531.81980515339524
 20
-61.826573173894815
 30
0.0
 11
-533.44615075012439
 21
-63.452918770623967
 31
0.0
  0
LINE
  8
0
  6
CONTINUOUS
 62
               3
  5
1BA
 10
-468.1801948466059
 20
-61.826573173894815
 30
0.0
 11
-466.55384924987686
 21
-63.452918770623853
 31
0.0
  0
ARC
  8
0
  6
CONTINUOUS
 62
               3
  5
1BB
 10
-500.00000000000057
 20
-30.00676802050026
 30
0.0
 40
45.0
 50
224.99999999991346
 51
314.99999999987898
  0
CIRCLE
  8
0
  6
CONTINUOUS
 62
               3
  5
1BC
 10
-500.00000000000057
 20
-30.00676802050026
 30
0.0
 40
43.0
  0
CIRCLE
  8
0
  6
CONTINUOUS
 62
               3
  5
1BD
 10
-500.00000000000057
 20
-30.00676802050026
 30
0.0
 40
57.600000000000001
  0
LINE
  8
0
  6
CONTINUOUS
 62
               3
  5
1BE
 10
-441.99999999999994
 20
-437.00676802050054
 30
0.0
 11
-429.45190901929948
 21
-327.02644118965054
 31
0.0
  0
LINE
  8
0
  6
CONTINUOUS
 62
               3
  5
1BF
 10
-427.39985704623905
 20
-309.04080919047277
 30
0.0
 11
-425.00000000000063
 21
-288.00676802049986
 31
0.0
  0
CIRCLE
  8
0
  6
CONTINUOUS
 62
               3
  5
1C0
 10
-0.0000000000001137
 20
460.50676802050032
 30
0.0
 40
75.0
  0
CIRCLE
  8
0
  6
CONTINUOUS
 62
               3
  5
1C1
 10
-0.0000000000001137
 20
460.50676802050032
 30
0.0
 40
52.5
  0
LINE
  8
0
  6
CONTINUOUS
 62
               3
  5
1C2
 10
-86.210498200625352
 20
480.50676802050032
 30
0.0
 11
-72.284161474005487
 21
480.50676802050032
 31
0.0
  0
LINE
  8
0
  6
CONTINUOUS
 62
               3
  5
1C3
 10
-72.284161474005487
 20
440.50676802050032
 30
0.0
 11
-86.210498200625352
 21
440.50676802050032
 31
0.0
  0
ARC
  8
0
  6
CONTINUOUS
 62
               3
  5
1C4
 10
-0.0000000000001137
 20
460.50676802050032
 30
0.0
 40
88.5
 50
166.93897588513531
 51
193.06102411472631
  0
LINE
  8
0
  6
CONTINUOUS
 62
               3
  5
1C5
 10
-20.000000000000121
 20
374.29626981987542
 30
0.0
 11
-20.000000000000114
 21
388.22260654649529
 31
0.0
  0
LINE
  8
0
  6
CONTINUOUS
 62
               3
  5
1C6
 10
19.999999999999886
 20
388.22260654649529
 30
0.0
 11
19.999999999999886
 21
374.29626981987542
 31
0.0
  0
ARC
  8
0
  6
CONTINUOUS
 62
               3
  5
1C7
 10
-0.0000000000001137
 20
460.50676802050032
 30
0.0
 40
88.5
 50
256.93897588510072
 51
283.06102411469175
  0
LINE
  8
0
  6
CONTINUOUS
 62
               3
  5
1C8
 10
86.210498200624556
 20
440.50676802050032
 30
0.0
 11
72.284161474004122
 21
440.50676802050032
 31
0.0
  0
LINE
  8
0
  6
CONTINUOUS
 62
               3
  5
1C9
 10
72.284161474004122
 20
480.50676802050032
 30
0.0
 11
86.210498200624556
 21
480.50676802050032
 31
0.0
  0
ARC
  8
0
  6
CONTINUOUS
 62
               3
  5
1CA
 10
-0.0000000000001137
 20
460.50676802050032
 30
0.0
 40
88.5
 50
346.93897588506604
 51
373.06102411465707
  0
LINE
  8
0
  6
CONTINUOUS
 62
               3
  5
1CB
 10
19.999999999999886
 20
546.7172662211259
 30
0.0
 11
19.999999999999886
 21
532.79092949450535
 31
0.0
  0
LINE
  8
0
  6
CONTINUOUS
 62
               3
  5
1CC
 10
-20.000000000000114
 20
532.79092949450535
 30
0.0
 11
-20.000000000000121
 21
546.7172662211259
 31
0.0
  0
ARC
  8
0
  6
CONTINUOUS
 62
               3
  5
1CD
 10
-0.0000000000001137
 20
460.50676802050032
 30
0.0
 40
88.5
 50
76.938975885169882
 51
103.06102411476093
  0
LINE
  8
0
  6
CONTINUOUS
 62
               3
  5
1CE
 10
-47.668123520861172
 20
438.50676802049986
 30
0.0
 11
47.668123520859801
 21
438.50676802049986
 31
0.0
  0
ARC
  8
0
  6
CONTINUOUS
 62
               3
  5
1CF
 10
12.503611649381014
 20
469.21316564811934
 30
0.0
 40
54.763804151667173
 50
141.3859176367836
 51
145.15009542089805
  0
ARC
  8
0
  6
CONTINUOUS
 62
               3
  5
1D0
 10
-0.0000000000001137
 20
460.50676802050032
 30
0.0
 40
51.5
 50
334.710988473329
 51
410.9593273634826
  0
ARC
  8
0
  6
CONTINUOUS
 62
               3
  5
1D1
 10
-0.0000000000001137
 20
460.50676802050032
 30
0.0
 40
51.5
 50
129.04067263631035
 51
205.28901152646333
  0
ARC
  8
0
  6
CONTINUOUS
 62
               3
  5
1D2
 10
-0.0000000000001137
 20
460.50676802050032
 30
0.0
 40
77.5
 50
104.955248316603
 51
128.57288309098391
  0
ARC
  8
0
  6
CONTINUOUS
 62
               3
  5
1D3
 10
-0.0000000000001137
 20
460.50676802050032
 30
0.0
 40
77.5
 50
14.955248316637562
 51
75.044751683327831
  0
LINE
  8
0
  6
CONTINUOUS
 62
               3
  5
1D4
 10
-140.00000000000009
 20
405.50676802050032
 30
0.0
 11
-139.32844387403586
 21
405.50676802050032
 31
0.0
  0
LINE
  8
0
  6
CONTINUOUS
 62
               3
  5
1D5
 10
-136.8284438740354
 20
403.00676802050032
 30
0.0
 11
-139.32844387403586
 21
405.50676802050032
 31
0.0
  0
LINE
  8
0
  6
CONTINUOUS
 62
               3
  5
1D6
 10
-140.00000000000009
 20
515.50676802050032
 30
0.0
 11
-139.32844387403586
 21
515.50676802050032
 31
0.0
  0
LINE
  8
0
  6
CONTINUOUS
 62
               3
  5
1D7
 10
-136.82844387403586
 20
518.00676802050032
 30
0.0
 11
-139.32844387403586
 21
515.50676802050032
 31
0.0
  0
LINE
  8
0
  6
CONTINUOUS
 62
               3
  5
1D8
 10
-139.32844387403586
 20
515.50676802050032
 30
0.0
 11
-139.32844387403586
 21
405.50676802050032
 31
0.0
  0
LINE
  8
0
  6
CONTINUOUS
 62
               3
  5
1D9
 10
-45.490335786378026
 20
521.19636503884192
 30
0.0
 11
-136.82844387403586
 21
518.00676802050032
 31
0.0
  0
LINE
  8
0
  6
CONTINUOUS
 62
               3
  5
1DA
 10
-45.490335786378708
 20
399.81717100215917
 30
0.0
 11
-136.82844387403537
 21
403.00676802050032
 31
0.0
  0
LINE
  8
0
  6
CONTINUOUS
 62
               3
  5
1DB
 10
-145.00000000000009
 20
515.3352118945362
 30
0.0
 11
-145.00000000000009
 21
405.40676802050029
 31
0.0
  0
LINE
  8
0
  6
CONTINUOUS
 62
               3
  5
1DC
 10
-140.00000000000009
 20
402.90676802050029
 30
0.0
 11
-140.00000000000009
 21
518.10676802050034
 31
0.0
  0
LINE
  8
0
  6
CONTINUOUS
 62
               3
  5
1DD
 10
-140.00000000000009
 20
518.10676802050034
 30
0.0
 11
-142.50000000000009
 21
518.10676802050034
 31
0.0
  0
LINE
  8
0
  6
CONTINUOUS
 62
               3
  5
1DE
 10
-140.00000000000009
 20
402.90676802050029
 30
0.0
 11
-142.50000000000009
 21
402.90676802050029
 31
0.0
  0
ARC
  8
0
  6
CONTINUOUS
 62
               3
  5
1DF
 10
-142.50000000000009
 20
405.40676802050029
 30
0.0
 40
2.5
 50
179.99999999993187
 51
269.99999999989649
  0
ARC
  8
0
  6
CONTINUOUS
 62
               3
  5
1E0
 10
-142.50000000000009
 20
515.60676802050034
 30
0.0
 40
2.5
 50
89.999999999965937
 51
179.99999999993187
  0
LINE
  8
0
  6
CONTINUOUS
 62
               3
  5
1E1
 10
-32.438403166617718
 20
500.50676802050009
 30
0.0
 11
-0.0000000000001137
 21
500.50676802050009
 31
0.0
  0
LINE
  8
0
  6
CONTINUOUS
 62
               3
  5
1E2
 10
-0.0000000000001137
 20
500.50676802050009
 30
0.0
 11
34.003676271838565
 21
500.50676802050009
 31
0.0
  0
LINE
  8
0
  6
CONTINUOUS
 62
               3
  5
1E3
 10
-136.8284438740354
 20
403.00676802050032
 30
0.0
 11
-136.82844387403586
 21
518.00676802050032
 31
0.0
  0
ARC
  8
0
  6
CONTINUOUS
 62
               3
  5
1E4
 10
-45.664833269890551
 20
526.19331917393743
 30
0.0
 40
5.0
 50
271.99999999989558
 51
304.80675787031021
  0
ARC
  8
0
  6
CONTINUOUS
 62
               3
  5
1E5
 10
-45.66483326989119
 20
394.82021686706366
 30
0.0
 40
5.0
 50
55.193242129550548
 51
87.999999999966434
  0
ARC
  8
0
  6
CONTINUOUS
 62
               3
  5
1E6
 10
424.9999999999992
 20
-92.506768020500289
 30
0.0
 40
2.4999999999999996
 50
90.000000000068837
 51
269.99999999999937
  0
LINE
  8
0
  6
CONTINUOUS
 62
               3
  5
1E7
 10
424.99999999999989
 20
-288.0067680205002
 30
0.0
 11
424.9999999999992
 21
-95.006768020500289
 31
0.0
  0
LINE
  8
0
  6
CONTINUOUS
 62
               3
  5
1E8
 10
424.9999999999992
 20
-90.006768020500289
 30
0.0
 11
424.99999999999989
 21
28.993231979511705
 31
0.0
  0
ARC
  8
0
  6
CONTINUOUS
 62
               3
  5
1E9
 10
-425.00000000000057
 20
-92.50676802050026
 30
0.0
 40
2.4999999999999996
 50
269.99999999999937
 51
449.99999999992991
  0
LINE
  8
0
  6
CONTINUOUS
 62
               3
  5
1EA
 10
-425.00000000000063
 20
-288.00676802050009
 30
0.0
 11
-425.00000000000057
 21
-95.00676802050026
 31
0.0
  0
LINE
  8
0
  6
CONTINUOUS
 62
               3
  5
1EB
 10
-425.00000000000057
 20
-90.00676802050026
 30
0.0
 11
-425.00000000000063
 21
28.99323197949974
 31
0.0
  0
ARC
  8
0
  6
CONTINUOUS
 62
               3
  5
1EC
 10
-522.49999999999977
 20
-92.50676802050026
 30
0.0
 40
2.4999999999999996
 50
269.99999999994731
 51
449.99999999991297
  0
ARC
  8
0
  6
CONTINUOUS
 62
               3
  5
1ED
 10
-477.49999999999977
 20
-92.50676802050026
 30
0.0
 40
2.4999999999999996
 50
89.999999999982862
 51
269.99999999994731
  0
LINE
  8
0
  6
CONTINUOUS
 62
               3
  5
1EE
 10
-575.00000000000057
 20
-90.00676802050026
 30
0.0
 11
-522.49999999999977
 21
-90.00676802050026
 31
0.0
  0
LINE
  8
0
  6
CONTINUOUS
 62
               3
  5
1EF
 10
-477.49999999999977
 20
-90.00676802050026
 30
0.0
 11
-425.00000000000119
 21
-90.00676802050026
 31
0.0
  0
LINE
  8
0
  6
CONTINUOUS
 62
               3
  5
1F0
 10
-575.00000000000057
 20
-95.00676802050026
 30
0.0
 11
-522.49999999999977
 21
-95.00676802050026
 31
0.0
  0
LINE
  8
0
  6
CONTINUOUS
 62
               3
  5
1F1
 10
-477.49999999999977
 20
-95.00676802050026
 30
0.0
 11
-425.00000000000119
 21
-95.00676802050026
 31
0.0
  0
ARC
  8
0
  6
CONTINUOUS
 62
               3
  5
1F2
 10
-0.0000000000001137
 20
460.50676802050032
 30
0.0
 40
77.5
 50
231.42711690892145
 51
255.04475168330734
  0
ARC
  8
0
  6
CONTINUOUS
 62
               3
  5
1F3
 10
-0.0000000000001137
 20
460.50676802050032
 30
0.0
 40
77.5
 50
284.95524831658821
 51
345.04475168322398
  0
LINE
  8
0
  6
CONTINUOUS
 62
               3
  5
1F4
 10
-57.000000000000114
 20
-547.00676802050032
 30
0.0
 11
-55.000000000000114
 21
-549.00676802050032
 31
0.0
  0
LINE
  8
0
  6
CONTINUOUS
 62
               3
  5
1F5
 10
54.999999999999886
 20
-549.00676802050032
 30
0.0
 11
56.999999999999886
 21
-547.00676802050032
 31
0.0
  0
LINE
  8
0
  6
CONTINUOUS
 62
               3
  5
1F6
 10
-555.0
 20
-549.00676802050032
 30
0.0
 11
-445.0
 21
-549.00676802050032
 31
0.0
  0
LINE
  8
0
  6
CONTINUOUS
 62
               3
  5
1F7
 10
-557.0
 20
-547.00676802050032
 30
0.0
 11
-557.0
 21
-449.00676802050032
 31
0.0
  0
LINE
  8
0
  6
CONTINUOUS
 62
               3
  5
1F8
 10
-443.0
 20
-547.00676802050032
 30
0.0
 11
-443.0
 21
-449.00676802050032
 31
0.0
  0
LINE
  8
0
  6
CONTINUOUS
 62
               3
  5
1F9
 10
-557.0
 20
-449.00676802050032
 30
0.0
 11
-557.99999999999955
 21
-448.00676802050077
 31
0.0
  0
LINE
  8
0
  6
CONTINUOUS
 62
               3
  5
1FA
 10
-443.0
 20
-449.00676802050032
 30
0.0
 11
-442.0
 21
-448.00676802050032
 31
0.0
  0
LINE
  8
0
  6
CONTINUOUS
 62
               3
  5
1FB
 10
-557.0
 20
-547.00676802050032
 30
0.0
 11
-555.0
 21
-549.00676802050032
 31
0.0
  0
LINE
  8
0
  6
CONTINUOUS
 62
               3
  5
1FC
 10
-445.0
 20
-549.00676802050032
 30
0.0
 11
-443.0
 21
-547.00676802050032
 31
0.0
  0
LINE
  8
0
  6
CONTINUOUS
 62
               3
  5
1FD
 10
-441.99999999999932
 20
-448.00676802050032
 30
0.0
 11
-441.99999999999932
 21
-437.00676802050066
 31
0.0
  0
LINE
  8
0
  6
CONTINUOUS
 62
               3
  5
1FE
 10
-557.99999999999955
 20
-437.00676802050066
 30
0.0
 11
-557.99999999999955
 21
-448.00676802050077
 31
0.0
  0
LINE
  8
0
  6
CONTINUOUS
 62
               3
  5
1FF
 10
444.99999999999989
 20
-549.00676802050032
 30
0.0
 11
554.99999999999989
 21
-549.00676802050032
 31
0.0
  0
LINE
  8
0
  6
CONTINUOUS
 62
               3
  5
200
 10
442.99999999999989
 20
-547.00676802050032
 30
0.0
 11
442.99999999999989
 21
-449.00676802050032
 31
0.0
  0
LINE
  8
0
  6
CONTINUOUS
 62
               3
  5
201
 10
556.99999999999989
 20
-547.00676802050032
 30
0.0
 11
556.99999999999989
 21
-449.00676802050032
 31
0.0
  0
LINE
  8
0
  6
CONTINUOUS
 62
               3
  5
202
 10
442.99999999999989
 20
-449.00676802050032
 30
0.0
 11
442.00000000000034
 21
-448.00676802050077
 31
0.0
  0
LINE
  8
0
  6
CONTINUOUS
 62
               3
  5
203
 10
556.99999999999989
 20
-449.00676802050032
 30
0.0
 11
557.99999999999989
 21
-448.00676802050032
 31
0.0
  0
LINE
  8
0
  6
CONTINUOUS
 62
               3
  5
204
 10
442.99999999999989
 20
-547.00676802050032
 30
0.0
 11
444.99999999999989
 21
-549.00676802050032
 31
0.0
  0
LINE
  8
0
  6
CONTINUOUS
 62
               3
  5
205
 10
554.99999999999989
 20
-549.00676802050032
 30
0.0
 11
556.99999999999989
 21
-547.00676802050032
 31
0.0
  0
LINE
  8
0
  6
CONTINUOUS
 62
               3
  5
206
 10
558.00000000000057
 20
-448.00676802050032
 30
0.0
 11
558.00000000000057
 21
-437.00676802050066
 31
0.0
  0
LINE
  8
0
  6
CONTINUOUS
 62
               3
  5
207
 10
442.00000000000034
 20
-437.00676802050066
 30
0.0
 11
442.00000000000034
 21
-448.00676802050077
 31
0.0
  0
CIRCLE
  8
0
  6
CONTINUOUS
 62
               3
  5
208
 10
-0.0000000000001137
 20
460.50676802050032
 30
0.0
 40
59.0
  0
CIRCLE
  8
0
  6
CONTINUOUS
 62
               3
  5
209
 10
609.28652321630784
 20
-912.97052792989984
 30
0.0
 40
75.0
  0
CIRCLE
  8
0
  6
CONTINUOUS
 62
               3
  5
20A
 10
609.28652321630784
 20
-912.97052792989984
 30
0.0
 40
52.5
  0
LINE
  8
0
  6
CONTINUOUS
 62
               3
  5
20B
 10
523.07602501568249
 20
-892.97052792989984
 30
0.0
 11
537.00236174230236
 21
-892.97052792989984
 31
0.0
  0
LINE
  8
0
  6
CONTINUOUS
 62
               3
  5
20C
 10
537.00236174230236
 20
-932.97052792989984
 30
0.0
 11
523.07602501568249
 21
-932.97052792989984
 31
0.0
  0
ARC
  8
0
  6
CONTINUOUS
 62
               3
  5
20D
 10
609.28652321630784
 20
-912.97052792989984
 30
0.0
 40
88.5
 50
166.93897588510336
 51
193.06102411468945
  0
LINE
  8
0
  6
CONTINUOUS
 62
               3
  5
20E
 10
589.28652321630784
 20
-999.18102613052474
 30
0.0
 11
589.28652321630784
 21
-985.25468940390488
 31
0.0
  0
LINE
  8
0
  6
CONTINUOUS
 62
               3
  5
20F
 10
629.28652321630784
 20
-985.25468940390488
 30
0.0
 11
629.28652321630784
 21
-999.18102613052474
 31
0.0
  0
ARC
  8
0
  6
CONTINUOUS
 62
               3
  5
210
 10
609.28652321630784
 20
-912.97052792989984
 30
0.0
 40
88.5
 50
256.93897588505166
 51
283.06102411463769
  0
LINE
  8
0
  6
CONTINUOUS
 62
               3
  5
211
 10
695.49702141693251
 20
-932.97052792989984
 30
0.0
 11
681.57068469031196
 21
-932.97052792989984
 31
0.0
  0
LINE
  8
0
  6
CONTINUOUS
 62
               3
  5
212
 10
681.57068469031196
 20
-892.97052792989984
 30
0.0
 11
695.49702141693251
 21
-892.97052792989984
 31
0.0
  0
ARC
  8
0
  6
CONTINUOUS
 62
               3
  5
213
 10
609.28652321630784
 20
-912.97052792989984
 30
0.0
 40
88.5
 50
346.93897588499982
 51
373.06102411458585
  0
LINE
  8
0
  6
CONTINUOUS
 62
               3
  5
214
 10
629.28652321630784
 20
-826.76002972927427
 30
0.0
 11
629.28652321630784
 21
-840.68636645589481
 31
0.0
  0
LINE
  8
0
  6
CONTINUOUS
 62
               3
  5
215
 10
589.28652321630784
 20
-840.68636645589481
 30
0.0
 11
589.28652321630784
 21
-826.76002972927427
 31
0.0
  0
ARC
  8
0
  6
CONTINUOUS
 62
               3
  5
216
 10
609.28652321630784
 20
-912.97052792989984
 30
0.0
 40
88.5
 50
76.938975885155216
 51
103.06102411474124
  0
LINE
  8
0
  6
CONTINUOUS
 62
               3
  5
217
 10
561.61839969544667
 20
-934.9705279299003
 30
0.0
 11
656.95464673716765
 21
-934.9705279299003
 31
0.0
  0
ARC
  8
0
  6
CONTINUOUS
 62
               3
  5
218
 10
621.79013486568897
 20
-904.26413030228082
 30
0.0
 40
54.763804151667173
 50
141.3859176367566
 51
145.15009542087031
  0
ARC
  8
0
  6
CONTINUOUS
 62
               3
  5
219
 10
609.28652321630784
 20
-912.97052792989984
 30
0.0
 40
51.5
 50
334.71098847326505
 51
410.95932736340404
  0
ARC
  8
0
  6
CONTINUOUS
 62
               3
  5
21A
 10
609.28652321630784
 20
-912.97052792989984
 30
0.0
 40
51.5
 50
129.04067263628559
 51
205.28901152642416
  0
ARC
  8
0
  6
CONTINUOUS
 62
               3
  5
21B
 10
609.28652321630784
 20
-912.97052792989984
 30
0.0
 40
77.5
 50
104.95524831658301
 51
128.57288309095932
  0
ARC
  8
0
  6
CONTINUOUS
 62
               3
  5
21C
 10
609.28652321630784
 20
-912.97052792989984
 30
0.0
 40
77.5
 50
14.9552483166347
 51
75.044751683313535
  0
ARC
  8
0
  6
CONTINUOUS
 62
               3
  5
21D
 10
609.28652321630784
 20
-912.97052792989984
 30
0.0
 40
77.5
 50
321.42711690878122
 51
345.04475168315804
  0
LINE
  8
0
  6
CONTINUOUS
 62
               3
  5
21E
 10
469.28652321630773
 20
-967.97052792989984
 30
0.0
 11
469.95807934227196
 21
-967.97052792989984
 31
0.0
  0
LINE
  8
0
  6
CONTINUOUS
 62
               3
  5
21F
 10
472.45807934227241
 20
-970.47052792989984
 30
0.0
 11
469.95807934227196
 21
-967.97052792989984
 31
0.0
  0
LINE
  8
0
  6
CONTINUOUS
 62
               3
  5
220
 10
469.28652321630773
 20
-857.97052792989984
 30
0.0
 11
469.95807934227196
 21
-857.97052792989984
 31
0.0
  0
LINE
  8
0
  6
CONTINUOUS
 62
               3
  5
221
 10
472.45807934227196
 20
-855.47052792989984
 30
0.0
 11
469.95807934227196
 21
-857.97052792989984
 31
0.0
  0
LINE
  8
0
  6
CONTINUOUS
 62
               3
  5
222
 10
469.95807934227196
 20
-857.97052792989984
 30
0.0
 11
469.95807934227196
 21
-967.97052792989984
 31
0.0
  0
LINE
  8
0
  6
CONTINUOUS
 62
               3
  5
223
 10
563.79618742992989
 20
-852.28093091155824
 30
0.0
 11
472.45807934227196
 21
-855.47052792989984
 31
0.0
  0
LINE
  8
0
  6
CONTINUOUS
 62
               3
  5
224
 10
544.45005149975668
 20
-972.98454299486752
 30
0.0
 11
472.45807934227253
 21
-970.47052792989984
 31
0.0
  0
LINE
  8
0
  6
CONTINUOUS
 62
               3
  5
225
 10
464.28652321630773
 20
-858.14208405586396
 30
0.0
 11
464.28652321630773
 21
-968.07052792989975
 31
0.0
  0
LINE
  8
0
  6
CONTINUOUS
 62
               3
  5
226
 10
469.28652321630773
 20
-970.57052792989975
 30
0.0
 11
469.28652321630773
 21
-855.37052792989971
 31
0.0
  0
LINE
  8
0
  6
CONTINUOUS
 62
               3
  5
227
 10
469.28652321630773
 20
-855.37052792989971
 30
0.0
 11
466.78652321630773
 21
-855.37052792989971
 31
0.0
  0
LINE
  8
0
  6
CONTINUOUS
 62
               3
  5
228
 10
469.28652321630773
 20
-970.57052792989975
 30
0.0
 11
466.78652321630773
 21
-970.57052792989975
 31
0.0
  0
ARC
  8
0
  6
CONTINUOUS
 62
               3
  5
229
 10
466.78652321630773
 20
-968.07052792989975
 30
0.0
 40
2.5
 50
179.99999999989538
 51
269.99999999984436
  0
ARC
  8
0
  6
CONTINUOUS
 62
               3
  5
22A
 10
466.78652321630773
 20
-857.87052792989971
 30
0.0
 40
2.5
 50
89.999999999948997
 51
179.99999999989538
  0
LINE
  8
0
  6
CONTINUOUS
 62
               3
  5
22B
 10
576.84812004969012
 20
-872.97052792990007
 30
0.0
 11
609.28652321630784
 21
-872.97052792990007
 31
0.0
  0
LINE
  8
0
  6
CONTINUOUS
 62
               3
  5
22C
 10
609.28652321630784
 20
-872.97052792990007
 30
0.0
 11
643.29019948814653
 21
-872.97052792990007
 31
0.0
  0
LINE
  8
0
  6
CONTINUOUS
 62
               3
  5
22D
 10
472.45807934227241
 20
-970.47052792989984
 30
0.0
 11
472.45807934227196
 21
-855.47052792989984
 31
0.0
  0
ARC
  8
0
  6
CONTINUOUS
 62
               3
  5
22E
 10
563.62168994641729
 20
-847.28397677646262
 30
0.0
 40
5.0
 50
271.99999999984402
 51
304.806757870252
  0
LINE
  8
0
  6
CONTINUOUS
 62
               3
  5
22F
 10
664.28652321630761
 20
-1052.9705279298998
 30
0.0
 11
664.28652321630761
 21
-1052.2989718039355
 31
0.0
  0
LINE
  8
0
  6
CONTINUOUS
 62
               3
  5
230
 10
666.78652321630761
 20
-1049.798971803935
 30
0.0
 11
664.28652321630761
 21
-1052.2989718039355
 31
0.0
  0
LINE
  8
0
  6
CONTINUOUS
 62
               3
  5
231
 10
554.28652321630761
 20
-1052.9705279298998
 30
0.0
 11
554.28652321630761
 21
-1052.2989718039355
 31
0.0
  0
LINE
  8
0
  6
CONTINUOUS
 62
               3
  5
232
 10
551.78652321630761
 20
-1049.7989718039355
 30
0.0
 11
554.28652321630761
 21
-1052.2989718039355
 31
0.0
  0
LINE
  8
0
  6
CONTINUOUS
 62
               3
  5
233
 10
554.28652321630761
 20
-1052.2989718039355
 30
0.0
 11
664.28652321630761
 21
-1052.2989718039355
 31
0.0
  0
LINE
  8
0
  6
CONTINUOUS
 62
               3
  5
234
 10
554.45807934227173
 20
-1057.9705279298998
 30
0.0
 11
664.38652321630775
 21
-1057.9705279298998
 31
0.0
  0
LINE
  8
0
  6
CONTINUOUS
 62
               3
  5
235
 10
666.88652321630775
 20
-1052.9705279298998
 30
0.0
 11
551.68652321630771
 21
-1052.9705279298998
 31
0.0
  0
LINE
  8
0
  6
CONTINUOUS
 62
               3
  5
236
 10
551.68652321630771
 20
-1052.9705279298998
 30
0.0
 11
551.68652321630771
 21
-1055.4705279298998
 31
0.0
  0
LINE
  8
0
  6
CONTINUOUS
 62
               3
  5
237
 10
666.88652321630775
 20
-1052.9705279298998
 30
0.0
 11
666.88652321630775
 21
-1055.4705279298998
 31
0.0
  0
ARC
  8
0
  6
CONTINUOUS
 62
               3
  5
238
 10
664.38652321630775
 20
-1055.4705279298998
 30
0.0
 40
2.5
 50
269.99999999984567
 51
359.99999999979337
  0
ARC
  8
0
  6
CONTINUOUS
 62
               3
  5
239
 10
554.18652321630771
 20
-1055.4705279298998
 30
0.0
 40
2.5
 50
179.99999999989538
 51
269.99999999984567
  0
LINE
  8
0
  6
CONTINUOUS
 62
               3
  5
23A
 10
666.78652321630761
 20
-1049.798971803935
 30
0.0
 11
551.78652321630761
 21
-1049.7989718039355
 31
0.0
  0
LINE
  8
0
  6
CONTINUOUS
 62
               3
  5
23B
 10
669.97612023464876
 20
-958.46086371627803
 30
0.0
 11
666.78652321630761
 21
-1049.798971803935
 31
0.0
  0
ARC
  8
0
  6
CONTINUOUS
 62
               3
  5
23C
 10
674.97307436974438
 20
-958.63536119979085
 30
0.0
 40
5.0
 50
145.19324212948862
 51
177.99999999989819
  0
LINE
  8
0
  6
CONTINUOUS
 62
               3
  5
23D
 10
549.27250815133971
 20
-977.80699964645078
 30
0.0
 11
551.78652321630761
 21
-1049.7989718039355
 31
0.0
  0
ARC
  8
0
  6
CONTINUOUS
 62
               3
  5
23E
 10
544.27555401624431
 20
-977.98149712996269
 30
0.0
 40
5.0
 50
1.9999999999958187
 51
87.99999999994921
  0
LINE
  8
0
  6
CONTINUOUS
 62
               3
  5
23F
 10
534.28652321630784
 20
-1221.469961678484
 30
0.0
 11
684.28652321630784
 21
-1221.469961678484
 31
0.0
  0
LINE
  8
0
  6
CONTINUOUS
 62
               3
  5
240
 10
520.78652321630761
 20
-1231.469961678484
 30
0.0
 11
520.78652321630761
 21
-1238.4699616784835
 31
0.0
  0
LINE
  8
0
  6
CONTINUOUS
 62
               3
  5
241
 10
520.78652321630761
 20
-1231.469961678484
 30
0.0
 11
534.28652321630784
 21
-1221.469961678484
 31
0.0
  0
ARC
  8
0
  6
CONTINUOUS
 62
               3
  5
242
 10
532.28652321630784
 20
-1243.0525373734392
 30
0.0
 40
4.9999999999999991
 50
0.0
 51
66.421821521760023
  0
LINE
  8
0
  6
CONTINUOUS
 62
               3
  5
243
 10
520.78652321630761
 20
-1238.4699616784835
 30
0.0
 11
697.78652321630739
 21
-1238.4699616784835
 31
0.0
  0
ARC
  8
0
  6
CONTINUOUS
 62
               3
  5
244
 10
554.28652321630784
 20
-1328.469961678484
 30
0.0
 40
19.999999999999996
 50
148.21166938286279
 51
167.26981986159123
  0
LINE
  8
0
  6
CONTINUOUS
 62
               3
  5
245
 10
537.28652321630784
 20
-1243.0525373734392
 30
0.0
 11
537.28652321630784
 21
-1317.9343079256312
 31
0.0
  0
LINE
  8
0
  6
CONTINUOUS
 62
               3
  5
246
 10
681.28652321630761
 20
-1312.9343079256307
 30
0.0
 11
681.28652321630761
 21
-1243.0525373734392
 31
0.0
  0
LINE
  8
0
  6
CONTINUOUS
 62
               3
  5
247
 10
537.28652321630784
 20
-1317.9343079256312
 30
0.0
 11
680.78652321630807
 21
-1317.9343079256312
 31
0.0
  0
LINE
  8
0
  6
CONTINUOUS
 62
               3
  5
248
 10
589.28652321630784
 20
-1238.4699616784835
 30
0.0
 11
589.28652321630784
 21
-1221.469961678484
 31
0.0
  0
LINE
  8
0
  6
CONTINUOUS
 62
               3
  5
249
 10
629.28652321630784
 20
-1221.469961678484
 30
0.0
 11
629.28652321630784
 21
-1238.4699616784835
 31
0.0
  0
LINE
  8
0
  6
CONTINUOUS
 62
               3
  5
24A
 10
589.28652321630784
 20
-1231.469961678484
 30
0.0
 11
629.28652321630784
 21
-1231.469961678484
 31
0.0
  0
LINE
  8
0
  6
CONTINUOUS
 62
               3
  5
24B
 10
537.00236174230236
 20
-1221.469961678484
 30
0.0
 11
537.00236174230236
 21
-1238.4699616784835
 31
0.0
  0
LINE
  8
0
  6
CONTINUOUS
 62
               3
  5
24C
 10
523.07602501568249
 20
-1231.469961678484
 30
0.0
 11
523.07602501568249
 21
-1238.4699616784835
 31
0.0
  0
LINE
  8
0
  6
CONTINUOUS
 62
               3
  5
24D
 10
520.78652321630761
 20
-1231.469961678484
 30
0.0
 11
523.07602501568249
 21
-1231.469961678484
 31
0.0
  0
LINE
  8
0
  6
CONTINUOUS
 62
               3
  5
24E
 10
523.07602501568249
 20
-1231.469961678484
 30
0.0
 11
537.00236174230236
 21
-1221.469961678484
 31
0.0
  0
LINE
  8
0
  6
CONTINUOUS
 62
               3
  5
24F
 10
697.78652321630739
 20
-1231.469961678484
 30
0.0
 11
697.78652321630739
 21
-1238.4699616784835
 31
0.0
  0
LINE
  8
0
  6
CONTINUOUS
 62
               3
  5
250
 10
697.78652321630739
 20
-1231.469961678484
 30
0.0
 11
684.28652321630784
 21
-1221.469961678484
 31
0.0
  0
ARC
  8
0
  6
CONTINUOUS
 62
               3
  5
251
 10
686.28652321630761
 20
-1243.0525373734392
 30
0.0
 40
4.9999999999999991
 50
113.57817847813573
 51
179.99999999989538
  0
LINE
  8
0
  6
CONTINUOUS
 62
               3
  5
252
 10
681.57068469031196
 20
-1221.469961678484
 30
0.0
 11
681.57068469031196
 21
-1238.4699616784835
 31
0.0
  0
LINE
  8
0
  6
CONTINUOUS
 62
               3
  5
253
 10
695.49702141693297
 20
-1231.469961678484
 30
0.0
 11
695.49702141693297
 21
-1238.4699616784835
 31
0.0
  0
LINE
  8
0
  6
CONTINUOUS
 62
               3
  5
254
 10
697.78652321630739
 20
-1231.469961678484
 30
0.0
 11
695.49702141693297
 21
-1231.469961678484
 31
0.0
  0
LINE
  8
0
  6
CONTINUOUS
 62
               3
  5
255
 10
695.49702141693297
 20
-1231.469961678484
 30
0.0
 11
681.57068469031196
 21
-1221.469961678484
 31
0.0
  0
ARC
  8
0
  6
CONTINUOUS
 62
               3
  5
256
 10
544.28652321630784
 20
-1449.969961678484
 30
0.0
 40
2.4999999999999996
 50
89.99999999994769
 51
269.99999999984567
  0
ARC
  8
0
  6
CONTINUOUS
 62
               3
  5
257
 10
684.28652321630784
 20
-1449.969961678484
 30
0.0
 40
2.4999999999999996
 50
269.99999999984567
 51
449.99999999974102
  0
LINE
  8
0
  6
CONTINUOUS
 62
               3
  5
258
 10
469.28652321630773
 20
-1442.469961678484
 30
0.0
 11
469.95807934227207
 21
-1442.469961678484
 31
0.0
  0
LINE
  8
0
  6
CONTINUOUS
 62
               3
  5
259
 10
472.45807934227219
 20
-1444.9699616784835
 30
0.0
 11
469.95807934227207
 21
-1442.469961678484
 31
0.0
  0
LINE
  8
0
  6
CONTINUOUS
 62
               3
  5
25A
 10
472.45807934227298
 20
-1444.969961678484
 30
0.0
 11
514.62318959855043
 21
-1446.4423997743381
 31
0.0
  0
LINE
  8
0
  6
CONTINUOUS
 62
               3
  5
25B
 10
532.82205712224027
 20
-1462.7416511047702
 30
0.0
 11
517.98422602097048
 21
-1447.9038200035009
 31
0.0
  0
ARC
  8
0
  6
CONTINUOUS
 62
               3
  5
25C
 10
529.28652321630784
 20
-1466.2771850107031
 30
0.0
 40
4.9999999999999991
 50
0.0
 51
44.999999999973191
  0
LINE
  8
0
  6
CONTINUOUS
 62
               3
  5
25D
 10
469.28652321630773
 20
-1332.469961678484
 30
0.0
 11
469.95807934227207
 21
-1332.469961678484
 31
0.0
  0
LINE
  8
0
  6
CONTINUOUS
 62
               3
  5
25E
 10
472.45807934227219
 20
-1329.969961678484
 30
0.0
 11
469.95807934227207
 21
-1332.469961678484
 31
0.0
  0
LINE
  8
0
  6
CONTINUOUS
 62
               3
  5
25F
 10
472.45807934227207
 20
-1329.969961678484
 30
0.0
 11
530.07555554444639
 21
-1327.9579150733318
 31
0.0
  0
LINE
  8
0
  6
CONTINUOUS
 62
               3
  5
260
 10
469.95807934227207
 20
-1332.469961678484
 30
0.0
 11
469.95807934227207
 21
-1442.469961678484
 31
0.0
  0
LINE
  8
0
  6
CONTINUOUS
 62
               3
  5
261
 10
469.28652321630773
 20
-1445.0699616784839
 30
0.0
 11
469.28652321630773
 21
-1329.8699616784841
 31
0.0
  0
LINE
  8
0
  6
CONTINUOUS
 62
               3
  5
262
 10
469.28652321630773
 20
-1329.8699616784841
 30
0.0
 11
466.78652321630773
 21
-1329.8699616784841
 31
0.0
  0
ARC
  8
0
  6
CONTINUOUS
 62
               3
  5
263
 10
466.78652321630773
 20
-1332.3699616784841
 30
0.0
 40
2.5
 50
89.999999999948997
 51
179.99999999989538
  0
LINE
  8
0
  6
CONTINUOUS
 62
               3
  5
264
 10
464.28652321630773
 20
-1332.3699616784841
 30
0.0
 11
464.28652321630773
 21
-1442.5699616784839
 31
0.0
  0
LINE
  8
0
  6
CONTINUOUS
 62
               3
  5
265
 10
469.28652321630773
 20
-1445.0699616784839
 30
0.0
 11
466.78652321630773
 21
-1445.0699616784839
 31
0.0
  0
ARC
  8
0
  6
CONTINUOUS
 62
               3
  5
266
 10
466.78652321630773
 20
-1442.5699616784839
 30
0.0
 40
2.5
 50
179.99999999989538
 51
269.99999999984436
  0
LINE
  8
0
  6
CONTINUOUS
 62
               3
  5
267
 10
472.45807934227219
 20
-1329.969961678484
 30
0.0
 11
472.45807934227298
 21
-1444.969961678484
 31
0.0
  0
ARC
  8
0
  6
CONTINUOUS
 62
               3
  5
268
 10
514.44869211503783
 20
-1451.4393539094337
 30
0.0
 40
5.0
 50
44.999999999975948
 51
87.999999999949253
  0
ARC
  8
0
  6
CONTINUOUS
 62
               3
  5
269
 10
529.90105806093402
 20
-1322.9609609382362
 30
0.0
 40
5.0
 50
271.99999999984408
 51
347.26981986148661
  0
CIRCLE
  8
0
  6
CONTINUOUS
 62
               3
  5
26A
 10
609.28652321630784
 20
-1387.469961678484
 30
0.0
 40
48.5
  0
CIRCLE
  8
0
  6
CONTINUOUS
 62
               3
  5
26B
 10
609.28652321630784
 20
-1387.469961678484
 30
0.0
 40
47.299999999999997
  0
LINE
  8
0
  6
CONTINUOUS
 62
               3
  5
26C
 10
577.46671806291329
 20
-1419.2897668318785
 30
0.0
 11
575.84037246618414
 21
-1420.9161124286077
 31
0.0
  0
LINE
  8
0
  6
CONTINUOUS
 62
               3
  5
26D
 10
641.1063283697024
 20
-1419.2897668318785
 30
0.0
 11
642.73267396643155
 21
-1420.9161124286077
 31
0.0
  0
ARC
  8
0
  6
CONTINUOUS
 62
               3
  5
26E
 10
609.28652321630784
 20
-1387.469961678484
 30
0.0
 40
45.0
 50
224.99999999987043
 51
314.99999999981884
  0
CIRCLE
  8
0
  6
CONTINUOUS
 62
               3
  5
26F
 10
609.28652321630784
 20
-1387.469961678484
 30
0.0
 40
57.600000000000001
  0
ARC
  8
0
  6
CONTINUOUS
 62
               3
  5
270
 10
586.7865232163083
 20
-1449.969961678484
 30
0.0
 40
2.4999999999999996
 50
269.99999999984567
 51
449.99999999974102
  0
ARC
  8
0
  6
CONTINUOUS
 62
               3
  5
271
 10
631.7865232163083
 20
-1449.969961678484
 30
0.0
 40
2.4999999999999996
 50
89.99999999994769
 51
269.99999999984567
  0
LINE
  8
0
  6
CONTINUOUS
 62
               3
  5
272
 10
544.28652321630784
 20
-1452.469961678484
 30
0.0
 11
586.7865232163083
 21
-1452.469961678484
 31
0.0
  0
LINE
  8
0
  6
CONTINUOUS
 62
               3
  5
273
 10
544.28652321630784
 20
-1447.469961678484
 30
0.0
 11
586.7865232163083
 21
-1447.469961678484
 31
0.0
  0
LINE
  8
0
  6
CONTINUOUS
 62
               3
  5
274
 10
631.7865232163083
 20
-1447.469961678484
 30
0.0
 11
684.28652321630784
 21
-1447.469961678484
 31
0.0
  0
LINE
  8
0
  6
CONTINUOUS
 62
               3
  5
275
 10
631.7865232163083
 20
-1452.469961678484
 30
0.0
 11
684.28652321630784
 21
-1452.469961678484
 31
0.0
  0
CIRCLE
  8
0
  6
CONTINUOUS
 62
               3
  5
276
 10
609.28652321630784
 20
-912.97052792989984
 30
0.0
 40
59.0
  0
LINE
  8
0
  6
DASHED2
 62
               3
  5
277
 10
-51.500000000000341
 20
-549.00676802050032
 30
0.0
 11
-51.500000000000341
 21
-469.00676802050032
 31
0.0
  0
LINE
  8
0
  6
DASHED2
 62
               3
  5
278
 10
51.499999999999538
 20
-549.00676802050032
 30
0.0
 11
51.499999999999538
 21
-469.00676802050032
 31
0.0
  0
LINE
  8
0
  6
DASHED2
 62
               3
  5
279
 10
-551.50000000000023
 20
-549.00676802050032
 30
0.0
 11
-551.50000000000023
 21
-469.00676802050032
 31
0.0
  0
LINE
  8
0
  6
DASHED2
 62
               3
  5
27A
 10
-448.50000000000034
 20
-549.00676802050032
 30
0.0
 11
-448.50000000000034
 21
-469.00676802050032
 31
0.0
  0
LINE
  8
0
  6
DASHED2
 62
               3
  5
27B
 10
448.49999999999966
 20
-549.00676802050032
 30
0.0
 11
448.49999999999966
 21
-469.00676802050032
 31
0.0
  0
LINE
  8
0
  6
DASHED2
 62
               3
  5
27C
 10
551.49999999999955
 20
-549.00676802050032
 30
0.0
 11
551.49999999999955
 21
-469.00676802050032
 31
0.0
  0
LINE
  8
0
  6
CONTINUOUS
 62
               4
  5
27D
 10
76.999999999999773
 20
39.528885732352478
 30
0.0
 11
71.999999999999773
 21
44.528885732352478
 31
0.0
  0
LINE
  8
0
  6
CONTINUOUS
 62
               4
  5
27E
 10
76.999999999999773
 20
-94.159791617617202
 30
0.0
 11
76.999999999999773
 21
-288.12033625075537
 31
0.0
  0
LINE
  8
0
  6
CONTINUOUS
 62
               4
  5
27F
 10
76.999999999999773
 20
-288.12033625075537
 30
0.0
 11
60.271775600348739
 21
-434.73499242015157
 31
0.0
  0
LINE
  8
0
  6
CONTINUOUS
 62
               4
  5
280
 10
57.999999999999993
 20
-437.00676802050009
 30
0.0
 11
60.271775600348739
 21
-434.73499242015157
 31
0.0
  0
ARC
  8
0
  6
CONTINUOUS
 62
               4
  5
281
 10
54.499999999999766
 20
28.993231979499683
 30
0.0
 40
19.999999999999996
 50
0.0
 51
31.788330617039584
  0
LINE
  8
0
  6
CONTINUOUS
 62
               4
  5
282
 10
71.500000000000227
 20
39.528885732352478
 30
0.0
 11
71.500000000000227
 21
44.528885732353046
 31
0.0
  0
LINE
  8
0
  6
CONTINUOUS
 62
               4
  5
283
 10
71.999999999999773
 20
44.528885732352478
 30
0.0
 11
71.500000000000227
 21
44.528885732352478
 31
0.0
  0
LINE
  8
0
  6
CONTINUOUS
 62
               4
  5
284
 10
76.75
 20
39.278885732352478
 30
0.0
 11
71.500000000000227
 21
44.528885732352478
 31
0.0
  0
LINE
  8
0
  6
CONTINUOUS
 62
               4
  5
285
 10
76.75
 20
39.278885732352478
 30
0.0
 11
76.999999999999773
 21
39.528885732352478
 31
0.0
  0
LINE
  8
0
  6
CONTINUOUS
 62
               4
  5
286
 10
74.499999999999773
 20
-95.159791617617429
 30
0.0
 11
74.499999999999773
 21
-287.97837596293584
 31
0.0
  0
LINE
  8
0
  6
CONTINUOUS
 62
               4
  5
287
 10
76.75
 20
-94.445148724753267
 30
0.0
 11
76.75
 21
-288.10614022197342
 31
0.0
  0
LINE
  8
0
  6
CONTINUOUS
 62
               4
  5
288
 10
74.499999999999773
 20
-287.97837596293584
 30
0.0
 11
57.496765133650335
 21
-437.00676802050066
 31
0.0
  0
LINE
  8
0
  6
CONTINUOUS
 62
               4
  5
289
 10
74.49676513364966
 20
-288.0067680205002
 30
0.0
 11
76.999999999999773
 21
-288.12033625075537
 31
0.0
  0
LINE
  8
0
  6
CONTINUOUS
 62
               4
  5
28A
 10
76.75
 20
-288.10614022197342
 30
0.0
 11
59.994274553678672
 21
-434.96216998018645
 31
0.0
  0
LINE
  8
0
  6
CONTINUOUS
 62
               4
  5
28B
 10
57.496765133650335
 20
-437.00676802050066
 30
0.0
 11
60.271775600348739
 21
-434.73499242015157
 31
0.0
  0
LINE
  8
0
  6
CONTINUOUS
 62
               4
  5
28C
 10
76.999999999999773
 20
39.528885732352478
 30
0.0
 11
76.999999999999773
 21
-91.159791617617316
 31
0.0
  0
LINE
  8
0
  6
CONTINUOUS
 62
               4
  5
28D
 10
76.75
 20
39.278885732352478
 30
0.0
 11
76.75
 21
-90.874434510481819
 31
0.0
  0
LINE
  8
0
  6
CONTINUOUS
 62
               4
  5
28E
 10
74.499999999999773
 20
28.993231979499683
 30
0.0
 11
74.499999999999773
 21
-90.006768020500317
 31
0.0
  0
LINE
  8
0
  6
CONTINUOUS
 62
               4
  5
28F
 10
58.141132586505812
 20
-341.7912770767
 30
0.0
 11
-65.512000000000626
 21
-238.03397912944718
 31
0.0
  0
ARC
  8
0
  6
CONTINUOUS
 62
               4
  5
290
 10
-914.27232010053967
 20
-1382.5923962563957
 30
0.0
 40
1424.9238755783815
 50
50.189956146247241
 51
53.440796050711342
  0
ARC
  8
0
  6
CONTINUOUS
 62
               4
  5
291
 10
63.579388837032859
 20
-217.23410910565406
 30
0.0
 40
130.75634311527989
 50
189.15312334023136
 51
212.76918311267124
  0
ARC
  8
0
  6
CONTINUOUS
 62
               4
  5
292
 10
61.364025499550955
 20
-207.10008835441374
 30
0.0
 40
134.72974192119386
 50
216.90649751125426
 51
268.62928723400398
  0
ARC
  8
0
  6
CONTINUOUS
 62
               4
  5
293
 10
-733.63034809850842
 20
-1166.2534389315092
 30
0.0
 40
1143.0835201141012
 50
46.15873265340776
 51
50.202696616637041
  0
LINE
  8
0
  6
CONTINUOUS
 62
               4
  5
294
 10
-57.000000000000114
 20
-449.00676802050032
 30
0.0
 11
56.999999999999886
 21
-449.00676802050032
 31
0.0
  0
LINE
  8
0
  6
CONTINUOUS
 62
               4
  5
295
 10
-57.999999999999659
 20
-448.00676802050077
 30
0.0
 11
58.000000000000277
 21
-448.00676802050032
 31
0.0
  0
ARC
  8
0
  6
CONTINUOUS
 62
               4
  5
296
 10
474.21603418803375
 20
28.993231979499711
 30
0.0
 40
17.566965811965957
 50
0.0
 51
36.851448659216814
  0
LINE
  8
0
  6
CONTINUOUS
 62
               4
  5
297
 10
511.72700000000009
 20
44.528885732352506
 30
0.0
 11
488.27299999999968
 21
44.528885732352506
 31
0.0
  0
ARC
  8
0
  6
CONTINUOUS
 62
               4
  5
298
 10
525.78396581196546
 20
28.993231979499711
 30
0.0
 40
17.566965811965957
 50
143.14855134071399
 51
179.99999999993094
  0
LINE
  8
0
  6
CONTINUOUS
 62
               4
  5
299
 10
488.27299999999968
 20
39.528885732352506
 30
0.0
 11
488.27299999999968
 21
44.528885732352506
 31
0.0
  0
LINE
  8
0
  6
CONTINUOUS
 62
               4
  5
29A
 10
511.72700000000009
 20
39.528885732352506
 30
0.0
 11
511.72700000000009
 21
44.528885732352506
 31
0.0
  0
LINE
  8
0
  6
CONTINUOUS
 62
               4
  5
29B
 10
488.27299999999968
 20
44.528885732352506
 30
0.0
 11
493.99999999999966
 21
39.528885732352506
 31
0.0
  0
LINE
  8
0
  6
CONTINUOUS
 62
               4
  5
29C
 10
505.99999999999955
 20
39.528885732352506
 30
0.0
 11
511.72700000000009
 21
44.528885732352506
 31
0.0
  0
LINE
  8
0
  6
CONTINUOUS
 62
               4
  5
29D
 10
493.99999999999966
 20
39.528885732352506
 30
0.0
 11
505.99999999999955
 21
39.528885732352506
 31
0.0
  0
LINE
  8
0
  6
CONTINUOUS
 62
               4
  5
29E
 10
505.99999999999898
 20
-91.006768020500175
 30
0.0
 11
493.99999999999909
 21
-91.006768020500175
 31
0.0
  0
ARC
  8
0
  6
CONTINUOUS
 62
               4
  5
29F
 10
491.93835546658408
 20
-92.420847868966888
 30
0.0
 40
2.4999999999999996
 50
34.446185822130857
 51
93.562780573759241
  0
ARC
  8
0
  6
CONTINUOUS
 62
               4
  5
2A0
 10
508.06164453341455
 20
-92.420847868966888
 30
0.0
 40
2.4999999999999996
 50
86.437219426171183
 51
145.55381417779964
  0
LINE
  8
0
  6
CONTINUOUS
 62
               4
  5
2A1
 10
505.99999999999898
 20
-94.006768020500061
 30
0.0
 11
493.99999999999909
 21
-94.006768020500061
 31
0.0
  0
ARC
  8
0
  6
CONTINUOUS
 62
               4
  5
2A2
 10
491.93835546658408
 20
-92.592688172033689
 30
0.0
 40
2.4999999999999996
 50
266.43721942610159
 51
325.55381417773037
  0
ARC
  8
0
  6
CONTINUOUS
 62
               4
  5
2A3
 10
508.06164453341455
 20
-92.592688172033689
 30
0.0
 40
2.4999999999999996
 50
214.44618582206235
 51
273.56278057368968
  0
LINE
  8
0
  6
CONTINUOUS
 62
               4
  5
2A4
 10
491.78299999999911
 20
-95.006768020500289
 30
0.0
 11
491.78299999999967
 21
-437.00676802050054
 31
0.0
  0
LINE
  8
0
  6
CONTINUOUS
 62
               4
  5
2A5
 10
508.21699999999896
 20
-95.092688172033689
 30
0.0
 11
508.21699999999953
 21
-437.00676802050054
 31
0.0
  0
LINE
  8
0
  6
CONTINUOUS
 62
               4
  5
2A6
 10
493.99999999999909
 20
-94.006768020500061
 30
0.0
 11
493.99999999999966
 21
-434.73499242015157
 31
0.0
  0
LINE
  8
0
  6
CONTINUOUS
 62
               4
  5
2A7
 10
505.99999999999955
 20
-434.73499242015157
 30
0.0
 11
505.99999999999898
 21
-94.006768020500061
 31
0.0
  0
LINE
  8
0
  6
CONTINUOUS
 62
               4
  5
2A8
 10
508.21699999999953
 20
-288.0067680205002
 30
0.0
 11
491.78299999999967
 21
-288.0067680205002
 31
0.0
  0
LINE
  8
0
  6
CONTINUOUS
 62
               4
  5
2A9
 10
493.99999999999966
 20
-434.73499242015157
 30
0.0
 11
505.99999999999955
 21
-434.73499242015157
 31
0.0
  0
LINE
  8
0
  6
CONTINUOUS
 62
               4
  5
2AA
 10
491.78299999999967
 20
-437.00676802050054
 30
0.0
 11
493.99999999999966
 21
-434.73499242015157
 31
0.0
  0
LINE
  8
0
  6
CONTINUOUS
 62
               4
  5
2AB
 10
505.99999999999955
 20
-434.73499242015157
 30
0.0
 11
508.21699999999953
 21
-437.00676802050054
 31
0.0
  0
LINE
  8
0
  6
CONTINUOUS
 62
               4
  5
2AC
 10
491.78299999999967
 20
28.993231979499711
 30
0.0
 11
491.78299999999911
 21
-90.006768020500289
 31
0.0
  0
LINE
  8
0
  6
CONTINUOUS
 62
               4
  5
2AD
 10
508.21699999999953
 20
28.993231979499711
 30
0.0
 11
508.21699999999896
 21
-90.006768020500289
 31
0.0
  0
LINE
  8
0
  6
CONTINUOUS
 62
               4
  5
2AE
 10
505.99999999999898
 20
-91.006768020500175
 30
0.0
 11
505.99999999999955
 21
39.528885732352506
 31
0.0
  0
LINE
  8
0
  6
CONTINUOUS
 62
               4
  5
2AF
 10
493.99999999999966
 20
39.528885732352506
 30
0.0
 11
493.99999999999909
 21
-91.006768020500175
 31
0.0
  0
ARC
  8
0
  6
CONTINUOUS
 62
               4
  5
2B0
 10
485.02192705347215
 20
-292.30401767408182
 30
0.0
 40
59.149634972654262
 50
186.49999999992821
 51
236.78754046659694
  0
ARC
  8
0
  6
CONTINUOUS
 62
               4
  5
2B1
 10
505.92691953069379
 20
-280.45500057533013
 30
0.0
 40
81.261593956721953
 50
186.49999999992824
 51
229.00792456445407
  0
ARC
  8
0
  6
CONTINUOUS
 62
               4
  5
2B2
 10
360.68129117650466
 20
-364.79251940002484
 30
0.0
 40
204.24864340422488
 50
353.49999999986409
 51
373.43680216733406
  0
ARC
  8
0
  6
CONTINUOUS
 62
               4
  5
2B3
 10
398.37230094456572
 20
-362.50810233061713
 30
0.0
 40
167.18634723772169
 50
351.25933879879983
 51
375.67746336839878
  0
ARC
  8
0
  6
CONTINUOUS
 62
               4
  5
2B4
 10
-778.92922884912491
 20
-409.6791664319627
 30
0.0
 40
359.11818398045398
 50
13.30617767572512
 51
28.552443501607524
  0
ARC
  8
0
  6
CONTINUOUS
 62
               4
  5
2B5
 10
-500.33118646999412
 20
-301.43249052939348
 30
0.0
 40
73.327111796148202
 50
342.6294564211762
 51
419.83689160545839
  0
LINE
  8
0
  6
CONTINUOUS
 62
               4
  5
2B6
 10
-557.0
 20
-449.00676802050032
 30
0.0
 11
-443.0
 21
-449.00676802050032
 31
0.0
  0
LINE
  8
0
  6
CONTINUOUS
 62
               4
  5
2B7
 10
-557.99999999999955
 20
-448.00676802050077
 30
0.0
 11
-441.9999999999996
 21
-448.00676802050032
 31
0.0
  0
LINE
  8
0
  6
CONTINUOUS
 62
               4
  5
2B8
 10
442.99999999999989
 20
-449.00676802050032
 30
0.0
 11
556.99999999999989
 21
-449.00676802050032
 31
0.0
  0
LINE
  8
0
  6
CONTINUOUS
 62
               4
  5
2B9
 10
442.00000000000034
 20
-448.00676802050077
 30
0.0
 11
558.00000000000034
 21
-448.00676802050032
 31
0.0
  0
POINT
  8
0
  6
CONTINUOUS
 62
               4
  5
2BA
 10
-247.0377690504688
 20
-926.15496350169064
 30
0.0
  0
POINT
  8
0
  6
CONTINUOUS
 62
               4
  5
2BB
 10
-537.23776905046861
 20
-926.15496350169064
 30
0.0
  0
POINT
  8
0
  6
CONTINUOUS
 62
               4
  5
2BC
 10
-349.58372644623535
 20
-818.08707943265586
 30
0.0
  0
POINT
  8
0
  6
CONTINUOUS
 62
               4
  5
2BD
 10
242.8339236858809
 20
-926.15496350169064
 30
0.0
  0
POINT
  8
0
  6
CONTINUOUS
 62
               4
  5
2BE
 10
-1.0781087646049627
 20
-926.15496350169064
 30
0.0
  0
POINT
  8
0
  6
CONTINUOUS
 62
               4
  5
2BF
 10
165.37790746063808
 20
-838.19894727644805
 30
0.0
  0
LINE
  8
0
  6
CONTINUOUS
 62
               4
  5
2C0
 10
686.28652321630761
 20
-1317.9343079256312
 30
0.0
 11
681.28652321630761
 21
-1312.9343079256312
 31
0.0
  0
ARC
  8
0
  6
CONTINUOUS
 62
               4
  5
2C1
 10
663.78652321630761
 20
-1328.469961678484
 30
0.0
 40
19.999999999999996
 50
0.0
 51
31.78833061703342
  0
LINE
  8
0
  6
CONTINUOUS
 62
               4
  5
2C2
 10
680.78652321630807
 20
-1317.9343079256312
 30
0.0
 11
680.78652321630807
 21
-1312.9343079256307
 31
0.0
  0
LINE
  8
0
  6
CONTINUOUS
 62
               4
  5
2C3
 10
681.28652321630761
 20
-1312.9343079256312
 30
0.0
 11
680.78652321630807
 21
-1312.9343079256312
 31
0.0
  0
LINE
  8
0
  6
CONTINUOUS
 62
               4
  5
2C4
 10
686.03652321630784
 20
-1318.1843079256312
 30
0.0
 11
680.78652321630807
 21
-1312.9343079256312
 31
0.0
  0
LINE
  8
0
  6
CONTINUOUS
 62
               4
  5
2C5
 10
686.03652321630784
 20
-1318.1843079256312
 30
0.0
 11
686.28652321630761
 21
-1317.9343079256312
 31
0.0
  0
LINE
  8
0
  6
CONTINUOUS
 62
               4
  5
2C6
 10
686.28652321630761
 20
-1317.9343079256312
 30
0.0
 11
686.28652321630761
 21
-1448.6229852756012
 31
0.0
  0
LINE
  8
0
  6
CONTINUOUS
 62
               4
  5
2C7
 10
686.03652321630784
 20
-1318.1843079256312
 30
0.0
 11
686.03652321630784
 21
-1448.3376281684657
 31
0.0
  0
LINE
  8
0
  6
CONTINUOUS
 62
               4
  5
2C8
 10
683.78652321630761
 20
-1328.3169380813667
 30
0.0
 11
683.78652321630761
 21
-1447.469961678484
 31
0.0
  0
POINT
  8
0
  6
CONTINUOUS
 62
               4
  5
2C9
 10
653.78652321630784
 20
-1057.3705279298999
 30
0.0
  0
POINT
  8
0
  6
CONTINUOUS
 62
               4
  5
2CA
 10
464.88652321630775
 20
-1342.969961678484
 30
0.0
  0
POINT
  8
0
  6
CONTINUOUS
 62
               4
  5
2CB
 10
464.88652321630786
 20
-957.47052792989939
 30
0.0
  0
LINE
  8
0
  6
DASHED2
 62
               4
  5
2CC
 10
-57.0
 20
70.993231979499683
 30
0.0
 11
56.999999999999766
 21
70.993231979499683
 31
0.0
  0
LINE
  8
0
  6
DASHED2
 62
               4
  5
2CD
 10
443.0
 20
70.993231979499683
 30
0.0
 11
556.99999999999977
 21
70.993231979499683
 31
0.0
  0
LINE
  8
0
  6
DASHED2
 62
               4
  5
2CE
 10
-557.00000000000045
 20
70.993231979499683
 30
0.0
 11
-443.00000000000074
 21
70.993231979499683
 31
0.0
  0
LINE
  8
0
  6
DASHED2
 62
               4
  5
2CF
 10
552.28652321630784
 20
-1286.469961678484
 30
0.0
 11
666.28652321630761
 21
-1286.469961678484
 31
0.0
  0
LINE
  8
0
  6
DASHDOT
 62
               4
  5
2D0
 10
-162.0
 20
-30.006768020500317
 30
0.0
 11
-61.999999999999986
 21
-30.006768020500317
 31
0.0
  0
LINE
  8
0
  6
DASHDOT
 62
               4
  5
2D1
 10
-0.0000000000001137
 20
165.50676802050032
 30
0.0
 11
-0.0000000000001137
 21
-569.00676802050032
 31
0.0
  0
LINE
  8
0
  6
DASHDOT
 62
               4
  5
2D2
 10
499.99999999999989
 20
155.99323197949968
 30
0.0
 11
499.99999999999989
 21
-569.00676802050032
 31
0.0
  0
LINE
  8
0
  6
DASHDOT
 62
               4
  5
2D3
 10
-431.4747752247759
 20
-30.00676802050026
 30
0.0
 11
-568.17557442557518
 21
-30.00676802050026
 31
0.0
  0
LINE
  8
0
  6
DASHDOT
 62
               4
  5
2D4
 10
-500.0
 20
159.88807795106356
 30
0.0
 11
-500.0
 21
-569.00676802050032
 31
0.0
  0
LINE
  8
0
  6
DASHDOT
 62
               4
  5
2D5
 10
-0.0000000000001137
 20
569.00676802050032
 30
0.0
 11
-0.0000000000001919
 21
362.38797949079071
 31
0.0
  0
LINE
  8
0
  6
DASHDOT
 62
               4
  5
2D6
 10
-162.0
 20
460.50676802050032
 30
0.0
 11
108.50000000000011
 21
460.50676802050032
 31
0.0
  0
LINE
  8
0
  6
DASHDOT
 62
               4
  5
2D7
 10
-392.13776905046882
 20
-1035.1549635016906
 30
0.0
 11
-392.13776905046871
 21
-906.15496350169087
 31
0.0
  0
LINE
  8
0
  6
DASHDOT
 62
               4
  5
2D8
 10
-450.13776905046876
 20
-977.15496350169064
 30
0.0
 11
-334.13776905046882
 21
-977.15496350169064
 31
0.0
  0
LINE
  8
0
  6
DASHDOT
 62
               4
  5
2D9
 10
-461.94094753457631
 20
-970.65496350169064
 30
0.0
 11
-327.63776905046882
 21
-970.65496350169064
 31
0.0
  0
LINE
  8
0
  6
DASHDOT
 62
               4
  5
2DA
 10
-268.23776905046873
 20
-970.65496350169064
 30
0.0
 11
-169.63776905046882
 21
-970.65496350169064
 31
0.0
  0
LINE
  8
0
  6
DASHDOT
 62
               4
  5
2DB
 10
-302.63776905046882
 20
-977.15496350169064
 30
0.0
 11
-228.23776905046884
 21
-977.15496350169064
 31
0.0
  0
LINE
  8
0
  6
DASHDOT
 62
               4
  5
2DC
 10
-516.03776905046857
 20
-970.65496350169064
 30
0.0
 11
-614.63776905046871
 21
-970.65496350169019
 31
0.0
  0
LINE
  8
0
  6
DASHDOT
 62
               4
  5
2DD
 10
-481.63776905046876
 20
-977.15496350169064
 30
0.0
 11
-556.03776905046857
 21
-977.15496350169064
 31
0.0
  0
LINE
  8
0
  6
DASHDOT
 62
               4
  5
2DE
 10
-394.08372644623535
 20
-873.68707943265576
 30
0.0
 11
-394.08372644623535
 21
-740.68707943265576
 31
0.0
  0
LINE
  8
0
  6
DASHDOT
 62
               4
  5
2DF
 10
221.63392368588086
 20
-970.65496350169064
 30
0.0
 11
320.233923685881
 21
-970.65496350169064
 31
0.0
  0
LINE
  8
0
  6
DASHDOT
 62
               4
  5
2E0
 10
196.63392368588086
 20
-985.15496350169064
 30
0.0
 11
261.63392368588086
 21
-985.15496350169064
 31
0.0
  0
LINE
  8
0
  6
DASHDOT
 62
               4
  5
2E1
 10
70.877907460637857
 20
-985.15496350169064
 30
0.0
 11
170.87790746063808
 21
-985.15496350169064
 31
0.0
  0
LINE
  8
0
  6
DASHDOT
 62
               4
  5
2E2
 10
120.87790746063786
 20
-1035.1549635016906
 30
0.0
 11
120.87790746063808
 21
-906.15496350169087
 31
0.0
  0
LINE
  8
0
  6
DASHDOT
 62
               4
  5
2E3
 10
56.377907460637857
 20
-970.65496350169064
 30
0.0
 11
190.9219172405891
 21
-970.65496350169064
 31
0.0
  0
LINE
  8
0
  6
DASHDOT
 62
               4
  5
2E4
 10
20.121891235395083
 20
-970.65496350169064
 30
0.0
 11
-78.47810876460494
 21
-970.65496350169064
 31
0.0
  0
LINE
  8
0
  6
DASHDOT
 62
               4
  5
2E5
 10
45.121891235395083
 20
-985.15496350169064
 30
0.0
 11
-19.878108764604917
 21
-985.15496350169064
 31
0.0
  0
LINE
  8
0
  6
DASHDOT
 62
               4
  5
2E6
 10
120.87790746063808
 20
-884.3989472764481
 30
0.0
 11
120.87790746063808
 21
-760.79894727644796
 31
0.0
  0
LINE
  8
0
  6
DASHDOT
 62
               4
  5
2E7
 10
609.28652321630784
 20
-804.47052792989984
 30
0.0
 11
609.28652321630784
 21
-1075.0173147297262
 31
0.0
  0
LINE
  8
0
  6
DASHDOT
 62
               4
  5
2E8
 10
447.28652321630784
 20
-912.97052792989984
 30
0.0
 11
717.78652321630807
 21
-912.97052792989984
 31
0.0
  0
LINE
  8
0
  6
DASHDOT
 62
               4
  5
2E9
 10
677.81174799153246
 20
-1387.469961678484
 30
0.0
 11
447.5579099228795
 21
-1387.469961678484
 31
0.0
  0
LINE
  8
0
  6
DASHDOT
 62
               4
  5
2EA
 10
609.28652321630784
 20
-1201.469961678484
 30
0.0
 11
609.28652321630784
 21
-1452.469961678484
 31
0.0
  0
LINE
  8
0
  6
DASHDOT
 62
               4
  5
2EB
 10
559.28652321630784
 20
-1401.969961678484
 30
0.0
 11
659.28652321630807
 21
-1401.969961678484
 31
0.0
  0
LINE
  8
0
  6
DASHDOT
 62
               4
  5
2EC
 10
609.28652321630784
 20
-1103.5705279298998
 30
0.0
 11
609.28652321630784
 21
-979.97052792989939
 31
0.0
  0
LINE
  8
0
  6
DASHDOT
 62
               4
  5
2ED
 10
409.28652321630773
 20
-1393.969961678484
 30
0.0
 11
483.68652321630771
 21
-1393.969961678484
 31
0.0
  0
LINE
  8
0
  6
DASHDOT
 62
               4
  5
2EE
 10
409.28652321630796
 20
-912.97052792989962
 30
0.0
 11
542.28652321630807
 21
-912.97052792989962
 31
0.0
  0
POINT
  8
0
  6
DASHDOT
 62
               5
  5
2EF
 10
-0.0000000000001137
 20
-249.00676802050032
 30
0.0
  0
POINT
  8
0
  6
CONTINUOUS
 62
               5
  5
2F0
 10
-392.13776905046882
 20
-970.65496350169064
 30
0.0
  0
POINT
  8
0
  6
CONTINUOUS
 62
               5
  5
2F1
 10
-218.90769754050848
 20
-971.94575757657981
 30
0.0
  0
POINT
  8
0
  6
CONTINUOUS
 62
               5
  5
2F2
 10
-565.36784056042893
 20
-971.94575757657935
 30
0.0
  0
POINT
  8
0
  6
CONTINUOUS
 62
               5
  5
2F3
 10
-395.3745205211244
 20
-789.95700792269554
 30
0.0
  0
POINT
  8
0
  6
CONTINUOUS
 62
               5
  5
2F4
 10
493.01659472626807
 20
-1388.7607557533731
 30
0.0
  0
POINT
  8
0
  6
CONTINUOUS
 62
               5
  5
2F5
 10
493.01659472626818
 20
-911.67973385501068
 30
0.0
  0
CIRCLE
  8
0
  6
CONTINUOUS
 62
               7
  5
2F6
 10
-392.13776905046882
 20
-977.15496350169064
 30
0.0
 40
38.0
  0
CIRCLE
  8
0
  6
CONTINUOUS
 62
               7
  5
2F7
 10
-392.13776905046882
 20
-977.15496350169064
 30
0.0
 40
33.5
  0
LINE
  8
0
  6
CONTINUOUS
 62
               7
  5
2F8
 10
-247.63776905046882
 20
-926.15496350169064
 30
0.0
 11
-247.63776905046882
 21
-1015.1497273810162
 31
0.0
  0
LINE
  8
0
  6
CONTINUOUS
 62
               7
  5
2F9
 10
-247.0377690504688
 20
-926.15496350169064
 30
0.0
 11
-247.63776905046882
 21
-926.15496350169064
 31
0.0
  0
LINE
  8
0
  6
CONTINUOUS
 62
               7
  5
2FA
 10
-282.63776905046882
 20
-1014.1549635016906
 30
0.0
 11
-282.63776905046882
 21
-940.15496350169064
 31
0.0
  0
LINE
  8
0
  6
CONTINUOUS
 62
               7
  5
2FB
 10
-189.63776905046882
 20
-1014.1549635016906
 30
0.0
 11
-189.63776905046882
 21
-927.15496350169064
 31
0.0
  0
LINE
  8
0
  6
CONTINUOUS
 62
               7
  5
2FC
 10
-247.63776905046882
 20
-926.15496350169064
 30
0.0
 11
-190.63776905046882
 21
-926.15496350169064
 31
0.0
  0
LINE
  8
0
  6
CONTINUOUS
 62
               7
  5
2FD
 10
-281.63776905046882
 20
-1015.1549635016906
 30
0.0
 11
-190.63776905046882
 21
-1015.1549635016906
 31
0.0
  0
LINE
  8
0
  6
CONTINUOUS
 62
               7
  5
2FE
 10
-190.63776905046882
 20
-926.15496350169064
 30
0.0
 11
-189.63776905046882
 21
-927.15496350169064
 31
0.0
  0
LINE
  8
0
  6
CONTINUOUS
 62
               7
  5
2FF
 10
-189.63776905046882
 20
-1014.1549635016906
 30
0.0
 11
-190.63776905046882
 21
-1015.1549635016906
 31
0.0
  0
LINE
  8
0
  6
CONTINUOUS
 62
               7
  5
300
 10
-281.63776905046882
 20
-939.15496350169064
 30
0.0
 11
-247.63776905046882
 21
-939.15496350169064
 31
0.0
  0
CIRCLE
  8
0
  6
CONTINUOUS
 62
               7
  5
301
 10
-392.13776905046882
 20
-970.65496350169064
 30
0.0
 40
44.5
  0
LINE
  8
0
  6
CONTINUOUS
 62
               7
  5
302
 10
-281.63776905046882
 20
-939.15496350169064
 30
0.0
 11
-282.63776905046882
 21
-940.15496350169064
 31
0.0
  0
LINE
  8
0
  6
CONTINUOUS
 62
               7
  5
303
 10
-282.63776905046882
 20
-1014.1549635016906
 30
0.0
 11
-281.63776905046882
 21
-1015.1549635016906
 31
0.0
  0
LINE
  8
0
  6
CONTINUOUS
 62
               7
  5
304
 10
-536.63776905046871
 20
-926.15496350169064
 30
0.0
 11
-536.63776905046871
 21
-1015.1497273810162
 31
0.0
  0
LINE
  8
0
  6
CONTINUOUS
 62
               7
  5
305
 10
-537.23776905046861
 20
-926.15496350169064
 30
0.0
 11
-536.63776905046871
 21
-926.15496350169064
 31
0.0
  0
LINE
  8
0
  6
CONTINUOUS
 62
               7
  5
306
 10
-501.63776905046876
 20
-1014.1549635016906
 30
0.0
 11
-501.63776905046876
 21
-940.15496350169064
 31
0.0
  0
LINE
  8
0
  6
CONTINUOUS
 62
               7
  5
307
 10
-594.63776905046871
 20
-1014.1549635016906
 30
0.0
 11
-594.63776905046871
 21
-927.15496350169064
 31
0.0
  0
LINE
  8
0
  6
CONTINUOUS
 62
               7
  5
308
 10
-536.63776905046871
 20
-926.15496350169064
 30
0.0
 11
-593.63776905046871
 21
-926.15496350169064
 31
0.0
  0
LINE
  8
0
  6
CONTINUOUS
 62
               7
  5
309
 10
-502.63776905046876
 20
-1015.1549635016906
 30
0.0
 11
-593.63776905046871
 21
-1015.1549635016906
 31
0.0
  0
LINE
  8
0
  6
CONTINUOUS
 62
               7
  5
30A
 10
-593.63776905046871
 20
-926.15496350169064
 30
0.0
 11
-594.63776905046871
 21
-927.15496350169064
 31
0.0
  0
LINE
  8
0
  6
CONTINUOUS
 62
               7
  5
30B
 10
-594.63776905046871
 20
-1014.1549635016906
 30
0.0
 11
-593.63776905046871
 21
-1015.1549635016906
 31
0.0
  0
LINE
  8
0
  6
CONTINUOUS
 62
               7
  5
30C
 10
-502.63776905046876
 20
-939.15496350169064
 30
0.0
 11
-536.63776905046871
 21
-939.15496350169064
 31
0.0
  0
LINE
  8
0
  6
CONTINUOUS
 62
               7
  5
30D
 10
-502.63776905046876
 20
-939.15496350169064
 30
0.0
 11
-501.63776905046876
 21
-940.15496350169064
 31
0.0
  0
LINE
  8
0
  6
CONTINUOUS
 62
               7
  5
30E
 10
-501.63776905046876
 20
-1014.1549635016906
 30
0.0
 11
-502.63776905046876
 21
-1015.1549635016906
 31
0.0
  0
LINE
  8
0
  6
CONTINUOUS
 62
               7
  5
30F
 10
-349.58372644623535
 20
-818.68707943265599
 30
0.0
 11
-438.57849032556084
 21
-818.68707943265576
 31
0.0
  0
LINE
  8
0
  6
CONTINUOUS
 62
               7
  5
310
 10
-349.58372644623535
 20
-818.08707943265586
 30
0.0
 11
-349.58372644623535
 21
-818.68707943265599
 31
0.0
  0
LINE
  8
0
  6
CONTINUOUS
 62
               7
  5
311
 10
-431.08372644623529
 20
-853.68707943265576
 30
0.0
 11
-357.08372644623535
 21
-853.68707943265599
 31
0.0
  0
LINE
  8
0
  6
CONTINUOUS
 62
               7
  5
312
 10
-437.58372644623529
 20
-760.68707943265576
 30
0.0
 11
-350.58372644623535
 21
-760.68707943265599
 31
0.0
  0
LINE
  8
0
  6
CONTINUOUS
 62
               7
  5
313
 10
-349.58372644623535
 20
-818.68707943265599
 30
0.0
 11
-349.58372644623535
 21
-761.68707943265599
 31
0.0
  0
LINE
  8
0
  6
CONTINUOUS
 62
               7
  5
314
 10
-432.08372644623529
 20
-852.68707943265576
 30
0.0
 11
-432.08372644623529
 21
-818.68707943265576
 31
0.0
  0
LINE
  8
0
  6
CONTINUOUS
 62
               7
  5
315
 10
-349.58372644623535
 20
-761.68707943265599
 30
0.0
 11
-350.58372644623535
 21
-760.68707943265599
 31
0.0
  0
LINE
  8
0
  6
CONTINUOUS
 62
               7
  5
316
 10
-437.58372644623529
 20
-760.68707943265576
 30
0.0
 11
-438.58372644623529
 21
-761.68707943265576
 31
0.0
  0
LINE
  8
0
  6
CONTINUOUS
 62
               7
  5
317
 10
-356.08372644623535
 20
-852.68707943265599
 30
0.0
 11
-356.08372644623535
 21
-818.68707943265576
 31
0.0
  0
LINE
  8
0
  6
CONTINUOUS
 62
               7
  5
318
 10
-356.08372644623535
 20
-852.68707943265599
 30
0.0
 11
-357.08372644623535
 21
-853.68707943265599
 31
0.0
  0
LINE
  8
0
  6
CONTINUOUS
 62
               7
  5
319
 10
-431.08372644623529
 20
-853.68707943265576
 30
0.0
 11
-432.08372644623529
 21
-852.68707943265576
 31
0.0
  0
LINE
  8
0
  6
CONTINUOUS
 62
               7
  5
31A
 10
-438.58372644623529
 20
-818.68707943265576
 30
0.0
 11
-438.58372644623529
 21
-761.68707943265576
 31
0.0
  0
LINE
  8
0
  6
CONTINUOUS
 62
               7
  5
31B
 10
216.63392368588086
 20
-1014.1549635016906
 30
0.0
 11
216.63392368588086
 21
-956.15496350169064
 31
0.0
  0
LINE
  8
0
  6
CONTINUOUS
 62
               7
  5
31C
 10
242.23392368588077
 20
-926.15496350169064
 30
0.0
 11
242.23392368588077
 21
-1015.1549635016906
 31
0.0
  0
LINE
  8
0
  6
CONTINUOUS
 62
               7
  5
31D
 10
242.8339236858809
 20
-926.15496350169064
 30
0.0
 11
242.23392368588077
 21
-926.15496350169064
 31
0.0
  0
LINE
  8
0
  6
CONTINUOUS
 62
               7
  5
31E
 10
300.233923685881
 20
-1014.1549635016906
 30
0.0
 11
300.233923685881
 21
-927.15496350169064
 31
0.0
  0
CIRCLE
  8
0
  6
CONTINUOUS
 62
               7
  5
31F
 10
120.87790746063786
 20
-985.15496350169064
 30
0.0
 40
30.0
  0
CIRCLE
  8
0
  6
CONTINUOUS
 62
               7
  5
320
 10
120.87790746063786
 20
-985.15496350169064
 30
0.0
 40
25.5
  0
CIRCLE
  8
0
  6
CONTINUOUS
 62
               7
  5
321
 10
120.87790746063786
 20
-970.65496350169064
 30
0.0
 40
44.5
  0
LINE
  8
0
  6
CONTINUOUS
 62
               7
  5
322
 10
242.36837543136119
 20
-926.15496350169064
 30
0.0
 11
299.233923685881
 21
-926.15496350169064
 31
0.0
  0
LINE
  8
0
  6
CONTINUOUS
 62
               7
  5
323
 10
217.63392368588086
 20
-1015.1549635016906
 30
0.0
 11
299.233923685881
 21
-1015.1549635016906
 31
0.0
  0
LINE
  8
0
  6
CONTINUOUS
 62
               7
  5
324
 10
217.63392368588086
 20
-955.15496350169064
 30
0.0
 11
242.23392368588077
 21
-955.15496350169064
 31
0.0
  0
LINE
  8
0
  6
CONTINUOUS
 62
               7
  5
325
 10
217.63392368588086
 20
-955.15496350169064
 30
0.0
 11
216.63392368588086
 21
-956.15496350169064
 31
0.0
  0
LINE
  8
0
  6
CONTINUOUS
 62
               7
  5
326
 10
299.233923685881
 20
-926.15496350169064
 30
0.0
 11
300.233923685881
 21
-927.15496350169064
 31
0.0
  0
LINE
  8
0
  6
CONTINUOUS
 62
               7
  5
327
 10
216.63392368588086
 20
-1014.1549635016906
 30
0.0
 11
217.63392368588086
 21
-1015.1549635016906
 31
0.0
  0
LINE
  8
0
  6
CONTINUOUS
 62
               7
  5
328
 10
300.233923685881
 20
-1014.1549635016906
 30
0.0
 11
299.233923685881
 21
-1015.1549635016906
 31
0.0
  0
LINE
  8
0
  6
CONTINUOUS
 62
               7
  5
329
 10
25.121891235395083
 20
-1014.1549635016906
 30
0.0
 11
25.121891235395083
 21
-956.15496350169064
 31
0.0
  0
LINE
  8
0
  6
CONTINUOUS
 62
               7
  5
32A
 10
-0.47810876460494
 20
-926.15496350169064
 30
0.0
 11
-0.47810876460494
 21
-1015.1549635016906
 31
0.0
  0
LINE
  8
0
  6
CONTINUOUS
 62
               7
  5
32B
 10
-1.0781087646049627
 20
-926.15496350169064
 30
0.0
 11
-0.47810876460494
 21
-926.15496350169064
 31
0.0
  0
LINE
  8
0
  6
CONTINUOUS
 62
               7
  5
32C
 10
-58.47810876460494
 20
-1014.1549635016906
 30
0.0
 11
-58.47810876460494
 21
-927.15496350169064
 31
0.0
  0
LINE
  8
0
  6
CONTINUOUS
 62
               7
  5
32D
 10
-0.6125605100852454
 20
-926.15496350169064
 30
0.0
 11
-57.47810876460494
 21
-926.15496350169064
 31
0.0
  0
LINE
  8
0
  6
CONTINUOUS
 62
               7
  5
32E
 10
24.121891235395083
 20
-1015.1549635016906
 30
0.0
 11
-57.47810876460494
 21
-1015.1549635016906
 31
0.0
  0
LINE
  8
0
  6
CONTINUOUS
 62
               7
  5
32F
 10
24.121891235395083
 20
-955.15496350169064
 30
0.0
 11
-0.47810876460494
 21
-955.15496350169064
 31
0.0
  0
LINE
  8
0
  6
CONTINUOUS
 62
               7
  5
330
 10
24.121891235395083
 20
-955.15496350169064
 30
0.0
 11
25.121891235395083
 21
-956.15496350169064
 31
0.0
  0
LINE
  8
0
  6
CONTINUOUS
 62
               7
  5
331
 10
-57.47810876460494
 20
-926.15496350169064
 30
0.0
 11
-58.47810876460494
 21
-927.15496350169064
 31
0.0
  0
LINE
  8
0
  6
CONTINUOUS
 62
               7
  5
332
 10
25.121891235395083
 20
-1014.1549635016906
 30
0.0
 11
24.121891235395083
 21
-1015.1549635016906
 31
0.0
  0
LINE
  8
0
  6
CONTINUOUS
 62
               7
  5
333
 10
-58.47810876460494
 20
-1014.1549635016906
 30
0.0
 11
-57.47810876460494
 21
-1015.1549635016906
 31
0.0
  0
LINE
  8
0
  6
CONTINUOUS
 62
               7
  5
334
 10
91.877907460638085
 20
-864.3989472764481
 30
0.0
 11
149.87790746063808
 21
-864.3989472764481
 31
0.0
  0
LINE
  8
0
  6
CONTINUOUS
 62
               7
  5
335
 10
165.37790746063808
 20
-838.79894727644796
 30
0.0
 11
76.377907460638085
 21
-838.79894727644796
 31
0.0
  0
LINE
  8
0
  6
CONTINUOUS
 62
               7
  5
336
 10
165.37790746063808
 20
-838.19894727644805
 30
0.0
 11
165.37790746063808
 21
-838.79894727644796
 31
0.0
  0
LINE
  8
0
  6
CONTINUOUS
 62
               7
  5
337
 10
77.377907460638085
 20
-780.79894727644796
 30
0.0
 11
164.37790746063808
 21
-780.79894727644796
 31
0.0
  0
LINE
  8
0
  6
CONTINUOUS
 62
               7
  5
338
 10
165.37790746063808
 20
-838.66449553096777
 30
0.0
 11
165.37790746063808
 21
-781.79894727644796
 31
0.0
  0
LINE
  8
0
  6
CONTINUOUS
 62
               7
  5
339
 10
90.877907460638085
 20
-863.3989472764481
 30
0.0
 11
90.877907460638085
 21
-838.79894727644796
 31
0.0
  0
LINE
  8
0
  6
CONTINUOUS
 62
               7
  5
33A
 10
150.87790746063808
 20
-863.3989472764481
 30
0.0
 11
150.87790746063808
 21
-838.79894727644796
 31
0.0
  0
LINE
  8
0
  6
CONTINUOUS
 62
               7
  5
33B
 10
150.87790746063808
 20
-863.3989472764481
 30
0.0
 11
149.87790746063808
 21
-864.3989472764481
 31
0.0
  0
LINE
  8
0
  6
CONTINUOUS
 62
               7
  5
33C
 10
165.37790746063808
 20
-781.79894727644796
 30
0.0
 11
164.37790746063808
 21
-780.79894727644796
 31
0.0
  0
LINE
  8
0
  6
CONTINUOUS
 62
               7
  5
33D
 10
91.877907460638085
 20
-864.3989472764481
 30
0.0
 11
90.877907460638085
 21
-863.3989472764481
 31
0.0
  0
LINE
  8
0
  6
CONTINUOUS
 62
               7
  5
33E
 10
77.377907460638085
 20
-780.79894727644796
 30
0.0
 11
76.377907460638085
 21
-781.79894727644796
 31
0.0
  0
LINE
  8
0
  6
CONTINUOUS
 62
               7
  5
33F
 10
76.377907460638085
 20
-838.66449553096754
 30
0.0
 11
76.377907460638085
 21
-781.79894727644796
 31
0.0
  0
CIRCLE
  8
0
  6
CONTINUOUS
 62
               7
  5
340
 10
609.28652321630784
 20
-1401.969961678484
 30
0.0
 40
25.5
  0
CIRCLE
  8
0
  6
CONTINUOUS
 62
               7
  5
341
 10
609.28652321630784
 20
-1387.469961678484
 30
0.0
 40
44.5
  0
CIRCLE
  8
0
  6
CONTINUOUS
 62
               7
  5
342
 10
609.28652321630784
 20
-1401.969961678484
 30
0.0
 40
30.0
  0
LINE
  8
0
  6
CONTINUOUS
 62
               7
  5
343
 10
580.28652321630784
 20
-1083.5705279298998
 30
0.0
 11
638.28652321630784
 21
-1083.5705279298998
 31
0.0
  0
LINE
  8
0
  6
CONTINUOUS
 62
               7
  5
344
 10
653.78652321630784
 20
-1057.9705279298998
 30
0.0
 11
564.78652321630784
 21
-1057.9705279298998
 31
0.0
  0
LINE
  8
0
  6
CONTINUOUS
 62
               7
  5
345
 10
653.78652321630784
 20
-1057.3705279298999
 30
0.0
 11
653.78652321630784
 21
-1057.9705279298998
 31
0.0
  0
LINE
  8
0
  6
CONTINUOUS
 62
               7
  5
346
 10
565.78652321630784
 20
-999.97052792989939
 30
0.0
 11
652.78652321630784
 21
-999.97052792989939
 31
0.0
  0
LINE
  8
0
  6
CONTINUOUS
 62
               7
  5
347
 10
653.78652321630784
 20
-1057.8360761844194
 30
0.0
 11
653.78652321630784
 21
-1000.9705279298994
 31
0.0
  0
LINE
  8
0
  6
CONTINUOUS
 62
               7
  5
348
 10
579.28652321630784
 20
-1082.5705279298998
 30
0.0
 11
579.28652321630784
 21
-1057.9705279298998
 31
0.0
  0
LINE
  8
0
  6
CONTINUOUS
 62
               7
  5
349
 10
639.28652321630784
 20
-1082.5705279298998
 30
0.0
 11
639.28652321630784
 21
-1057.9705279298998
 31
0.0
  0
LINE
  8
0
  6
CONTINUOUS
 62
               7
  5
34A
 10
639.28652321630784
 20
-1082.5705279298998
 30
0.0
 11
638.28652321630784
 21
-1083.5705279298998
 31
0.0
  0
LINE
  8
0
  6
CONTINUOUS
 62
               7
  5
34B
 10
653.78652321630784
 20
-1000.9705279298994
 30
0.0
 11
652.78652321630784
 21
-999.97052792989939
 31
0.0
  0
LINE
  8
0
  6
CONTINUOUS
 62
               7
  5
34C
 10
580.28652321630784
 20
-1083.5705279298998
 30
0.0
 11
579.28652321630784
 21
-1082.5705279298998
 31
0.0
  0
LINE
  8
0
  6
CONTINUOUS
 62
               7
  5
34D
 10
565.78652321630784
 20
-999.97052792989939
 30
0.0
 11
564.78652321630784
 21
-1000.9705279298994
 31
0.0
  0
LINE
  8
0
  6
CONTINUOUS
 62
               7
  5
34E
 10
564.78652321630784
 20
-1057.8360761844194
 30
0.0
 11
564.78652321630784
 21
-1000.9705279298994
 31
0.0
  0
LINE
  8
0
  6
CONTINUOUS
 62
               7
  5
34F
 10
464.28652321630773
 20
-1342.969961678484
 30
0.0
 11
464.28652321630773
 21
-1431.9647255578095
 31
0.0
  0
LINE
  8
0
  6
CONTINUOUS
 62
               7
  5
350
 10
464.88652321630775
 20
-1342.969961678484
 30
0.0
 11
464.28652321630773
 21
-1342.969961678484
 31
0.0
  0
LINE
  8
0
  6
CONTINUOUS
 62
               7
  5
351
 10
429.28652321630773
 20
-1430.969961678484
 30
0.0
 11
429.28652321630773
 21
-1356.969961678484
 31
0.0
  0
LINE
  8
0
  6
CONTINUOUS
 62
               7
  5
352
 10
522.28652321630784
 20
-1430.969961678484
 30
0.0
 11
522.28652321630784
 21
-1343.969961678484
 31
0.0
  0
LINE
  8
0
  6
CONTINUOUS
 62
               7
  5
353
 10
464.28652321630773
 20
-1342.969961678484
 30
0.0
 11
521.28652321630784
 21
-1342.969961678484
 31
0.0
  0
LINE
  8
0
  6
CONTINUOUS
 62
               7
  5
354
 10
430.28652321630773
 20
-1431.969961678484
 30
0.0
 11
521.28652321630784
 21
-1431.969961678484
 31
0.0
  0
LINE
  8
0
  6
CONTINUOUS
 62
               7
  5
355
 10
521.28652321630784
 20
-1342.969961678484
 30
0.0
 11
522.28652321630784
 21
-1343.969961678484
 31
0.0
  0
LINE
  8
0
  6
CONTINUOUS
 62
               7
  5
356
 10
522.28652321630784
 20
-1430.969961678484
 30
0.0
 11
521.28652321630784
 21
-1431.969961678484
 31
0.0
  0
LINE
  8
0
  6
CONTINUOUS
 62
               7
  5
357
 10
430.28652321630773
 20
-1355.969961678484
 30
0.0
 11
464.28652321630773
 21
-1355.969961678484
 31
0.0
  0
LINE
  8
0
  6
CONTINUOUS
 62
               7
  5
358
 10
430.28652321630773
 20
-1355.969961678484
 30
0.0
 11
429.28652321630773
 21
-1356.969961678484
 31
0.0
  0
LINE
  8
0
  6
CONTINUOUS
 62
               7
  5
359
 10
429.28652321630773
 20
-1430.969961678484
 30
0.0
 11
430.28652321630773
 21
-1431.969961678484
 31
0.0
  0
LINE
  8
0
  6
CONTINUOUS
 62
               7
  5
35A
 10
464.28652321630773
 20
-957.47052792989939
 30
0.0
 11
464.28652321630796
 21
-868.47576405057407
 31
0.0
  0
LINE
  8
0
  6
CONTINUOUS
 62
               7
  5
35B
 10
464.88652321630786
 20
-957.47052792989939
 30
0.0
 11
464.28652321630773
 21
-957.47052792989939
 31
0.0
  0
LINE
  8
0
  6
CONTINUOUS
 62
               7
  5
35C
 10
429.28652321630796
 20
-875.97052792989962
 30
0.0
 11
429.28652321630773
 21
-949.97052792989939
 31
0.0
  0
LINE
  8
0
  6
CONTINUOUS
 62
               7
  5
35D
 10
522.28652321630807
 20
-869.47052792989984
 30
0.0
 11
522.28652321630784
 21
-956.47052792989939
 31
0.0
  0
LINE
  8
0
  6
CONTINUOUS
 62
               7
  5
35E
 10
464.28652321630773
 20
-957.47052792989939
 30
0.0
 11
521.28652321630784
 21
-957.47052792989939
 31
0.0
  0
LINE
  8
0
  6
CONTINUOUS
 62
               7
  5
35F
 10
430.28652321630796
 20
-874.97052792989962
 30
0.0
 11
464.28652321630796
 21
-874.97052792989962
 31
0.0
  0
LINE
  8
0
  6
CONTINUOUS
 62
               7
  5
360
 10
521.28652321630784
 20
-957.47052792989939
 30
0.0
 11
522.28652321630784
 21
-956.47052792989939
 31
0.0
  0
LINE
  8
0
  6
CONTINUOUS
 62
               7
  5
361
 10
522.28652321630807
 20
-869.47052792989984
 30
0.0
 11
521.28652321630807
 21
-868.47052792989984
 31
0.0
  0
LINE
  8
0
  6
CONTINUOUS
 62
               7
  5
362
 10
430.28652321630773
 20
-950.97052792989939
 30
0.0
 11
464.28652321630796
 21
-950.97052792989939
 31
0.0
  0
LINE
  8
0
  6
CONTINUOUS
 62
               7
  5
363
 10
430.28652321630773
 20
-950.97052792989939
 30
0.0
 11
429.28652321630773
 21
-949.97052792989939
 31
0.0
  0
LINE
  8
0
  6
CONTINUOUS
 62
               7
  5
364
 10
429.28652321630796
 20
-875.97052792989962
 30
0.0
 11
430.28652321630796
 21
-874.97052792989962
 31
0.0
  0
LINE
  8
0
  6
CONTINUOUS
 62
               7
  5
365
 10
464.28652321630796
 20
-868.47052792989962
 30
0.0
 11
521.28652321630807
 21
-868.47052792989962
 31
0.0
  0
CIRCLE
  8
0
  6
DASHED
 62
               7
  5
366
 10
-392.13776905046882
 20
-970.65496350169064
 30
0.0
 40
40.0
  0
CIRCLE
  8
0
  6
DASHED
 62
               7
  5
367
 10
120.87790746063786
 20
-970.65496350169064
 30
0.0
 40
40.0
  0
CIRCLE
  8
0
  6
DASHED
 62
               7
  5
368
 10
609.28652321630784
 20
-1387.469961678484
 30
0.0
 40
40.0
  0
TEXT
  8
0
 62
               3
  5
369
 10
-392.13776905046882
 20
-1055.1549635016906
 30
0.0
 40
40.0
  1
EMB_80×65
 41
0.8
 72
               1
 11
-392.13776905046882
 21
-1055.1549635016906
 31
0.0
 73
               3
  0
TEXT
  8
0
 62
               3
  5
36A
 10
120.87790746063786
 20
-1055.1549635016906
 30
0.0
 40
40.0
  1
EMB_80×50
 41
0.8
 72
               1
 11
120.87790746063786
 21
-1055.1549635016906
 31
0.0
 73
               3
  0
TEXT
  8
0
 62
               3
  5
36B
 10
605.58911923866754
 20
-733.52415942468042
 30
0.0
 40
40.0
  1
EMB使用例
 41
0.8
 72
               1
 11
605.58911923866754
 21
-733.52415942468042
 31
0.0
 73
               3
  0
TEXT
  8
0
 62
               3
  5
36C
 10
-123.74270409089101
 20
-679.16402352434102
 30
0.0
 40
35.0
  1
横枝管に呼び６５、５０の管を接続するときは、EMBをご使用ください。
 41
0.8
 72
               1
 11
-123.74270409089101
 21
-679.16402352434102
 31
0.0
 73
               3
  0
ENDSEC
  0
EOF
